  0
SECTION
  2
HEADER
  9
$ACADVER
  1
AC1015
  9
$ACADMAINTVER
 70
    20
  9
$DWGCODEPAGE
  3
ANSI_1252
  9
$INSBASE
 10
0.0
 20
0.0
 30
0.0
  9
$EXTMIN
 10
3.593994172748637
 20
2.302734398635493
 30
-0.0000000000112498
  9
$EXTMAX
 10
11.84472659025891
 20
7.553512592513012
 30
0.0000000000002956
  9
$LIMMIN
 10
0.0
 20
0.0
  9
$LIMMAX
 10
12.0
 20
9.0
  9
$ORTHOMODE
 70
     1
  9
$REGENMODE
 70
     1
  9
$FILLMODE
 70
     1
  9
$QTEXTMODE
 70
     0
  9
$MIRRTEXT
 70
     1
  9
$LTSCALE
 40
1.0
  9
$ATTMODE
 70
     1
  9
$TEXTSIZE
 40
0.2
  9
$TRACEWID
 40
0.05
  9
$TEXTSTYLE
  7
Standard
  9
$CLAYER
  8
VIEWPORT-1
  9
$CELTYPE
  6
ByLayer
  9
$CECOLOR
 62
   256
  9
$CELTSCALE
 40
1.0
  9
$DISPSILH
 70
     0
  9
$DIMSCALE
 40
1.0
  9
$DIMASZ
 40
0.18
  9
$DIMEXO
 40
0.0625
  9
$DIMDLI
 40
0.38
  9
$DIMRND
 40
0.0
  9
$DIMDLE
 40
0.0
  9
$DIMEXE
 40
0.18
  9
$DIMTP
 40
0.0
  9
$DIMTM
 40
0.0
  9
$DIMTXT
 40
0.18
  9
$DIMCEN
 40
0.09
  9
$DIMTSZ
 40
0.0
  9
$DIMTOL
 70
     0
  9
$DIMLIM
 70
     0
  9
$DIMTIH
 70
     1
  9
$DIMTOH
 70
     1
  9
$DIMSE1
 70
     0
  9
$DIMSE2
 70
     0
  9
$DIMTAD
 70
     0
  9
$DIMZIN
 70
     0
  9
$DIMBLK
  1

  9
$DIMASO
 70
     1
  9
$DIMSHO
 70
     1
  9
$DIMPOST
  1

  9
$DIMAPOST
  1

  9
$DIMALT
 70
     0
  9
$DIMALTD
 70
     2
  9
$DIMALTF
 40
25.4
  9
$DIMLFAC
 40
1.0
  9
$DIMTOFL
 70
     0
  9
$DIMTVP
 40
0.0
  9
$DIMTIX
 70
     0
  9
$DIMSOXD
 70
     0
  9
$DIMSAH
 70
     0
  9
$DIMBLK1
  1

  9
$DIMBLK2
  1

  9
$DIMSTYLE
  2
Standard
  9
$DIMCLRD
 70
     0
  9
$DIMCLRE
 70
     0
  9
$DIMCLRT
 70
     0
  9
$DIMTFAC
 40
1.0
  9
$DIMGAP
 40
0.09
  9
$DIMJUST
 70
     0
  9
$DIMSD1
 70
     0
  9
$DIMSD2
 70
     0
  9
$DIMTOLJ
 70
     1
  9
$DIMTZIN
 70
     0
  9
$DIMALTZ
 70
     0
  9
$DIMALTTZ
 70
     0
  9
$DIMUPT
 70
     0
  9
$DIMDEC
 70
     4
  9
$DIMTDEC
 70
     4
  9
$DIMALTU
 70
     2
  9
$DIMALTTD
 70
     2
  9
$DIMTXSTY
  7
Standard
  9
$DIMAUNIT
 70
     0
  9
$DIMADEC
 70
     0
  9
$DIMALTRND
 40
0.0
  9
$DIMAZIN
 70
     0
  9
$DIMDSEP
 70
    46
  9
$DIMATFIT
 70
     3
  9
$DIMFRAC
 70
     0
  9
$DIMLDRBLK
  1

  9
$DIMLUNIT
 70
     2
  9
$DIMLWD
 70
    -2
  9
$DIMLWE
 70
    -2
  9
$DIMTMOVE
 70
     0
  9
$LUNITS
 70
     2
  9
$LUPREC
 70
     4
  9
$SKETCHINC
 40
0.1
  9
$FILLETRAD
 40
0.5
  9
$AUNITS
 70
     0
  9
$AUPREC
 70
     0
  9
$MENU
  1
.
  9
$ELEVATION
 40
0.0
  9
$PELEVATION
 40
0.0
  9
$THICKNESS
 40
0.0
  9
$LIMCHECK
 70
     0
  9
$CHAMFERA
 40
0.5
  9
$CHAMFERB
 40
0.5
  9
$CHAMFERC
 40
1.0
  9
$CHAMFERD
 40
0.0
  9
$SKPOLY
 70
     0
  9
$TDCREATE
 40
2452994.398152547
  9
$TDUCREATE
 40
2452994.606485880
  9
$TDUPDATE
 40
2454728.648847836
  9
$TDUUPDATE
 40
2454728.857181169
  9
$TDINDWG
 40
0.0583990509
  9
$TDUSRTIMER
 40
0.0583812269
  9
$USRTIMER
 70
     1
  9
$ANGBASE
 50
0.0
  9
$ANGDIR
 70
     0
  9
$PDMODE
 70
     0
  9
$PDSIZE
 40
0.0
  9
$PLINEWID
 40
0.0
  9
$SPLFRAME
 70
     0
  9
$SPLINETYPE
 70
     6
  9
$SPLINESEGS
 70
     8
  9
$HANDSEED
  5
82E
  9
$SURFTAB1
 70
     6
  9
$SURFTAB2
 70
     6
  9
$SURFTYPE
 70
     6
  9
$SURFU
 70
     6
  9
$SURFV
 70
     6
  9
$UCSBASE
  2

  9
$UCSNAME
  2

  9
$UCSORG
 10
0.0
 20
0.0
 30
0.0
  9
$UCSXDIR
 10
1.0
 20
0.0
 30
0.0
  9
$UCSYDIR
 10
0.0
 20
1.0
 30
0.0
  9
$UCSORTHOREF
  2

  9
$UCSORTHOVIEW
 70
     0
  9
$UCSORGTOP
 10
0.0
 20
0.0
 30
0.0
  9
$UCSORGBOTTOM
 10
0.0
 20
0.0
 30
0.0
  9
$UCSORGLEFT
 10
0.0
 20
0.0
 30
0.0
  9
$UCSORGRIGHT
 10
0.0
 20
0.0
 30
0.0
  9
$UCSORGFRONT
 10
0.0
 20
0.0
 30
0.0
  9
$UCSORGBACK
 10
0.0
 20
0.0
 30
0.0
  9
$PUCSBASE
  2

  9
$PUCSNAME
  2

  9
$PUCSORG
 10
0.0
 20
0.0
 30
0.0
  9
$PUCSXDIR
 10
1.0
 20
0.0
 30
0.0
  9
$PUCSYDIR
 10
0.0
 20
1.0
 30
0.0
  9
$PUCSORTHOREF
  2

  9
$PUCSORTHOVIEW
 70
     0
  9
$PUCSORGTOP
 10
0.0
 20
0.0
 30
0.0
  9
$PUCSORGBOTTOM
 10
0.0
 20
0.0
 30
0.0
  9
$PUCSORGLEFT
 10
0.0
 20
0.0
 30
0.0
  9
$PUCSORGRIGHT
 10
0.0
 20
0.0
 30
0.0
  9
$PUCSORGFRONT
 10
0.0
 20
0.0
 30
0.0
  9
$PUCSORGBACK
 10
0.0
 20
0.0
 30
0.0
  9
$USERI1
 70
     0
  9
$USERI2
 70
     0
  9
$USERI3
 70
     0
  9
$USERI4
 70
     0
  9
$USERI5
 70
     0
  9
$USERR1
 40
0.0
  9
$USERR2
 40
0.0
  9
$USERR3
 40
0.0
  9
$USERR4
 40
0.0
  9
$USERR5
 40
0.0
  9
$WORLDVIEW
 70
     1
  9
$SHADEDGE
 70
     3
  9
$SHADEDIF
 70
    70
  9
$TILEMODE
 70
     1
  9
$MAXACTVP
 70
    64
  9
$PINSBASE
 10
0.0
 20
0.0
 30
0.0
  9
$PLIMCHECK
 70
     0
  9
$PEXTMIN
 10
0.0447694469451108
 20
0.0638006522914019
 30
-0.0000000349181948
  9
$PEXTMAX
 10
10.45466471477664
 20
7.953575464541
 30
0.0000000814935746
  9
$PLIMMIN
 10
-0.862377266523188
 20
-0.7142939069443969
  9
$PLIMMAX
 10
11.36274407405736
 20
8.732390704627221
  9
$UNITMODE
 70
     0
  9
$VISRETAIN
 70
     1
  9
$PLINEGEN
 70
     0
  9
$PSLTSCALE
 70
     1
  9
$TREEDEPTH
 70
  3020
  9
$CMLSTYLE
  2
Standard
  9
$CMLJUST
 70
     0
  9
$CMLSCALE
 40
1.0
  9
$PROXYGRAPHICS
 70
     1
  9
$MEASUREMENT
 70
     0
  9
$CELWEIGHT
370
    -1
  9
$ENDCAPS
280
     0
  9
$JOINSTYLE
280
     0
  9
$LWDISPLAY
290
     0
  9
$INSUNITS
 70
     1
  9
$HYPERLINKBASE
  1

  9
$STYLESHEET
  1
monochrome.ctb
  9
$XEDIT
290
     1
  9
$CEPSNTYPE
380
     0
  9
$PSTYLEMODE
290
     1
  9
$FINGERPRINTGUID
  2
{8AF59900-32CF-11D8-8CE1-F4C5890AA422}
  9
$VERSIONGUID
  2
{A4536BE8-E96C-464D-A590-E6DD8305F4F4}
  9
$EXTNAMES
290
     1
  9
$PSVPSCALE
 40
0.0
  9
$OLESTARTUP
290
     0
  0
ENDSEC
  0
SECTION
  2
CLASSES
  0
CLASS
  1
ACDBDICTIONARYWDFLT
  2
AcDbDictionaryWithDefault
  3
ObjectDBX Classes
 90
        0
280
     0
281
     0
  0
CLASS
  1
ACDBPLACEHOLDER
  2
AcDbPlaceHolder
  3
ObjectDBX Classes
 90
        0
280
     0
281
     0
  0
CLASS
  1
LAYOUT
  2
AcDbLayout
  3
ObjectDBX Classes
 90
        0
280
     0
281
     0
  0
CLASS
  1
MATERIAL
  2
AcDbMaterial
  3
ObjectDBX Classes
 90
        0
280
     0
281
     0
  0
CLASS
  1
VISUALSTYLE
  2
AcDbVisualStyle
  3
ObjectDBX Classes
 90
     4095
280
     0
281
     0
  0
CLASS
  1
TABLESTYLE
  2
AcDbTableStyle
  3
ObjectDBX Classes
 90
     4095
280
     0
281
     0
  0
CLASS
  1
SORTENTSTABLE
  2
AcDbSortentsTable
  3
ObjectDBX Classes
 90
        0
280
     0
281
     0
  0
CLASS
  1
DICTIONARYVAR
  2
AcDbDictionaryVar
  3
ObjectDBX Classes
 90
        0
280
     0
281
     0
  0
ENDSEC
  0
SECTION
  2
TABLES
  0
TABLE
  2
VPORT
  5
8
102
{ACAD_XDICTIONARY
360
6AE
102
}
330
0
100
AcDbSymbolTable
 70
     2
  0
VPORT
  5
824
330
8
100
AcDbSymbolTableRecord
100
AcDbViewportTableRecord
  2
*Active
 70
     0
 10
0.0
 20
0.0
 11
1.0
 21
1.0
 12
7.719360381503776
 22
4.928123495574252
 13
0.0
 23
0.0
 14
0.5
 24
0.5
 15
0.5
 25
0.5
 16
0.0
 26
0.0
 36
1.0
 17
0.0
 27
0.0
 37
0.0
 40
5.545189497268501
 41
1.495145631067961
 42
50.0
 43
0.0
 44
0.0
 50
0.0
 51
0.0
 71
     0
 72
   100
 73
     1
 74
     3
 75
     0
 76
     0
 77
     0
 78
     0
281
     0
 65
     1
110
0.0
120
0.0
130
0.0
111
1.0
121
0.0
131
0.0
112
0.0
122
1.0
132
0.0
 79
     0
146
0.0
  0
ENDTAB
  0
TABLE
  2
LTYPE
  5
5
330
0
100
AcDbSymbolTable
 70
     2
  0
LTYPE
  5
14
330
5
100
AcDbSymbolTableRecord
100
AcDbLinetypeTableRecord
  2
ByBlock
 70
     0
  3

 72
    65
 73
     0
 40
0.0
  0
LTYPE
  5
15
330
5
100
AcDbSymbolTableRecord
100
AcDbLinetypeTableRecord
  2
ByLayer
 70
     0
  3

 72
    65
 73
     0
 40
0.0
  0
LTYPE
  5
16
330
5
100
AcDbSymbolTableRecord
100
AcDbLinetypeTableRecord
  2
Continuous
 70
     0
  3
Solid line
 72
    65
 73
     0
 40
0.0
  0
LTYPE
  5
200
330
5
100
AcDbSymbolTableRecord
100
AcDbLinetypeTableRecord
  2
HIDDEN
 70
     0
  3
_ _ _ _ _ _ _ _ _ _ _ _ _ _ _ _ _ _ _ _ _ _ _
 72
    65
 73
     2
 40
0.375
 49
0.25
 74
     0
 49
-0.125
 74
     0
  0
ENDTAB
  0
TABLE
  2
LAYER
  5
2
102
{ACAD_XDICTIONARY
360
6E7
102
}
330
0
100
AcDbSymbolTable
 70
     6
  0
LAYER
  5
10
102
{ACAD_XDICTIONARY
360
707
102
}
330
2
100
AcDbSymbolTableRecord
100
AcDbLayerTableRecord
  2
0
 70
     0
 62
     7
  6
Continuous
370
    -3
390
F
  0
LAYER
  5
33
102
{ACAD_XDICTIONARY
360
709
102
}
330
2
100
AcDbSymbolTableRecord
100
AcDbLayerTableRecord
  2
1
 70
     0
 62
     1
  6
Continuous
370
    -3
390
F
  0
LAYER
  5
34
102
{ACAD_XDICTIONARY
360
70B
102
}
330
2
100
AcDbSymbolTableRecord
100
AcDbLayerTableRecord
  2
4
 70
     0
 62
     4
  6
Continuous
370
    -3
390
F
  0
LAYER
  5
35
102
{ACAD_XDICTIONARY
360
70D
102
}
330
2
100
AcDbSymbolTableRecord
100
AcDbLayerTableRecord
  2
8
 70
     0
 62
     2
  6
Continuous
370
    -3
390
F
  0
LAYER
  5
201
102
{ACAD_XDICTIONARY
360
70F
102
}
330
2
100
AcDbSymbolTableRecord
100
AcDbLayerTableRecord
  2
2
 70
     0
 62
     2
  6
HIDDEN
370
    -3
390
F
  0
LAYER
  5
6E5
102
{ACAD_XDICTIONARY
360
71B
102
}
330
2
100
AcDbSymbolTableRecord
100
AcDbLayerTableRecord
  2
VIEWPORT-1
 70
     0
 62
     6
  6
Continuous
290
     0
370
    -3
390
F
1001
AcAecLayerStandard
1000

1000

  0
ENDTAB
  0
TABLE
  2
STYLE
  5
3
330
0
100
AcDbSymbolTable
 70
     2
  0
STYLE
  5
11
330
3
100
AcDbSymbolTableRecord
100
AcDbTextStyleTableRecord
  2
Standard
 70
     0
 40
0.0
 41
1.0
 50
0.0
 71
     0
 42
0.2
  3
txt
  4

  0
STYLE
  5
36
330
3
100
AcDbSymbolTableRecord
100
AcDbTextStyleTableRecord
  2
ROMANS
 70
     0
 40
0.0
 41
1.0
 50
0.0
 71
     0
 42
0.07
  3
ROMANS
  4

  0
ENDTAB
  0
TABLE
  2
VIEW
  5
6
330
0
100
AcDbSymbolTable
 70
     0
  0
ENDTAB
  0
TABLE
  2
UCS
  5
7
330
0
100
AcDbSymbolTable
 70
     0
  0
ENDTAB
  0
TABLE
  2
APPID
  5
9
330
0
100
AcDbSymbolTable
 70
     3
  0
APPID
  5
12
330
9
100
AcDbSymbolTableRecord
100
AcDbRegAppTableRecord
  2
ACAD
 70
     0
  0
APPID
  5
6E4
330
9
100
AcDbSymbolTableRecord
100
AcDbRegAppTableRecord
  2
ACAD_PSEXT
 70
     0
  0
APPID
  5
6E6
330
9
100
AcDbSymbolTableRecord
100
AcDbRegAppTableRecord
  2
AcAecLayerStandard
 70
     0
  0
ENDTAB
  0
TABLE
  2
DIMSTYLE
  5
A
330
0
100
AcDbSymbolTable
 70
     1
100
AcDbDimStyleTable
 71
     1
340
27
  0
DIMSTYLE
105
27
330
A
100
AcDbSymbolTableRecord
100
AcDbDimStyleTableRecord
  2
Standard
 70
     0
340
11
  0
ENDTAB
  0
TABLE
  2
BLOCK_RECORD
  5
1
330
0
100
AcDbSymbolTable
 70
    15
  0
BLOCK_RECORD
  5
1F
102
{ACAD_XDICTIONARY
360
696
102
}
330
1
100
AcDbSymbolTableRecord
100
AcDbBlockTableRecord
  2
*Model_Space
340
22
  0
BLOCK_RECORD
  5
1B
330
1
100
AcDbSymbolTableRecord
100
AcDbBlockTableRecord
  2
*Paper_Space
340
1E
  0
BLOCK_RECORD
  5
23
330
1
100
AcDbSymbolTableRecord
100
AcDbBlockTableRecord
  2
*Paper_Space0
340
26
  0
BLOCK_RECORD
  5
2B
330
1
100
AcDbSymbolTableRecord
100
AcDbBlockTableRecord
  2
ARRO
340
0
102
{BLKREFS
331
3F
331
A2
331
A3
331
A4
331
A5
331
A6
331
AA
331
AB
331
AF
331
B0
331
11B
331
11C
331
139
331
16D
331
16E
331
234
331
232
331
233
331
299
331
2F3
331
2F4
331
253
331
254
331
38F
331
390
331
3EA
331
3EB
331
41A
331
46D
331
470
331
471
331
536
331
537
331
5A0
331
5A1
331
54E
331
54F
331
554
331
630
331
631
331
636
331
682
331
683
331
72E
331
791
331
792
331
793
331
794
331
795
331
799
331
79A
331
79E
331
79F
102
}
  0
BLOCK_RECORD
  5
37
330
1
100
AcDbSymbolTableRecord
100
AcDbBlockTableRecord
  2
Le1001
340
0
  0
BLOCK_RECORD
  5
F7
330
1
100
AcDbSymbolTableRecord
100
AcDbBlockTableRecord
  2
ARRO2
340
0
102
{BLKREFS
331
12A
331
203
331
272
331
28A
331
394
331
41D
331
434
331
46B
331
46C
331
569
331
64B
102
}
  0
BLOCK_RECORD
  5
104
330
1
100
AcDbSymbolTableRecord
100
AcDbBlockTableRecord
  2
TEMP1
340
0
102
{BLKREFS
331
116
102
}
  0
BLOCK_RECORD
  5
109
330
1
100
AcDbSymbolTableRecord
100
AcDbBlockTableRecord
  2
TEMP2
340
0
102
{BLKREFS
331
115
331
239
331
249
331
3E4
331
468
331
549
331
62B
102
}
  0
BLOCK_RECORD
  5
10D
330
1
100
AcDbSymbolTableRecord
100
AcDbBlockTableRecord
  2
Le1009
340
0
  0
BLOCK_RECORD
  5
202
330
1
100
AcDbSymbolTableRecord
100
AcDbBlockTableRecord
  2
Le1007
340
0
  0
BLOCK_RECORD
  5
23E
330
1
100
AcDbSymbolTableRecord
100
AcDbBlockTableRecord
  2
TEMP3
340
0
102
{BLKREFS
331
24A
331
37F
331
47E
331
54A
331
62C
102
}
  0
BLOCK_RECORD
  5
243
330
1
100
AcDbSymbolTableRecord
100
AcDbBlockTableRecord
  2
Le1021
340
0
  0
BLOCK_RECORD
  5
351
330
1
100
AcDbSymbolTableRecord
100
AcDbBlockTableRecord
  2
Le1022
340
0
  0
BLOCK_RECORD
  5
465
330
1
100
AcDbSymbolTableRecord
100
AcDbBlockTableRecord
  2
TEMP6
340
0
102
{BLKREFS
331
47B
102
}
  0
BLOCK_RECORD
  5
474
330
1
100
AcDbSymbolTableRecord
100
AcDbBlockTableRecord
  2
Le1023
340
0
  0
BLOCK_RECORD
  5
540
330
1
100
AcDbSymbolTableRecord
100
AcDbBlockTableRecord
  2
Le1024
340
0
  0
BLOCK_RECORD
  5
5D4
102
{ACAD_XDICTIONARY
360
61E
102
}
330
1
100
AcDbSymbolTableRecord
100
AcDbBlockTableRecord
  2
A$C208909F4
340
0
102
{BLKREFS
331
622
102
}
1001
ACAD
1000
DesignCenter Data
1002
{
1070
     1
1070
     1
1002
}
  0
ENDTAB
  0
ENDSEC
  0
SECTION
  2
BLOCKS
  0
BLOCK
  5
20
330
1F
100
AcDbEntity
  8
0
100
AcDbBlockBegin
  2
*Model_Space
 70
     0
 10
0.0
 20
0.0
 30
0.0
  3
*Model_Space
  1

  0
ENDBLK
  5
21
330
1F
100
AcDbEntity
  8
0
100
AcDbBlockEnd
  0
BLOCK
  5
1C
330
1B
100
AcDbEntity
 67
     1
  8
0
100
AcDbBlockBegin
  2
*Paper_Space
 70
     0
 10
0.0
 20
0.0
 30
0.0
  3
*Paper_Space
  1

  0
ENDBLK
  5
1D
330
1B
100
AcDbEntity
 67
     1
  8
0
100
AcDbBlockEnd
  0
BLOCK
  5
24
330
23
100
AcDbEntity
  8
0
100
AcDbBlockBegin
  2
*Paper_Space0
 70
     0
 10
0.0
 20
0.0
 30
0.0
  3
*Paper_Space0
  1

  0
ENDBLK
  5
25
330
23
100
AcDbEntity
  8
0
100
AcDbBlockEnd
  0
BLOCK
  5
31
330
2B
100
AcDbEntity
  8
4
100
AcDbBlockBegin
  2
ARRO
 70
     0
 10
0.0
 20
0.0
 30
0.0
  3
ARRO
  1

  0
LINE
  5
2C
330
2B
100
AcDbEntity
  8
4
100
AcDbLine
 10
0.1250000000000018
 20
0.0199999999999996
 30
0.0
 11
0.1250000000000018
 21
-0.0200000000000005
 31
0.0
  0
LINE
  5
2D
330
2B
100
AcDbEntity
  8
4
100
AcDbLine
 10
0.1250000000000018
 20
-0.0100000000000007
 30
0.0
 11
0.0000000000000009
 21
0.0
 31
0.0
  0
LINE
  5
2E
330
2B
100
AcDbEntity
  8
4
100
AcDbLine
 10
0.1250000000000018
 20
0.0099999999999989
 30
0.0
 11
0.0000000000000018
 21
0.0
 31
0.0
  0
LINE
  5
2F
330
2B
100
AcDbEntity
  8
4
100
AcDbLine
 10
0.0000000000000018
 20
0.0
 30
0.0
 11
0.1250000000000018
 21
-0.0200000000000005
 31
0.0
  0
LINE
  5
30
330
2B
100
AcDbEntity
  8
4
100
AcDbLine
 10
0.1250000000000018
 20
0.0199999999999996
 30
0.0
 11
0.0000000000000018
 21
0.0
 31
0.0
  0
ENDBLK
  5
32
330
2B
100
AcDbEntity
  8
4
100
AcDbBlockEnd
  0
BLOCK
  5
F3
330
37
100
AcDbEntity
  8
0
100
AcDbBlockBegin
  2
Le1001
 70
     0
 10
0.0
 20
0.0
 30
0.0
  3
Le1001
  1

  0
TEXT
  5
38
330
37
100
AcDbEntity
  8
8
100
AcDbText
 10
5.2125
 20
1.691660711643185
 30
0.0
 40
0.07
  1
DEPTH
  7
ROMANS
 72
     1
 11
5.3775
 21
1.691660711643185
 31
0.0
100
AcDbText
  0
TEXT
  5
39
330
37
100
AcDbEntity
  8
8
100
AcDbText
 10
6.834999999999999
 20
1.691660711643185
 30
0.0
 40
0.07
  1
DEPTH
  7
ROMANS
 72
     1
 11
7.0
 21
1.691660711643185
 31
0.0
100
AcDbText
  0
TEXT
  5
3A
330
37
100
AcDbEntity
  8
8
100
AcDbText
 10
6.899267058502116
 20
0.7466010068253098
 30
0.0
 40
0.1
  1
DR
  7
ROMANS
 72
     1
 11
7.001648010883068
 21
0.7466010068253098
 31
0.0
100
AcDbText
  0
TEXT
  5
3B
330
37
100
AcDbEntity
  8
8
100
AcDbText
 10
5.794389324558379
 20
0.5620000000000003
 30
0.0
 40
0.1
  1
SECTIONS
  7
ROMANS
 72
     1
 11
6.146770276939331
 21
0.5620000000000003
 31
0.0
100
AcDbText
  0
TEXT
  5
3C
330
37
100
AcDbEntity
  8
8
100
AcDbText
 10
5.302053163126957
 20
0.7466010068253098
 30
0.0
 40
0.1
  1
SR
  7
ROMANS
 72
     1
 11
5.399672210746004
 21
0.7466010068253098
 31
0.0
100
AcDbText
  0
LINE
  5
3D
330
37
100
AcDbEntity
  8
4
100
AcDbLine
 10
5.628
 20
4.25
 30
0.0
 11
5.891731602665403
 21
4.25
 31
0.0
  0
LINE
  5
3E
330
37
100
AcDbEntity
  8
4
100
AcDbLine
 10
5.93215881233783
 20
4.25
 30
0.0
 11
6.112622609161773
 21
4.25
 31
0.0
  0
INSERT
  5
3F
330
37
100
AcDbEntity
  8
4
100
AcDbBlockReference
  2
ARRO
 10
5.93215881233783
 20
4.25
 30
0.0
  0
LINE
  5
40
330
37
100
AcDbEntity
  8
4
100
AcDbLine
 10
6.112622609161773
 20
4.25
 30
0.0
 11
6.112622609161773
 21
4.047012330209487
 31
0.0
  0
TEXT
  5
41
330
37
100
AcDbEntity
  8
8
100
AcDbText
 10
6.147622609161773
 20
2.671678996876154
 30
0.0
 40
0.07
  1
ANCHORING BY ERECTOR
 50
90.0
  7
ROMANS
 72
     2
 11
6.147622609161773
 21
3.985012330209487
 31
0.0
100
AcDbText
  0
TEXT
  5
42
330
37
100
AcDbEntity
  8
8
100
AcDbText
 10
4.500499999999999
 20
2.578333333333333
 30
0.0
 40
0.07
  1
LOCKER HEIGHT
 50
90.0
  7
ROMANS
 72
     1
 11
4.500499999999999
 21
3.0
 31
0.0
100
AcDbText
  0
TEXT
  5
43
330
37
100
AcDbEntity
  8
8
100
AcDbText
 10
1.344999999999998
 20
1.062
 30
0.0
 40
0.07
  1
LOCKER WIDTH - SEE SCHEDULE
  7
ROMANS
 72
     1
 11
2.249999999999999
 21
1.062
 31
0.0
100
AcDbText
  0
TEXT
  5
44
330
37
100
AcDbEntity
  8
8
100
AcDbText
 10
1.585714285714285
 20
0.5620000000000003
 30
0.0
 40
0.1
  1
FRONT ELEVATION
  7
ROMANS
 72
     1
 11
2.249999999999999
 21
0.5620000000000003
 31
0.0
100
AcDbText
  0
LINE
  5
45
330
37
100
AcDbEntity
  8
1
100
AcDbLine
 10
5.203499999999999
 20
1.5625
 30
0.0
 11
5.188499999999999
 21
1.547499999999999
 31
0.0
  0
LINE
  5
46
330
37
100
AcDbEntity
  8
1
100
AcDbLine
 10
5.188499999999999
 20
1.547499999999999
 30
0.0
 11
5.090499999999999
 21
1.547499999999999
 31
0.0
  0
LINE
  5
47
330
37
100
AcDbEntity
  8
1
100
AcDbLine
 10
5.090499999999999
 20
1.547499999999999
 30
0.0
 11
5.090499999999999
 21
1.519253857562439
 31
0.0
  0
LINE
  5
48
330
37
100
AcDbEntity
  8
1
100
AcDbLine
 10
5.265499999999999
 20
1.500499999999999
 30
0.0
 11
5.203499999999999
 21
1.5625
 31
0.0
  0
LINE
  5
49
330
37
100
AcDbEntity
  8
1
100
AcDbLine
 10
5.630499999999999
 20
1.500499999999999
 30
0.0
 11
5.265499999999999
 21
1.500499999999999
 31
0.0
  0
LINE
  5
4A
330
37
100
AcDbEntity
  8
1
100
AcDbLine
 10
5.630499999999999
 20
1.5625
 30
0.0
 11
5.630499999999999
 21
1.500499999999999
 31
0.0
  0
LINE
  5
4B
330
37
100
AcDbEntity
  8
1
100
AcDbLine
 10
5.670499999999999
 20
1.5625
 30
0.0
 11
5.670499999999999
 21
1.500499999999999
 31
0.0
  0
LINE
  5
4C
330
37
100
AcDbEntity
  8
1
100
AcDbLine
 10
5.065499999999999
 20
1.5625
 30
0.0
 11
5.173499999999998
 21
1.5625
 31
0.0
  0
LINE
  5
4D
330
37
100
AcDbEntity
  8
1
100
AcDbLine
 10
5.065499999999999
 20
1.500499999999999
 30
0.0
 11
5.065499999999999
 21
1.5625
 31
0.0
  0
LINE
  5
4E
330
37
100
AcDbEntity
  8
1
100
AcDbLine
 10
5.127499999999999
 20
1.500499999999999
 30
0.0
 11
5.065499999999999
 21
1.500499999999999
 31
0.0
  0
LINE
  5
4F
330
37
100
AcDbEntity
  8
1
100
AcDbLine
 10
5.203499999999999
 20
1.5625
 30
0.0
 11
5.670499999999999
 21
1.5625
 31
0.0
  0
LINE
  5
50
330
37
100
AcDbEntity
  8
1
100
AcDbLine
 10
6.513499999999998
 20
1.5625
 30
0.0
 11
6.980499999999999
 21
1.5625
 31
0.0
  0
LINE
  5
51
330
37
100
AcDbEntity
  8
1
100
AcDbLine
 10
6.437499999999999
 20
1.500499999999999
 30
0.0
 11
6.375499999999998
 21
1.500499999999999
 31
0.0
  0
LINE
  5
52
330
37
100
AcDbEntity
  8
1
100
AcDbLine
 10
6.375499999999998
 20
1.500499999999999
 30
0.0
 11
6.375499999999998
 21
1.5625
 31
0.0
  0
LINE
  5
53
330
37
100
AcDbEntity
  8
1
100
AcDbLine
 10
6.375499999999998
 20
1.5625
 30
0.0
 11
6.483499999999998
 21
1.5625
 31
0.0
  0
LINE
  5
54
330
37
100
AcDbEntity
  8
1
100
AcDbLine
 10
6.980499999999999
 20
1.5625
 30
0.0
 11
6.980499999999999
 21
1.500499999999999
 31
0.0
  0
LINE
  5
55
330
37
100
AcDbEntity
  8
1
100
AcDbLine
 10
6.940499999999999
 20
1.5625
 30
0.0
 11
6.940499999999999
 21
1.500499999999999
 31
0.0
  0
LINE
  5
56
330
37
100
AcDbEntity
  8
1
100
AcDbLine
 10
6.940499999999999
 20
1.500499999999999
 30
0.0
 11
6.575499999999999
 21
1.500499999999999
 31
0.0
  0
LINE
  5
57
330
37
100
AcDbEntity
  8
1
100
AcDbLine
 10
6.575499999999999
 20
1.500499999999999
 30
0.0
 11
6.513499999999998
 21
1.5625
 31
0.0
  0
LINE
  5
58
330
37
100
AcDbEntity
  8
1
100
AcDbLine
 10
6.400499999999999
 20
1.547499999999999
 30
0.0
 11
6.400499999999999
 21
1.519253857562439
 31
0.0
  0
LINE
  5
59
330
37
100
AcDbEntity
  8
1
100
AcDbLine
 10
6.498499999999999
 20
1.547499999999999
 30
0.0
 11
6.400499999999999
 21
1.547499999999999
 31
0.0
  0
LINE
  5
5A
330
37
100
AcDbEntity
  8
1
100
AcDbLine
 10
6.513499999999998
 20
1.5625
 30
0.0
 11
6.498499999999999
 21
1.547499999999999
 31
0.0
  0
LINE
  5
5B
330
37
100
AcDbEntity
  8
1
100
AcDbLine
 10
7.486500000000001
 20
1.5625
 30
0.0
 11
7.5015
 21
1.547499999999999
 31
0.0
  0
LINE
  5
5C
330
37
100
AcDbEntity
  8
1
100
AcDbLine
 10
7.5015
 20
1.547499999999999
 30
0.0
 11
7.5995
 21
1.547499999999999
 31
0.0
  0
LINE
  5
5D
330
37
100
AcDbEntity
  8
1
100
AcDbLine
 10
7.5995
 20
1.547499999999999
 30
0.0
 11
7.5995
 21
1.519253857562439
 31
0.0
  0
LINE
  5
5E
330
37
100
AcDbEntity
  8
1
100
AcDbLine
 10
7.4245
 20
1.500499999999999
 30
0.0
 11
7.486500000000001
 21
1.5625
 31
0.0
  0
LINE
  5
5F
330
37
100
AcDbEntity
  8
1
100
AcDbLine
 10
7.0595
 20
1.500499999999999
 30
0.0
 11
7.4245
 21
1.500499999999999
 31
0.0
  0
LINE
  5
60
330
37
100
AcDbEntity
  8
1
100
AcDbLine
 10
7.0595
 20
1.5625
 30
0.0
 11
7.0595
 21
1.500499999999999
 31
0.0
  0
LINE
  5
61
330
37
100
AcDbEntity
  8
1
100
AcDbLine
 10
7.0195
 20
1.5625
 30
0.0
 11
7.0195
 21
1.500499999999999
 31
0.0
  0
LINE
  5
62
330
37
100
AcDbEntity
  8
1
100
AcDbLine
 10
7.624500000000001
 20
1.5625
 30
0.0
 11
7.516500000000001
 21
1.5625
 31
0.0
  0
LINE
  5
63
330
37
100
AcDbEntity
  8
1
100
AcDbLine
 10
7.624500000000001
 20
1.500499999999999
 30
0.0
 11
7.624500000000001
 21
1.5625
 31
0.0
  0
LINE
  5
64
330
37
100
AcDbEntity
  8
1
100
AcDbLine
 10
7.5625
 20
1.500499999999999
 30
0.0
 11
7.624500000000001
 21
1.500499999999999
 31
0.0
  0
LINE
  5
65
330
37
100
AcDbEntity
  8
1
100
AcDbLine
 10
7.486500000000001
 20
1.5625
 30
0.0
 11
7.0195
 21
1.5625
 31
0.0
  0
LINE
  5
66
330
37
100
AcDbEntity
  8
1
100
AcDbLine
 10
7.486500000000001
 20
4.5
 30
0.0
 11
7.0195
 21
4.5
 31
0.0
  0
LINE
  5
67
330
37
100
AcDbEntity
  8
1
100
AcDbLine
 10
7.5625
 20
4.437999999999999
 30
0.0
 11
7.624500000000001
 21
4.437999999999999
 31
0.0
  0
LINE
  5
68
330
37
100
AcDbEntity
  8
1
100
AcDbLine
 10
7.624500000000001
 20
4.437999999999999
 30
0.0
 11
7.624500000000001
 21
4.5
 31
0.0
  0
LINE
  5
69
330
37
100
AcDbEntity
  8
1
100
AcDbLine
 10
7.624500000000001
 20
4.5
 30
0.0
 11
7.516500000000001
 21
4.5
 31
0.0
  0
LINE
  5
6A
330
37
100
AcDbEntity
  8
1
100
AcDbLine
 10
7.0195
 20
4.5
 30
0.0
 11
7.0195
 21
4.437999999999999
 31
0.0
  0
LINE
  5
6B
330
37
100
AcDbEntity
  8
1
100
AcDbLine
 10
7.0595
 20
4.5
 30
0.0
 11
7.0595
 21
4.437999999999999
 31
0.0
  0
LINE
  5
6C
330
37
100
AcDbEntity
  8
1
100
AcDbLine
 10
7.0595
 20
4.437999999999999
 30
0.0
 11
7.4245
 21
4.437999999999999
 31
0.0
  0
LINE
  5
6D
330
37
100
AcDbEntity
  8
1
100
AcDbLine
 10
7.4245
 20
4.437999999999999
 30
0.0
 11
7.486500000000001
 21
4.5
 31
0.0
  0
LINE
  5
6E
330
37
100
AcDbEntity
  8
1
100
AcDbLine
 10
7.5995
 20
4.484999999999999
 30
0.0
 11
7.5995
 21
4.456753857562439
 31
0.0
  0
LINE
  5
6F
330
37
100
AcDbEntity
  8
1
100
AcDbLine
 10
7.5015
 20
4.484999999999999
 30
0.0
 11
7.5995
 21
4.484999999999999
 31
0.0
  0
LINE
  5
70
330
37
100
AcDbEntity
  8
1
100
AcDbLine
 10
7.486500000000001
 20
4.5
 30
0.0
 11
7.5015
 21
4.484999999999999
 31
0.0
  0
LINE
  5
71
330
37
100
AcDbEntity
  8
1
100
AcDbLine
 10
6.513499999999998
 20
4.5
 30
0.0
 11
6.498499999999999
 21
4.484999999999999
 31
0.0
  0
LINE
  5
72
330
37
100
AcDbEntity
  8
1
100
AcDbLine
 10
6.498499999999999
 20
4.484999999999999
 30
0.0
 11
6.400499999999999
 21
4.484999999999999
 31
0.0
  0
LINE
  5
73
330
37
100
AcDbEntity
  8
1
100
AcDbLine
 10
6.400499999999999
 20
4.484999999999999
 30
0.0
 11
6.400499999999999
 21
4.456753857562439
 31
0.0
  0
LINE
  5
74
330
37
100
AcDbEntity
  8
1
100
AcDbLine
 10
6.575499999999999
 20
4.437999999999999
 30
0.0
 11
6.513499999999998
 21
4.5
 31
0.0
  0
LINE
  5
75
330
37
100
AcDbEntity
  8
1
100
AcDbLine
 10
6.940499999999999
 20
4.437999999999999
 30
0.0
 11
6.575499999999999
 21
4.437999999999999
 31
0.0
  0
LINE
  5
76
330
37
100
AcDbEntity
  8
1
100
AcDbLine
 10
6.940499999999999
 20
4.5
 30
0.0
 11
6.940499999999999
 21
4.437999999999999
 31
0.0
  0
LINE
  5
77
330
37
100
AcDbEntity
  8
1
100
AcDbLine
 10
6.980499999999999
 20
4.5
 30
0.0
 11
6.980499999999999
 21
4.437999999999999
 31
0.0
  0
LINE
  5
78
330
37
100
AcDbEntity
  8
1
100
AcDbLine
 10
6.375499999999998
 20
4.5
 30
0.0
 11
6.483499999999998
 21
4.5
 31
0.0
  0
LINE
  5
79
330
37
100
AcDbEntity
  8
1
100
AcDbLine
 10
6.375499999999998
 20
4.437999999999999
 30
0.0
 11
6.375499999999998
 21
4.5
 31
0.0
  0
LINE
  5
7A
330
37
100
AcDbEntity
  8
1
100
AcDbLine
 10
6.437499999999999
 20
4.437999999999999
 30
0.0
 11
6.375499999999998
 21
4.437999999999999
 31
0.0
  0
LINE
  5
7B
330
37
100
AcDbEntity
  8
1
100
AcDbLine
 10
6.513499999999998
 20
4.5
 30
0.0
 11
6.980499999999999
 21
4.5
 31
0.0
  0
LINE
  5
7C
330
37
100
AcDbEntity
  8
1
100
AcDbLine
 10
5.203499999999999
 20
4.5
 30
0.0
 11
5.670499999999999
 21
4.5
 31
0.0
  0
LINE
  5
7D
330
37
100
AcDbEntity
  8
1
100
AcDbLine
 10
5.127499999999999
 20
4.437999999999999
 30
0.0
 11
5.065499999999999
 21
4.437999999999999
 31
0.0
  0
LINE
  5
7E
330
37
100
AcDbEntity
  8
1
100
AcDbLine
 10
5.065499999999999
 20
4.437999999999999
 30
0.0
 11
5.065499999999999
 21
4.5
 31
0.0
  0
LINE
  5
7F
330
37
100
AcDbEntity
  8
1
100
AcDbLine
 10
5.065499999999999
 20
4.5
 30
0.0
 11
5.173499999999998
 21
4.5
 31
0.0
  0
LINE
  5
80
330
37
100
AcDbEntity
  8
1
100
AcDbLine
 10
5.670499999999999
 20
4.5
 30
0.0
 11
5.670499999999999
 21
4.437999999999999
 31
0.0
  0
LINE
  5
81
330
37
100
AcDbEntity
  8
1
100
AcDbLine
 10
5.630499999999999
 20
4.5
 30
0.0
 11
5.630499999999999
 21
4.437999999999999
 31
0.0
  0
LINE
  5
82
330
37
100
AcDbEntity
  8
1
100
AcDbLine
 10
5.630499999999999
 20
4.437999999999999
 30
0.0
 11
5.265499999999999
 21
4.437999999999999
 31
0.0
  0
LINE
  5
83
330
37
100
AcDbEntity
  8
1
100
AcDbLine
 10
5.265499999999999
 20
4.437999999999999
 30
0.0
 11
5.203499999999999
 21
4.5
 31
0.0
  0
LINE
  5
84
330
37
100
AcDbEntity
  8
1
100
AcDbLine
 10
5.090499999999999
 20
4.484999999999999
 30
0.0
 11
5.090499999999999
 21
4.456753857562439
 31
0.0
  0
LINE
  5
85
330
37
100
AcDbEntity
  8
1
100
AcDbLine
 10
5.188499999999999
 20
4.484999999999999
 30
0.0
 11
5.090499999999999
 21
4.484999999999999
 31
0.0
  0
LINE
  5
86
330
37
100
AcDbEntity
  8
1
100
AcDbLine
 10
5.203499999999999
 20
4.5
 30
0.0
 11
5.188499999999999
 21
4.484999999999999
 31
0.0
  0
LINE
  5
87
330
37
100
AcDbEntity
  8
1
100
AcDbLine
 10
1.062
 20
1.562
 30
0.0
 11
1.562999999999999
 21
1.562
 31
0.0
  0
LINE
  5
88
330
37
100
AcDbEntity
  8
4
100
AcDbLine
 10
1.872866710308013
 20
1.373999999999999
 30
0.0
 11
1.934866710308013
 21
1.373999999999999
 31
0.0
  0
CIRCLE
  5
89
330
37
100
AcDbEntity
  8
4
100
AcDbCircle
 10
2.028866710308013
 20
1.373999999999999
 30
0.0
 40
0.094
  0
LINE
  5
8A
330
37
100
AcDbEntity
  8
4
100
AcDbLine
 10
1.778866710308013
 20
1.467999999999999
 30
0.0
 11
1.778866710308013
 21
1.592999999999999
 31
0.0
  0
CIRCLE
  5
8B
330
37
100
AcDbEntity
  8
4
100
AcDbCircle
 10
1.778866710308013
 20
1.373999999999999
 30
0.0
 40
0.094
  0
CIRCLE
  5
8C
330
37
100
AcDbEntity
  8
4
100
AcDbCircle
 10
1.9375
 20
4.312
 30
0.0
 40
0.094
  0
LINE
  5
8D
330
37
100
AcDbEntity
  8
4
100
AcDbLine
 10
1.9375
 20
4.406
 30
0.0
 11
1.9375
 21
4.531
 31
0.0
  0
LINE
  5
8E
330
37
100
AcDbEntity
  8
1
100
AcDbLine
 10
2.499999999999999
 20
1.562
 30
0.0
 11
2.312
 21
1.562
 31
0.0
  0
LINE
  5
8F
330
37
100
AcDbEntity
  8
1
100
AcDbLine
 10
2.625
 20
4.438
 30
0.0
 11
2.813
 21
4.438
 31
0.0
  0
LINE
  5
90
330
37
100
AcDbEntity
  8
1
100
AcDbLine
 10
2.875
 20
1.5
 30
0.0
 11
2.875
 21
4.5
 31
0.0
  0
LINE
  5
91
330
37
100
AcDbEntity
  8
1
100
AcDbLine
 10
2.25
 20
1.5
 30
0.0
 11
2.25
 21
4.5
 31
0.0
  0
LINE
  5
92
330
37
100
AcDbEntity
  8
1
100
AcDbLine
 10
1.625
 20
1.5
 30
0.0
 11
1.625
 21
4.5
 31
0.0
  0
LINE
  5
93
330
37
100
AcDbEntity
  8
1
100
AcDbLine
 10
3.437999999999999
 20
1.562
 30
0.0
 11
2.937
 21
1.562
 31
0.0
  0
LINE
  5
94
330
37
100
AcDbEntity
  8
1
100
AcDbLine
 10
3.438
 20
4.438
 30
0.0
 11
3.437999999999999
 21
1.562
 31
0.0
  0
LINE
  5
95
330
37
100
AcDbEntity
  8
1
100
AcDbLine
 10
2.937
 20
4.438
 30
0.0
 11
3.438
 21
4.438
 31
0.0
  0
LINE
  5
96
330
37
100
AcDbEntity
  8
1
100
AcDbLine
 10
2.937
 20
1.562
 30
0.0
 11
2.937
 21
4.438
 31
0.0
  0
LINE
  5
97
330
37
100
AcDbEntity
  8
1
100
AcDbLine
 10
2.812999999999999
 20
1.562
 30
0.0
 11
2.625
 21
1.562
 31
0.0
  0
LINE
  5
98
330
37
100
AcDbEntity
  8
1
100
AcDbLine
 10
2.813
 20
4.438
 30
0.0
 11
2.812999999999999
 21
1.562
 31
0.0
  0
LINE
  5
99
330
37
100
AcDbEntity
  8
1
100
AcDbLine
 10
2.312
 20
4.438
 30
0.0
 11
2.5
 21
4.438
 31
0.0
  0
LINE
  5
9A
330
37
100
AcDbEntity
  8
1
100
AcDbLine
 10
2.312
 20
1.562
 30
0.0
 11
2.312
 21
4.438
 31
0.0
  0
LINE
  5
9B
330
37
100
AcDbEntity
  8
1
100
AcDbLine
 10
2.187999999999999
 20
1.562
 30
0.0
 11
1.687
 21
1.562
 31
0.0
  0
LINE
  5
9C
330
37
100
AcDbEntity
  8
1
100
AcDbLine
 10
2.188
 20
4.438
 30
0.0
 11
2.187999999999999
 21
1.562
 31
0.0
  0
LINE
  5
9D
330
37
100
AcDbEntity
  8
1
100
AcDbLine
 10
1.687
 20
4.438
 30
0.0
 11
2.188
 21
4.438
 31
0.0
  0
LINE
  5
9E
330
37
100
AcDbEntity
  8
1
100
AcDbLine
 10
1.687
 20
1.562
 30
0.0
 11
1.687
 21
4.438
 31
0.0
  0
LINE
  5
9F
330
37
100
AcDbEntity
  8
1
100
AcDbLine
 10
1.563
 20
4.438
 30
0.0
 11
1.562999999999999
 21
1.562
 31
0.0
  0
LINE
  5
A0
330
37
100
AcDbEntity
  8
1
100
AcDbLine
 10
1.062
 20
4.438
 30
0.0
 11
1.563
 21
4.438
 31
0.0
  0
LINE
  5
A1
330
37
100
AcDbEntity
  8
1
100
AcDbLine
 10
1.062
 20
1.562
 30
0.0
 11
1.062
 21
4.438
 31
0.0
  0
INSERT
  5
A2
330
37
100
AcDbEntity
  8
4
100
AcDbBlockReference
  2
ARRO
 10
7.625
 20
1.8125
 30
0.0
 50
180.0
  0
INSERT
  5
A3
330
37
100
AcDbEntity
  8
4
100
AcDbBlockReference
  2
ARRO
 10
6.375
 20
1.8125
 30
0.0
  0
INSERT
  5
A4
330
37
100
AcDbEntity
  8
4
100
AcDbBlockReference
  2
ARRO
 10
5.75
 20
1.8125
 30
0.0
  0
INSERT
  5
A5
330
37
100
AcDbEntity
  8
4
100
AcDbBlockReference
  2
ARRO
 10
5.69
 20
1.8125
 30
0.0
 50
180.0
  0
INSERT
  5
A6
330
37
100
AcDbEntity
  8
4
100
AcDbBlockReference
  2
ARRO
 10
5.065
 20
1.8125
 30
0.0
  0
LINE
  5
A7
330
37
100
AcDbEntity
  8
4
100
AcDbLine
 10
6.375
 20
1.8125
 30
0.0
 11
7.625
 21
1.8125
 31
0.0
  0
LINE
  5
A8
330
37
100
AcDbEntity
  8
4
100
AcDbLine
 10
5.75
 20
1.8125
 30
0.0
 11
6.0
 21
1.8125
 31
0.0
  0
LINE
  5
A9
330
37
100
AcDbEntity
  8
4
100
AcDbLine
 10
5.69
 20
1.8125
 30
0.0
 11
5.065
 21
1.8125
 31
0.0
  0
INSERT
  5
AA
330
37
100
AcDbEntity
  8
4
100
AcDbBlockReference
  2
ARRO
 10
4.5625
 20
1.5
 30
0.0
 50
90.0
  0
INSERT
  5
AB
330
37
100
AcDbEntity
  8
4
100
AcDbBlockReference
  2
ARRO
 10
4.5625
 20
4.5
 30
0.0
 50
270.0
  0
LINE
  5
AC
330
37
100
AcDbEntity
  8
4
100
AcDbLine
 10
5.0025
 20
4.5
 30
0.0
 11
4.5025
 21
4.5
 31
0.0
  0
LINE
  5
AD
330
37
100
AcDbEntity
  8
4
100
AcDbLine
 10
4.5625
 20
1.5
 30
0.0
 11
4.5625
 21
4.5
 31
0.0
  0
LINE
  5
AE
330
37
100
AcDbEntity
  8
4
100
AcDbLine
 10
5.0025
 20
1.5
 30
0.0
 11
4.5025
 21
1.5
 31
0.0
  0
INSERT
  5
AF
330
37
100
AcDbEntity
  8
4
100
AcDbBlockReference
  2
ARRO
 10
3.499999999999999
 20
0.9999999999999998
 30
0.0
 50
180.0
  0
INSERT
  5
B0
330
37
100
AcDbEntity
  8
4
100
AcDbBlockReference
  2
ARRO
 10
0.9999999999999998
 20
1.0
 30
0.0
  0
LINE
  5
B1
330
37
100
AcDbEntity
  8
4
100
AcDbLine
 10
3.499999999999999
 20
1.0
 30
0.0
 11
0.9999999999999998
 21
1.0
 31
0.0
  0
LINE
  5
B2
330
37
100
AcDbEntity
  8
4
100
AcDbLine
 10
3.499999999999999
 20
1.437999999999999
 30
0.0
 11
3.499999999999999
 21
0.9379999999999999
 31
0.0
  0
LINE
  5
B3
330
37
100
AcDbEntity
  8
4
100
AcDbLine
 10
1.0
 20
1.437999999999999
 30
0.0
 11
0.9999999999999998
 21
0.9379999999999999
 31
0.0
  0
LINE
  5
B4
330
37
100
AcDbEntity
  8
1
100
AcDbLine
 10
5.69
 20
1.5
 30
0.0
 11
5.69
 21
4.5
 31
0.0
  0
LINE
  5
B5
330
37
100
AcDbEntity
  8
1
100
AcDbLine
 10
5.75
 20
4.75
 30
0.0
 11
5.875
 21
4.875
 31
0.0
  0
LINE
  5
B6
330
37
100
AcDbEntity
  8
1
100
AcDbLine
 10
5.75
 20
4.625
 30
0.0
 11
5.937999999999999
 21
4.812999999999999
 31
0.0
  0
LINE
  5
B7
330
37
100
AcDbEntity
  8
1
100
AcDbLine
 10
5.75
 20
4.5
 30
0.0
 11
5.937999999999999
 21
4.687999999999999
 31
0.0
  0
LINE
  5
B8
330
37
100
AcDbEntity
  8
1
100
AcDbLine
 10
5.75
 20
4.375
 30
0.0
 11
5.937999999999999
 21
4.562999999999999
 31
0.0
  0
LINE
  5
B9
330
37
100
AcDbEntity
  8
1
100
AcDbLine
 10
5.75
 20
4.25
 30
0.0
 11
5.937999999999999
 21
4.437999999999999
 31
0.0
  0
LINE
  5
BA
330
37
100
AcDbEntity
  8
1
100
AcDbLine
 10
5.75
 20
4.125
 30
0.0
 11
5.937999999999999
 21
4.312999999999999
 31
0.0
  0
LINE
  5
BB
330
37
100
AcDbEntity
  8
1
100
AcDbLine
 10
5.75
 20
4.0
 30
0.0
 11
5.937999999999999
 21
4.187999999999999
 31
0.0
  0
LINE
  5
BC
330
37
100
AcDbEntity
  8
1
100
AcDbLine
 10
5.75
 20
3.875
 30
0.0
 11
5.937999999999999
 21
4.062999999999999
 31
0.0
  0
LINE
  5
BD
330
37
100
AcDbEntity
  8
1
100
AcDbLine
 10
5.75
 20
3.75
 30
0.0
 11
5.937999999999999
 21
3.937999999999999
 31
0.0
  0
LINE
  5
BE
330
37
100
AcDbEntity
  8
1
100
AcDbLine
 10
5.75
 20
3.625
 30
0.0
 11
5.937999999999999
 21
3.812999999999999
 31
0.0
  0
LINE
  5
BF
330
37
100
AcDbEntity
  8
1
100
AcDbLine
 10
5.75
 20
3.5
 30
0.0
 11
5.937999999999999
 21
3.687999999999999
 31
0.0
  0
LINE
  5
C0
330
37
100
AcDbEntity
  8
1
100
AcDbLine
 10
5.75
 20
3.375
 30
0.0
 11
5.937999999999999
 21
3.562999999999999
 31
0.0
  0
LINE
  5
C1
330
37
100
AcDbEntity
  8
1
100
AcDbLine
 10
5.75
 20
3.25
 30
0.0
 11
5.937999999999999
 21
3.437999999999999
 31
0.0
  0
LINE
  5
C2
330
37
100
AcDbEntity
  8
1
100
AcDbLine
 10
5.75
 20
3.125
 30
0.0
 11
5.937999999999999
 21
3.312999999999999
 31
0.0
  0
LINE
  5
C3
330
37
100
AcDbEntity
  8
1
100
AcDbLine
 10
5.75
 20
3.0
 30
0.0
 11
5.937999999999999
 21
3.187999999999999
 31
0.0
  0
LINE
  5
C4
330
37
100
AcDbEntity
  8
1
100
AcDbLine
 10
5.75
 20
2.875
 30
0.0
 11
5.937999999999999
 21
3.062999999999999
 31
0.0
  0
LINE
  5
C5
330
37
100
AcDbEntity
  8
1
100
AcDbLine
 10
5.75
 20
2.75
 30
0.0
 11
5.937999999999999
 21
2.937999999999999
 31
0.0
  0
LINE
  5
C6
330
37
100
AcDbEntity
  8
1
100
AcDbLine
 10
5.75
 20
2.625
 30
0.0
 11
5.937999999999999
 21
2.812999999999999
 31
0.0
  0
LINE
  5
C7
330
37
100
AcDbEntity
  8
1
100
AcDbLine
 10
5.75
 20
2.5
 30
0.0
 11
5.937999999999999
 21
2.687999999999999
 31
0.0
  0
LINE
  5
C8
330
37
100
AcDbEntity
  8
1
100
AcDbLine
 10
5.75
 20
2.375
 30
0.0
 11
5.937999999999999
 21
2.562999999999999
 31
0.0
  0
LINE
  5
C9
330
37
100
AcDbEntity
  8
1
100
AcDbLine
 10
5.75
 20
2.25
 30
0.0
 11
5.937999999999999
 21
2.437999999999999
 31
0.0
  0
LINE
  5
CA
330
37
100
AcDbEntity
  8
1
100
AcDbLine
 10
5.75
 20
2.125
 30
0.0
 11
5.937999999999999
 21
2.312999999999999
 31
0.0
  0
LINE
  5
CB
330
37
100
AcDbEntity
  8
1
100
AcDbLine
 10
5.75
 20
2.0
 30
0.0
 11
5.937999999999999
 21
2.187999999999999
 31
0.0
  0
LINE
  5
CC
330
37
100
AcDbEntity
  8
1
100
AcDbLine
 10
5.75
 20
1.625
 30
0.0
 11
5.937999999999999
 21
1.812999999999999
 31
0.0
  0
LINE
  5
CD
330
37
100
AcDbEntity
  8
1
100
AcDbLine
 10
5.75
 20
1.5
 30
0.0
 11
5.937999999999999
 21
1.687999999999999
 31
0.0
  0
LINE
  5
CE
330
37
100
AcDbEntity
  8
1
100
AcDbLine
 10
2.625
 20
2.379974179311579
 30
0.0
 11
2.624999999999999
 21
1.375
 31
0.0
  0
LINE
  5
CF
330
37
100
AcDbEntity
  8
1
100
AcDbLine
 10
2.625
 20
2.782474179311579
 30
0.0
 11
2.625
 21
2.469974179311579
 31
0.0
  0
LINE
  5
D0
330
37
100
AcDbEntity
  8
1
100
AcDbLine
 10
2.625
 20
3.625967704151865
 30
0.0
 11
2.625
 21
2.782474179311579
 31
0.0
  0
LINE
  5
D1
330
37
100
AcDbEntity
  8
1
100
AcDbLine
 10
2.58
 20
3.664974179311579
 30
0.0
 11
2.669999999999999
 21
3.574974179311579
 31
0.0
  0
LINE
  5
D2
330
37
100
AcDbEntity
  8
1
100
AcDbLine
 10
2.669999999999999
 20
3.664974179311579
 30
0.0
 11
2.58
 21
3.664974179311579
 31
0.0
  0
LINE
  5
D3
330
37
100
AcDbEntity
  8
1
100
AcDbLine
 10
2.58
 20
3.754974179311579
 30
0.0
 11
2.669999999999999
 21
3.664974179311579
 31
0.0
  0
LINE
  5
D4
330
37
100
AcDbEntity
  8
1
100
AcDbLine
 10
2.579999999999999
 20
2.424974179311579
 30
0.0
 11
2.669999999999999
 21
2.334974179311579
 31
0.0
  0
LINE
  5
D5
330
37
100
AcDbEntity
  8
1
100
AcDbLine
 10
2.669999999999999
 20
2.424974179311579
 30
0.0
 11
2.579999999999999
 21
2.424974179311579
 31
0.0
  0
LINE
  5
D6
330
37
100
AcDbEntity
  8
1
100
AcDbLine
 10
2.579999999999999
 20
2.514974179311579
 30
0.0
 11
2.669999999999999
 21
2.424974179311579
 31
0.0
  0
LINE
  5
D7
330
37
100
AcDbEntity
  8
1
100
AcDbLine
 10
2.499999999999999
 20
1.754974179311579
 30
0.0
 11
2.499999999999999
 21
1.375
 31
0.0
  0
LINE
  5
D8
330
37
100
AcDbEntity
  8
1
100
AcDbLine
 10
2.5
 20
2.469974179311579
 30
0.0
 11
2.499999999999999
 21
1.844974179311579
 31
0.0
  0
LINE
  5
D9
330
37
100
AcDbEntity
  8
1
100
AcDbLine
 10
2.5
 20
3.004974179311579
 30
0.0
 11
2.5
 21
2.469974179311579
 31
0.0
  0
LINE
  5
DA
330
37
100
AcDbEntity
  8
1
100
AcDbLine
 10
2.454999999999999
 20
1.889974179311579
 30
0.0
 11
2.544999999999999
 21
1.799974179311579
 31
0.0
  0
LINE
  5
DB
330
37
100
AcDbEntity
  8
1
100
AcDbLine
 10
2.544999999999999
 20
1.799974179311579
 30
0.0
 11
2.454999999999999
 21
1.799974179311579
 31
0.0
  0
LINE
  5
DC
330
37
100
AcDbEntity
  8
1
100
AcDbLine
 10
2.454999999999999
 20
1.799974179311579
 30
0.0
 11
2.544999999999999
 21
1.709974179311579
 31
0.0
  0
LINE
  5
DD
330
37
100
AcDbEntity
  8
1
100
AcDbLine
 10
2.454999999999999
 20
3.139974179311579
 30
0.0
 11
2.544999999999999
 21
3.049974179311579
 31
0.0
  0
LINE
  5
DE
330
37
100
AcDbEntity
  8
1
100
AcDbLine
 10
2.544999999999999
 20
3.049974179311579
 30
0.0
 11
2.454999999999999
 21
3.049974179311579
 31
0.0
  0
LINE
  5
DF
330
37
100
AcDbEntity
  8
1
100
AcDbLine
 10
2.454999999999999
 20
3.049974179311579
 30
0.0
 11
2.544999999999999
 21
2.959974179311579
 31
0.0
  0
LINE
  5
E0
330
37
100
AcDbEntity
  8
1
100
AcDbLine
 10
2.512196030826982
 20
4.242778148484597
 30
0.0
 11
2.512196030826982
 21
3.07567852914767
 31
0.0
  0
LINE
  5
E1
330
37
100
AcDbEntity
  8
1
100
AcDbLine
 10
2.455
 20
4.299974179311579
 30
0.0
 11
2.544999999999999
 21
4.209974179311579
 31
0.0
  0
LINE
  5
E2
330
37
100
AcDbEntity
  8
1
100
AcDbLine
 10
2.544999999999999
 20
4.299974179311579
 30
0.0
 11
2.455
 21
4.299974179311579
 31
0.0
  0
LINE
  5
E3
330
37
100
AcDbEntity
  8
1
100
AcDbLine
 10
2.455
 20
4.389974179311579
 30
0.0
 11
2.544999999999999
 21
4.299974179311579
 31
0.0
  0
LINE
  5
E4
330
37
100
AcDbEntity
  8
1
100
AcDbLine
 10
2.5
 20
4.625
 30
0.0
 11
2.5
 21
4.344974179311579
 31
0.0
  0
LINE
  5
E5
330
37
100
AcDbEntity
  8
1
100
AcDbLine
 10
2.625
 20
4.625
 30
0.0
 11
2.625
 21
3.709974179311579
 31
0.0
  0
CIRCLE
  5
E6
330
37
100
AcDbEntity
  8
1
100
AcDbCircle
 10
4.125
 20
0.5
 30
0.0
 40
0.1875
  0
LINE
  5
E7
330
37
100
AcDbEntity
  8
1
100
AcDbLine
 10
5.75
 20
1.5
 30
0.0
 11
5.75
 21
4.875
 31
0.0
  0
LINE
  5
E8
330
37
100
AcDbEntity
  8
1
100
AcDbLine
 10
7.0
 20
1.5
 30
0.0
 11
7.0
 21
4.5
 31
0.0
  0
LINE
  5
E9
330
37
100
AcDbEntity
  8
1
100
AcDbLine
 10
3.499999999999999
 20
1.5
 30
0.0
 11
2.624999999999999
 21
1.5
 31
0.0
  0
LINE
  5
EA
330
37
100
AcDbEntity
  8
1
100
AcDbLine
 10
3.5
 20
4.5
 30
0.0
 11
3.499999999999999
 21
1.5
 31
0.0
  0
LINE
  5
EB
330
37
100
AcDbEntity
  8
1
100
AcDbLine
 10
2.625
 20
4.5
 30
0.0
 11
3.5
 21
4.5
 31
0.0
  0
LINE
  5
EC
330
37
100
AcDbEntity
  8
1
100
AcDbLine
 10
1.0
 20
4.5
 30
0.0
 11
2.5
 21
4.5
 31
0.0
  0
LINE
  5
ED
330
37
100
AcDbEntity
  8
1
100
AcDbLine
 10
1.0
 20
1.5
 30
0.0
 11
1.0
 21
4.5
 31
0.0
  0
LINE
  5
EE
330
37
100
AcDbEntity
  8
1
100
AcDbLine
 10
1.0
 20
1.5
 30
0.0
 11
2.5
 21
1.5
 31
0.0
  0
LINE
  5
EF
330
37
100
AcDbEntity
  8
1
100
AcDbLine
 10
0.0
 20
5.25
 30
0.0
 11
0.0
 21
0.0
 31
0.0
  0
LINE
  5
F0
330
37
100
AcDbEntity
  8
1
100
AcDbLine
 10
8.25
 20
5.25
 30
0.0
 11
0.0
 21
5.25
 31
0.0
  0
LINE
  5
F1
330
37
100
AcDbEntity
  8
1
100
AcDbLine
 10
8.25
 20
0.0
 30
0.0
 11
8.25
 21
5.25
 31
0.0
  0
LINE
  5
F2
330
37
100
AcDbEntity
  8
1
100
AcDbLine
 10
0.0
 20
0.0
 30
0.0
 11
8.25
 21
0.0
 31
0.0
  0
ENDBLK
  5
F4
330
37
100
AcDbEntity
  8
0
100
AcDbBlockEnd
  0
BLOCK
  5
102
330
F7
100
AcDbEntity
  8
8
100
AcDbBlockBegin
  2
ARRO2
 70
     0
 10
0.0
 20
0.0
 30
0.0
  3
ARRO2
  1

  0
LINE
  5
F8
330
F7
100
AcDbEntity
  8
4
100
AcDbLine
 10
-0.124999999999992
 20
-0.0200000000000005
 30
0.0
 11
0.000000000000008
 21
-0.0000000000000009
 31
0.0
  0
LINE
  5
F9
330
F7
100
AcDbEntity
  8
4
100
AcDbLine
 10
0.000000000000008
 20
-0.0000000000000009
 30
0.0
 11
-0.124999999999992
 21
0.0199999999999996
 31
0.0
  0
LINE
  5
FA
330
F7
100
AcDbEntity
  8
4
100
AcDbLine
 10
-0.124999999999992
 20
-0.0099999999999998
 30
0.0
 11
0.000000000000008
 21
-0.0000000000000009
 31
0.0
  0
LINE
  5
FB
330
F7
100
AcDbEntity
  8
4
100
AcDbLine
 10
-0.124999999999992
 20
0.0099999999999998
 30
0.0
 11
0.0000000000000089
 21
-0.0000000000000009
 31
0.0
  0
LINE
  5
FC
330
F7
100
AcDbEntity
  8
4
100
AcDbLine
 10
-0.124999999999992
 20
-0.0200000000000005
 30
0.0
 11
-0.124999999999992
 21
0.0199999999999996
 31
0.0
  0
LINE
  5
FD
330
F7
100
AcDbEntity
  8
4
100
AcDbLine
 10
0.1250000000000124
 20
0.0199999999999987
 30
0.0
 11
0.1250000000000124
 21
-0.0200000000000014
 31
0.0
  0
LINE
  5
FE
330
F7
100
AcDbEntity
  8
4
100
AcDbLine
 10
0.1250000000000124
 20
-0.0100000000000016
 30
0.0
 11
0.0000000000000115
 21
-0.0000000000000009
 31
0.0
  0
LINE
  5
FF
330
F7
100
AcDbEntity
  8
4
100
AcDbLine
 10
0.1250000000000124
 20
0.009999999999998
 30
0.0
 11
0.0000000000000124
 21
-0.0000000000000009
 31
0.0
  0
LINE
  5
100
330
F7
100
AcDbEntity
  8
4
100
AcDbLine
 10
0.0000000000000124
 20
-0.0000000000000009
 30
0.0
 11
0.1250000000000124
 21
-0.0200000000000014
 31
0.0
  0
LINE
  5
101
330
F7
100
AcDbEntity
  8
4
100
AcDbLine
 10
0.1250000000000124
 20
0.0199999999999987
 30
0.0
 11
0.0000000000000124
 21
-0.0000000000000009
 31
0.0
  0
ENDBLK
  5
103
330
F7
100
AcDbEntity
  8
8
100
AcDbBlockEnd
  0
BLOCK
  5
107
330
104
100
AcDbEntity
  8
8
100
AcDbBlockBegin
  2
TEMP1
 70
     0
 10
0.0
 20
0.0
 30
0.0
  3
TEMP1
  1

  0
TEXT
  5
105
330
104
100
AcDbEntity
  8
8
100
AcDbText
 10
0.03
 20
0.0619999999999998
 30
0.0
 40
0.07
  1
LOCK ESCUTCHEON
 50
90.0
  7
ROMANS
100
AcDbText
  0
TEXT
  5
106
330
104
100
AcDbEntity
  8
8
100
AcDbText
 10
0.03
 20
-1.196833333333332
 30
0.0
 40
0.07
  1
HANDLE & P/A
 50
90.0
  7
ROMANS
 72
     2
 11
0.03
 21
-0.3734999999999995
 31
0.0
100
AcDbText
  0
ENDBLK
  5
108
330
104
100
AcDbEntity
  8
8
100
AcDbBlockEnd
  0
BLOCK
  5
10B
330
109
100
AcDbEntity
  8
8
100
AcDbBlockBegin
  2
TEMP2
 70
     0
 10
0.0
 20
0.0
 30
0.0
  3
TEMP2
  1

  0
TEXT
  5
10A
330
109
100
AcDbEntity
  8
8
100
AcDbText
 10
-0.0620000000000003
 20
0.1763333333333335
 30
0.0
 40
0.07
  1
1
 50
90.0
 72
     1
 11
-0.0620000000000003
 21
0.1880000000000002
 31
0.0
100
AcDbText
  0
ENDBLK
  5
10C
330
109
100
AcDbEntity
  8
8
100
AcDbBlockEnd
  0
BLOCK
  5
1FC
330
10D
100
AcDbEntity
  8
0
100
AcDbBlockBegin
  2
Le1009
 70
     0
 10
0.0
 20
0.0
 30
0.0
  3
Le1009
  1

  0
LWPOLYLINE
  5
10E
330
10D
100
AcDbEntity
  8
4
100
AcDbPolyline
 90
        2
 70
     1
 43
0.01
 10
1.181
 20
2.400483801611808
 42
1.0
 10
1.191
 20
2.400483801611808
 42
1.0
  0
LWPOLYLINE
  5
10F
330
10D
100
AcDbEntity
  8
4
100
AcDbPolyline
 90
        2
 70
     1
 43
0.01
 10
1.181
 20
2.505483801611808
 42
1.0
 10
1.191
 20
2.505483801611808
 42
1.0
  0
CIRCLE
  5
110
330
10D
100
AcDbEntity
  8
4
100
AcDbCircle
 10
1.186
 20
2.452983801611809
 30
0.0
 40
0.023
  0
LWPOLYLINE
  5
111
330
10D
100
AcDbEntity
  8
4
100
AcDbPolyline
 90
        2
 70
     1
 43
0.01
 10
1.181
 20
3.869483801611808
 42
1.0
 10
1.191
 20
3.869483801611808
 42
1.0
  0
LWPOLYLINE
  5
112
330
10D
100
AcDbEntity
  8
4
100
AcDbPolyline
 90
        2
 70
     1
 43
0.01
 10
1.181
 20
3.974483801611808
 42
1.0
 10
1.191
 20
3.974483801611808
 42
1.0
  0
CIRCLE
  5
113
330
10D
100
AcDbEntity
  8
4
100
AcDbCircle
 10
1.186
 20
3.921983801611808
 30
0.0
 40
0.023
  0
TEXT
  5
114
330
10D
100
AcDbEntity
  8
8
100
AcDbText
 10
2.062499999999999
 20
0.094
 30
0.0
 40
0.125
  1
STANDARD LOCKER -     " DOUBLE TIER
  7
ROMANS
 72
     1
 11
4.125
 21
0.094
 31
0.0
100
AcDbText
  0
INSERT
  5
115
330
10D
100
AcDbEntity
  8
8
100
AcDbBlockReference
  2
TEMP2
 10
4.8125
 20
1.562
 30
0.0
  0
INSERT
  5
116
330
10D
100
AcDbEntity
  8
8
100
AcDbBlockReference
  2
TEMP1
 10
0.5859118825233172
 20
3.983983801611808
 30
0.0
  0
LINE
  5
117
330
10D
100
AcDbEntity
  8
8
100
AcDbLine
 10
4.228470283689762
 20
0.0686649506663671
 30
0.0
 11
4.728470283689762
 21
0.0686649506663671
 31
0.0
  0
LINE
  5
118
330
10D
100
AcDbEntity
  8
4
100
AcDbLine
 10
7.6245
 20
1.594
 30
0.0
 11
7.5625
 21
1.594
 31
0.0
  0
LINE
  5
119
330
10D
100
AcDbEntity
  8
4
100
AcDbLine
 10
6.375499999999999
 20
1.594
 30
0.0
 11
6.4375
 21
1.594
 31
0.0
  0
LINE
  5
11A
330
10D
100
AcDbEntity
  8
4
100
AcDbLine
 10
5.0655
 20
1.594
 30
0.0
 11
5.1275
 21
1.594
 31
0.0
  0
INSERT
  5
11B
330
10D
100
AcDbEntity
  8
4
100
AcDbBlockReference
  2
ARRO
 10
4.8125
 20
1.5
 30
0.0
 50
270.0
  0
INSERT
  5
11C
330
10D
100
AcDbEntity
  8
4
100
AcDbBlockReference
  2
ARRO
 10
4.8125
 20
1.562
 30
0.0
 50
90.0
  0
LINE
  5
11D
330
10D
100
AcDbEntity
  8
4
100
AcDbLine
 10
4.8125
 20
1.562
 30
0.0
 11
4.750499999999999
 21
1.562
 31
0.0
  0
LINE
  5
11E
330
10D
100
AcDbEntity
  8
4
100
AcDbLine
 10
5.0025
 20
1.562
 30
0.0
 11
4.8125
 21
1.562
 31
0.0
  0
LINE
  5
11F
330
10D
100
AcDbEntity
  8
4
100
AcDbLine
 10
4.8125
 20
1.5
 30
0.0
 11
4.8125
 21
1.375
 31
0.0
  0
LINE
  5
120
330
10D
100
AcDbEntity
  8
4
100
AcDbLine
 10
7.6245
 20
2.93700587855713
 30
0.0
 11
7.6245
 21
1.594
 31
0.0
  0
LINE
  5
121
330
10D
100
AcDbEntity
  8
4
100
AcDbLine
 10
6.375499999999999
 20
2.93700587855713
 30
0.0
 11
6.375499999999999
 21
1.594
 31
0.0
  0
LINE
  5
122
330
10D
100
AcDbEntity
  8
4
100
AcDbLine
 10
5.0655
 20
2.93700587855713
 30
0.0
 11
5.0655
 21
1.594
 31
0.0
  0
LINE
  5
123
330
10D
100
AcDbEntity
  8
4
100
AcDbLine
 10
4.8125
 20
4.5
 30
0.0
 11
4.8125
 21
1.562
 31
0.0
  0
LINE
  5
124
330
10D
100
AcDbEntity
  8
4
100
AcDbLine
 10
5.0655
 20
4.406
 30
0.0
 11
5.0655
 21
3.062961724666486
 31
0.0
  0
LINE
  5
125
330
10D
100
AcDbEntity
  8
4
100
AcDbLine
 10
6.375499999999999
 20
4.406
 30
0.0
 11
6.375499999999999
 21
3.062961724666486
 31
0.0
  0
LINE
  5
126
330
10D
100
AcDbEntity
  8
4
100
AcDbLine
 10
7.6245
 20
4.406
 30
0.0
 11
7.6245
 21
3.062961724666486
 31
0.0
  0
LINE
  5
127
330
10D
100
AcDbEntity
  8
4
100
AcDbLine
 10
7.624500000000001
 20
4.406
 30
0.0
 11
7.5625
 21
4.406
 31
0.0
  0
LINE
  5
128
330
10D
100
AcDbEntity
  8
4
100
AcDbLine
 10
6.375499999999998
 20
4.406
 30
0.0
 11
6.437499999999999
 21
4.406
 31
0.0
  0
LINE
  5
129
330
10D
100
AcDbEntity
  8
4
100
AcDbLine
 10
5.065499999999999
 20
4.406
 30
0.0
 11
5.127499999999999
 21
4.406
 31
0.0
  0
INSERT
  5
12A
330
10D
100
AcDbEntity
  8
4
100
AcDbBlockReference
  2
ARRO2
 10
4.8125
 20
3.03100587855713
 30
0.0
 50
90.0
  0
LINE
  5
12B
330
10D
100
AcDbEntity
  8
4
100
AcDbLine
 10
4.8125
 20
3.03100587855713
 30
0.0
 11
4.750499999999999
 21
3.03100587855713
 31
0.0
  0
LINE
  5
12C
330
10D
100
AcDbEntity
  8
4
100
AcDbLine
 10
5.0025
 20
3.03100587855713
 30
0.0
 11
4.8125
 21
3.03100587855713
 31
0.0
  0
LINE
  5
12D
330
10D
100
AcDbEntity
  8
4
100
AcDbLine
 10
7.301520109897515
 20
4.38
 30
0.0
 11
7.301520109897515
 21
4.318000000000001
 31
0.0
  0
LINE
  5
12E
330
10D
100
AcDbEntity
  8
4
100
AcDbLine
 10
7.332520109897515
 20
4.38
 30
0.0
 11
7.270520109897516
 21
4.38
 31
0.0
  0
LINE
  5
12F
330
10D
100
AcDbEntity
  8
4
100
AcDbLine
 10
7.0195
 20
4.343000000000001
 30
0.0
 11
7.0195
 21
4.393
 31
0.0
  0
ARC
  5
130
330
10D
100
AcDbEntity
  8
4
100
AcDbCircle
 10
7.0445
 20
4.343000000000001
 30
0.0
 40
0.025
100
AcDbArc
 50
180.0
 51
0.0
  0
ARC
  5
131
330
10D
100
AcDbEntity
  8
4
100
AcDbCircle
 10
6.9555
 20
4.343000000000001
 30
0.0
 40
0.025
100
AcDbArc
 50
180.0
 51
0.0
  0
LINE
  5
132
330
10D
100
AcDbEntity
  8
4
100
AcDbLine
 10
6.9805
 20
4.343000000000001
 30
0.0
 11
6.9805
 21
4.393
 31
0.0
  0
LINE
  5
133
330
10D
100
AcDbEntity
  8
4
100
AcDbLine
 10
6.667479890102485
 20
4.38
 30
0.0
 11
6.729479890102484
 21
4.38
 31
0.0
  0
LINE
  5
134
330
10D
100
AcDbEntity
  8
4
100
AcDbLine
 10
6.698479890102484
 20
4.38
 30
0.0
 11
6.698479890102484
 21
4.318000000000001
 31
0.0
  0
LINE
  5
135
330
10D
100
AcDbEntity
  8
4
100
AcDbLine
 10
5.388479890102485
 20
4.38
 30
0.0
 11
5.388479890102485
 21
4.318000000000001
 31
0.0
  0
LINE
  5
136
330
10D
100
AcDbEntity
  8
4
100
AcDbLine
 10
5.357479890102485
 20
4.38
 30
0.0
 11
5.419479890102484
 21
4.38
 31
0.0
  0
LINE
  5
137
330
10D
100
AcDbEntity
  8
4
100
AcDbLine
 10
5.6705
 20
4.343000000000001
 30
0.0
 11
5.6705
 21
4.393
 31
0.0
  0
ARC
  5
138
330
10D
100
AcDbEntity
  8
4
100
AcDbCircle
 10
5.645500000000001
 20
4.343000000000001
 30
0.0
 40
0.025
100
AcDbArc
 50
180.0
 51
0.0
  0
INSERT
  5
139
330
10D
100
AcDbEntity
  8
4
100
AcDbBlockReference
  2
ARRO
 10
4.8125
 20
4.5
 30
0.0
 50
270.0
  0
LINE
  5
13A
330
10D
100
AcDbEntity
  8
4
100
AcDbLine
 10
5.203499999999999
 20
3.03100587855713
 30
0.0
 11
5.188499999999999
 21
3.016005878557129
 31
0.0
  0
LINE
  5
13B
330
10D
100
AcDbEntity
  8
4
100
AcDbLine
 10
5.188499999999999
 20
3.016005878557129
 30
0.0
 11
5.090499999999999
 21
3.016005878557129
 31
0.0
  0
LINE
  5
13C
330
10D
100
AcDbEntity
  8
4
100
AcDbLine
 10
5.090499999999999
 20
3.016005878557129
 30
0.0
 11
5.090499999999999
 21
2.98775973611957
 31
0.0
  0
LINE
  5
13D
330
10D
100
AcDbEntity
  8
4
100
AcDbLine
 10
5.265499999999999
 20
2.96900587855713
 30
0.0
 11
5.203499999999999
 21
3.03100587855713
 31
0.0
  0
LINE
  5
13E
330
10D
100
AcDbEntity
  8
4
100
AcDbLine
 10
5.630499999999999
 20
2.96900587855713
 30
0.0
 11
5.265499999999999
 21
2.96900587855713
 31
0.0
  0
LINE
  5
13F
330
10D
100
AcDbEntity
  8
4
100
AcDbLine
 10
5.630499999999999
 20
3.03100587855713
 30
0.0
 11
5.630499999999999
 21
2.96900587855713
 31
0.0
  0
LINE
  5
140
330
10D
100
AcDbEntity
  8
4
100
AcDbLine
 10
5.670499999999999
 20
3.03100587855713
 30
0.0
 11
5.670499999999999
 21
2.96900587855713
 31
0.0
  0
LINE
  5
141
330
10D
100
AcDbEntity
  8
4
100
AcDbLine
 10
5.065499999999999
 20
3.03100587855713
 30
0.0
 11
5.173499999999998
 21
3.03100587855713
 31
0.0
  0
LINE
  5
142
330
10D
100
AcDbEntity
  8
4
100
AcDbLine
 10
5.065499999999999
 20
2.96900587855713
 30
0.0
 11
5.065499999999999
 21
3.03100587855713
 31
0.0
  0
LINE
  5
143
330
10D
100
AcDbEntity
  8
4
100
AcDbLine
 10
5.127499999999999
 20
2.96900587855713
 30
0.0
 11
5.065499999999999
 21
2.96900587855713
 31
0.0
  0
LINE
  5
144
330
10D
100
AcDbEntity
  8
4
100
AcDbLine
 10
5.203499999999999
 20
3.03100587855713
 30
0.0
 11
5.670499999999999
 21
3.03100587855713
 31
0.0
  0
LINE
  5
145
330
10D
100
AcDbEntity
  8
4
100
AcDbLine
 10
6.513499999999998
 20
3.03100587855713
 30
0.0
 11
6.980499999999999
 21
3.03100587855713
 31
0.0
  0
LINE
  5
146
330
10D
100
AcDbEntity
  8
4
100
AcDbLine
 10
6.437499999999999
 20
2.96900587855713
 30
0.0
 11
6.375499999999998
 21
2.96900587855713
 31
0.0
  0
LINE
  5
147
330
10D
100
AcDbEntity
  8
4
100
AcDbLine
 10
6.375499999999998
 20
2.96900587855713
 30
0.0
 11
6.375499999999998
 21
3.03100587855713
 31
0.0
  0
LINE
  5
148
330
10D
100
AcDbEntity
  8
4
100
AcDbLine
 10
6.375499999999998
 20
3.03100587855713
 30
0.0
 11
6.483499999999998
 21
3.03100587855713
 31
0.0
  0
LINE
  5
149
330
10D
100
AcDbEntity
  8
4
100
AcDbLine
 10
6.980499999999999
 20
3.03100587855713
 30
0.0
 11
6.980499999999999
 21
2.96900587855713
 31
0.0
  0
LINE
  5
14A
330
10D
100
AcDbEntity
  8
4
100
AcDbLine
 10
6.940499999999999
 20
3.03100587855713
 30
0.0
 11
6.940499999999999
 21
2.96900587855713
 31
0.0
  0
LINE
  5
14B
330
10D
100
AcDbEntity
  8
4
100
AcDbLine
 10
6.940499999999999
 20
2.96900587855713
 30
0.0
 11
6.575499999999999
 21
2.96900587855713
 31
0.0
  0
LINE
  5
14C
330
10D
100
AcDbEntity
  8
4
100
AcDbLine
 10
6.575499999999999
 20
2.96900587855713
 30
0.0
 11
6.513499999999998
 21
3.03100587855713
 31
0.0
  0
LINE
  5
14D
330
10D
100
AcDbEntity
  8
4
100
AcDbLine
 10
6.400499999999999
 20
3.016005878557129
 30
0.0
 11
6.400499999999999
 21
2.98775973611957
 31
0.0
  0
LINE
  5
14E
330
10D
100
AcDbEntity
  8
4
100
AcDbLine
 10
6.498499999999999
 20
3.016005878557129
 30
0.0
 11
6.400499999999999
 21
3.016005878557129
 31
0.0
  0
LINE
  5
14F
330
10D
100
AcDbEntity
  8
4
100
AcDbLine
 10
6.513499999999998
 20
3.03100587855713
 30
0.0
 11
6.498499999999999
 21
3.016005878557129
 31
0.0
  0
LINE
  5
150
330
10D
100
AcDbEntity
  8
4
100
AcDbLine
 10
7.486500000000001
 20
3.03100587855713
 30
0.0
 11
7.5015
 21
3.016005878557129
 31
0.0
  0
LINE
  5
151
330
10D
100
AcDbEntity
  8
4
100
AcDbLine
 10
7.5015
 20
3.016005878557129
 30
0.0
 11
7.5995
 21
3.016005878557129
 31
0.0
  0
LINE
  5
152
330
10D
100
AcDbEntity
  8
4
100
AcDbLine
 10
7.5995
 20
3.016005878557129
 30
0.0
 11
7.5995
 21
2.98775973611957
 31
0.0
  0
LINE
  5
153
330
10D
100
AcDbEntity
  8
4
100
AcDbLine
 10
7.4245
 20
2.96900587855713
 30
0.0
 11
7.486500000000001
 21
3.03100587855713
 31
0.0
  0
LINE
  5
154
330
10D
100
AcDbEntity
  8
4
100
AcDbLine
 10
7.0595
 20
2.96900587855713
 30
0.0
 11
7.4245
 21
2.96900587855713
 31
0.0
  0
LINE
  5
155
330
10D
100
AcDbEntity
  8
4
100
AcDbLine
 10
7.0595
 20
3.03100587855713
 30
0.0
 11
7.0595
 21
2.96900587855713
 31
0.0
  0
LINE
  5
156
330
10D
100
AcDbEntity
  8
4
100
AcDbLine
 10
7.0195
 20
3.03100587855713
 30
0.0
 11
7.0195
 21
2.96900587855713
 31
0.0
  0
LINE
  5
157
330
10D
100
AcDbEntity
  8
4
100
AcDbLine
 10
7.624500000000001
 20
3.03100587855713
 30
0.0
 11
7.516500000000001
 21
3.03100587855713
 31
0.0
  0
LINE
  5
158
330
10D
100
AcDbEntity
  8
4
100
AcDbLine
 10
7.624500000000001
 20
2.96900587855713
 30
0.0
 11
7.624500000000001
 21
3.03100587855713
 31
0.0
  0
LINE
  5
159
330
10D
100
AcDbEntity
  8
4
100
AcDbLine
 10
7.5625
 20
2.96900587855713
 30
0.0
 11
7.624500000000001
 21
2.96900587855713
 31
0.0
  0
LINE
  5
15A
330
10D
100
AcDbEntity
  8
4
100
AcDbLine
 10
7.486500000000001
 20
3.03100587855713
 30
0.0
 11
7.0195
 21
3.03100587855713
 31
0.0
  0
LINE
  5
15B
330
10D
100
AcDbEntity
  8
4
100
AcDbLine
 10
5.0655
 20
3.062961724666487
 30
0.0
 11
5.127499999999999
 21
3.062961724666487
 31
0.0
  0
LINE
  5
15C
330
10D
100
AcDbEntity
  8
4
100
AcDbLine
 10
5.0655
 20
2.93700587855713
 30
0.0
 11
5.1275
 21
2.93700587855713
 31
0.0
  0
LINE
  5
15D
330
10D
100
AcDbEntity
  8
4
100
AcDbLine
 10
6.375499999999998
 20
3.062961724666486
 30
0.0
 11
6.437499999999999
 21
3.062961724666486
 31
0.0
  0
LINE
  5
15E
330
10D
100
AcDbEntity
  8
4
100
AcDbLine
 10
7.5625
 20
3.062961724666486
 30
0.0
 11
7.624499999999999
 21
3.062961724666486
 31
0.0
  0
LINE
  5
15F
330
10D
100
AcDbEntity
  8
4
100
AcDbLine
 10
7.5625
 20
2.93700587855713
 30
0.0
 11
7.624499999999999
 21
2.93700587855713
 31
0.0
  0
LINE
  5
160
330
10D
100
AcDbEntity
  8
4
100
AcDbLine
 10
6.375499999999999
 20
2.93700587855713
 30
0.0
 11
6.437499999999999
 21
2.93700587855713
 31
0.0
  0
ARC
  5
161
330
10D
100
AcDbEntity
  8
4
100
AcDbCircle
 10
5.645500000000001
 20
2.874046183989781
 30
0.0
 40
0.025
100
AcDbArc
 50
180.0
 51
0.0
  0
LINE
  5
162
330
10D
100
AcDbEntity
  8
4
100
AcDbLine
 10
5.6705
 20
2.874046183989781
 30
0.0
 11
5.6705
 21
2.92404618398978
 31
0.0
  0
LINE
  5
163
330
10D
100
AcDbEntity
  8
4
100
AcDbLine
 10
5.357479890102485
 20
2.91104618398978
 30
0.0
 11
5.419479890102484
 21
2.91104618398978
 31
0.0
  0
LINE
  5
164
330
10D
100
AcDbEntity
  8
4
100
AcDbLine
 10
5.388479890102485
 20
2.91104618398978
 30
0.0
 11
5.388479890102485
 21
2.849046183989781
 31
0.0
  0
LINE
  5
165
330
10D
100
AcDbEntity
  8
4
100
AcDbLine
 10
6.698479890102484
 20
2.91104618398978
 30
0.0
 11
6.698479890102484
 21
2.849046183989781
 31
0.0
  0
LINE
  5
166
330
10D
100
AcDbEntity
  8
4
100
AcDbLine
 10
6.667479890102485
 20
2.91104618398978
 30
0.0
 11
6.729479890102484
 21
2.91104618398978
 31
0.0
  0
LINE
  5
167
330
10D
100
AcDbEntity
  8
4
100
AcDbLine
 10
6.9805
 20
2.874046183989781
 30
0.0
 11
6.9805
 21
2.92404618398978
 31
0.0
  0
ARC
  5
168
330
10D
100
AcDbEntity
  8
4
100
AcDbCircle
 10
6.9555
 20
2.874046183989781
 30
0.0
 40
0.025
100
AcDbArc
 50
180.0
 51
0.0
  0
ARC
  5
169
330
10D
100
AcDbEntity
  8
4
100
AcDbCircle
 10
7.0445
 20
2.874046183989781
 30
0.0
 40
0.025
100
AcDbArc
 50
180.0
 51
0.0
  0
LINE
  5
16A
330
10D
100
AcDbEntity
  8
4
100
AcDbLine
 10
7.0195
 20
2.874046183989781
 30
0.0
 11
7.0195
 21
2.92404618398978
 31
0.0
  0
LINE
  5
16B
330
10D
100
AcDbEntity
  8
4
100
AcDbLine
 10
7.332520109897515
 20
2.91104618398978
 30
0.0
 11
7.270520109897516
 21
2.91104618398978
 31
0.0
  0
LINE
  5
16C
330
10D
100
AcDbEntity
  8
4
100
AcDbLine
 10
7.301520109897515
 20
2.91104618398978
 30
0.0
 11
7.301520109897515
 21
2.849046183989781
 31
0.0
  0
INSERT
  5
16D
330
10D
100
AcDbEntity
  8
4
100
AcDbBlockReference
  2
ARRO
 10
0.9609118825233171
 20
3.734483801611808
 30
0.0
 50
180.0
  0
INSERT
  5
16E
330
10D
100
AcDbEntity
  8
4
100
AcDbBlockReference
  2
ARRO
 10
0.9609118825233171
 20
3.921983801611808
 30
0.0
 50
180.0
  0
LINE
  5
16F
330
10D
100
AcDbEntity
  8
4
100
AcDbLine
 10
0.5859118825233172
 20
3.734483801611808
 30
0.0
 11
0.5859118825233172
 21
3.672483801611809
 31
0.0
  0
LINE
  5
170
330
10D
100
AcDbEntity
  8
4
100
AcDbLine
 10
0.9609118825233171
 20
3.734483801611808
 30
0.0
 11
0.5859118825233172
 21
3.734483801611808
 31
0.0
  0
LINE
  5
171
330
10D
100
AcDbEntity
  8
4
100
AcDbLine
 10
0.5859118825233172
 20
3.921983801611808
 30
0.0
 11
0.5859118825233172
 21
3.983983801611808
 31
0.0
  0
LINE
  5
172
330
10D
100
AcDbEntity
  8
4
100
AcDbLine
 10
0.9609118825233171
 20
3.921983801611808
 30
0.0
 11
0.5859118825233172
 21
3.921983801611808
 31
0.0
  0
CIRCLE
  5
173
330
10D
100
AcDbEntity
  8
4
100
AcDbCircle
 10
1.186
 20
3.921983801611808
 30
0.0
 40
0.023
  0
LINE
  5
174
330
10D
100
AcDbEntity
  8
4
100
AcDbLine
 10
1.165
 20
3.686483801611808
 30
0.0
 11
1.124
 21
3.686483801611808
 31
0.0
  0
LINE
  5
175
330
10D
100
AcDbEntity
  8
4
100
AcDbLine
 10
1.165
 20
3.780483801611808
 30
0.0
 11
1.124
 21
3.780483801611808
 31
0.0
  0
LINE
  5
176
330
10D
100
AcDbEntity
  8
4
100
AcDbLine
 10
1.165
 20
3.812483801611808
 30
0.0
 11
1.124
 21
3.812483801611808
 31
0.0
  0
LINE
  5
177
330
10D
100
AcDbEntity
  8
4
100
AcDbLine
 10
1.165
 20
3.656483801611808
 30
0.0
 11
1.165
 21
3.812483801611808
 31
0.0
  0
LINE
  5
178
330
10D
100
AcDbEntity
  8
4
100
AcDbLine
 10
1.124
 20
3.656483801611808
 30
0.0
 11
1.165
 21
3.656483801611808
 31
0.0
  0
LINE
  5
179
330
10D
100
AcDbEntity
  8
4
100
AcDbLine
 10
1.124
 20
3.812483801611808
 30
0.0
 11
1.124
 21
3.656483801611808
 31
0.0
  0
LINE
  5
17A
330
10D
100
AcDbEntity
  8
4
100
AcDbLine
 10
1.540999999999999
 20
3.436961724666486
 30
0.0
 11
1.540999999999999
 21
3.311961724666486
 31
0.0
  0
LINE
  5
17B
330
10D
100
AcDbEntity
  8
4
100
AcDbLine
 10
1.541
 20
4.15600587855713
 30
0.0
 11
1.541
 21
4.03100587855713
 31
0.0
  0
LINE
  5
17C
330
10D
100
AcDbEntity
  8
4
100
AcDbLine
 10
1.2625
 20
4.331344519608852
 30
0.0
 11
1.2625
 21
4.378344519608853
 31
0.0
  0
LINE
  5
17D
330
10D
100
AcDbEntity
  8
4
100
AcDbLine
 10
1.3625
 20
4.331344519608852
 30
0.0
 11
1.2625
 21
4.331344519608852
 31
0.0
  0
LINE
  5
17E
330
10D
100
AcDbEntity
  8
4
100
AcDbLine
 10
1.3625
 20
4.378344519608853
 30
0.0
 11
1.3625
 21
4.331344519608852
 31
0.0
  0
LINE
  5
17F
330
10D
100
AcDbEntity
  8
4
100
AcDbLine
 10
1.2625
 20
4.378344519608853
 30
0.0
 11
1.3625
 21
4.378344519608853
 31
0.0
  0
LINE
  5
180
330
10D
100
AcDbEntity
  8
4
100
AcDbLine
 10
1.187799999999999
 20
3.437461724666486
 30
0.0
 11
1.437799999999999
 21
3.437461724666486
 31
0.0
  0
LINE
  5
181
330
10D
100
AcDbEntity
  8
4
100
AcDbLine
 10
1.437799999999999
 20
3.437461724666486
 30
0.0
 11
1.417799999999999
 21
3.457461724666486
 31
0.0
  0
LINE
  5
182
330
10D
100
AcDbEntity
  8
4
100
AcDbLine
 10
1.187799999999999
 20
3.437461724666486
 30
0.0
 11
1.207799999999999
 21
3.457461724666486
 31
0.0
  0
LINE
  5
183
330
10D
100
AcDbEntity
  8
4
100
AcDbLine
 10
1.187799999999999
 20
3.387461724666486
 30
0.0
 11
1.207799999999999
 21
3.407461724666486
 31
0.0
  0
LINE
  5
184
330
10D
100
AcDbEntity
  8
4
100
AcDbLine
 10
1.437799999999999
 20
3.387461724666486
 30
0.0
 11
1.417799999999999
 21
3.407461724666486
 31
0.0
  0
LINE
  5
185
330
10D
100
AcDbEntity
  8
4
100
AcDbLine
 10
1.187799999999999
 20
3.387461724666486
 30
0.0
 11
1.437799999999999
 21
3.387461724666486
 31
0.0
  0
LINE
  5
186
330
10D
100
AcDbEntity
  8
4
100
AcDbLine
 10
1.187799999999999
 20
3.337461724666487
 30
0.0
 11
1.207799999999999
 21
3.357461724666486
 31
0.0
  0
LINE
  5
187
330
10D
100
AcDbEntity
  8
4
100
AcDbLine
 10
1.437799999999999
 20
3.337461724666487
 30
0.0
 11
1.417799999999999
 21
3.357461724666486
 31
0.0
  0
LINE
  5
188
330
10D
100
AcDbEntity
  8
4
100
AcDbLine
 10
1.187799999999999
 20
3.337461724666487
 30
0.0
 11
1.437799999999999
 21
3.337461724666487
 31
0.0
  0
LINE
  5
189
330
10D
100
AcDbEntity
  8
4
100
AcDbLine
 10
1.187799999999999
 20
3.287461724666486
 30
0.0
 11
1.207799999999999
 21
3.307461724666485
 31
0.0
  0
LINE
  5
18A
330
10D
100
AcDbEntity
  8
4
100
AcDbLine
 10
1.437799999999999
 20
3.287461724666486
 30
0.0
 11
1.417799999999999
 21
3.307461724666485
 31
0.0
  0
LINE
  5
18B
330
10D
100
AcDbEntity
  8
4
100
AcDbLine
 10
1.187799999999999
 20
3.287461724666486
 30
0.0
 11
1.437799999999999
 21
3.287461724666486
 31
0.0
  0
LINE
  5
18C
330
10D
100
AcDbEntity
  8
4
100
AcDbLine
 10
1.187799999999999
 20
3.237461724666486
 30
0.0
 11
1.207799999999999
 21
3.257461724666486
 31
0.0
  0
LINE
  5
18D
330
10D
100
AcDbEntity
  8
4
100
AcDbLine
 10
1.437799999999999
 20
3.237461724666486
 30
0.0
 11
1.417799999999999
 21
3.257461724666486
 31
0.0
  0
LINE
  5
18E
330
10D
100
AcDbEntity
  8
4
100
AcDbLine
 10
1.187799999999999
 20
3.237461724666486
 30
0.0
 11
1.437799999999999
 21
3.237461724666486
 31
0.0
  0
LINE
  5
18F
330
10D
100
AcDbEntity
  8
4
100
AcDbLine
 10
1.187799999999999
 20
3.187461724666486
 30
0.0
 11
1.207799999999999
 21
3.207461724666486
 31
0.0
  0
LINE
  5
190
330
10D
100
AcDbEntity
  8
4
100
AcDbLine
 10
1.437799999999999
 20
3.187461724666486
 30
0.0
 11
1.417799999999999
 21
3.207461724666486
 31
0.0
  0
LINE
  5
191
330
10D
100
AcDbEntity
  8
4
100
AcDbLine
 10
1.187799999999999
 20
3.187461724666486
 30
0.0
 11
1.437799999999999
 21
3.187461724666486
 31
0.0
  0
LINE
  5
192
330
10D
100
AcDbEntity
  8
4
100
AcDbLine
 10
1.1878
 20
4.03100587855713
 30
0.0
 11
1.4378
 21
4.03100587855713
 31
0.0
  0
LINE
  5
193
330
10D
100
AcDbEntity
  8
4
100
AcDbLine
 10
1.4378
 20
4.03100587855713
 30
0.0
 11
1.4178
 21
4.05100587855713
 31
0.0
  0
LINE
  5
194
330
10D
100
AcDbEntity
  8
4
100
AcDbLine
 10
1.1878
 20
4.03100587855713
 30
0.0
 11
1.2078
 21
4.05100587855713
 31
0.0
  0
LINE
  5
195
330
10D
100
AcDbEntity
  8
4
100
AcDbLine
 10
1.1878
 20
4.08100587855713
 30
0.0
 11
1.4378
 21
4.08100587855713
 31
0.0
  0
LINE
  5
196
330
10D
100
AcDbEntity
  8
4
100
AcDbLine
 10
1.4378
 20
4.08100587855713
 30
0.0
 11
1.4178
 21
4.101005878557129
 31
0.0
  0
LINE
  5
197
330
10D
100
AcDbEntity
  8
4
100
AcDbLine
 10
1.1878
 20
4.08100587855713
 30
0.0
 11
1.2078
 21
4.101005878557129
 31
0.0
  0
LINE
  5
198
330
10D
100
AcDbEntity
  8
4
100
AcDbLine
 10
1.1878
 20
4.13100587855713
 30
0.0
 11
1.4378
 21
4.13100587855713
 31
0.0
  0
LINE
  5
199
330
10D
100
AcDbEntity
  8
4
100
AcDbLine
 10
1.4378
 20
4.13100587855713
 30
0.0
 11
1.4178
 21
4.151005878557129
 31
0.0
  0
LINE
  5
19A
330
10D
100
AcDbEntity
  8
4
100
AcDbLine
 10
1.1878
 20
4.13100587855713
 30
0.0
 11
1.2078
 21
4.151005878557129
 31
0.0
  0
LINE
  5
19B
330
10D
100
AcDbEntity
  8
4
100
AcDbLine
 10
1.1878
 20
4.18100587855713
 30
0.0
 11
1.4378
 21
4.18100587855713
 31
0.0
  0
LINE
  5
19C
330
10D
100
AcDbEntity
  8
4
100
AcDbLine
 10
1.4378
 20
4.18100587855713
 30
0.0
 11
1.4178
 21
4.20100587855713
 31
0.0
  0
LINE
  5
19D
330
10D
100
AcDbEntity
  8
4
100
AcDbLine
 10
1.1878
 20
4.18100587855713
 30
0.0
 11
1.2078
 21
4.20100587855713
 31
0.0
  0
LINE
  5
19E
330
10D
100
AcDbEntity
  8
4
100
AcDbLine
 10
1.1878
 20
4.23100587855713
 30
0.0
 11
1.4378
 21
4.23100587855713
 31
0.0
  0
LINE
  5
19F
330
10D
100
AcDbEntity
  8
4
100
AcDbLine
 10
1.4378
 20
4.23100587855713
 30
0.0
 11
1.4178
 21
4.25100587855713
 31
0.0
  0
LINE
  5
1A0
330
10D
100
AcDbEntity
  8
4
100
AcDbLine
 10
1.1878
 20
4.23100587855713
 30
0.0
 11
1.2078
 21
4.25100587855713
 31
0.0
  0
LINE
  5
1A1
330
10D
100
AcDbEntity
  8
4
100
AcDbLine
 10
1.1878
 20
4.28100587855713
 30
0.0
 11
1.2078
 21
4.30100587855713
 31
0.0
  0
LINE
  5
1A2
330
10D
100
AcDbEntity
  8
4
100
AcDbLine
 10
1.4378
 20
4.28100587855713
 30
0.0
 11
1.4178
 21
4.30100587855713
 31
0.0
  0
LINE
  5
1A3
330
10D
100
AcDbEntity
  8
4
100
AcDbLine
 10
1.1878
 20
4.28100587855713
 30
0.0
 11
1.4378
 21
4.28100587855713
 31
0.0
  0
LINE
  5
1A4
330
10D
100
AcDbEntity
  8
4
100
AcDbLine
 10
1.530999999999999
 20
3.062961724666487
 30
0.0
 11
1.094
 21
3.062961724666486
 31
0.0
  0
LINE
  5
1A5
330
10D
100
AcDbEntity
  8
4
100
AcDbLine
 10
1.531
 20
4.40600587855713
 30
0.0
 11
1.530999999999999
 21
3.062961724666487
 31
0.0
  0
LINE
  5
1A6
330
10D
100
AcDbEntity
  8
4
100
AcDbLine
 10
1.094
 20
4.40600587855713
 30
0.0
 11
1.531
 21
4.40600587855713
 31
0.0
  0
LINE
  5
1A7
330
10D
100
AcDbEntity
  8
4
100
AcDbLine
 10
1.094
 20
3.062961724666486
 30
0.0
 11
1.094
 21
4.40600587855713
 31
0.0
  0
LINE
  5
1A8
330
10D
100
AcDbEntity
  8
4
100
AcDbLine
 10
1.093999999999999
 20
1.593961724666486
 30
0.0
 11
1.094
 21
2.93700587855713
 31
0.0
  0
LINE
  5
1A9
330
10D
100
AcDbEntity
  8
4
100
AcDbLine
 10
1.094
 20
2.93700587855713
 30
0.0
 11
1.531
 21
2.93700587855713
 31
0.0
  0
LINE
  5
1AA
330
10D
100
AcDbEntity
  8
4
100
AcDbLine
 10
1.531
 20
2.93700587855713
 30
0.0
 11
1.530999999999999
 21
1.593961724666487
 31
0.0
  0
LINE
  5
1AB
330
10D
100
AcDbEntity
  8
4
100
AcDbLine
 10
1.530999999999999
 20
1.593961724666487
 30
0.0
 11
1.093999999999999
 21
1.593961724666486
 31
0.0
  0
LINE
  5
1AC
330
10D
100
AcDbEntity
  8
4
100
AcDbLine
 10
1.187799999999999
 20
2.81200587855713
 30
0.0
 11
1.4378
 21
2.81200587855713
 31
0.0
  0
LINE
  5
1AD
330
10D
100
AcDbEntity
  8
4
100
AcDbLine
 10
1.4378
 20
2.81200587855713
 30
0.0
 11
1.417799999999999
 21
2.83200587855713
 31
0.0
  0
LINE
  5
1AE
330
10D
100
AcDbEntity
  8
4
100
AcDbLine
 10
1.187799999999999
 20
2.81200587855713
 30
0.0
 11
1.207799999999999
 21
2.83200587855713
 31
0.0
  0
LINE
  5
1AF
330
10D
100
AcDbEntity
  8
4
100
AcDbLine
 10
1.187799999999999
 20
2.76200587855713
 30
0.0
 11
1.207799999999999
 21
2.78200587855713
 31
0.0
  0
LINE
  5
1B0
330
10D
100
AcDbEntity
  8
4
100
AcDbLine
 10
1.4378
 20
2.76200587855713
 30
0.0
 11
1.417799999999999
 21
2.78200587855713
 31
0.0
  0
LINE
  5
1B1
330
10D
100
AcDbEntity
  8
4
100
AcDbLine
 10
1.187799999999999
 20
2.76200587855713
 30
0.0
 11
1.4378
 21
2.76200587855713
 31
0.0
  0
LINE
  5
1B2
330
10D
100
AcDbEntity
  8
4
100
AcDbLine
 10
1.187799999999999
 20
2.712005878557131
 30
0.0
 11
1.207799999999999
 21
2.73200587855713
 31
0.0
  0
LINE
  5
1B3
330
10D
100
AcDbEntity
  8
4
100
AcDbLine
 10
1.4378
 20
2.712005878557131
 30
0.0
 11
1.417799999999999
 21
2.73200587855713
 31
0.0
  0
LINE
  5
1B4
330
10D
100
AcDbEntity
  8
4
100
AcDbLine
 10
1.187799999999999
 20
2.712005878557131
 30
0.0
 11
1.4378
 21
2.712005878557131
 31
0.0
  0
LINE
  5
1B5
330
10D
100
AcDbEntity
  8
4
100
AcDbLine
 10
1.187799999999999
 20
2.66200587855713
 30
0.0
 11
1.207799999999999
 21
2.682005878557129
 31
0.0
  0
LINE
  5
1B6
330
10D
100
AcDbEntity
  8
4
100
AcDbLine
 10
1.4378
 20
2.66200587855713
 30
0.0
 11
1.417799999999999
 21
2.682005878557129
 31
0.0
  0
LINE
  5
1B7
330
10D
100
AcDbEntity
  8
4
100
AcDbLine
 10
1.187799999999999
 20
2.66200587855713
 30
0.0
 11
1.4378
 21
2.66200587855713
 31
0.0
  0
LINE
  5
1B8
330
10D
100
AcDbEntity
  8
4
100
AcDbLine
 10
1.187799999999999
 20
2.61200587855713
 30
0.0
 11
1.207799999999999
 21
2.63200587855713
 31
0.0
  0
LINE
  5
1B9
330
10D
100
AcDbEntity
  8
4
100
AcDbLine
 10
1.4378
 20
2.61200587855713
 30
0.0
 11
1.417799999999999
 21
2.63200587855713
 31
0.0
  0
LINE
  5
1BA
330
10D
100
AcDbEntity
  8
4
100
AcDbLine
 10
1.187799999999999
 20
2.61200587855713
 30
0.0
 11
1.4378
 21
2.61200587855713
 31
0.0
  0
LINE
  5
1BB
330
10D
100
AcDbEntity
  8
4
100
AcDbLine
 10
1.187799999999999
 20
2.56200587855713
 30
0.0
 11
1.207799999999999
 21
2.58200587855713
 31
0.0
  0
LINE
  5
1BC
330
10D
100
AcDbEntity
  8
4
100
AcDbLine
 10
1.4378
 20
2.56200587855713
 30
0.0
 11
1.417799999999999
 21
2.58200587855713
 31
0.0
  0
LINE
  5
1BD
330
10D
100
AcDbEntity
  8
4
100
AcDbLine
 10
1.187799999999999
 20
2.56200587855713
 30
0.0
 11
1.4378
 21
2.56200587855713
 31
0.0
  0
LINE
  5
1BE
330
10D
100
AcDbEntity
  8
4
100
AcDbLine
 10
1.187799999999999
 20
1.718461724666486
 30
0.0
 11
1.437799999999999
 21
1.718461724666486
 31
0.0
  0
LINE
  5
1BF
330
10D
100
AcDbEntity
  8
4
100
AcDbLine
 10
1.437799999999999
 20
1.718461724666486
 30
0.0
 11
1.417799999999999
 21
1.738461724666486
 31
0.0
  0
LINE
  5
1C0
330
10D
100
AcDbEntity
  8
4
100
AcDbLine
 10
1.187799999999999
 20
1.718461724666486
 30
0.0
 11
1.207799999999999
 21
1.738461724666486
 31
0.0
  0
LINE
  5
1C1
330
10D
100
AcDbEntity
  8
4
100
AcDbLine
 10
1.187799999999999
 20
1.768461724666486
 30
0.0
 11
1.437799999999999
 21
1.768461724666486
 31
0.0
  0
LINE
  5
1C2
330
10D
100
AcDbEntity
  8
4
100
AcDbLine
 10
1.437799999999999
 20
1.768461724666486
 30
0.0
 11
1.417799999999999
 21
1.788461724666486
 31
0.0
  0
LINE
  5
1C3
330
10D
100
AcDbEntity
  8
4
100
AcDbLine
 10
1.187799999999999
 20
1.768461724666486
 30
0.0
 11
1.207799999999999
 21
1.788461724666486
 31
0.0
  0
LINE
  5
1C4
330
10D
100
AcDbEntity
  8
4
100
AcDbLine
 10
1.187799999999999
 20
1.818461724666486
 30
0.0
 11
1.437799999999999
 21
1.818461724666486
 31
0.0
  0
LINE
  5
1C5
330
10D
100
AcDbEntity
  8
4
100
AcDbLine
 10
1.437799999999999
 20
1.818461724666486
 30
0.0
 11
1.417799999999999
 21
1.838461724666485
 31
0.0
  0
LINE
  5
1C6
330
10D
100
AcDbEntity
  8
4
100
AcDbLine
 10
1.187799999999999
 20
1.818461724666486
 30
0.0
 11
1.207799999999999
 21
1.838461724666485
 31
0.0
  0
LINE
  5
1C7
330
10D
100
AcDbEntity
  8
4
100
AcDbLine
 10
1.187799999999999
 20
1.868461724666487
 30
0.0
 11
1.437799999999999
 21
1.868461724666487
 31
0.0
  0
LINE
  5
1C8
330
10D
100
AcDbEntity
  8
4
100
AcDbLine
 10
1.437799999999999
 20
1.868461724666487
 30
0.0
 11
1.417799999999999
 21
1.888461724666486
 31
0.0
  0
LINE
  5
1C9
330
10D
100
AcDbEntity
  8
4
100
AcDbLine
 10
1.187799999999999
 20
1.868461724666487
 30
0.0
 11
1.207799999999999
 21
1.888461724666486
 31
0.0
  0
LINE
  5
1CA
330
10D
100
AcDbEntity
  8
4
100
AcDbLine
 10
1.187799999999999
 20
1.918461724666487
 30
0.0
 11
1.437799999999999
 21
1.918461724666487
 31
0.0
  0
LINE
  5
1CB
330
10D
100
AcDbEntity
  8
4
100
AcDbLine
 10
1.437799999999999
 20
1.918461724666487
 30
0.0
 11
1.417799999999999
 21
1.938461724666486
 31
0.0
  0
LINE
  5
1CC
330
10D
100
AcDbEntity
  8
4
100
AcDbLine
 10
1.187799999999999
 20
1.918461724666487
 30
0.0
 11
1.207799999999999
 21
1.938461724666486
 31
0.0
  0
LINE
  5
1CD
330
10D
100
AcDbEntity
  8
4
100
AcDbLine
 10
1.187799999999999
 20
1.968461724666486
 30
0.0
 11
1.207799999999999
 21
1.988461724666486
 31
0.0
  0
LINE
  5
1CE
330
10D
100
AcDbEntity
  8
4
100
AcDbLine
 10
1.437799999999999
 20
1.968461724666486
 30
0.0
 11
1.417799999999999
 21
1.988461724666486
 31
0.0
  0
LINE
  5
1CF
330
10D
100
AcDbEntity
  8
4
100
AcDbLine
 10
1.187799999999999
 20
1.968461724666486
 30
0.0
 11
1.437799999999999
 21
1.968461724666486
 31
0.0
  0
LINE
  5
1D0
330
10D
100
AcDbEntity
  8
4
100
AcDbLine
 10
1.2625
 20
2.909344519608853
 30
0.0
 11
1.3625
 21
2.909344519608853
 31
0.0
  0
LINE
  5
1D1
330
10D
100
AcDbEntity
  8
4
100
AcDbLine
 10
1.3625
 20
2.909344519608853
 30
0.0
 11
1.3625
 21
2.862344519608852
 31
0.0
  0
LINE
  5
1D2
330
10D
100
AcDbEntity
  8
4
100
AcDbLine
 10
1.3625
 20
2.862344519608852
 30
0.0
 11
1.2625
 21
2.862344519608852
 31
0.0
  0
LINE
  5
1D3
330
10D
100
AcDbEntity
  8
4
100
AcDbLine
 10
1.2625
 20
2.862344519608852
 30
0.0
 11
1.2625
 21
2.909344519608853
 31
0.0
  0
LINE
  5
1D4
330
10D
100
AcDbEntity
  8
4
100
AcDbLine
 10
1.541
 20
2.68700587855713
 30
0.0
 11
1.541
 21
2.56200587855713
 31
0.0
  0
LINE
  5
1D5
330
10D
100
AcDbEntity
  8
4
100
AcDbLine
 10
1.540999999999999
 20
1.967961724666487
 30
0.0
 11
1.540999999999999
 21
1.842961724666487
 31
0.0
  0
LINE
  5
1D6
330
10D
100
AcDbEntity
  8
4
100
AcDbLine
 10
1.124
 20
2.343483801611808
 30
0.0
 11
1.124
 21
2.187483801611808
 31
0.0
  0
LINE
  5
1D7
330
10D
100
AcDbEntity
  8
4
100
AcDbLine
 10
1.124
 20
2.187483801611808
 30
0.0
 11
1.165
 21
2.187483801611808
 31
0.0
  0
LINE
  5
1D8
330
10D
100
AcDbEntity
  8
4
100
AcDbLine
 10
1.165
 20
2.187483801611808
 30
0.0
 11
1.165
 21
2.343483801611808
 31
0.0
  0
LINE
  5
1D9
330
10D
100
AcDbEntity
  8
4
100
AcDbLine
 10
1.165
 20
2.343483801611808
 30
0.0
 11
1.124
 21
2.343483801611808
 31
0.0
  0
LINE
  5
1DA
330
10D
100
AcDbEntity
  8
4
100
AcDbLine
 10
1.165
 20
2.311483801611808
 30
0.0
 11
1.124
 21
2.311483801611808
 31
0.0
  0
LINE
  5
1DB
330
10D
100
AcDbEntity
  8
4
100
AcDbLine
 10
1.165
 20
2.217483801611809
 30
0.0
 11
1.124
 21
2.217483801611809
 31
0.0
  0
CIRCLE
  5
1DC
330
10D
100
AcDbEntity
  8
4
100
AcDbCircle
 10
1.186
 20
2.452983801611809
 30
0.0
 40
0.023
  0
LINE
  5
1DD
330
10D
100
AcDbEntity
  8
4
100
AcDbLine
 10
1.062
 20
2.96900587855713
 30
0.0
 11
1.562999999999999
 21
2.96900587855713
 31
0.0
  0
LINE
  5
1DE
330
10D
100
AcDbEntity
  8
4
100
AcDbLine
 10
1.062
 20
3.03100587855713
 30
0.0
 11
1.562999999999999
 21
3.03100587855713
 31
0.0
  0
LINE
  5
1DF
330
10D
100
AcDbEntity
  8
4
100
AcDbLine
 10
1.687
 20
2.96900587855713
 30
0.0
 11
2.187999999999999
 21
2.96900587855713
 31
0.0
  0
LINE
  5
1E0
330
10D
100
AcDbEntity
  8
4
100
AcDbLine
 10
1.687
 20
3.03100587855713
 30
0.0
 11
2.187999999999999
 21
3.03100587855713
 31
0.0
  0
LINE
  5
1E1
330
10D
100
AcDbEntity
  8
4
100
AcDbLine
 10
2.312
 20
2.96900587855713
 30
0.0
 11
2.499999999999999
 21
2.96900587855713
 31
0.0
  0
LINE
  5
1E2
330
10D
100
AcDbEntity
  8
4
100
AcDbLine
 10
2.312
 20
3.03100587855713
 30
0.0
 11
2.473968300754448
 21
3.03100587855713
 31
0.0
  0
LINE
  5
1E3
330
10D
100
AcDbEntity
  8
4
100
AcDbLine
 10
2.937
 20
2.96900587855713
 30
0.0
 11
3.437999999999999
 21
2.96900587855713
 31
0.0
  0
LINE
  5
1E4
330
10D
100
AcDbEntity
  8
4
100
AcDbLine
 10
2.937
 20
3.03100587855713
 30
0.0
 11
3.437999999999999
 21
3.03100587855713
 31
0.0
  0
LINE
  5
1E5
330
10D
100
AcDbEntity
  8
4
100
AcDbLine
 10
2.625
 20
3.03100587855713
 30
0.0
 11
2.812999999999999
 21
3.03100587855713
 31
0.0
  0
LINE
  5
1E6
330
10D
100
AcDbEntity
  8
4
100
AcDbLine
 10
2.625
 20
2.96900587855713
 30
0.0
 11
2.812999999999999
 21
2.96900587855713
 31
0.0
  0
ARC
  5
1E7
330
10D
100
AcDbEntity
  8
4
100
AcDbCircle
 10
3.412999999999999
 20
4.343
 30
0.0
 40
0.025
100
AcDbArc
 50
180.0
 51
0.0
  0
ARC
  5
1E8
330
10D
100
AcDbEntity
  8
4
100
AcDbCircle
 10
2.962
 20
4.343
 30
0.0
 40
0.025
100
AcDbArc
 50
180.0
 51
0.0
  0
ARC
  5
1E9
330
10D
100
AcDbEntity
  8
4
100
AcDbCircle
 10
2.787999999999999
 20
4.343
 30
0.0
 40
0.025
100
AcDbArc
 50
180.0
 51
0.0
  0
ARC
  5
1EA
330
10D
100
AcDbEntity
  8
4
100
AcDbCircle
 10
2.337
 20
4.343
 30
0.0
 40
0.025
100
AcDbArc
 50
180.0
 51
0.0
  0
ARC
  5
1EB
330
10D
100
AcDbEntity
  8
4
100
AcDbCircle
 10
2.163
 20
4.343
 30
0.0
 40
0.025
100
AcDbArc
 50
180.0
 51
0.0
  0
ARC
  5
1EC
330
10D
100
AcDbEntity
  8
4
100
AcDbCircle
 10
1.712
 20
4.343
 30
0.0
 40
0.025
100
AcDbArc
 50
180.0
 51
0.0
  0
LINE
  5
1ED
330
10D
100
AcDbEntity
  8
4
100
AcDbLine
 10
3.155
 20
4.38
 30
0.0
 11
3.217
 21
4.38
 31
0.0
  0
LINE
  5
1EE
330
10D
100
AcDbEntity
  8
4
100
AcDbLine
 10
3.217
 20
4.38
 30
0.0
 11
3.217
 21
4.318000000000001
 31
0.0
  0
LINE
  5
1EF
330
10D
100
AcDbEntity
  8
4
100
AcDbLine
 10
3.155
 20
4.38
 30
0.0
 11
3.155
 21
4.318000000000001
 31
0.0
  0
LINE
  5
1F0
330
10D
100
AcDbEntity
  8
4
100
AcDbLine
 10
1.905
 20
2.91104618398978
 30
0.0
 11
1.967
 21
2.91104618398978
 31
0.0
  0
LINE
  5
1F1
330
10D
100
AcDbEntity
  8
4
100
AcDbLine
 10
1.967
 20
2.91104618398978
 30
0.0
 11
1.967
 21
2.849046183989781
 31
0.0
  0
LINE
  5
1F2
330
10D
100
AcDbEntity
  8
4
100
AcDbLine
 10
1.905
 20
2.91104618398978
 30
0.0
 11
1.905
 21
2.849046183989781
 31
0.0
  0
LINE
  5
1F3
330
10D
100
AcDbEntity
  8
4
100
AcDbLine
 10
3.155
 20
2.91104618398978
 30
0.0
 11
3.155
 21
2.849046183989781
 31
0.0
  0
LINE
  5
1F4
330
10D
100
AcDbEntity
  8
4
100
AcDbLine
 10
3.217
 20
2.91104618398978
 30
0.0
 11
3.217
 21
2.849046183989781
 31
0.0
  0
LINE
  5
1F5
330
10D
100
AcDbEntity
  8
4
100
AcDbLine
 10
3.155
 20
2.91104618398978
 30
0.0
 11
3.217
 21
2.91104618398978
 31
0.0
  0
ARC
  5
1F6
330
10D
100
AcDbEntity
  8
4
100
AcDbCircle
 10
1.712
 20
2.874046183989781
 30
0.0
 40
0.025
100
AcDbArc
 50
180.0
 51
0.0
  0
ARC
  5
1F7
330
10D
100
AcDbEntity
  8
4
100
AcDbCircle
 10
2.163
 20
2.874046183989781
 30
0.0
 40
0.025
100
AcDbArc
 50
180.0
 51
0.0
  0
ARC
  5
1F8
330
10D
100
AcDbEntity
  8
4
100
AcDbCircle
 10
2.337
 20
2.874046183989781
 30
0.0
 40
0.025
100
AcDbArc
 50
180.0
 51
0.0
  0
ARC
  5
1F9
330
10D
100
AcDbEntity
  8
4
100
AcDbCircle
 10
2.787999999999999
 20
2.874046183989781
 30
0.0
 40
0.025
100
AcDbArc
 50
180.0
 51
0.0
  0
ARC
  5
1FA
330
10D
100
AcDbEntity
  8
4
100
AcDbCircle
 10
2.962
 20
2.874046183989781
 30
0.0
 40
0.025
100
AcDbArc
 50
180.0
 51
0.0
  0
ARC
  5
1FB
330
10D
100
AcDbEntity
  8
4
100
AcDbCircle
 10
3.412999999999999
 20
2.874046183989781
 30
0.0
 40
0.025
100
AcDbArc
 50
180.0
 51
0.0
  0
ENDBLK
  5
1FD
330
10D
100
AcDbEntity
  8
0
100
AcDbBlockEnd
  0
BLOCK
  5
23A
330
202
100
AcDbEntity
  8
0
100
AcDbBlockBegin
  2
Le1007
 70
     0
 10
0.0
 20
0.0
 30
0.0
  3
Le1007
  1

  0
INSERT
  5
203
330
202
100
AcDbEntity
  8
4
100
AcDbBlockReference
  2
ARRO2
 10
4.8125
 20
4.125
 30
0.0
 50
90.0
  0
LINE
  5
204
330
202
100
AcDbEntity
  8
4
100
AcDbLine
 10
4.8125
 20
4.125
 30
0.0
 11
4.750499999999999
 21
4.125
 31
0.0
  0
LINE
  5
205
330
202
100
AcDbEntity
  8
4
100
AcDbLine
 10
5.0025
 20
4.125
 30
0.0
 11
4.8125
 21
4.125
 31
0.0
  0
LINE
  5
206
330
202
100
AcDbEntity
  8
4
100
AcDbLine
 10
7.5195
 20
4.063
 30
0.0
 11
7.488500000000001
 21
4.094
 31
0.0
  0
LINE
  5
207
330
202
100
AcDbEntity
  8
4
100
AcDbLine
 10
7.5195
 20
4.125
 30
0.0
 11
7.5195
 21
4.063
 31
0.0
  0
LINE
  5
208
330
202
100
AcDbEntity
  8
4
100
AcDbLine
 10
7.0195
 20
4.125
 30
0.0
 11
7.5195
 21
4.125
 31
0.0
  0
LINE
  5
209
330
202
100
AcDbEntity
  8
4
100
AcDbLine
 10
7.0195
 20
4.063
 30
0.0
 11
7.0195
 21
4.125
 31
0.0
  0
LINE
  5
20A
330
202
100
AcDbEntity
  8
4
100
AcDbLine
 10
7.301520109897515
 20
3.975
 30
0.0
 11
7.301520109897515
 21
3.913
 31
0.0
  0
LINE
  5
20B
330
202
100
AcDbEntity
  8
4
100
AcDbLine
 10
7.332520109897515
 20
3.975
 30
0.0
 11
7.270520109897516
 21
3.975
 31
0.0
  0
LINE
  5
20C
330
202
100
AcDbEntity
  8
4
100
AcDbLine
 10
7.0195
 20
3.938
 30
0.0
 11
7.0195
 21
3.988
 31
0.0
  0
ARC
  5
20D
330
202
100
AcDbEntity
  8
4
100
AcDbCircle
 10
7.0445
 20
3.938
 30
0.0
 40
0.025
100
AcDbArc
 50
180.0
 51
0.0
  0
ARC
  5
20E
330
202
100
AcDbEntity
  8
4
100
AcDbCircle
 10
6.9555
 20
3.938
 30
0.0
 40
0.025
100
AcDbArc
 50
180.0
 51
0.0
  0
LINE
  5
20F
330
202
100
AcDbEntity
  8
4
100
AcDbLine
 10
6.9805
 20
3.938
 30
0.0
 11
6.9805
 21
3.988
 31
0.0
  0
LINE
  5
210
330
202
100
AcDbEntity
  8
4
100
AcDbLine
 10
6.667479890102485
 20
3.975
 30
0.0
 11
6.729479890102484
 21
3.975
 31
0.0
  0
LINE
  5
211
330
202
100
AcDbEntity
  8
4
100
AcDbLine
 10
6.698479890102484
 20
3.975
 30
0.0
 11
6.698479890102484
 21
3.913
 31
0.0
  0
LINE
  5
212
330
202
100
AcDbEntity
  8
4
100
AcDbLine
 10
6.9805
 20
4.063
 30
0.0
 11
6.9805
 21
4.125
 31
0.0
  0
LINE
  5
213
330
202
100
AcDbEntity
  8
4
100
AcDbLine
 10
6.9805
 20
4.125
 30
0.0
 11
6.4805
 21
4.125
 31
0.0
  0
LINE
  5
214
330
202
100
AcDbEntity
  8
4
100
AcDbLine
 10
6.4805
 20
4.125
 30
0.0
 11
6.4805
 21
4.063
 31
0.0
  0
LINE
  5
215
330
202
100
AcDbEntity
  8
4
100
AcDbLine
 10
6.4805
 20
4.063
 30
0.0
 11
6.511499999999999
 21
4.094
 31
0.0
  0
LINE
  5
216
330
202
100
AcDbEntity
  8
4
100
AcDbLine
 10
5.1705
 20
4.063
 30
0.0
 11
5.2015
 21
4.094
 31
0.0
  0
LINE
  5
217
330
202
100
AcDbEntity
  8
4
100
AcDbLine
 10
5.1705
 20
4.125
 30
0.0
 11
5.1705
 21
4.063
 31
0.0
  0
LINE
  5
218
330
202
100
AcDbEntity
  8
4
100
AcDbLine
 10
5.6705
 20
4.125
 30
0.0
 11
5.1705
 21
4.125
 31
0.0
  0
LINE
  5
219
330
202
100
AcDbEntity
  8
4
100
AcDbLine
 10
5.6705
 20
4.063
 30
0.0
 11
5.6705
 21
4.125
 31
0.0
  0
LINE
  5
21A
330
202
100
AcDbEntity
  8
4
100
AcDbLine
 10
5.388479890102485
 20
3.975
 30
0.0
 11
5.388479890102485
 21
3.913
 31
0.0
  0
LINE
  5
21B
330
202
100
AcDbEntity
  8
4
100
AcDbLine
 10
5.357479890102485
 20
3.975
 30
0.0
 11
5.419479890102484
 21
3.975
 31
0.0
  0
LINE
  5
21C
330
202
100
AcDbEntity
  8
4
100
AcDbLine
 10
5.6705
 20
3.938
 30
0.0
 11
5.6705
 21
3.988
 31
0.0
  0
ARC
  5
21D
330
202
100
AcDbEntity
  8
4
100
AcDbCircle
 10
5.645500000000001
 20
3.938
 30
0.0
 40
0.025
100
AcDbArc
 50
180.0
 51
0.0
  0
ARC
  5
21E
330
202
100
AcDbEntity
  8
4
100
AcDbCircle
 10
3.412999999999999
 20
3.938
 30
0.0
 40
0.025
100
AcDbArc
 50
180.0
 51
0.0
  0
ARC
  5
21F
330
202
100
AcDbEntity
  8
4
100
AcDbCircle
 10
2.962
 20
3.938
 30
0.0
 40
0.025
100
AcDbArc
 50
180.0
 51
0.0
  0
ARC
  5
220
330
202
100
AcDbEntity
  8
4
100
AcDbCircle
 10
2.787999999999999
 20
3.938
 30
0.0
 40
0.025
100
AcDbArc
 50
180.0
 51
0.0
  0
ARC
  5
221
330
202
100
AcDbEntity
  8
4
100
AcDbCircle
 10
2.337
 20
3.938
 30
0.0
 40
0.025
100
AcDbArc
 50
180.0
 51
0.0
  0
ARC
  5
222
330
202
100
AcDbEntity
  8
4
100
AcDbCircle
 10
2.163
 20
3.938
 30
0.0
 40
0.025
100
AcDbArc
 50
180.0
 51
0.0
  0
ARC
  5
223
330
202
100
AcDbEntity
  8
4
100
AcDbCircle
 10
1.712
 20
3.938
 30
0.0
 40
0.025
100
AcDbArc
 50
180.0
 51
0.0
  0
LINE
  5
224
330
202
100
AcDbEntity
  8
4
100
AcDbLine
 10
3.155
 20
3.975
 30
0.0
 11
3.217
 21
3.975
 31
0.0
  0
LINE
  5
225
330
202
100
AcDbEntity
  8
4
100
AcDbLine
 10
3.217
 20
3.975
 30
0.0
 11
3.217
 21
3.913
 31
0.0
  0
LINE
  5
226
330
202
100
AcDbEntity
  8
4
100
AcDbLine
 10
3.155
 20
3.975
 30
0.0
 11
3.155
 21
3.913
 31
0.0
  0
LINE
  5
227
330
202
100
AcDbEntity
  8
4
100
AcDbLine
 10
1.905
 20
3.975
 30
0.0
 11
1.905
 21
3.913
 31
0.0
  0
LINE
  5
228
330
202
100
AcDbEntity
  8
4
100
AcDbLine
 10
1.967
 20
3.975
 30
0.0
 11
1.967
 21
3.913
 31
0.0
  0
LINE
  5
229
330
202
100
AcDbEntity
  8
4
100
AcDbLine
 10
1.905
 20
3.975
 30
0.0
 11
1.967
 21
3.975
 31
0.0
  0
LINE
  5
22A
330
202
100
AcDbEntity
  8
4
100
AcDbLine
 10
2.937
 20
4.125
 30
0.0
 11
3.437999999999999
 21
4.125
 31
0.0
  0
LINE
  5
22B
330
202
100
AcDbEntity
  8
4
100
AcDbLine
 10
2.625
 20
4.125
 30
0.0
 11
2.812999999999999
 21
4.125
 31
0.0
  0
LINE
  5
22C
330
202
100
AcDbEntity
  8
4
100
AcDbLine
 10
2.312
 20
4.125
 30
0.0
 11
2.5
 21
4.125
 31
0.0
  0
LINE
  5
22D
330
202
100
AcDbEntity
  8
4
100
AcDbLine
 10
1.687
 20
4.125
 30
0.0
 11
2.188
 21
4.125
 31
0.0
  0
LINE
  5
22E
330
202
100
AcDbEntity
  8
4
100
AcDbLine
 10
2.625
 20
4.063
 30
0.0
 11
2.812999999999999
 21
4.063
 31
0.0
  0
LINE
  5
22F
330
202
100
AcDbEntity
  8
4
100
AcDbLine
 10
2.312
 20
4.063
 30
0.0
 11
2.5
 21
4.063
 31
0.0
  0
LINE
  5
230
330
202
100
AcDbEntity
  8
4
100
AcDbLine
 10
2.937
 20
4.063
 30
0.0
 11
3.437999999999999
 21
4.063
 31
0.0
  0
LINE
  5
231
330
202
100
AcDbEntity
  8
4
100
AcDbLine
 10
1.687
 20
4.063
 30
0.0
 11
2.188
 21
4.063
 31
0.0
  0
INSERT
  5
232
330
202
100
AcDbEntity
  8
4
100
AcDbBlockReference
  2
ARRO
 10
4.8125
 20
4.5
 30
0.0
 50
270.0
  0
INSERT
  5
233
330
202
100
AcDbEntity
  8
4
100
AcDbBlockReference
  2
ARRO
 10
4.8125
 20
1.5
 30
0.0
 50
270.0
  0
INSERT
  5
234
330
202
100
AcDbEntity
  8
4
100
AcDbBlockReference
  2
ARRO
 10
4.8125
 20
1.562
 30
0.0
 50
90.0
  0
LINE
  5
235
330
202
100
AcDbEntity
  8
4
100
AcDbLine
 10
4.8125
 20
1.562
 30
0.0
 11
4.750499999999999
 21
1.562
 31
0.0
  0
LINE
  5
236
330
202
100
AcDbEntity
  8
4
100
AcDbLine
 10
5.0025
 20
1.562
 30
0.0
 11
4.8125
 21
1.562
 31
0.0
  0
LINE
  5
237
330
202
100
AcDbEntity
  8
4
100
AcDbLine
 10
4.8125
 20
1.5
 30
0.0
 11
4.8125
 21
1.375
 31
0.0
  0
LINE
  5
238
330
202
100
AcDbEntity
  8
4
100
AcDbLine
 10
4.8125
 20
4.5
 30
0.0
 11
4.8125
 21
1.562
 31
0.0
  0
INSERT
  5
239
330
202
100
AcDbEntity
  8
8
100
AcDbBlockReference
  2
TEMP2
 10
4.8125
 20
1.562
 30
0.0
  0
ENDBLK
  5
23B
330
202
100
AcDbEntity
  8
0
100
AcDbBlockEnd
  0
BLOCK
  5
241
330
23E
100
AcDbEntity
  8
4
100
AcDbBlockBegin
  2
TEMP3
 70
     0
 10
0.0
 20
0.0
 30
0.0
  3
TEMP3
  1

  0
TEXT
  5
23F
330
23E
100
AcDbEntity
  8
8
100
AcDbText
 10
0.03
 20
0.0619999999999998
 30
0.0
 40
0.07
  1
HANDLE & P/A
 50
90.0
  7
ROMANS
100
AcDbText
  0
TEXT
  5
240
330
23E
100
AcDbEntity
  8
8
100
AcDbText
 10
0.03
 20
-1.33310960351371
 30
0.0
 40
0.07
  1
LOCK ESCUTCHEON
 50
90.0
  7
ROMANS
 72
     2
 11
0.03
 21
-0.3264429368470441
 31
0.0
100
AcDbText
  0
ENDBLK
  5
242
330
23E
100
AcDbEntity
  8
4
100
AcDbBlockEnd
  0
BLOCK
  5
34D
330
243
100
AcDbEntity
  8
0
100
AcDbBlockBegin
  2
Le1021
 70
     0
 10
0.0
 20
0.0
 30
0.0
  3
Le1021
  1

  0
CIRCLE
  5
244
330
243
100
AcDbEntity
  8
4
100
AcDbCircle
 10
1.207234055463451
 20
3.979483801611808
 30
0.0
 40
0.023
  0
LWPOLYLINE
  5
245
330
243
100
AcDbEntity
  8
4
100
AcDbPolyline
 90
        2
 70
     1
 43
0.01
 10
1.202234055463451
 20
4.031983801611808
 42
1.0
 10
1.212234055463451
 20
4.031983801611808
 42
1.0
  0
LWPOLYLINE
  5
246
330
243
100
AcDbEntity
  8
4
100
AcDbPolyline
 90
        2
 70
     1
 43
0.01
 10
1.202234055463451
 20
3.926983801611808
 42
1.0
 10
1.212234055463451
 20
3.926983801611808
 42
1.0
  0
LINE
  5
247
330
243
100
AcDbEntity
  8
8
100
AcDbLine
 10
4.090501183976541
 20
0.0654300755549915
 30
0.0
 11
4.580501183976541
 21
0.0654300755549915
 31
0.0
  0
TEXT
  5
248
330
243
100
AcDbEntity
  8
8
100
AcDbText
 10
2.330357142857143
 20
0.094
 30
0.0
 40
0.125
  1
QUIET LOCKER -     " TRIPLE TIER
  7
ROMANS
 72
     1
 11
4.125
 21
0.094
 31
0.0
100
AcDbText
  0
INSERT
  5
249
330
243
100
AcDbEntity
  8
4
100
AcDbBlockReference
  2
TEMP2
 10
4.8125
 20
1.562
 30
0.0
  0
INSERT
  5
24A
330
243
100
AcDbEntity
  8
4
100
AcDbBlockReference
  2
TEMP3
 10
0.5859118825233172
 20
3.20866888180704
 30
0.0
  0
CIRCLE
  5
24B
330
243
100
AcDbEntity
  8
4
100
AcDbCircle
 10
1.20723405546345
 20
2.021483801611808
 30
0.0
 40
0.023
  0
LWPOLYLINE
  5
24C
330
243
100
AcDbEntity
  8
4
100
AcDbPolyline
 90
        2
 70
     1
 43
0.01
 10
1.20223405546345
 20
2.073983801611808
 42
1.0
 10
1.21223405546345
 20
2.073983801611808
 42
1.0
  0
LWPOLYLINE
  5
24D
330
243
100
AcDbEntity
  8
4
100
AcDbPolyline
 90
        2
 70
     1
 43
0.01
 10
1.20223405546345
 20
1.968983801611808
 42
1.0
 10
1.21223405546345
 20
1.968983801611808
 42
1.0
  0
CIRCLE
  5
24E
330
243
100
AcDbEntity
  8
4
100
AcDbCircle
 10
1.207234055463451
 20
3.000483801611808
 30
0.0
 40
0.023
  0
LWPOLYLINE
  5
24F
330
243
100
AcDbEntity
  8
4
100
AcDbPolyline
 90
        2
 70
     1
 43
0.01
 10
1.202234055463451
 20
3.052983801611808
 42
1.0
 10
1.21223405546345
 20
3.052983801611808
 42
1.0
  0
LWPOLYLINE
  5
250
330
243
100
AcDbEntity
  8
4
100
AcDbPolyline
 90
        2
 70
     1
 43
0.01
 10
1.202234055463451
 20
2.947983801611808
 42
1.0
 10
1.21223405546345
 20
2.947983801611808
 42
1.0
  0
LINE
  5
251
330
243
100
AcDbEntity
  8
4
100
AcDbLine
 10
6.375499999999999
 20
1.594
 30
0.0
 11
6.4375
 21
1.594
 31
0.0
  0
LINE
  5
252
330
243
100
AcDbEntity
  8
4
100
AcDbLine
 10
5.0655
 20
1.594
 30
0.0
 11
5.1275
 21
1.594
 31
0.0
  0
INSERT
  5
253
330
243
100
AcDbEntity
  8
4
100
AcDbBlockReference
  2
ARRO
 10
4.8125
 20
1.5
 30
0.0
 50
270.0
  0
INSERT
  5
254
330
243
100
AcDbEntity
  8
4
100
AcDbBlockReference
  2
ARRO
 10
4.8125
 20
1.562
 30
0.0
 50
90.0
  0
LINE
  5
255
330
243
100
AcDbEntity
  8
4
100
AcDbLine
 10
4.8125
 20
1.562
 30
0.0
 11
4.750499999999999
 21
1.562
 31
0.0
  0
LINE
  5
256
330
243
100
AcDbEntity
  8
4
100
AcDbLine
 10
5.0025
 20
1.562
 30
0.0
 11
4.8125
 21
1.562
 31
0.0
  0
LINE
  5
257
330
243
100
AcDbEntity
  8
4
100
AcDbLine
 10
4.8125
 20
1.5
 30
0.0
 11
4.8125
 21
1.375
 31
0.0
  0
LINE
  5
258
330
243
100
AcDbEntity
  8
4
100
AcDbLine
 10
7.301520109897514
 20
2.422046183989779
 30
0.0
 11
7.301520109897514
 21
2.360046183989779
 31
0.0
  0
LINE
  5
259
330
243
100
AcDbEntity
  8
4
100
AcDbLine
 10
7.332520109897513
 20
2.422046183989779
 30
0.0
 11
7.270520109897514
 21
2.422046183989779
 31
0.0
  0
LINE
  5
25A
330
243
100
AcDbEntity
  8
4
100
AcDbLine
 10
7.019499999999998
 20
2.38504618398978
 30
0.0
 11
7.019499999999998
 21
2.43504618398978
 31
0.0
  0
ARC
  5
25B
330
243
100
AcDbEntity
  8
4
100
AcDbCircle
 10
7.044499999999998
 20
2.38504618398978
 30
0.0
 40
0.025
100
AcDbArc
 50
180.0
 51
0.0
  0
LINE
  5
25C
330
243
100
AcDbEntity
  8
4
100
AcDbLine
 10
7.019499999999999
 20
2.54200587855713
 30
0.0
 11
7.019499999999999
 21
2.480005878557129
 31
0.0
  0
LINE
  5
25D
330
243
100
AcDbEntity
  8
4
100
AcDbLine
 10
7.059499999999999
 20
2.54200587855713
 30
0.0
 11
7.059499999999999
 21
2.480005878557129
 31
0.0
  0
LINE
  5
25E
330
243
100
AcDbEntity
  8
4
100
AcDbLine
 10
7.059499999999999
 20
2.480005878557129
 30
0.0
 11
7.4245
 21
2.480005878557129
 31
0.0
  0
LINE
  5
25F
330
243
100
AcDbEntity
  8
4
100
AcDbLine
 10
6.513499999999999
 20
2.54200587855713
 30
0.0
 11
6.498499999999999
 21
2.527005878557129
 31
0.0
  0
LINE
  5
260
330
243
100
AcDbEntity
  8
4
100
AcDbLine
 10
6.498499999999999
 20
2.527005878557129
 30
0.0
 11
6.4005
 21
2.527005878557129
 31
0.0
  0
LINE
  5
261
330
243
100
AcDbEntity
  8
4
100
AcDbLine
 10
6.4005
 20
2.527005878557129
 30
0.0
 11
6.4005
 21
2.498759736119569
 31
0.0
  0
LINE
  5
262
330
243
100
AcDbEntity
  8
4
100
AcDbLine
 10
6.575499999999999
 20
2.480005878557129
 30
0.0
 11
6.513499999999999
 21
2.54200587855713
 31
0.0
  0
LINE
  5
263
330
243
100
AcDbEntity
  8
4
100
AcDbLine
 10
6.9405
 20
2.480005878557129
 30
0.0
 11
6.575499999999999
 21
2.480005878557129
 31
0.0
  0
LINE
  5
264
330
243
100
AcDbEntity
  8
4
100
AcDbLine
 10
6.9405
 20
2.54200587855713
 30
0.0
 11
6.9405
 21
2.480005878557129
 31
0.0
  0
LINE
  5
265
330
243
100
AcDbEntity
  8
4
100
AcDbLine
 10
6.9805
 20
2.54200587855713
 30
0.0
 11
6.9805
 21
2.480005878557129
 31
0.0
  0
LINE
  5
266
330
243
100
AcDbEntity
  8
4
100
AcDbLine
 10
6.375499999999999
 20
2.54200587855713
 30
0.0
 11
6.483499999999999
 21
2.54200587855713
 31
0.0
  0
LINE
  5
267
330
243
100
AcDbEntity
  8
4
100
AcDbLine
 10
6.375499999999999
 20
2.480005878557129
 30
0.0
 11
6.375499999999999
 21
2.54200587855713
 31
0.0
  0
LINE
  5
268
330
243
100
AcDbEntity
  8
4
100
AcDbLine
 10
6.4375
 20
2.480005878557129
 30
0.0
 11
6.375499999999999
 21
2.480005878557129
 31
0.0
  0
LINE
  5
269
330
243
100
AcDbEntity
  8
4
100
AcDbLine
 10
6.513499999999999
 20
2.54200587855713
 30
0.0
 11
6.9805
 21
2.54200587855713
 31
0.0
  0
LINE
  5
26A
330
243
100
AcDbEntity
  8
4
100
AcDbLine
 10
6.3755
 20
2.573961724666486
 30
0.0
 11
6.4375
 21
2.573961724666486
 31
0.0
  0
LINE
  5
26B
330
243
100
AcDbEntity
  8
4
100
AcDbLine
 10
6.3755
 20
2.448005878557129
 30
0.0
 11
6.4375
 21
2.448005878557129
 31
0.0
  0
ARC
  5
26C
330
243
100
AcDbEntity
  8
4
100
AcDbCircle
 10
6.955500000000001
 20
2.38504618398978
 30
0.0
 40
0.025
100
AcDbArc
 50
180.0
 51
0.0
  0
LINE
  5
26D
330
243
100
AcDbEntity
  8
4
100
AcDbLine
 10
6.980500000000001
 20
2.38504618398978
 30
0.0
 11
6.980500000000001
 21
2.43504618398978
 31
0.0
  0
LINE
  5
26E
330
243
100
AcDbEntity
  8
4
100
AcDbLine
 10
6.667479890102486
 20
2.422046183989779
 30
0.0
 11
6.729479890102485
 21
2.422046183989779
 31
0.0
  0
LINE
  5
26F
330
243
100
AcDbEntity
  8
4
100
AcDbLine
 10
6.698479890102485
 20
2.422046183989779
 30
0.0
 11
6.698479890102485
 21
2.360046183989779
 31
0.0
  0
LINE
  5
270
330
243
100
AcDbEntity
  8
4
100
AcDbLine
 10
5.002500000000002
 20
2.54200587855713
 30
0.0
 11
4.812500000000001
 21
2.54200587855713
 31
0.0
  0
LINE
  5
271
330
243
100
AcDbEntity
  8
4
100
AcDbLine
 10
4.812500000000001
 20
2.54200587855713
 30
0.0
 11
4.750500000000001
 21
2.54200587855713
 31
0.0
  0
INSERT
  5
272
330
243
100
AcDbEntity
  8
4
100
AcDbBlockReference
  2
ARRO2
 10
4.812500000000001
 20
2.54200587855713
 30
0.0
 50
90.0
  0
LINE
  5
273
330
243
100
AcDbEntity
  8
4
100
AcDbLine
 10
5.388479890102487
 20
2.422046183989779
 30
0.0
 11
5.388479890102487
 21
2.360046183989779
 31
0.0
  0
LINE
  5
274
330
243
100
AcDbEntity
  8
4
100
AcDbLine
 10
5.357479890102487
 20
2.422046183989779
 30
0.0
 11
5.419479890102486
 21
2.422046183989779
 31
0.0
  0
LINE
  5
275
330
243
100
AcDbEntity
  8
4
100
AcDbLine
 10
5.670500000000002
 20
2.38504618398978
 30
0.0
 11
5.670500000000002
 21
2.43504618398978
 31
0.0
  0
ARC
  5
276
330
243
100
AcDbEntity
  8
4
100
AcDbCircle
 10
5.645500000000002
 20
2.38504618398978
 30
0.0
 40
0.025
100
AcDbArc
 50
180.0
 51
0.0
  0
LINE
  5
277
330
243
100
AcDbEntity
  8
4
100
AcDbLine
 10
5.065500000000001
 20
2.448005878557129
 30
0.0
 11
5.127500000000002
 21
2.448005878557129
 31
0.0
  0
LINE
  5
278
330
243
100
AcDbEntity
  8
4
100
AcDbLine
 10
5.065500000000001
 20
2.573961724666486
 30
0.0
 11
5.127500000000001
 21
2.573961724666486
 31
0.0
  0
LINE
  5
279
330
243
100
AcDbEntity
  8
4
100
AcDbLine
 10
5.2035
 20
2.54200587855713
 30
0.0
 11
5.670500000000001
 21
2.54200587855713
 31
0.0
  0
LINE
  5
27A
330
243
100
AcDbEntity
  8
4
100
AcDbLine
 10
5.127500000000001
 20
2.480005878557129
 30
0.0
 11
5.065500000000001
 21
2.480005878557129
 31
0.0
  0
LINE
  5
27B
330
243
100
AcDbEntity
  8
4
100
AcDbLine
 10
5.065500000000001
 20
2.480005878557129
 30
0.0
 11
5.065500000000001
 21
2.54200587855713
 31
0.0
  0
LINE
  5
27C
330
243
100
AcDbEntity
  8
4
100
AcDbLine
 10
5.065500000000001
 20
2.54200587855713
 30
0.0
 11
5.1735
 21
2.54200587855713
 31
0.0
  0
LINE
  5
27D
330
243
100
AcDbEntity
  8
4
100
AcDbLine
 10
5.670500000000001
 20
2.54200587855713
 30
0.0
 11
5.670500000000001
 21
2.480005878557129
 31
0.0
  0
LINE
  5
27E
330
243
100
AcDbEntity
  8
4
100
AcDbLine
 10
5.630500000000001
 20
2.54200587855713
 30
0.0
 11
5.630500000000001
 21
2.480005878557129
 31
0.0
  0
LINE
  5
27F
330
243
100
AcDbEntity
  8
4
100
AcDbLine
 10
5.630500000000001
 20
2.480005878557129
 30
0.0
 11
5.265500000000001
 21
2.480005878557129
 31
0.0
  0
LINE
  5
280
330
243
100
AcDbEntity
  8
4
100
AcDbLine
 10
5.265500000000001
 20
2.480005878557129
 30
0.0
 11
5.2035
 21
2.54200587855713
 31
0.0
  0
LINE
  5
281
330
243
100
AcDbEntity
  8
4
100
AcDbLine
 10
5.090500000000001
 20
2.527005878557129
 30
0.0
 11
5.090500000000001
 21
2.498759736119569
 31
0.0
  0
LINE
  5
282
330
243
100
AcDbEntity
  8
4
100
AcDbLine
 10
5.188500000000001
 20
2.527005878557129
 30
0.0
 11
5.090500000000001
 21
2.527005878557129
 31
0.0
  0
LINE
  5
283
330
243
100
AcDbEntity
  8
4
100
AcDbLine
 10
5.2035
 20
2.54200587855713
 30
0.0
 11
5.188500000000001
 21
2.527005878557129
 31
0.0
  0
LINE
  5
284
330
243
100
AcDbEntity
  8
4
100
AcDbLine
 10
6.375499999999999
 20
3.42700587855713
 30
0.0
 11
6.375499999999999
 21
2.573961724666486
 31
0.0
  0
LINE
  5
285
330
243
100
AcDbEntity
  8
4
100
AcDbLine
 10
5.065500000000001
 20
3.42700587855713
 30
0.0
 11
5.065500000000001
 21
2.573961724666486
 31
0.0
  0
LINE
  5
286
330
243
100
AcDbEntity
  8
4
100
AcDbLine
 10
5.0655
 20
4.406
 30
0.0
 11
5.065500000000001
 21
3.552961724666487
 31
0.0
  0
LINE
  5
287
330
243
100
AcDbEntity
  8
4
100
AcDbLine
 10
6.375499999999999
 20
4.406
 30
0.0
 11
6.375499999999999
 21
3.552961724666486
 31
0.0
  0
LINE
  5
288
330
243
100
AcDbEntity
  8
4
100
AcDbLine
 10
6.375499999999998
 20
4.406
 30
0.0
 11
6.437499999999999
 21
4.406
 31
0.0
  0
LINE
  5
289
330
243
100
AcDbEntity
  8
4
100
AcDbLine
 10
5.065499999999999
 20
4.406
 30
0.0
 11
5.127499999999999
 21
4.406
 31
0.0
  0
INSERT
  5
28A
330
243
100
AcDbEntity
  8
4
100
AcDbBlockReference
  2
ARRO2
 10
4.8125
 20
3.52100587855713
 30
0.0
 50
90.0
  0
LINE
  5
28B
330
243
100
AcDbEntity
  8
4
100
AcDbLine
 10
4.8125
 20
3.52100587855713
 30
0.0
 11
4.7505
 21
3.52100587855713
 31
0.0
  0
LINE
  5
28C
330
243
100
AcDbEntity
  8
4
100
AcDbLine
 10
5.002500000000001
 20
3.52100587855713
 30
0.0
 11
4.8125
 21
3.52100587855713
 31
0.0
  0
LINE
  5
28D
330
243
100
AcDbEntity
  8
4
100
AcDbLine
 10
7.301520109897515
 20
4.379999999999999
 30
0.0
 11
7.301520109897515
 21
4.318
 31
0.0
  0
LINE
  5
28E
330
243
100
AcDbEntity
  8
4
100
AcDbLine
 10
7.332520109897515
 20
4.379999999999999
 30
0.0
 11
7.270520109897516
 21
4.379999999999999
 31
0.0
  0
LINE
  5
28F
330
243
100
AcDbEntity
  8
4
100
AcDbLine
 10
7.0195
 20
4.343000000000001
 30
0.0
 11
7.0195
 21
4.393
 31
0.0
  0
ARC
  5
290
330
243
100
AcDbEntity
  8
4
100
AcDbCircle
 10
7.0445
 20
4.343000000000001
 30
0.0
 40
0.025
100
AcDbArc
 50
180.0
 51
0.0
  0
ARC
  5
291
330
243
100
AcDbEntity
  8
4
100
AcDbCircle
 10
6.9555
 20
4.343000000000001
 30
0.0
 40
0.025
100
AcDbArc
 50
180.0
 51
0.0
  0
LINE
  5
292
330
243
100
AcDbEntity
  8
4
100
AcDbLine
 10
6.9805
 20
4.343000000000001
 30
0.0
 11
6.9805
 21
4.393
 31
0.0
  0
LINE
  5
293
330
243
100
AcDbEntity
  8
4
100
AcDbLine
 10
6.667479890102485
 20
4.379999999999999
 30
0.0
 11
6.729479890102484
 21
4.379999999999999
 31
0.0
  0
LINE
  5
294
330
243
100
AcDbEntity
  8
4
100
AcDbLine
 10
6.698479890102484
 20
4.379999999999999
 30
0.0
 11
6.698479890102484
 21
4.318
 31
0.0
  0
LINE
  5
295
330
243
100
AcDbEntity
  8
4
100
AcDbLine
 10
5.388479890102485
 20
4.379999999999999
 30
0.0
 11
5.388479890102485
 21
4.318
 31
0.0
  0
LINE
  5
296
330
243
100
AcDbEntity
  8
4
100
AcDbLine
 10
5.357479890102485
 20
4.379999999999999
 30
0.0
 11
5.419479890102484
 21
4.379999999999999
 31
0.0
  0
LINE
  5
297
330
243
100
AcDbEntity
  8
4
100
AcDbLine
 10
5.6705
 20
4.343000000000001
 30
0.0
 11
5.6705
 21
4.393
 31
0.0
  0
ARC
  5
298
330
243
100
AcDbEntity
  8
4
100
AcDbCircle
 10
5.645500000000001
 20
4.343000000000001
 30
0.0
 40
0.025
100
AcDbArc
 50
180.0
 51
0.0
  0
INSERT
  5
299
330
243
100
AcDbEntity
  8
4
100
AcDbBlockReference
  2
ARRO
 10
4.8125
 20
4.5
 30
0.0
 50
270.0
  0
LINE
  5
29A
330
243
100
AcDbEntity
  8
4
100
AcDbLine
 10
5.2035
 20
3.52100587855713
 30
0.0
 11
5.1885
 21
3.50600587855713
 31
0.0
  0
LINE
  5
29B
330
243
100
AcDbEntity
  8
4
100
AcDbLine
 10
5.1885
 20
3.50600587855713
 30
0.0
 11
5.0905
 21
3.50600587855713
 31
0.0
  0
LINE
  5
29C
330
243
100
AcDbEntity
  8
4
100
AcDbLine
 10
5.0905
 20
3.50600587855713
 30
0.0
 11
5.0905
 21
3.47775973611957
 31
0.0
  0
LINE
  5
29D
330
243
100
AcDbEntity
  8
4
100
AcDbLine
 10
5.2655
 20
3.45900587855713
 30
0.0
 11
5.2035
 21
3.52100587855713
 31
0.0
  0
LINE
  5
29E
330
243
100
AcDbEntity
  8
4
100
AcDbLine
 10
5.6305
 20
3.45900587855713
 30
0.0
 11
5.2655
 21
3.45900587855713
 31
0.0
  0
LINE
  5
29F
330
243
100
AcDbEntity
  8
4
100
AcDbLine
 10
5.6305
 20
3.52100587855713
 30
0.0
 11
5.6305
 21
3.45900587855713
 31
0.0
  0
LINE
  5
2A0
330
243
100
AcDbEntity
  8
4
100
AcDbLine
 10
5.6705
 20
3.52100587855713
 30
0.0
 11
5.6705
 21
3.45900587855713
 31
0.0
  0
LINE
  5
2A1
330
243
100
AcDbEntity
  8
4
100
AcDbLine
 10
5.0655
 20
3.52100587855713
 30
0.0
 11
5.173499999999999
 21
3.52100587855713
 31
0.0
  0
LINE
  5
2A2
330
243
100
AcDbEntity
  8
4
100
AcDbLine
 10
5.0655
 20
3.45900587855713
 30
0.0
 11
5.0655
 21
3.52100587855713
 31
0.0
  0
LINE
  5
2A3
330
243
100
AcDbEntity
  8
4
100
AcDbLine
 10
5.1275
 20
3.45900587855713
 30
0.0
 11
5.0655
 21
3.45900587855713
 31
0.0
  0
LINE
  5
2A4
330
243
100
AcDbEntity
  8
4
100
AcDbLine
 10
5.2035
 20
3.52100587855713
 30
0.0
 11
5.6705
 21
3.52100587855713
 31
0.0
  0
LINE
  5
2A5
330
243
100
AcDbEntity
  8
4
100
AcDbLine
 10
6.513499999999998
 20
3.52100587855713
 30
0.0
 11
6.980499999999999
 21
3.52100587855713
 31
0.0
  0
LINE
  5
2A6
330
243
100
AcDbEntity
  8
4
100
AcDbLine
 10
6.437499999999999
 20
3.45900587855713
 30
0.0
 11
6.375499999999998
 21
3.45900587855713
 31
0.0
  0
LINE
  5
2A7
330
243
100
AcDbEntity
  8
4
100
AcDbLine
 10
6.375499999999998
 20
3.45900587855713
 30
0.0
 11
6.375499999999998
 21
3.52100587855713
 31
0.0
  0
LINE
  5
2A8
330
243
100
AcDbEntity
  8
4
100
AcDbLine
 10
6.375499999999998
 20
3.52100587855713
 30
0.0
 11
6.483499999999998
 21
3.52100587855713
 31
0.0
  0
LINE
  5
2A9
330
243
100
AcDbEntity
  8
4
100
AcDbLine
 10
6.980499999999999
 20
3.52100587855713
 30
0.0
 11
6.980499999999999
 21
3.45900587855713
 31
0.0
  0
LINE
  5
2AA
330
243
100
AcDbEntity
  8
4
100
AcDbLine
 10
6.940499999999999
 20
3.52100587855713
 30
0.0
 11
6.940499999999999
 21
3.45900587855713
 31
0.0
  0
LINE
  5
2AB
330
243
100
AcDbEntity
  8
4
100
AcDbLine
 10
6.940499999999999
 20
3.45900587855713
 30
0.0
 11
6.575499999999999
 21
3.45900587855713
 31
0.0
  0
LINE
  5
2AC
330
243
100
AcDbEntity
  8
4
100
AcDbLine
 10
6.575499999999999
 20
3.45900587855713
 30
0.0
 11
6.513499999999998
 21
3.52100587855713
 31
0.0
  0
LINE
  5
2AD
330
243
100
AcDbEntity
  8
4
100
AcDbLine
 10
6.400499999999999
 20
3.50600587855713
 30
0.0
 11
6.400499999999999
 21
3.47775973611957
 31
0.0
  0
LINE
  5
2AE
330
243
100
AcDbEntity
  8
4
100
AcDbLine
 10
6.498499999999999
 20
3.50600587855713
 30
0.0
 11
6.400499999999999
 21
3.50600587855713
 31
0.0
  0
LINE
  5
2AF
330
243
100
AcDbEntity
  8
4
100
AcDbLine
 10
6.513499999999998
 20
3.52100587855713
 30
0.0
 11
6.498499999999999
 21
3.50600587855713
 31
0.0
  0
LINE
  5
2B0
330
243
100
AcDbEntity
  8
4
100
AcDbLine
 10
7.0595
 20
3.45900587855713
 30
0.0
 11
7.4245
 21
3.45900587855713
 31
0.0
  0
LINE
  5
2B1
330
243
100
AcDbEntity
  8
4
100
AcDbLine
 10
7.0595
 20
3.52100587855713
 30
0.0
 11
7.0595
 21
3.45900587855713
 31
0.0
  0
LINE
  5
2B2
330
243
100
AcDbEntity
  8
4
100
AcDbLine
 10
7.0195
 20
3.52100587855713
 30
0.0
 11
7.0195
 21
3.45900587855713
 31
0.0
  0
LINE
  5
2B3
330
243
100
AcDbEntity
  8
4
100
AcDbLine
 10
5.065500000000001
 20
3.552961724666487
 30
0.0
 11
5.1275
 21
3.552961724666487
 31
0.0
  0
LINE
  5
2B4
330
243
100
AcDbEntity
  8
4
100
AcDbLine
 10
5.065500000000001
 20
3.42700587855713
 30
0.0
 11
5.127500000000001
 21
3.42700587855713
 31
0.0
  0
LINE
  5
2B5
330
243
100
AcDbEntity
  8
4
100
AcDbLine
 10
6.375499999999998
 20
3.552961724666487
 30
0.0
 11
6.437499999999999
 21
3.552961724666487
 31
0.0
  0
LINE
  5
2B6
330
243
100
AcDbEntity
  8
4
100
AcDbLine
 10
6.375499999999999
 20
3.42700587855713
 30
0.0
 11
6.437499999999999
 21
3.42700587855713
 31
0.0
  0
ARC
  5
2B7
330
243
100
AcDbEntity
  8
4
100
AcDbCircle
 10
5.645500000000001
 20
3.364046183989781
 30
0.0
 40
0.025
100
AcDbArc
 50
180.0
 51
0.0
  0
LINE
  5
2B8
330
243
100
AcDbEntity
  8
4
100
AcDbLine
 10
5.670500000000001
 20
3.364046183989781
 30
0.0
 11
5.670500000000001
 21
3.414046183989781
 31
0.0
  0
LINE
  5
2B9
330
243
100
AcDbEntity
  8
4
100
AcDbLine
 10
5.357479890102486
 20
3.40104618398978
 30
0.0
 11
5.419479890102485
 21
3.40104618398978
 31
0.0
  0
LINE
  5
2BA
330
243
100
AcDbEntity
  8
4
100
AcDbLine
 10
5.388479890102486
 20
3.40104618398978
 30
0.0
 11
5.388479890102486
 21
3.33904618398978
 31
0.0
  0
LINE
  5
2BB
330
243
100
AcDbEntity
  8
4
100
AcDbLine
 10
6.698479890102484
 20
3.40104618398978
 30
0.0
 11
6.698479890102484
 21
3.33904618398978
 31
0.0
  0
LINE
  5
2BC
330
243
100
AcDbEntity
  8
4
100
AcDbLine
 10
6.667479890102485
 20
3.40104618398978
 30
0.0
 11
6.729479890102484
 21
3.40104618398978
 31
0.0
  0
LINE
  5
2BD
330
243
100
AcDbEntity
  8
4
100
AcDbLine
 10
6.9805
 20
3.364046183989781
 30
0.0
 11
6.9805
 21
3.414046183989781
 31
0.0
  0
ARC
  5
2BE
330
243
100
AcDbEntity
  8
4
100
AcDbCircle
 10
6.9555
 20
3.364046183989781
 30
0.0
 40
0.025
100
AcDbArc
 50
180.0
 51
0.0
  0
ARC
  5
2BF
330
243
100
AcDbEntity
  8
4
100
AcDbCircle
 10
7.0445
 20
3.364046183989781
 30
0.0
 40
0.025
100
AcDbArc
 50
180.0
 51
0.0
  0
LINE
  5
2C0
330
243
100
AcDbEntity
  8
4
100
AcDbLine
 10
7.0195
 20
3.364046183989781
 30
0.0
 11
7.0195
 21
3.414046183989781
 31
0.0
  0
LINE
  5
2C1
330
243
100
AcDbEntity
  8
4
100
AcDbLine
 10
7.332520109897515
 20
3.40104618398978
 30
0.0
 11
7.270520109897516
 21
3.40104618398978
 31
0.0
  0
LINE
  5
2C2
330
243
100
AcDbEntity
  8
4
100
AcDbLine
 10
7.301520109897515
 20
3.40104618398978
 30
0.0
 11
7.301520109897515
 21
3.33904618398978
 31
0.0
  0
LINE
  5
2C3
330
243
100
AcDbEntity
  8
4
100
AcDbLine
 10
4.8125
 20
4.5
 30
0.0
 11
4.8125
 21
1.562
 31
0.0
  0
LINE
  5
2C4
330
243
100
AcDbEntity
  8
4
100
AcDbLine
 10
5.0655
 20
2.448005878557129
 30
0.0
 11
5.0655
 21
1.594
 31
0.0
  0
LINE
  5
2C5
330
243
100
AcDbEntity
  8
4
100
AcDbLine
 10
6.375499999999999
 20
2.448005878557129
 30
0.0
 11
6.375499999999999
 21
1.594
 31
0.0
  0
LINE
  5
2C6
330
243
100
AcDbEntity
  8
4
100
AcDbLine
 10
1.113234055463451
 20
3.182467157252411
 30
0.0
 11
1.301234055463451
 21
3.182467157252411
 31
0.0
  0
LINE
  5
2C7
330
243
100
AcDbEntity
  8
4
100
AcDbLine
 10
1.301234055463451
 20
3.182467157252411
 30
0.0
 11
1.269234055463451
 21
2.879967157252411
 31
0.0
  0
LINE
  5
2C8
330
243
100
AcDbEntity
  8
4
100
AcDbLine
 10
1.113234055463451
 20
3.182467157252411
 30
0.0
 11
1.145234055463451
 21
2.879967157252411
 31
0.0
  0
LINE
  5
2C9
330
243
100
AcDbEntity
  8
4
100
AcDbLine
 10
1.145234055463451
 20
2.879967157252411
 30
0.0
 11
1.269234055463451
 21
2.879967157252411
 31
0.0
  0
LINE
  5
2CA
330
243
100
AcDbEntity
  8
4
100
AcDbLine
 10
1.129904527520149
 20
3.167467157252411
 30
0.0
 11
1.158730973801141
 21
2.894967157252411
 31
0.0
  0
LINE
  5
2CB
330
243
100
AcDbEntity
  8
4
100
AcDbLine
 10
1.158730973801141
 20
2.894967157252411
 30
0.0
 11
1.255737137125761
 21
2.894967157252411
 31
0.0
  0
LINE
  5
2CC
330
243
100
AcDbEntity
  8
4
100
AcDbLine
 10
1.284563583406752
 20
3.167467157252411
 30
0.0
 11
1.255737137125761
 21
2.894967157252411
 31
0.0
  0
LINE
  5
2CD
330
243
100
AcDbEntity
  8
4
100
AcDbLine
 10
1.129904527520149
 20
3.167467157252411
 30
0.0
 11
1.284563583406752
 21
3.167467157252411
 31
0.0
  0
LINE
  5
2CE
330
243
100
AcDbEntity
  8
4
100
AcDbLine
 10
1.222234055463451
 20
3.167467157252411
 30
0.0
 11
1.222234055463451
 21
3.120467157252412
 31
0.0
  0
LINE
  5
2CF
330
243
100
AcDbEntity
  8
4
100
AcDbLine
 10
1.222234055463451
 20
3.120467157252412
 30
0.0
 11
1.192234055463451
 21
3.120467157252412
 31
0.0
  0
LINE
  5
2D0
330
243
100
AcDbEntity
  8
4
100
AcDbLine
 10
1.192234055463451
 20
3.120467157252412
 30
0.0
 11
1.192234055463451
 21
3.167467157252411
 31
0.0
  0
ARC
  5
2D1
330
243
100
AcDbEntity
  8
4
100
AcDbCircle
 10
3.412999999999999
 20
2.385046183989781
 30
0.0
 40
0.025
100
AcDbArc
 50
180.0
 51
0.0
  0
ARC
  5
2D2
330
243
100
AcDbEntity
  8
4
100
AcDbCircle
 10
2.961999999999999
 20
2.385046183989781
 30
0.0
 40
0.025
100
AcDbArc
 50
180.0
 51
0.0
  0
ARC
  5
2D3
330
243
100
AcDbEntity
  8
4
100
AcDbCircle
 10
2.787999999999999
 20
2.385046183989781
 30
0.0
 40
0.025
100
AcDbArc
 50
180.0
 51
0.0
  0
ARC
  5
2D4
330
243
100
AcDbEntity
  8
4
100
AcDbCircle
 10
2.336999999999999
 20
2.385046183989781
 30
0.0
 40
0.025
100
AcDbArc
 50
180.0
 51
0.0
  0
ARC
  5
2D5
330
243
100
AcDbEntity
  8
4
100
AcDbCircle
 10
2.163
 20
2.385046183989781
 30
0.0
 40
0.025
100
AcDbArc
 50
180.0
 51
0.0
  0
ARC
  5
2D6
330
243
100
AcDbEntity
  8
4
100
AcDbCircle
 10
1.712
 20
2.385046183989781
 30
0.0
 40
0.025
100
AcDbArc
 50
180.0
 51
0.0
  0
LINE
  5
2D7
330
243
100
AcDbEntity
  8
4
100
AcDbLine
 10
3.155
 20
2.42204618398978
 30
0.0
 11
3.217
 21
2.42204618398978
 31
0.0
  0
LINE
  5
2D8
330
243
100
AcDbEntity
  8
4
100
AcDbLine
 10
3.217
 20
2.42204618398978
 30
0.0
 11
3.217
 21
2.36004618398978
 31
0.0
  0
LINE
  5
2D9
330
243
100
AcDbEntity
  8
4
100
AcDbLine
 10
3.155
 20
2.42204618398978
 30
0.0
 11
3.155
 21
2.36004618398978
 31
0.0
  0
LINE
  5
2DA
330
243
100
AcDbEntity
  8
4
100
AcDbLine
 10
1.905
 20
2.42204618398978
 30
0.0
 11
1.905
 21
2.36004618398978
 31
0.0
  0
LINE
  5
2DB
330
243
100
AcDbEntity
  8
4
100
AcDbLine
 10
1.967
 20
2.42204618398978
 30
0.0
 11
1.967
 21
2.36004618398978
 31
0.0
  0
LINE
  5
2DC
330
243
100
AcDbEntity
  8
4
100
AcDbLine
 10
1.905
 20
2.42204618398978
 30
0.0
 11
1.967
 21
2.42204618398978
 31
0.0
  0
LINE
  5
2DD
330
243
100
AcDbEntity
  8
4
100
AcDbLine
 10
2.625
 20
2.48000587855713
 30
0.0
 11
2.812999999999999
 21
2.48000587855713
 31
0.0
  0
LINE
  5
2DE
330
243
100
AcDbEntity
  8
4
100
AcDbLine
 10
2.625
 20
2.54200587855713
 30
0.0
 11
2.812999999999999
 21
2.54200587855713
 31
0.0
  0
LINE
  5
2DF
330
243
100
AcDbEntity
  8
4
100
AcDbLine
 10
2.937
 20
2.54200587855713
 30
0.0
 11
3.437999999999999
 21
2.54200587855713
 31
0.0
  0
LINE
  5
2E0
330
243
100
AcDbEntity
  8
4
100
AcDbLine
 10
2.937
 20
2.48000587855713
 30
0.0
 11
3.437999999999999
 21
2.48000587855713
 31
0.0
  0
LINE
  5
2E1
330
243
100
AcDbEntity
  8
4
100
AcDbLine
 10
2.312
 20
2.54200587855713
 30
0.0
 11
2.499999999999999
 21
2.54200587855713
 31
0.0
  0
LINE
  5
2E2
330
243
100
AcDbEntity
  8
4
100
AcDbLine
 10
2.312
 20
2.48000587855713
 30
0.0
 11
2.499999999999999
 21
2.48000587855713
 31
0.0
  0
LINE
  5
2E3
330
243
100
AcDbEntity
  8
4
100
AcDbLine
 10
1.686999999999999
 20
2.54200587855713
 30
0.0
 11
2.187999999999999
 21
2.54200587855713
 31
0.0
  0
LINE
  5
2E4
330
243
100
AcDbEntity
  8
4
100
AcDbLine
 10
1.686999999999999
 20
2.48000587855713
 30
0.0
 11
2.187999999999999
 21
2.48000587855713
 31
0.0
  0
LINE
  5
2E5
330
243
100
AcDbEntity
  8
4
100
AcDbLine
 10
1.061999999999999
 20
2.54200587855713
 30
0.0
 11
1.562999999999999
 21
2.54200587855713
 31
0.0
  0
LINE
  5
2E6
330
243
100
AcDbEntity
  8
4
100
AcDbLine
 10
1.061999999999999
 20
2.48000587855713
 30
0.0
 11
1.562999999999999
 21
2.48000587855713
 31
0.0
  0
LINE
  5
2E7
330
243
100
AcDbEntity
  8
4
100
AcDbLine
 10
1.540999999999999
 20
1.843961724666487
 30
0.0
 11
1.540999999999999
 21
1.718961724666487
 31
0.0
  0
LINE
  5
2E8
330
243
100
AcDbEntity
  8
4
100
AcDbLine
 10
1.540999999999999
 20
2.32300587855713
 30
0.0
 11
1.540999999999999
 21
2.19800587855713
 31
0.0
  0
LINE
  5
2E9
330
243
100
AcDbEntity
  8
4
100
AcDbLine
 10
1.530999999999999
 20
1.594961724666487
 30
0.0
 11
1.093999999999999
 21
1.594961724666486
 31
0.0
  0
LINE
  5
2EA
330
243
100
AcDbEntity
  8
4
100
AcDbLine
 10
1.530999999999999
 20
2.44800587855713
 30
0.0
 11
1.530999999999999
 21
1.594961724666487
 31
0.0
  0
LINE
  5
2EB
330
243
100
AcDbEntity
  8
4
100
AcDbLine
 10
1.093999999999999
 20
2.44800587855713
 30
0.0
 11
1.530999999999999
 21
2.44800587855713
 31
0.0
  0
LINE
  5
2EC
330
243
100
AcDbEntity
  8
4
100
AcDbLine
 10
1.093999999999999
 20
1.594961724666486
 30
0.0
 11
1.093999999999999
 21
2.44800587855713
 31
0.0
  0
LINE
  5
2ED
330
243
100
AcDbEntity
  8
4
100
AcDbLine
 10
1.093999999999999
 20
2.573961724666486
 30
0.0
 11
1.094
 21
3.42700587855713
 31
0.0
  0
LINE
  5
2EE
330
243
100
AcDbEntity
  8
4
100
AcDbLine
 10
1.094
 20
3.42700587855713
 30
0.0
 11
1.531
 21
3.42700587855713
 31
0.0
  0
LINE
  5
2EF
330
243
100
AcDbEntity
  8
4
100
AcDbLine
 10
1.531
 20
3.42700587855713
 30
0.0
 11
1.530999999999999
 21
2.573961724666487
 31
0.0
  0
LINE
  5
2F0
330
243
100
AcDbEntity
  8
4
100
AcDbLine
 10
1.530999999999999
 20
2.573961724666487
 30
0.0
 11
1.093999999999999
 21
2.573961724666486
 31
0.0
  0
LINE
  5
2F1
330
243
100
AcDbEntity
  8
4
100
AcDbLine
 10
1.541
 20
3.30200587855713
 30
0.0
 11
1.541
 21
3.17700587855713
 31
0.0
  0
LINE
  5
2F2
330
243
100
AcDbEntity
  8
4
100
AcDbLine
 10
1.540999999999999
 20
2.822961724666487
 30
0.0
 11
1.540999999999999
 21
2.697961724666487
 31
0.0
  0
INSERT
  5
2F3
330
243
100
AcDbEntity
  8
4
100
AcDbBlockReference
  2
ARRO
 10
0.9609118825233171
 20
2.99768701891066
 30
0.0
 50
180.0
  0
INSERT
  5
2F4
330
243
100
AcDbEntity
  8
4
100
AcDbBlockReference
  2
ARRO
 10
0.9609118825233171
 20
3.14666888180704
 30
0.0
 50
180.0
  0
LINE
  5
2F5
330
243
100
AcDbEntity
  8
4
100
AcDbLine
 10
0.5859118825233172
 20
2.99768701891066
 30
0.0
 11
0.5859118825233172
 21
2.93568701891066
 31
0.0
  0
LINE
  5
2F6
330
243
100
AcDbEntity
  8
4
100
AcDbLine
 10
0.9609118825233171
 20
2.99768701891066
 30
0.0
 11
0.5859118825233172
 21
2.99768701891066
 31
0.0
  0
LINE
  5
2F7
330
243
100
AcDbEntity
  8
4
100
AcDbLine
 10
0.5859118825233172
 20
3.14666888180704
 30
0.0
 11
0.5859118825233172
 21
3.20866888180704
 31
0.0
  0
LINE
  5
2F8
330
243
100
AcDbEntity
  8
4
100
AcDbLine
 10
0.9609118825233171
 20
3.14666888180704
 30
0.0
 11
0.5859118825233172
 21
3.14666888180704
 31
0.0
  0
LINE
  5
2F9
330
243
100
AcDbEntity
  8
4
100
AcDbLine
 10
1.540999999999999
 20
3.801961724666487
 30
0.0
 11
1.540999999999999
 21
3.676961724666487
 31
0.0
  0
LINE
  5
2FA
330
243
100
AcDbEntity
  8
4
100
AcDbLine
 10
1.541
 20
4.28100587855713
 30
0.0
 11
1.541
 21
4.15600587855713
 31
0.0
  0
LINE
  5
2FB
330
243
100
AcDbEntity
  8
4
100
AcDbLine
 10
1.530999999999999
 20
3.552961724666487
 30
0.0
 11
1.094
 21
3.552961724666486
 31
0.0
  0
LINE
  5
2FC
330
243
100
AcDbEntity
  8
4
100
AcDbLine
 10
1.531
 20
4.40600587855713
 30
0.0
 11
1.530999999999999
 21
3.552961724666487
 31
0.0
  0
LINE
  5
2FD
330
243
100
AcDbEntity
  8
4
100
AcDbLine
 10
1.094
 20
4.40600587855713
 30
0.0
 11
1.531
 21
4.40600587855713
 31
0.0
  0
LINE
  5
2FE
330
243
100
AcDbEntity
  8
4
100
AcDbLine
 10
1.094
 20
3.552961724666486
 30
0.0
 11
1.094
 21
4.40600587855713
 31
0.0
  0
LINE
  5
2FF
330
243
100
AcDbEntity
  8
4
100
AcDbLine
 10
1.062
 20
3.45900587855713
 30
0.0
 11
1.562999999999999
 21
3.45900587855713
 31
0.0
  0
LINE
  5
300
330
243
100
AcDbEntity
  8
4
100
AcDbLine
 10
1.062
 20
3.52100587855713
 30
0.0
 11
1.562999999999999
 21
3.52100587855713
 31
0.0
  0
LINE
  5
301
330
243
100
AcDbEntity
  8
4
100
AcDbLine
 10
1.687
 20
3.45900587855713
 30
0.0
 11
2.187999999999999
 21
3.45900587855713
 31
0.0
  0
LINE
  5
302
330
243
100
AcDbEntity
  8
4
100
AcDbLine
 10
1.687
 20
3.52100587855713
 30
0.0
 11
2.187999999999999
 21
3.52100587855713
 31
0.0
  0
LINE
  5
303
330
243
100
AcDbEntity
  8
4
100
AcDbLine
 10
2.312
 20
3.45900587855713
 30
0.0
 11
2.499999999999999
 21
3.45900587855713
 31
0.0
  0
LINE
  5
304
330
243
100
AcDbEntity
  8
4
100
AcDbLine
 10
2.312
 20
3.52100587855713
 30
0.0
 11
2.512196030826981
 21
3.52100587855713
 31
0.0
  0
LINE
  5
305
330
243
100
AcDbEntity
  8
4
100
AcDbLine
 10
2.937
 20
3.45900587855713
 30
0.0
 11
3.437999999999999
 21
3.45900587855713
 31
0.0
  0
LINE
  5
306
330
243
100
AcDbEntity
  8
4
100
AcDbLine
 10
2.937
 20
3.52100587855713
 30
0.0
 11
3.437999999999999
 21
3.52100587855713
 31
0.0
  0
LINE
  5
307
330
243
100
AcDbEntity
  8
4
100
AcDbLine
 10
2.625
 20
3.52100587855713
 30
0.0
 11
2.812999999999999
 21
3.52100587855713
 31
0.0
  0
LINE
  5
308
330
243
100
AcDbEntity
  8
4
100
AcDbLine
 10
2.625
 20
3.45900587855713
 30
0.0
 11
2.812999999999999
 21
3.45900587855713
 31
0.0
  0
ARC
  5
309
330
243
100
AcDbEntity
  8
4
100
AcDbCircle
 10
3.412999999999999
 20
4.343
 30
0.0
 40
0.025
100
AcDbArc
 50
180.0
 51
0.0
  0
ARC
  5
30A
330
243
100
AcDbEntity
  8
4
100
AcDbCircle
 10
2.962
 20
4.343
 30
0.0
 40
0.025
100
AcDbArc
 50
180.0
 51
0.0
  0
ARC
  5
30B
330
243
100
AcDbEntity
  8
4
100
AcDbCircle
 10
2.787999999999999
 20
4.343
 30
0.0
 40
0.025
100
AcDbArc
 50
180.0
 51
0.0
  0
ARC
  5
30C
330
243
100
AcDbEntity
  8
4
100
AcDbCircle
 10
2.337
 20
4.343
 30
0.0
 40
0.025
100
AcDbArc
 50
180.0
 51
0.0
  0
ARC
  5
30D
330
243
100
AcDbEntity
  8
4
100
AcDbCircle
 10
2.163
 20
4.343
 30
0.0
 40
0.025
100
AcDbArc
 50
180.0
 51
0.0
  0
ARC
  5
30E
330
243
100
AcDbEntity
  8
4
100
AcDbCircle
 10
1.712
 20
4.343
 30
0.0
 40
0.025
100
AcDbArc
 50
180.0
 51
0.0
  0
LINE
  5
30F
330
243
100
AcDbEntity
  8
4
100
AcDbLine
 10
3.155
 20
4.379999999999999
 30
0.0
 11
3.217
 21
4.379999999999999
 31
0.0
  0
LINE
  5
310
330
243
100
AcDbEntity
  8
4
100
AcDbLine
 10
3.217
 20
4.379999999999999
 30
0.0
 11
3.217
 21
4.318
 31
0.0
  0
LINE
  5
311
330
243
100
AcDbEntity
  8
4
100
AcDbLine
 10
3.155
 20
4.379999999999999
 30
0.0
 11
3.155
 21
4.318
 31
0.0
  0
LINE
  5
312
330
243
100
AcDbEntity
  8
4
100
AcDbLine
 10
1.905
 20
3.40104618398978
 30
0.0
 11
1.967
 21
3.40104618398978
 31
0.0
  0
LINE
  5
313
330
243
100
AcDbEntity
  8
4
100
AcDbLine
 10
1.967
 20
3.40104618398978
 30
0.0
 11
1.967
 21
3.33904618398978
 31
0.0
  0
LINE
  5
314
330
243
100
AcDbEntity
  8
4
100
AcDbLine
 10
1.905
 20
3.40104618398978
 30
0.0
 11
1.905
 21
3.33904618398978
 31
0.0
  0
LINE
  5
315
330
243
100
AcDbEntity
  8
4
100
AcDbLine
 10
3.155
 20
3.40104618398978
 30
0.0
 11
3.155
 21
3.33904618398978
 31
0.0
  0
LINE
  5
316
330
243
100
AcDbEntity
  8
4
100
AcDbLine
 10
3.217
 20
3.40104618398978
 30
0.0
 11
3.217
 21
3.33904618398978
 31
0.0
  0
LINE
  5
317
330
243
100
AcDbEntity
  8
4
100
AcDbLine
 10
3.155
 20
3.40104618398978
 30
0.0
 11
3.217
 21
3.40104618398978
 31
0.0
  0
ARC
  5
318
330
243
100
AcDbEntity
  8
4
100
AcDbCircle
 10
1.712
 20
3.364046183989781
 30
0.0
 40
0.025
100
AcDbArc
 50
180.0
 51
0.0
  0
ARC
  5
319
330
243
100
AcDbEntity
  8
4
100
AcDbCircle
 10
2.163
 20
3.364046183989781
 30
0.0
 40
0.025
100
AcDbArc
 50
180.0
 51
0.0
  0
ARC
  5
31A
330
243
100
AcDbEntity
  8
4
100
AcDbCircle
 10
2.337
 20
3.364046183989781
 30
0.0
 40
0.025
100
AcDbArc
 50
180.0
 51
0.0
  0
ARC
  5
31B
330
243
100
AcDbEntity
  8
4
100
AcDbCircle
 10
2.787999999999999
 20
3.364046183989781
 30
0.0
 40
0.025
100
AcDbArc
 50
180.0
 51
0.0
  0
ARC
  5
31C
330
243
100
AcDbEntity
  8
4
100
AcDbCircle
 10
2.962
 20
3.364046183989781
 30
0.0
 40
0.025
100
AcDbArc
 50
180.0
 51
0.0
  0
ARC
  5
31D
330
243
100
AcDbEntity
  8
4
100
AcDbCircle
 10
3.412999999999999
 20
3.364046183989781
 30
0.0
 40
0.025
100
AcDbArc
 50
180.0
 51
0.0
  0
LINE
  5
31E
330
243
100
AcDbEntity
  8
4
100
AcDbLine
 10
1.192234055463451
 20
2.141467157252411
 30
0.0
 11
1.192234055463451
 21
2.188467157252411
 31
0.0
  0
LINE
  5
31F
330
243
100
AcDbEntity
  8
4
100
AcDbLine
 10
1.222234055463451
 20
2.141467157252411
 30
0.0
 11
1.192234055463451
 21
2.141467157252411
 31
0.0
  0
LINE
  5
320
330
243
100
AcDbEntity
  8
4
100
AcDbLine
 10
1.222234055463451
 20
2.188467157252411
 30
0.0
 11
1.222234055463451
 21
2.141467157252411
 31
0.0
  0
LINE
  5
321
330
243
100
AcDbEntity
  8
4
100
AcDbLine
 10
1.129904527520149
 20
2.188467157252411
 30
0.0
 11
1.284563583406752
 21
2.188467157252411
 31
0.0
  0
LINE
  5
322
330
243
100
AcDbEntity
  8
4
100
AcDbLine
 10
1.284563583406752
 20
2.188467157252411
 30
0.0
 11
1.255737137125761
 21
1.915967157252411
 31
0.0
  0
LINE
  5
323
330
243
100
AcDbEntity
  8
4
100
AcDbLine
 10
1.158730973801141
 20
1.915967157252411
 30
0.0
 11
1.255737137125761
 21
1.915967157252411
 31
0.0
  0
LINE
  5
324
330
243
100
AcDbEntity
  8
4
100
AcDbLine
 10
1.129904527520149
 20
2.188467157252411
 30
0.0
 11
1.158730973801141
 21
1.915967157252411
 31
0.0
  0
LINE
  5
325
330
243
100
AcDbEntity
  8
4
100
AcDbLine
 10
1.145234055463451
 20
1.900967157252411
 30
0.0
 11
1.269234055463451
 21
1.900967157252411
 31
0.0
  0
LINE
  5
326
330
243
100
AcDbEntity
  8
4
100
AcDbLine
 10
1.113234055463451
 20
2.203467157252411
 30
0.0
 11
1.145234055463451
 21
1.900967157252411
 31
0.0
  0
LINE
  5
327
330
243
100
AcDbEntity
  8
4
100
AcDbLine
 10
1.301234055463451
 20
2.203467157252411
 30
0.0
 11
1.269234055463451
 21
1.900967157252411
 31
0.0
  0
LINE
  5
328
330
243
100
AcDbEntity
  8
4
100
AcDbLine
 10
1.113234055463451
 20
2.203467157252411
 30
0.0
 11
1.301234055463451
 21
2.203467157252411
 31
0.0
  0
LINE
  5
329
330
243
100
AcDbEntity
  8
4
100
AcDbLine
 10
1.192234055463451
 20
4.099467157252412
 30
0.0
 11
1.192234055463451
 21
4.146467157252411
 31
0.0
  0
LINE
  5
32A
330
243
100
AcDbEntity
  8
4
100
AcDbLine
 10
1.222234055463451
 20
4.099467157252412
 30
0.0
 11
1.192234055463451
 21
4.099467157252412
 31
0.0
  0
LINE
  5
32B
330
243
100
AcDbEntity
  8
4
100
AcDbLine
 10
1.222234055463451
 20
4.146467157252411
 30
0.0
 11
1.222234055463451
 21
4.099467157252412
 31
0.0
  0
LINE
  5
32C
330
243
100
AcDbEntity
  8
4
100
AcDbLine
 10
1.129904527520149
 20
4.146467157252411
 30
0.0
 11
1.284563583406752
 21
4.146467157252411
 31
0.0
  0
LINE
  5
32D
330
243
100
AcDbEntity
  8
4
100
AcDbLine
 10
1.284563583406752
 20
4.146467157252411
 30
0.0
 11
1.255737137125761
 21
3.873967157252412
 31
0.0
  0
LINE
  5
32E
330
243
100
AcDbEntity
  8
4
100
AcDbLine
 10
1.158730973801141
 20
3.873967157252412
 30
0.0
 11
1.255737137125761
 21
3.873967157252412
 31
0.0
  0
LINE
  5
32F
330
243
100
AcDbEntity
  8
4
100
AcDbLine
 10
1.129904527520149
 20
4.146467157252411
 30
0.0
 11
1.158730973801141
 21
3.873967157252412
 31
0.0
  0
LINE
  5
330
330
243
100
AcDbEntity
  8
4
100
AcDbLine
 10
1.145234055463451
 20
3.858967157252411
 30
0.0
 11
1.269234055463451
 21
3.858967157252411
 31
0.0
  0
LINE
  5
331
330
243
100
AcDbEntity
  8
4
100
AcDbLine
 10
1.113234055463451
 20
4.161467157252412
 30
0.0
 11
1.145234055463451
 21
3.858967157252411
 31
0.0
  0
LINE
  5
332
330
243
100
AcDbEntity
  8
4
100
AcDbLine
 10
1.301234055463451
 20
4.161467157252412
 30
0.0
 11
1.269234055463451
 21
3.858967157252411
 31
0.0
  0
LINE
  5
333
330
243
100
AcDbEntity
  8
4
100
AcDbLine
 10
1.113234055463451
 20
4.161467157252412
 30
0.0
 11
1.301234055463451
 21
4.161467157252412
 31
0.0
  0
LINE
  5
334
330
243
100
AcDbEntity
  8
4
100
AcDbLine
 10
7.6245
 20
1.594
 30
0.0
 11
7.5625
 21
1.594
 31
0.0
  0
LINE
  5
335
330
243
100
AcDbEntity
  8
4
100
AcDbLine
 10
7.624499999999999
 20
2.448005878557129
 30
0.0
 11
7.562499999999999
 21
2.448005878557129
 31
0.0
  0
LINE
  5
336
330
243
100
AcDbEntity
  8
4
100
AcDbLine
 10
7.624499999999999
 20
2.573961724666486
 30
0.0
 11
7.5625
 21
2.573961724666486
 31
0.0
  0
LINE
  5
337
330
243
100
AcDbEntity
  8
4
100
AcDbLine
 10
7.4865
 20
2.54200587855713
 30
0.0
 11
7.019499999999999
 21
2.54200587855713
 31
0.0
  0
LINE
  5
338
330
243
100
AcDbEntity
  8
4
100
AcDbLine
 10
7.5625
 20
2.480005878557129
 30
0.0
 11
7.6245
 21
2.480005878557129
 31
0.0
  0
LINE
  5
339
330
243
100
AcDbEntity
  8
4
100
AcDbLine
 10
7.6245
 20
2.480005878557129
 30
0.0
 11
7.6245
 21
2.54200587855713
 31
0.0
  0
LINE
  5
33A
330
243
100
AcDbEntity
  8
4
100
AcDbLine
 10
7.6245
 20
2.54200587855713
 30
0.0
 11
7.5165
 21
2.54200587855713
 31
0.0
  0
LINE
  5
33B
330
243
100
AcDbEntity
  8
4
100
AcDbLine
 10
7.4245
 20
2.480005878557129
 30
0.0
 11
7.4865
 21
2.54200587855713
 31
0.0
  0
LINE
  5
33C
330
243
100
AcDbEntity
  8
4
100
AcDbLine
 10
7.599499999999999
 20
2.527005878557129
 30
0.0
 11
7.599499999999999
 21
2.498759736119569
 31
0.0
  0
LINE
  5
33D
330
243
100
AcDbEntity
  8
4
100
AcDbLine
 10
7.5015
 20
2.527005878557129
 30
0.0
 11
7.599499999999999
 21
2.527005878557129
 31
0.0
  0
LINE
  5
33E
330
243
100
AcDbEntity
  8
4
100
AcDbLine
 10
7.4865
 20
2.54200587855713
 30
0.0
 11
7.5015
 21
2.527005878557129
 31
0.0
  0
LINE
  5
33F
330
243
100
AcDbEntity
  8
4
100
AcDbLine
 10
7.6245
 20
3.42700587855713
 30
0.0
 11
7.6245
 21
2.573961724666486
 31
0.0
  0
LINE
  5
340
330
243
100
AcDbEntity
  8
4
100
AcDbLine
 10
7.6245
 20
4.406
 30
0.0
 11
7.6245
 21
3.552961724666487
 31
0.0
  0
LINE
  5
341
330
243
100
AcDbEntity
  8
4
100
AcDbLine
 10
7.624500000000001
 20
4.406
 30
0.0
 11
7.5625
 21
4.406
 31
0.0
  0
LINE
  5
342
330
243
100
AcDbEntity
  8
4
100
AcDbLine
 10
7.486500000000001
 20
3.52100587855713
 30
0.0
 11
7.5015
 21
3.50600587855713
 31
0.0
  0
LINE
  5
343
330
243
100
AcDbEntity
  8
4
100
AcDbLine
 10
7.5015
 20
3.50600587855713
 30
0.0
 11
7.5995
 21
3.50600587855713
 31
0.0
  0
LINE
  5
344
330
243
100
AcDbEntity
  8
4
100
AcDbLine
 10
7.5995
 20
3.50600587855713
 30
0.0
 11
7.5995
 21
3.47775973611957
 31
0.0
  0
LINE
  5
345
330
243
100
AcDbEntity
  8
4
100
AcDbLine
 10
7.4245
 20
3.45900587855713
 30
0.0
 11
7.486500000000001
 21
3.52100587855713
 31
0.0
  0
LINE
  5
346
330
243
100
AcDbEntity
  8
4
100
AcDbLine
 10
7.624500000000001
 20
3.52100587855713
 30
0.0
 11
7.516500000000001
 21
3.52100587855713
 31
0.0
  0
LINE
  5
347
330
243
100
AcDbEntity
  8
4
100
AcDbLine
 10
7.624500000000001
 20
3.45900587855713
 30
0.0
 11
7.624500000000001
 21
3.52100587855713
 31
0.0
  0
LINE
  5
348
330
243
100
AcDbEntity
  8
4
100
AcDbLine
 10
7.5625
 20
3.45900587855713
 30
0.0
 11
7.624500000000001
 21
3.45900587855713
 31
0.0
  0
LINE
  5
349
330
243
100
AcDbEntity
  8
4
100
AcDbLine
 10
7.486500000000001
 20
3.52100587855713
 30
0.0
 11
7.0195
 21
3.52100587855713
 31
0.0
  0
LINE
  5
34A
330
243
100
AcDbEntity
  8
4
100
AcDbLine
 10
7.5625
 20
3.552961724666487
 30
0.0
 11
7.624499999999999
 21
3.552961724666487
 31
0.0
  0
LINE
  5
34B
330
243
100
AcDbEntity
  8
4
100
AcDbLine
 10
7.5625
 20
3.42700587855713
 30
0.0
 11
7.624499999999999
 21
3.42700587855713
 31
0.0
  0
LINE
  5
34C
330
243
100
AcDbEntity
  8
4
100
AcDbLine
 10
7.6245
 20
2.448005878557129
 30
0.0
 11
7.6245
 21
1.594
 31
0.0
  0
ENDBLK
  5
34E
330
243
100
AcDbEntity
  8
0
100
AcDbBlockEnd
  0
BLOCK
  5
461
330
351
100
AcDbEntity
  8
0
100
AcDbBlockBegin
  2
Le1022
 70
     0
 10
0.0
 20
0.0
 30
0.0
  3
Le1022
  1

  0
LINE
  5
352
330
351
100
AcDbEntity
  8
4
100
AcDbLine
 10
1.154071414010411
 20
4.252984163158293
 30
0.0
 11
1.342071414010411
 21
4.252984163158293
 31
0.0
  0
LINE
  5
353
330
351
100
AcDbEntity
  8
4
100
AcDbLine
 10
1.154071414010411
 20
4.252984163158293
 30
0.0
 11
1.186071414010411
 21
3.950484163158293
 31
0.0
  0
LINE
  5
354
330
351
100
AcDbEntity
  8
4
100
AcDbLine
 10
1.342071414010411
 20
4.252984163158293
 30
0.0
 11
1.310071414010411
 21
3.950484163158293
 31
0.0
  0
LINE
  5
355
330
351
100
AcDbEntity
  8
4
100
AcDbLine
 10
1.186071414010411
 20
3.950484163158293
 30
0.0
 11
1.310071414010411
 21
3.950484163158293
 31
0.0
  0
LINE
  5
356
330
351
100
AcDbEntity
  8
4
100
AcDbLine
 10
1.170741886067109
 20
4.237984163158293
 30
0.0
 11
1.199568332348101
 21
3.965484163158293
 31
0.0
  0
LINE
  5
357
330
351
100
AcDbEntity
  8
4
100
AcDbLine
 10
1.199568332348101
 20
3.965484163158293
 30
0.0
 11
1.296574495672721
 21
3.965484163158293
 31
0.0
  0
LINE
  5
358
330
351
100
AcDbEntity
  8
4
100
AcDbLine
 10
1.325400941953712
 20
4.237984163158293
 30
0.0
 11
1.296574495672721
 21
3.965484163158293
 31
0.0
  0
LINE
  5
359
330
351
100
AcDbEntity
  8
4
100
AcDbLine
 10
1.170741886067109
 20
4.237984163158293
 30
0.0
 11
1.325400941953712
 21
4.237984163158293
 31
0.0
  0
LINE
  5
35A
330
351
100
AcDbEntity
  8
4
100
AcDbLine
 10
1.263071414010411
 20
4.237984163158293
 30
0.0
 11
1.263071414010411
 21
4.190984163158293
 31
0.0
  0
LINE
  5
35B
330
351
100
AcDbEntity
  8
4
100
AcDbLine
 10
1.263071414010411
 20
4.190984163158293
 30
0.0
 11
1.233071414010411
 21
4.190984163158293
 31
0.0
  0
LINE
  5
35C
330
351
100
AcDbEntity
  8
4
100
AcDbLine
 10
1.233071414010411
 20
4.190984163158293
 30
0.0
 11
1.233071414010411
 21
4.237984163158293
 31
0.0
  0
LWPOLYLINE
  5
35D
330
351
100
AcDbEntity
  8
4
100
AcDbPolyline
 90
        2
 70
     1
 43
0.01
 10
1.243071414010411
 20
4.018500807517689
 42
1.0
 10
1.253071414010411
 20
4.018500807517689
 42
1.0
  0
LWPOLYLINE
  5
35E
330
351
100
AcDbEntity
  8
4
100
AcDbPolyline
 90
        2
 70
     1
 43
0.01
 10
1.243071414010411
 20
4.123500807517689
 42
1.0
 10
1.253071414010411
 20
4.123500807517689
 42
1.0
  0
CIRCLE
  5
35F
330
351
100
AcDbEntity
  8
4
100
AcDbCircle
 10
1.248071414010411
 20
4.071000807517689
 30
0.0
 40
0.023
  0
LINE
  5
360
330
351
100
AcDbEntity
  8
4
100
AcDbLine
 10
1.15407141401041
 20
3.518484163158293
 30
0.0
 11
1.342071414010411
 21
3.518484163158293
 31
0.0
  0
LINE
  5
361
330
351
100
AcDbEntity
  8
4
100
AcDbLine
 10
1.15407141401041
 20
3.518484163158293
 30
0.0
 11
1.18607141401041
 21
3.215984163158293
 31
0.0
  0
LINE
  5
362
330
351
100
AcDbEntity
  8
4
100
AcDbLine
 10
1.342071414010411
 20
3.518484163158293
 30
0.0
 11
1.310071414010411
 21
3.215984163158293
 31
0.0
  0
LINE
  5
363
330
351
100
AcDbEntity
  8
4
100
AcDbLine
 10
1.18607141401041
 20
3.215984163158293
 30
0.0
 11
1.310071414010411
 21
3.215984163158293
 31
0.0
  0
LINE
  5
364
330
351
100
AcDbEntity
  8
4
100
AcDbLine
 10
1.170741886067109
 20
3.503484163158293
 30
0.0
 11
1.199568332348101
 21
3.230984163158293
 31
0.0
  0
LINE
  5
365
330
351
100
AcDbEntity
  8
4
100
AcDbLine
 10
1.199568332348101
 20
3.230984163158293
 30
0.0
 11
1.296574495672721
 21
3.230984163158293
 31
0.0
  0
LINE
  5
366
330
351
100
AcDbEntity
  8
4
100
AcDbLine
 10
1.325400941953712
 20
3.503484163158293
 30
0.0
 11
1.296574495672721
 21
3.230984163158293
 31
0.0
  0
LINE
  5
367
330
351
100
AcDbEntity
  8
4
100
AcDbLine
 10
1.170741886067109
 20
3.503484163158293
 30
0.0
 11
1.325400941953712
 21
3.503484163158293
 31
0.0
  0
LINE
  5
368
330
351
100
AcDbEntity
  8
4
100
AcDbLine
 10
1.26307141401041
 20
3.503484163158293
 30
0.0
 11
1.26307141401041
 21
3.456484163158293
 31
0.0
  0
LINE
  5
369
330
351
100
AcDbEntity
  8
4
100
AcDbLine
 10
1.26307141401041
 20
3.456484163158293
 30
0.0
 11
1.233071414010411
 21
3.456484163158293
 31
0.0
  0
LINE
  5
36A
330
351
100
AcDbEntity
  8
4
100
AcDbLine
 10
1.233071414010411
 20
3.456484163158293
 30
0.0
 11
1.233071414010411
 21
3.503484163158293
 31
0.0
  0
LWPOLYLINE
  5
36B
330
351
100
AcDbEntity
  8
4
100
AcDbPolyline
 90
        2
 70
     1
 43
0.01
 10
1.243071414010411
 20
3.28400080751769
 42
1.0
 10
1.253071414010411
 20
3.28400080751769
 42
1.0
  0
LWPOLYLINE
  5
36C
330
351
100
AcDbEntity
  8
4
100
AcDbPolyline
 90
        2
 70
     1
 43
0.01
 10
1.243071414010411
 20
3.38900080751769
 42
1.0
 10
1.253071414010411
 20
3.38900080751769
 42
1.0
  0
CIRCLE
  5
36D
330
351
100
AcDbEntity
  8
4
100
AcDbCircle
 10
1.248071414010411
 20
3.33650080751769
 30
0.0
 40
0.023
  0
LINE
  5
36E
330
351
100
AcDbEntity
  8
4
100
AcDbLine
 10
1.15407141401041
 20
2.049484163158293
 30
0.0
 11
1.342071414010411
 21
2.049484163158293
 31
0.0
  0
LINE
  5
36F
330
351
100
AcDbEntity
  8
4
100
AcDbLine
 10
1.15407141401041
 20
2.049484163158293
 30
0.0
 11
1.18607141401041
 21
1.746984163158292
 31
0.0
  0
LINE
  5
370
330
351
100
AcDbEntity
  8
4
100
AcDbLine
 10
1.342071414010411
 20
2.049484163158293
 30
0.0
 11
1.310071414010411
 21
1.746984163158292
 31
0.0
  0
LINE
  5
371
330
351
100
AcDbEntity
  8
4
100
AcDbLine
 10
1.18607141401041
 20
1.746984163158292
 30
0.0
 11
1.310071414010411
 21
1.746984163158292
 31
0.0
  0
LINE
  5
372
330
351
100
AcDbEntity
  8
4
100
AcDbLine
 10
1.170741886067109
 20
2.034484163158293
 30
0.0
 11
1.199568332348101
 21
1.761984163158293
 31
0.0
  0
LINE
  5
373
330
351
100
AcDbEntity
  8
4
100
AcDbLine
 10
1.199568332348101
 20
1.761984163158292
 30
0.0
 11
1.296574495672721
 21
1.761984163158293
 31
0.0
  0
LINE
  5
374
330
351
100
AcDbEntity
  8
4
100
AcDbLine
 10
1.325400941953712
 20
2.034484163158293
 30
0.0
 11
1.296574495672721
 21
1.761984163158293
 31
0.0
  0
LINE
  5
375
330
351
100
AcDbEntity
  8
4
100
AcDbLine
 10
1.170741886067109
 20
2.034484163158293
 30
0.0
 11
1.325400941953712
 21
2.034484163158293
 31
0.0
  0
LINE
  5
376
330
351
100
AcDbEntity
  8
4
100
AcDbLine
 10
1.26307141401041
 20
2.034484163158293
 30
0.0
 11
1.26307141401041
 21
1.987484163158292
 31
0.0
  0
LINE
  5
377
330
351
100
AcDbEntity
  8
4
100
AcDbLine
 10
1.26307141401041
 20
1.987484163158292
 30
0.0
 11
1.233071414010411
 21
1.987484163158292
 31
0.0
  0
LINE
  5
378
330
351
100
AcDbEntity
  8
4
100
AcDbLine
 10
1.233071414010411
 20
1.987484163158292
 30
0.0
 11
1.233071414010411
 21
2.034484163158293
 31
0.0
  0
LWPOLYLINE
  5
379
330
351
100
AcDbEntity
  8
4
100
AcDbPolyline
 90
        2
 70
     1
 43
0.01
 10
1.243071414010411
 20
1.815000807517689
 42
1.0
 10
1.253071414010411
 20
1.815000807517689
 42
1.0
  0
LWPOLYLINE
  5
37A
330
351
100
AcDbEntity
  8
4
100
AcDbPolyline
 90
        2
 70
     1
 43
0.01
 10
1.243071414010411
 20
1.920000807517689
 42
1.0
 10
1.253071414010411
 20
1.920000807517689
 42
1.0
  0
CIRCLE
  5
37B
330
351
100
AcDbEntity
  8
4
100
AcDbCircle
 10
1.248071414010411
 20
1.867500807517689
 30
0.0
 40
0.023
  0
CIRCLE
  5
37C
330
351
100
AcDbEntity
  8
4
100
AcDbCircle
 10
1.248071414010411
 20
2.602000807517689
 30
0.0
 40
0.023
  0
LWPOLYLINE
  5
37D
330
351
100
AcDbEntity
  8
4
100
AcDbPolyline
 90
        2
 70
     1
 43
0.01
 10
1.243071414010411
 20
2.654500807517689
 42
1.0
 10
1.253071414010411
 20
2.654500807517689
 42
1.0
  0
LWPOLYLINE
  5
37E
330
351
100
AcDbEntity
  8
4
100
AcDbPolyline
 90
        2
 70
     1
 43
0.01
 10
1.243071414010411
 20
2.549500807517689
 42
1.0
 10
1.253071414010411
 20
2.549500807517689
 42
1.0
  0
INSERT
  5
37F
330
351
100
AcDbEntity
  8
8
100
AcDbBlockReference
  2
TEMP3
 10
0.6267492410702769
 20
2.804779866244397
 30
0.0
  0
LINE
  5
380
330
351
100
AcDbEntity
  8
4
100
AcDbLine
 10
1.233071414010411
 20
2.721984163158292
 30
0.0
 11
1.233071414010411
 21
2.768984163158292
 31
0.0
  0
LINE
  5
381
330
351
100
AcDbEntity
  8
4
100
AcDbLine
 10
1.26307141401041
 20
2.721984163158292
 30
0.0
 11
1.233071414010411
 21
2.721984163158292
 31
0.0
  0
LINE
  5
382
330
351
100
AcDbEntity
  8
4
100
AcDbLine
 10
1.26307141401041
 20
2.768984163158292
 30
0.0
 11
1.26307141401041
 21
2.721984163158292
 31
0.0
  0
LINE
  5
383
330
351
100
AcDbEntity
  8
4
100
AcDbLine
 10
1.170741886067109
 20
2.768984163158292
 30
0.0
 11
1.325400941953712
 21
2.768984163158292
 31
0.0
  0
LINE
  5
384
330
351
100
AcDbEntity
  8
4
100
AcDbLine
 10
1.325400941953712
 20
2.768984163158292
 30
0.0
 11
1.296574495672721
 21
2.496484163158292
 31
0.0
  0
LINE
  5
385
330
351
100
AcDbEntity
  8
4
100
AcDbLine
 10
1.199568332348101
 20
2.496484163158292
 30
0.0
 11
1.296574495672721
 21
2.496484163158292
 31
0.0
  0
LINE
  5
386
330
351
100
AcDbEntity
  8
4
100
AcDbLine
 10
1.170741886067109
 20
2.768984163158292
 30
0.0
 11
1.199568332348101
 21
2.496484163158292
 31
0.0
  0
LINE
  5
387
330
351
100
AcDbEntity
  8
4
100
AcDbLine
 10
1.18607141401041
 20
2.481484163158292
 30
0.0
 11
1.310071414010411
 21
2.481484163158292
 31
0.0
  0
LINE
  5
388
330
351
100
AcDbEntity
  8
4
100
AcDbLine
 10
1.15407141401041
 20
2.783984163158292
 30
0.0
 11
1.18607141401041
 21
2.481484163158292
 31
0.0
  0
LINE
  5
389
330
351
100
AcDbEntity
  8
4
100
AcDbLine
 10
1.342071414010411
 20
2.783984163158292
 30
0.0
 11
1.310071414010411
 21
2.481484163158292
 31
0.0
  0
LINE
  5
38A
330
351
100
AcDbEntity
  8
4
100
AcDbLine
 10
1.15407141401041
 20
2.783984163158292
 30
0.0
 11
1.342071414010411
 21
2.783984163158292
 31
0.0
  0
LINE
  5
38B
330
351
100
AcDbEntity
  8
4
100
AcDbLine
 10
1.001749241070276
 20
2.742779866244397
 30
0.0
 11
0.6267492410702769
 21
2.742779866244397
 31
0.0
  0
LINE
  5
38C
330
351
100
AcDbEntity
  8
4
100
AcDbLine
 10
0.6267492410702769
 20
2.742779866244397
 30
0.0
 11
0.6267492410702769
 21
2.804779866244397
 31
0.0
  0
LINE
  5
38D
330
351
100
AcDbEntity
  8
4
100
AcDbLine
 10
1.001749241070276
 20
2.602336929397352
 30
0.0
 11
0.6267492410702769
 21
2.602336929397352
 31
0.0
  0
LINE
  5
38E
330
351
100
AcDbEntity
  8
4
100
AcDbLine
 10
0.6267492410702769
 20
2.602336929397352
 30
0.0
 11
0.6267492410702769
 21
2.540336929397352
 31
0.0
  0
INSERT
  5
38F
330
351
100
AcDbEntity
  8
4
100
AcDbBlockReference
  2
ARRO
 10
1.001749241070276
 20
2.742779866244397
 30
0.0
 50
180.0
  0
INSERT
  5
390
330
351
100
AcDbEntity
  8
4
100
AcDbBlockReference
  2
ARRO
 10
1.001749241070276
 20
2.602336929397352
 30
0.0
 50
180.0
  0
LINE
  5
391
330
351
100
AcDbEntity
  8
4
100
AcDbLine
 10
7.6245
 20
2.20250587855713
 30
0.0
 11
7.6245
 21
1.594
 31
0.0
  0
LINE
  5
392
330
351
100
AcDbEntity
  8
4
100
AcDbLine
 10
6.375499999999999
 20
2.20250587855713
 30
0.0
 11
6.375499999999999
 21
1.594
 31
0.0
  0
LINE
  5
393
330
351
100
AcDbEntity
  8
4
100
AcDbLine
 10
5.0655
 20
2.20250587855713
 30
0.0
 11
5.0655
 21
1.594
 31
0.0
  0
INSERT
  5
394
330
351
100
AcDbEntity
  8
4
100
AcDbBlockReference
  2
ARRO2
 10
4.812500000000001
 20
2.29650587855713
 30
0.0
 50
90.0
  0
LINE
  5
395
330
351
100
AcDbEntity
  8
4
100
AcDbLine
 10
7.624499999999999
 20
2.20250587855713
 30
0.0
 11
7.562499999999999
 21
2.20250587855713
 31
0.0
  0
LINE
  5
396
330
351
100
AcDbEntity
  8
4
100
AcDbLine
 10
7.624499999999999
 20
2.328461724666487
 30
0.0
 11
7.5625
 21
2.328461724666487
 31
0.0
  0
LINE
  5
397
330
351
100
AcDbEntity
  8
4
100
AcDbLine
 10
7.4865
 20
2.29650587855713
 30
0.0
 11
7.019499999999999
 21
2.29650587855713
 31
0.0
  0
LINE
  5
398
330
351
100
AcDbEntity
  8
4
100
AcDbLine
 10
7.5625
 20
2.23450587855713
 30
0.0
 11
7.6245
 21
2.23450587855713
 31
0.0
  0
LINE
  5
399
330
351
100
AcDbEntity
  8
4
100
AcDbLine
 10
7.6245
 20
2.23450587855713
 30
0.0
 11
7.6245
 21
2.29650587855713
 31
0.0
  0
LINE
  5
39A
330
351
100
AcDbEntity
  8
4
100
AcDbLine
 10
7.6245
 20
2.29650587855713
 30
0.0
 11
7.5165
 21
2.29650587855713
 31
0.0
  0
LINE
  5
39B
330
351
100
AcDbEntity
  8
4
100
AcDbLine
 10
7.019499999999999
 20
2.29650587855713
 30
0.0
 11
7.019499999999999
 21
2.23450587855713
 31
0.0
  0
LINE
  5
39C
330
351
100
AcDbEntity
  8
4
100
AcDbLine
 10
7.059499999999999
 20
2.29650587855713
 30
0.0
 11
7.059499999999999
 21
2.23450587855713
 31
0.0
  0
LINE
  5
39D
330
351
100
AcDbEntity
  8
4
100
AcDbLine
 10
7.059499999999999
 20
2.23450587855713
 30
0.0
 11
7.4245
 21
2.23450587855713
 31
0.0
  0
LINE
  5
39E
330
351
100
AcDbEntity
  8
4
100
AcDbLine
 10
7.4245
 20
2.23450587855713
 30
0.0
 11
7.4865
 21
2.29650587855713
 31
0.0
  0
LINE
  5
39F
330
351
100
AcDbEntity
  8
4
100
AcDbLine
 10
7.599499999999999
 20
2.28150587855713
 30
0.0
 11
7.599499999999999
 21
2.25325973611957
 31
0.0
  0
LINE
  5
3A0
330
351
100
AcDbEntity
  8
4
100
AcDbLine
 10
7.5015
 20
2.28150587855713
 30
0.0
 11
7.599499999999999
 21
2.28150587855713
 31
0.0
  0
LINE
  5
3A1
330
351
100
AcDbEntity
  8
4
100
AcDbLine
 10
7.4865
 20
2.29650587855713
 30
0.0
 11
7.5015
 21
2.28150587855713
 31
0.0
  0
LINE
  5
3A2
330
351
100
AcDbEntity
  8
4
100
AcDbLine
 10
6.513499999999999
 20
2.29650587855713
 30
0.0
 11
6.498499999999999
 21
2.28150587855713
 31
0.0
  0
LINE
  5
3A3
330
351
100
AcDbEntity
  8
4
100
AcDbLine
 10
6.498499999999999
 20
2.28150587855713
 30
0.0
 11
6.4005
 21
2.28150587855713
 31
0.0
  0
LINE
  5
3A4
330
351
100
AcDbEntity
  8
4
100
AcDbLine
 10
6.4005
 20
2.28150587855713
 30
0.0
 11
6.4005
 21
2.25325973611957
 31
0.0
  0
LINE
  5
3A5
330
351
100
AcDbEntity
  8
4
100
AcDbLine
 10
6.575499999999999
 20
2.23450587855713
 30
0.0
 11
6.513499999999999
 21
2.29650587855713
 31
0.0
  0
LINE
  5
3A6
330
351
100
AcDbEntity
  8
4
100
AcDbLine
 10
6.9405
 20
2.23450587855713
 30
0.0
 11
6.575499999999999
 21
2.23450587855713
 31
0.0
  0
LINE
  5
3A7
330
351
100
AcDbEntity
  8
4
100
AcDbLine
 10
6.9405
 20
2.29650587855713
 30
0.0
 11
6.9405
 21
2.23450587855713
 31
0.0
  0
LINE
  5
3A8
330
351
100
AcDbEntity
  8
4
100
AcDbLine
 10
6.9805
 20
2.29650587855713
 30
0.0
 11
6.9805
 21
2.23450587855713
 31
0.0
  0
LINE
  5
3A9
330
351
100
AcDbEntity
  8
4
100
AcDbLine
 10
6.375499999999999
 20
2.29650587855713
 30
0.0
 11
6.483499999999999
 21
2.29650587855713
 31
0.0
  0
LINE
  5
3AA
330
351
100
AcDbEntity
  8
4
100
AcDbLine
 10
6.375499999999999
 20
2.23450587855713
 30
0.0
 11
6.375499999999999
 21
2.29650587855713
 31
0.0
  0
LINE
  5
3AB
330
351
100
AcDbEntity
  8
4
100
AcDbLine
 10
6.4375
 20
2.23450587855713
 30
0.0
 11
6.375499999999999
 21
2.23450587855713
 31
0.0
  0
LINE
  5
3AC
330
351
100
AcDbEntity
  8
4
100
AcDbLine
 10
6.513499999999999
 20
2.29650587855713
 30
0.0
 11
6.9805
 21
2.29650587855713
 31
0.0
  0
LINE
  5
3AD
330
351
100
AcDbEntity
  8
4
100
AcDbLine
 10
6.3755
 20
2.328461724666487
 30
0.0
 11
6.4375
 21
2.328461724666487
 31
0.0
  0
LINE
  5
3AE
330
351
100
AcDbEntity
  8
4
100
AcDbLine
 10
6.3755
 20
2.20250587855713
 30
0.0
 11
6.4375
 21
2.20250587855713
 31
0.0
  0
LINE
  5
3AF
330
351
100
AcDbEntity
  8
4
100
AcDbLine
 10
5.002500000000002
 20
2.29650587855713
 30
0.0
 11
4.812500000000001
 21
2.29650587855713
 31
0.0
  0
LINE
  5
3B0
330
351
100
AcDbEntity
  8
4
100
AcDbLine
 10
4.812500000000001
 20
2.29650587855713
 30
0.0
 11
4.750500000000001
 21
2.29650587855713
 31
0.0
  0
LINE
  5
3B1
330
351
100
AcDbEntity
  8
4
100
AcDbLine
 10
5.065500000000001
 20
2.20250587855713
 30
0.0
 11
5.127500000000002
 21
2.20250587855713
 31
0.0
  0
LINE
  5
3B2
330
351
100
AcDbEntity
  8
4
100
AcDbLine
 10
5.065500000000001
 20
2.328461724666487
 30
0.0
 11
5.127500000000001
 21
2.328461724666487
 31
0.0
  0
LINE
  5
3B3
330
351
100
AcDbEntity
  8
4
100
AcDbLine
 10
5.2035
 20
2.29650587855713
 30
0.0
 11
5.670500000000001
 21
2.29650587855713
 31
0.0
  0
LINE
  5
3B4
330
351
100
AcDbEntity
  8
4
100
AcDbLine
 10
5.127500000000001
 20
2.23450587855713
 30
0.0
 11
5.065500000000001
 21
2.23450587855713
 31
0.0
  0
LINE
  5
3B5
330
351
100
AcDbEntity
  8
4
100
AcDbLine
 10
5.065500000000001
 20
2.23450587855713
 30
0.0
 11
5.065500000000001
 21
2.29650587855713
 31
0.0
  0
LINE
  5
3B6
330
351
100
AcDbEntity
  8
4
100
AcDbLine
 10
5.065500000000001
 20
2.29650587855713
 30
0.0
 11
5.1735
 21
2.29650587855713
 31
0.0
  0
LINE
  5
3B7
330
351
100
AcDbEntity
  8
4
100
AcDbLine
 10
5.670500000000001
 20
2.29650587855713
 30
0.0
 11
5.670500000000001
 21
2.23450587855713
 31
0.0
  0
LINE
  5
3B8
330
351
100
AcDbEntity
  8
4
100
AcDbLine
 10
5.630500000000001
 20
2.29650587855713
 30
0.0
 11
5.630500000000001
 21
2.23450587855713
 31
0.0
  0
LINE
  5
3B9
330
351
100
AcDbEntity
  8
4
100
AcDbLine
 10
5.630500000000001
 20
2.23450587855713
 30
0.0
 11
5.265500000000001
 21
2.23450587855713
 31
0.0
  0
LINE
  5
3BA
330
351
100
AcDbEntity
  8
4
100
AcDbLine
 10
5.265500000000001
 20
2.23450587855713
 30
0.0
 11
5.2035
 21
2.29650587855713
 31
0.0
  0
LINE
  5
3BB
330
351
100
AcDbEntity
  8
4
100
AcDbLine
 10
5.090500000000001
 20
2.28150587855713
 30
0.0
 11
5.090500000000001
 21
2.25325973611957
 31
0.0
  0
LINE
  5
3BC
330
351
100
AcDbEntity
  8
4
100
AcDbLine
 10
5.188500000000001
 20
2.28150587855713
 30
0.0
 11
5.090500000000001
 21
2.28150587855713
 31
0.0
  0
LINE
  5
3BD
330
351
100
AcDbEntity
  8
4
100
AcDbLine
 10
5.2035
 20
2.29650587855713
 30
0.0
 11
5.188500000000001
 21
2.28150587855713
 31
0.0
  0
LINE
  5
3BE
330
351
100
AcDbEntity
  8
4
100
AcDbLine
 10
1.094
 20
1.593961724666486
 30
0.0
 11
1.094
 21
2.20250587855713
 31
0.0
  0
LINE
  5
3BF
330
351
100
AcDbEntity
  8
4
100
AcDbLine
 10
1.094
 20
2.20250587855713
 30
0.0
 11
1.531
 21
2.20250587855713
 31
0.0
  0
LINE
  5
3C0
330
351
100
AcDbEntity
  8
4
100
AcDbLine
 10
1.531
 20
2.20250587855713
 30
0.0
 11
1.530999999999999
 21
1.593961724666487
 31
0.0
  0
LINE
  5
3C1
330
351
100
AcDbEntity
  8
4
100
AcDbLine
 10
1.530999999999999
 20
1.593961724666487
 30
0.0
 11
1.094
 21
1.593961724666486
 31
0.0
  0
LINE
  5
3C2
330
351
100
AcDbEntity
  8
4
100
AcDbLine
 10
1.541
 20
2.07750587855713
 30
0.0
 11
1.541
 21
1.95250587855713
 31
0.0
  0
LINE
  5
3C3
330
351
100
AcDbEntity
  8
4
100
AcDbLine
 10
1.540999999999999
 20
1.842961724666487
 30
0.0
 11
1.540999999999999
 21
1.717961724666487
 31
0.0
  0
LINE
  5
3C4
330
351
100
AcDbEntity
  8
4
100
AcDbLine
 10
2.937
 20
2.23450587855713
 30
0.0
 11
3.437999999999999
 21
2.23450587855713
 31
0.0
  0
LINE
  5
3C5
330
351
100
AcDbEntity
  8
4
100
AcDbLine
 10
2.937
 20
2.29650587855713
 30
0.0
 11
3.437999999999999
 21
2.29650587855713
 31
0.0
  0
LINE
  5
3C6
330
351
100
AcDbEntity
  8
4
100
AcDbLine
 10
2.625
 20
2.29650587855713
 30
0.0
 11
2.812999999999999
 21
2.29650587855713
 31
0.0
  0
LINE
  5
3C7
330
351
100
AcDbEntity
  8
4
100
AcDbLine
 10
2.625
 20
2.23450587855713
 30
0.0
 11
2.812999999999999
 21
2.23450587855713
 31
0.0
  0
LINE
  5
3C8
330
351
100
AcDbEntity
  8
4
100
AcDbLine
 10
2.312
 20
2.23450587855713
 30
0.0
 11
2.499999999999999
 21
2.23450587855713
 31
0.0
  0
LINE
  5
3C9
330
351
100
AcDbEntity
  8
4
100
AcDbLine
 10
2.312
 20
2.29650587855713
 30
0.0
 11
2.512196030826981
 21
2.29650587855713
 31
0.0
  0
LINE
  5
3CA
330
351
100
AcDbEntity
  8
4
100
AcDbLine
 10
1.687
 20
2.29650587855713
 30
0.0
 11
2.187999999999999
 21
2.29650587855713
 31
0.0
  0
LINE
  5
3CB
330
351
100
AcDbEntity
  8
4
100
AcDbLine
 10
1.687
 20
2.23450587855713
 30
0.0
 11
2.187999999999999
 21
2.23450587855713
 31
0.0
  0
LINE
  5
3CC
330
351
100
AcDbEntity
  8
4
100
AcDbLine
 10
1.540999999999999
 20
2.577461724666487
 30
0.0
 11
1.540999999999999
 21
2.452461724666487
 31
0.0
  0
LINE
  5
3CD
330
351
100
AcDbEntity
  8
4
100
AcDbLine
 10
1.541
 20
2.81200587855713
 30
0.0
 11
1.541
 21
2.68700587855713
 31
0.0
  0
LINE
  5
3CE
330
351
100
AcDbEntity
  8
4
100
AcDbLine
 10
1.530999999999999
 20
2.328461724666487
 30
0.0
 11
1.094
 21
2.328461724666486
 31
0.0
  0
LINE
  5
3CF
330
351
100
AcDbEntity
  8
4
100
AcDbLine
 10
1.531
 20
2.93700587855713
 30
0.0
 11
1.530999999999999
 21
2.328461724666487
 31
0.0
  0
LINE
  5
3D0
330
351
100
AcDbEntity
  8
4
100
AcDbLine
 10
1.094
 20
2.93700587855713
 30
0.0
 11
1.531
 21
2.93700587855713
 31
0.0
  0
LINE
  5
3D1
330
351
100
AcDbEntity
  8
4
100
AcDbLine
 10
1.094
 20
2.328461724666486
 30
0.0
 11
1.094
 21
2.93700587855713
 31
0.0
  0
LINE
  5
3D2
330
351
100
AcDbEntity
  8
4
100
AcDbLine
 10
1.062
 20
2.23450587855713
 30
0.0
 11
1.562999999999999
 21
2.23450587855713
 31
0.0
  0
LINE
  5
3D3
330
351
100
AcDbEntity
  8
4
100
AcDbLine
 10
1.062
 20
2.29650587855713
 30
0.0
 11
1.562999999999999
 21
2.29650587855713
 31
0.0
  0
LINE
  5
3D4
330
351
100
AcDbEntity
  8
4
100
AcDbLine
 10
2.937
 20
2.96900587855713
 30
0.0
 11
3.437999999999999
 21
2.96900587855713
 31
0.0
  0
LINE
  5
3D5
330
351
100
AcDbEntity
  8
4
100
AcDbLine
 10
2.937
 20
3.03100587855713
 30
0.0
 11
3.437999999999999
 21
3.03100587855713
 31
0.0
  0
LINE
  5
3D6
330
351
100
AcDbEntity
  8
4
100
AcDbLine
 10
2.625
 20
3.03100587855713
 30
0.0
 11
2.812999999999999
 21
3.03100587855713
 31
0.0
  0
LINE
  5
3D7
330
351
100
AcDbEntity
  8
4
100
AcDbLine
 10
2.625
 20
2.96900587855713
 30
0.0
 11
2.812999999999999
 21
2.96900587855713
 31
0.0
  0
LINE
  5
3D8
330
351
100
AcDbEntity
  8
4
100
AcDbLine
 10
2.312
 20
2.96900587855713
 30
0.0
 11
2.499999999999999
 21
2.96900587855713
 31
0.0
  0
LINE
  5
3D9
330
351
100
AcDbEntity
  8
4
100
AcDbLine
 10
2.312
 20
3.03100587855713
 30
0.0
 11
2.473968300754448
 21
3.03100587855713
 31
0.0
  0
LINE
  5
3DA
330
351
100
AcDbEntity
  8
4
100
AcDbLine
 10
1.687
 20
3.03100587855713
 30
0.0
 11
2.187999999999999
 21
3.03100587855713
 31
0.0
  0
LINE
  5
3DB
330
351
100
AcDbEntity
  8
4
100
AcDbLine
 10
1.687
 20
2.96900587855713
 30
0.0
 11
2.187999999999999
 21
2.96900587855713
 31
0.0
  0
LINE
  5
3DC
330
351
100
AcDbEntity
  8
4
100
AcDbLine
 10
1.540999999999999
 20
3.311961724666487
 30
0.0
 11
1.540999999999999
 21
3.186961724666486
 31
0.0
  0
LINE
  5
3DD
330
351
100
AcDbEntity
  8
4
100
AcDbLine
 10
1.541
 20
3.54650587855713
 30
0.0
 11
1.541
 21
3.42150587855713
 31
0.0
  0
LINE
  5
3DE
330
351
100
AcDbEntity
  8
4
100
AcDbLine
 10
1.530999999999999
 20
3.062961724666487
 30
0.0
 11
1.094
 21
3.062961724666486
 31
0.0
  0
LINE
  5
3DF
330
351
100
AcDbEntity
  8
4
100
AcDbLine
 10
1.531
 20
3.67150587855713
 30
0.0
 11
1.530999999999999
 21
3.062961724666487
 31
0.0
  0
LINE
  5
3E0
330
351
100
AcDbEntity
  8
4
100
AcDbLine
 10
1.094
 20
3.67150587855713
 30
0.0
 11
1.531
 21
3.67150587855713
 31
0.0
  0
LINE
  5
3E1
330
351
100
AcDbEntity
  8
4
100
AcDbLine
 10
1.094
 20
3.062961724666486
 30
0.0
 11
1.094
 21
3.67150587855713
 31
0.0
  0
LINE
  5
3E2
330
351
100
AcDbEntity
  8
4
100
AcDbLine
 10
1.062
 20
2.96900587855713
 30
0.0
 11
1.562999999999999
 21
2.96900587855713
 31
0.0
  0
LINE
  5
3E3
330
351
100
AcDbEntity
  8
4
100
AcDbLine
 10
1.062
 20
3.03100587855713
 30
0.0
 11
1.562999999999999
 21
3.03100587855713
 31
0.0
  0
INSERT
  5
3E4
330
351
100
AcDbEntity
  8
8
100
AcDbBlockReference
  2
TEMP2
 10
4.8125
 20
1.562
 30
0.0
  0
TEXT
  5
3E5
330
351
100
AcDbEntity
  8
8
100
AcDbText
 10
2.386904761904763
 20
0.094
 30
0.0
 40
0.125
  1
QUIET LOCKER -     " FOUR TIER
  7
ROMANS
 72
     1
 11
4.125
 21
0.094
 31
0.0
100
AcDbText
  0
LINE
  5
3E6
330
351
100
AcDbEntity
  8
8
100
AcDbLine
 10
4.143945878162265
 20
0.0701405495565229
 30
0.0
 11
4.643945878162265
 21
0.0701405495565229
 31
0.0
  0
LINE
  5
3E7
330
351
100
AcDbEntity
  8
4
100
AcDbLine
 10
4.8125
 20
1.5
 30
0.0
 11
4.8125
 21
1.375
 31
0.0
  0
LINE
  5
3E8
330
351
100
AcDbEntity
  8
4
100
AcDbLine
 10
5.0025
 20
1.562
 30
0.0
 11
4.8125
 21
1.562
 31
0.0
  0
LINE
  5
3E9
330
351
100
AcDbEntity
  8
4
100
AcDbLine
 10
4.8125
 20
1.562
 30
0.0
 11
4.750499999999999
 21
1.562
 31
0.0
  0
INSERT
  5
3EA
330
351
100
AcDbEntity
  8
4
100
AcDbBlockReference
  2
ARRO
 10
4.8125
 20
1.562
 30
0.0
 50
90.0
  0
INSERT
  5
3EB
330
351
100
AcDbEntity
  8
4
100
AcDbBlockReference
  2
ARRO
 10
4.8125
 20
1.5
 30
0.0
 50
270.0
  0
LINE
  5
3EC
330
351
100
AcDbEntity
  8
4
100
AcDbLine
 10
5.0655
 20
1.594
 30
0.0
 11
5.1275
 21
1.594
 31
0.0
  0
LINE
  5
3ED
330
351
100
AcDbEntity
  8
4
100
AcDbLine
 10
6.375499999999999
 20
1.594
 30
0.0
 11
6.4375
 21
1.594
 31
0.0
  0
LINE
  5
3EE
330
351
100
AcDbEntity
  8
4
100
AcDbLine
 10
7.6245
 20
1.594
 30
0.0
 11
7.5625
 21
1.594
 31
0.0
  0
LINE
  5
3EF
330
351
100
AcDbEntity
  8
4
100
AcDbLine
 10
7.6245
 20
2.93700587855713
 30
0.0
 11
7.6245
 21
2.328461724666487
 31
0.0
  0
LINE
  5
3F0
330
351
100
AcDbEntity
  8
4
100
AcDbLine
 10
6.375499999999999
 20
2.93700587855713
 30
0.0
 11
6.375499999999999
 21
2.328461724666487
 31
0.0
  0
LINE
  5
3F1
330
351
100
AcDbEntity
  8
4
100
AcDbLine
 10
5.0655
 20
2.93700587855713
 30
0.0
 11
5.0655
 21
2.328461724666487
 31
0.0
  0
LINE
  5
3F2
330
351
100
AcDbEntity
  8
4
100
AcDbLine
 10
4.8125
 20
4.5
 30
0.0
 11
4.8125
 21
1.562
 31
0.0
  0
LINE
  5
3F3
330
351
100
AcDbEntity
  8
4
100
AcDbLine
 10
6.375499999999999
 20
3.67150587855713
 30
0.0
 11
6.437499999999999
 21
3.67150587855713
 31
0.0
  0
LINE
  5
3F4
330
351
100
AcDbEntity
  8
4
100
AcDbLine
 10
7.5625
 20
3.67150587855713
 30
0.0
 11
7.624499999999999
 21
3.67150587855713
 31
0.0
  0
LINE
  5
3F5
330
351
100
AcDbEntity
  8
4
100
AcDbLine
 10
7.5625
 20
3.797461724666487
 30
0.0
 11
7.624499999999999
 21
3.797461724666487
 31
0.0
  0
LINE
  5
3F6
330
351
100
AcDbEntity
  8
4
100
AcDbLine
 10
6.375499999999998
 20
3.797461724666487
 30
0.0
 11
6.437499999999999
 21
3.797461724666487
 31
0.0
  0
LINE
  5
3F7
330
351
100
AcDbEntity
  8
4
100
AcDbLine
 10
5.065500000000001
 20
3.67150587855713
 30
0.0
 11
5.127500000000001
 21
3.67150587855713
 31
0.0
  0
LINE
  5
3F8
330
351
100
AcDbEntity
  8
4
100
AcDbLine
 10
5.065500000000001
 20
3.797461724666487
 30
0.0
 11
5.1275
 21
3.797461724666487
 31
0.0
  0
LINE
  5
3F9
330
351
100
AcDbEntity
  8
4
100
AcDbLine
 10
7.486500000000001
 20
3.765505878557131
 30
0.0
 11
7.0195
 21
3.765505878557131
 31
0.0
  0
LINE
  5
3FA
330
351
100
AcDbEntity
  8
4
100
AcDbLine
 10
7.5625
 20
3.70350587855713
 30
0.0
 11
7.624500000000001
 21
3.70350587855713
 31
0.0
  0
LINE
  5
3FB
330
351
100
AcDbEntity
  8
4
100
AcDbLine
 10
7.624500000000001
 20
3.70350587855713
 30
0.0
 11
7.624500000000001
 21
3.765505878557131
 31
0.0
  0
LINE
  5
3FC
330
351
100
AcDbEntity
  8
4
100
AcDbLine
 10
7.624500000000001
 20
3.765505878557131
 30
0.0
 11
7.516500000000001
 21
3.765505878557131
 31
0.0
  0
LINE
  5
3FD
330
351
100
AcDbEntity
  8
4
100
AcDbLine
 10
7.0195
 20
3.765505878557131
 30
0.0
 11
7.0195
 21
3.70350587855713
 31
0.0
  0
LINE
  5
3FE
330
351
100
AcDbEntity
  8
4
100
AcDbLine
 10
7.0595
 20
3.765505878557131
 30
0.0
 11
7.0595
 21
3.70350587855713
 31
0.0
  0
LINE
  5
3FF
330
351
100
AcDbEntity
  8
4
100
AcDbLine
 10
7.0595
 20
3.70350587855713
 30
0.0
 11
7.4245
 21
3.70350587855713
 31
0.0
  0
LINE
  5
400
330
351
100
AcDbEntity
  8
4
100
AcDbLine
 10
7.4245
 20
3.70350587855713
 30
0.0
 11
7.486500000000001
 21
3.765505878557131
 31
0.0
  0
LINE
  5
401
330
351
100
AcDbEntity
  8
4
100
AcDbLine
 10
7.5995
 20
3.75050587855713
 30
0.0
 11
7.5995
 21
3.72225973611957
 31
0.0
  0
LINE
  5
402
330
351
100
AcDbEntity
  8
4
100
AcDbLine
 10
7.5015
 20
3.75050587855713
 30
0.0
 11
7.5995
 21
3.75050587855713
 31
0.0
  0
LINE
  5
403
330
351
100
AcDbEntity
  8
4
100
AcDbLine
 10
7.486500000000001
 20
3.765505878557131
 30
0.0
 11
7.5015
 21
3.75050587855713
 31
0.0
  0
LINE
  5
404
330
351
100
AcDbEntity
  8
4
100
AcDbLine
 10
6.513499999999998
 20
3.765505878557131
 30
0.0
 11
6.498499999999999
 21
3.75050587855713
 31
0.0
  0
LINE
  5
405
330
351
100
AcDbEntity
  8
4
100
AcDbLine
 10
6.498499999999999
 20
3.75050587855713
 30
0.0
 11
6.400499999999999
 21
3.75050587855713
 31
0.0
  0
LINE
  5
406
330
351
100
AcDbEntity
  8
4
100
AcDbLine
 10
6.400499999999999
 20
3.75050587855713
 30
0.0
 11
6.400499999999999
 21
3.72225973611957
 31
0.0
  0
LINE
  5
407
330
351
100
AcDbEntity
  8
4
100
AcDbLine
 10
6.575499999999999
 20
3.70350587855713
 30
0.0
 11
6.513499999999998
 21
3.765505878557131
 31
0.0
  0
LINE
  5
408
330
351
100
AcDbEntity
  8
4
100
AcDbLine
 10
6.940499999999999
 20
3.70350587855713
 30
0.0
 11
6.575499999999999
 21
3.70350587855713
 31
0.0
  0
LINE
  5
409
330
351
100
AcDbEntity
  8
4
100
AcDbLine
 10
6.940499999999999
 20
3.765505878557131
 30
0.0
 11
6.940499999999999
 21
3.70350587855713
 31
0.0
  0
LINE
  5
40A
330
351
100
AcDbEntity
  8
4
100
AcDbLine
 10
6.980499999999999
 20
3.765505878557131
 30
0.0
 11
6.980499999999999
 21
3.70350587855713
 31
0.0
  0
LINE
  5
40B
330
351
100
AcDbEntity
  8
4
100
AcDbLine
 10
6.375499999999998
 20
3.765505878557131
 30
0.0
 11
6.483499999999998
 21
3.765505878557131
 31
0.0
  0
LINE
  5
40C
330
351
100
AcDbEntity
  8
4
100
AcDbLine
 10
6.375499999999998
 20
3.70350587855713
 30
0.0
 11
6.375499999999998
 21
3.765505878557131
 31
0.0
  0
LINE
  5
40D
330
351
100
AcDbEntity
  8
4
100
AcDbLine
 10
6.437499999999999
 20
3.70350587855713
 30
0.0
 11
6.375499999999998
 21
3.70350587855713
 31
0.0
  0
LINE
  5
40E
330
351
100
AcDbEntity
  8
4
100
AcDbLine
 10
6.513499999999998
 20
3.765505878557131
 30
0.0
 11
6.980499999999999
 21
3.765505878557131
 31
0.0
  0
LINE
  5
40F
330
351
100
AcDbEntity
  8
4
100
AcDbLine
 10
5.2035
 20
3.765505878557131
 30
0.0
 11
5.6705
 21
3.765505878557131
 31
0.0
  0
LINE
  5
410
330
351
100
AcDbEntity
  8
4
100
AcDbLine
 10
5.1275
 20
3.70350587855713
 30
0.0
 11
5.0655
 21
3.70350587855713
 31
0.0
  0
LINE
  5
411
330
351
100
AcDbEntity
  8
4
100
AcDbLine
 10
5.0655
 20
3.70350587855713
 30
0.0
 11
5.0655
 21
3.765505878557131
 31
0.0
  0
LINE
  5
412
330
351
100
AcDbEntity
  8
4
100
AcDbLine
 10
5.0655
 20
3.765505878557131
 30
0.0
 11
5.173499999999999
 21
3.765505878557131
 31
0.0
  0
LINE
  5
413
330
351
100
AcDbEntity
  8
4
100
AcDbLine
 10
5.6705
 20
3.765505878557131
 30
0.0
 11
5.6705
 21
3.70350587855713
 31
0.0
  0
LINE
  5
414
330
351
100
AcDbEntity
  8
4
100
AcDbLine
 10
5.6305
 20
3.765505878557131
 30
0.0
 11
5.6305
 21
3.70350587855713
 31
0.0
  0
LINE
  5
415
330
351
100
AcDbEntity
  8
4
100
AcDbLine
 10
5.6305
 20
3.70350587855713
 30
0.0
 11
5.2655
 21
3.70350587855713
 31
0.0
  0
LINE
  5
416
330
351
100
AcDbEntity
  8
4
100
AcDbLine
 10
5.2655
 20
3.70350587855713
 30
0.0
 11
5.2035
 21
3.765505878557131
 31
0.0
  0
LINE
  5
417
330
351
100
AcDbEntity
  8
4
100
AcDbLine
 10
5.0905
 20
3.75050587855713
 30
0.0
 11
5.0905
 21
3.72225973611957
 31
0.0
  0
LINE
  5
418
330
351
100
AcDbEntity
  8
4
100
AcDbLine
 10
5.1885
 20
3.75050587855713
 30
0.0
 11
5.0905
 21
3.75050587855713
 31
0.0
  0
LINE
  5
419
330
351
100
AcDbEntity
  8
4
100
AcDbLine
 10
5.2035
 20
3.765505878557131
 30
0.0
 11
5.1885
 21
3.75050587855713
 31
0.0
  0
INSERT
  5
41A
330
351
100
AcDbEntity
  8
4
100
AcDbBlockReference
  2
ARRO
 10
4.8125
 20
4.5
 30
0.0
 50
270.0
  0
LINE
  5
41B
330
351
100
AcDbEntity
  8
4
100
AcDbLine
 10
5.002500000000001
 20
3.765505878557131
 30
0.0
 11
4.8125
 21
3.765505878557131
 31
0.0
  0
LINE
  5
41C
330
351
100
AcDbEntity
  8
4
100
AcDbLine
 10
4.8125
 20
3.765505878557131
 30
0.0
 11
4.7505
 21
3.765505878557131
 31
0.0
  0
INSERT
  5
41D
330
351
100
AcDbEntity
  8
4
100
AcDbBlockReference
  2
ARRO2
 10
4.8125
 20
3.765505878557131
 30
0.0
 50
90.0
  0
LINE
  5
41E
330
351
100
AcDbEntity
  8
4
100
AcDbLine
 10
5.065499999999999
 20
4.406
 30
0.0
 11
5.127499999999999
 21
4.406
 31
0.0
  0
LINE
  5
41F
330
351
100
AcDbEntity
  8
4
100
AcDbLine
 10
6.375499999999998
 20
4.406
 30
0.0
 11
6.437499999999999
 21
4.406
 31
0.0
  0
LINE
  5
420
330
351
100
AcDbEntity
  8
4
100
AcDbLine
 10
7.624500000000001
 20
4.406
 30
0.0
 11
7.5625
 21
4.406
 31
0.0
  0
LINE
  5
421
330
351
100
AcDbEntity
  8
4
100
AcDbLine
 10
7.6245
 20
4.406
 30
0.0
 11
7.6245
 21
3.797461724666487
 31
0.0
  0
LINE
  5
422
330
351
100
AcDbEntity
  8
4
100
AcDbLine
 10
6.375499999999999
 20
4.406
 30
0.0
 11
6.375499999999999
 21
3.797461724666487
 31
0.0
  0
LINE
  5
423
330
351
100
AcDbEntity
  8
4
100
AcDbLine
 10
5.0655
 20
4.406
 30
0.0
 11
5.065500000000001
 21
3.797461724666487
 31
0.0
  0
LINE
  5
424
330
351
100
AcDbEntity
  8
4
100
AcDbLine
 10
5.065500000000001
 20
3.67150587855713
 30
0.0
 11
5.065500000000001
 21
3.062961724666487
 31
0.0
  0
LINE
  5
425
330
351
100
AcDbEntity
  8
4
100
AcDbLine
 10
6.375499999999999
 20
3.67150587855713
 30
0.0
 11
6.375499999999999
 21
3.062961724666487
 31
0.0
  0
LINE
  5
426
330
351
100
AcDbEntity
  8
4
100
AcDbLine
 10
7.6245
 20
3.67150587855713
 30
0.0
 11
7.6245
 21
3.062961724666487
 31
0.0
  0
LINE
  5
427
330
351
100
AcDbEntity
  8
4
100
AcDbLine
 10
5.2035
 20
3.03100587855713
 30
0.0
 11
5.188500000000001
 21
3.016005878557129
 31
0.0
  0
LINE
  5
428
330
351
100
AcDbEntity
  8
4
100
AcDbLine
 10
5.188500000000001
 20
3.016005878557129
 30
0.0
 11
5.090500000000001
 21
3.016005878557129
 31
0.0
  0
LINE
  5
429
330
351
100
AcDbEntity
  8
4
100
AcDbLine
 10
5.090500000000001
 20
3.016005878557129
 30
0.0
 11
5.090500000000001
 21
2.98775973611957
 31
0.0
  0
LINE
  5
42A
330
351
100
AcDbEntity
  8
4
100
AcDbLine
 10
5.265500000000001
 20
2.96900587855713
 30
0.0
 11
5.2035
 21
3.03100587855713
 31
0.0
  0
LINE
  5
42B
330
351
100
AcDbEntity
  8
4
100
AcDbLine
 10
5.630500000000001
 20
2.96900587855713
 30
0.0
 11
5.265500000000001
 21
2.96900587855713
 31
0.0
  0
LINE
  5
42C
330
351
100
AcDbEntity
  8
4
100
AcDbLine
 10
5.630500000000001
 20
3.03100587855713
 30
0.0
 11
5.630500000000001
 21
2.96900587855713
 31
0.0
  0
LINE
  5
42D
330
351
100
AcDbEntity
  8
4
100
AcDbLine
 10
5.670500000000001
 20
3.03100587855713
 30
0.0
 11
5.670500000000001
 21
2.96900587855713
 31
0.0
  0
LINE
  5
42E
330
351
100
AcDbEntity
  8
4
100
AcDbLine
 10
5.065500000000001
 20
3.03100587855713
 30
0.0
 11
5.1735
 21
3.03100587855713
 31
0.0
  0
LINE
  5
42F
330
351
100
AcDbEntity
  8
4
100
AcDbLine
 10
5.065500000000001
 20
2.96900587855713
 30
0.0
 11
5.065500000000001
 21
3.03100587855713
 31
0.0
  0
LINE
  5
430
330
351
100
AcDbEntity
  8
4
100
AcDbLine
 10
5.127500000000001
 20
2.96900587855713
 30
0.0
 11
5.065500000000001
 21
2.96900587855713
 31
0.0
  0
LINE
  5
431
330
351
100
AcDbEntity
  8
4
100
AcDbLine
 10
5.2035
 20
3.03100587855713
 30
0.0
 11
5.670500000000001
 21
3.03100587855713
 31
0.0
  0
LINE
  5
432
330
351
100
AcDbEntity
  8
4
100
AcDbLine
 10
5.065500000000001
 20
3.062961724666487
 30
0.0
 11
5.127500000000001
 21
3.062961724666487
 31
0.0
  0
LINE
  5
433
330
351
100
AcDbEntity
  8
4
100
AcDbLine
 10
5.065500000000001
 20
2.93700587855713
 30
0.0
 11
5.127500000000002
 21
2.93700587855713
 31
0.0
  0
INSERT
  5
434
330
351
100
AcDbEntity
  8
4
100
AcDbBlockReference
  2
ARRO2
 10
4.812500000000001
 20
3.03100587855713
 30
0.0
 50
90.0
  0
LINE
  5
435
330
351
100
AcDbEntity
  8
4
100
AcDbLine
 10
4.812500000000001
 20
3.03100587855713
 30
0.0
 11
4.750500000000001
 21
3.03100587855713
 31
0.0
  0
LINE
  5
436
330
351
100
AcDbEntity
  8
4
100
AcDbLine
 10
5.002500000000002
 20
3.03100587855713
 30
0.0
 11
4.812500000000001
 21
3.03100587855713
 31
0.0
  0
LINE
  5
437
330
351
100
AcDbEntity
  8
4
100
AcDbLine
 10
6.3755
 20
2.93700587855713
 30
0.0
 11
6.4375
 21
2.93700587855713
 31
0.0
  0
LINE
  5
438
330
351
100
AcDbEntity
  8
4
100
AcDbLine
 10
6.3755
 20
3.062961724666487
 30
0.0
 11
6.4375
 21
3.062961724666487
 31
0.0
  0
LINE
  5
439
330
351
100
AcDbEntity
  8
4
100
AcDbLine
 10
6.513499999999999
 20
3.03100587855713
 30
0.0
 11
6.9805
 21
3.03100587855713
 31
0.0
  0
LINE
  5
43A
330
351
100
AcDbEntity
  8
4
100
AcDbLine
 10
6.4375
 20
2.96900587855713
 30
0.0
 11
6.375499999999999
 21
2.96900587855713
 31
0.0
  0
LINE
  5
43B
330
351
100
AcDbEntity
  8
4
100
AcDbLine
 10
6.375499999999999
 20
2.96900587855713
 30
0.0
 11
6.375499999999999
 21
3.03100587855713
 31
0.0
  0
LINE
  5
43C
330
351
100
AcDbEntity
  8
4
100
AcDbLine
 10
6.375499999999999
 20
3.03100587855713
 30
0.0
 11
6.483499999999999
 21
3.03100587855713
 31
0.0
  0
LINE
  5
43D
330
351
100
AcDbEntity
  8
4
100
AcDbLine
 10
6.9805
 20
3.03100587855713
 30
0.0
 11
6.9805
 21
2.96900587855713
 31
0.0
  0
LINE
  5
43E
330
351
100
AcDbEntity
  8
4
100
AcDbLine
 10
6.9405
 20
3.03100587855713
 30
0.0
 11
6.9405
 21
2.96900587855713
 31
0.0
  0
LINE
  5
43F
330
351
100
AcDbEntity
  8
4
100
AcDbLine
 10
6.9405
 20
2.96900587855713
 30
0.0
 11
6.575499999999999
 21
2.96900587855713
 31
0.0
  0
LINE
  5
440
330
351
100
AcDbEntity
  8
4
100
AcDbLine
 10
6.575499999999999
 20
2.96900587855713
 30
0.0
 11
6.513499999999999
 21
3.03100587855713
 31
0.0
  0
LINE
  5
441
330
351
100
AcDbEntity
  8
4
100
AcDbLine
 10
6.4005
 20
3.016005878557129
 30
0.0
 11
6.4005
 21
2.98775973611957
 31
0.0
  0
LINE
  5
442
330
351
100
AcDbEntity
  8
4
100
AcDbLine
 10
6.498499999999999
 20
3.016005878557129
 30
0.0
 11
6.4005
 21
3.016005878557129
 31
0.0
  0
LINE
  5
443
330
351
100
AcDbEntity
  8
4
100
AcDbLine
 10
6.513499999999999
 20
3.03100587855713
 30
0.0
 11
6.498499999999999
 21
3.016005878557129
 31
0.0
  0
LINE
  5
444
330
351
100
AcDbEntity
  8
4
100
AcDbLine
 10
7.4865
 20
3.03100587855713
 30
0.0
 11
7.5015
 21
3.016005878557129
 31
0.0
  0
LINE
  5
445
330
351
100
AcDbEntity
  8
4
100
AcDbLine
 10
7.5015
 20
3.016005878557129
 30
0.0
 11
7.599499999999999
 21
3.016005878557129
 31
0.0
  0
LINE
  5
446
330
351
100
AcDbEntity
  8
4
100
AcDbLine
 10
7.599499999999999
 20
3.016005878557129
 30
0.0
 11
7.599499999999999
 21
2.98775973611957
 31
0.0
  0
LINE
  5
447
330
351
100
AcDbEntity
  8
4
100
AcDbLine
 10
7.4245
 20
2.96900587855713
 30
0.0
 11
7.4865
 21
3.03100587855713
 31
0.0
  0
LINE
  5
448
330
351
100
AcDbEntity
  8
4
100
AcDbLine
 10
7.059499999999999
 20
2.96900587855713
 30
0.0
 11
7.4245
 21
2.96900587855713
 31
0.0
  0
LINE
  5
449
330
351
100
AcDbEntity
  8
4
100
AcDbLine
 10
7.059499999999999
 20
3.03100587855713
 30
0.0
 11
7.059499999999999
 21
2.96900587855713
 31
0.0
  0
LINE
  5
44A
330
351
100
AcDbEntity
  8
4
100
AcDbLine
 10
7.019499999999999
 20
3.03100587855713
 30
0.0
 11
7.019499999999999
 21
2.96900587855713
 31
0.0
  0
LINE
  5
44B
330
351
100
AcDbEntity
  8
4
100
AcDbLine
 10
7.6245
 20
3.03100587855713
 30
0.0
 11
7.5165
 21
3.03100587855713
 31
0.0
  0
LINE
  5
44C
330
351
100
AcDbEntity
  8
4
100
AcDbLine
 10
7.6245
 20
2.96900587855713
 30
0.0
 11
7.6245
 21
3.03100587855713
 31
0.0
  0
LINE
  5
44D
330
351
100
AcDbEntity
  8
4
100
AcDbLine
 10
7.5625
 20
2.96900587855713
 30
0.0
 11
7.6245
 21
2.96900587855713
 31
0.0
  0
LINE
  5
44E
330
351
100
AcDbEntity
  8
4
100
AcDbLine
 10
7.4865
 20
3.03100587855713
 30
0.0
 11
7.019499999999999
 21
3.03100587855713
 31
0.0
  0
LINE
  5
44F
330
351
100
AcDbEntity
  8
4
100
AcDbLine
 10
7.624499999999999
 20
3.062961724666487
 30
0.0
 11
7.5625
 21
3.062961724666487
 31
0.0
  0
LINE
  5
450
330
351
100
AcDbEntity
  8
4
100
AcDbLine
 10
7.624499999999999
 20
2.93700587855713
 30
0.0
 11
7.562499999999999
 21
2.93700587855713
 31
0.0
  0
LINE
  5
451
330
351
100
AcDbEntity
  8
4
100
AcDbLine
 10
2.625
 20
3.70350587855713
 30
0.0
 11
2.812999999999999
 21
3.70350587855713
 31
0.0
  0
LINE
  5
452
330
351
100
AcDbEntity
  8
4
100
AcDbLine
 10
2.625
 20
3.76550587855713
 30
0.0
 11
2.812999999999999
 21
3.76550587855713
 31
0.0
  0
LINE
  5
453
330
351
100
AcDbEntity
  8
4
100
AcDbLine
 10
2.937
 20
3.76550587855713
 30
0.0
 11
3.437999999999999
 21
3.76550587855713
 31
0.0
  0
LINE
  5
454
330
351
100
AcDbEntity
  8
4
100
AcDbLine
 10
2.937
 20
3.70350587855713
 30
0.0
 11
3.437999999999999
 21
3.70350587855713
 31
0.0
  0
LINE
  5
455
330
351
100
AcDbEntity
  8
4
100
AcDbLine
 10
2.312
 20
3.76550587855713
 30
0.0
 11
2.512196030826981
 21
3.76550587855713
 31
0.0
  0
LINE
  5
456
330
351
100
AcDbEntity
  8
4
100
AcDbLine
 10
2.312
 20
3.70350587855713
 30
0.0
 11
2.499999999999999
 21
3.70350587855713
 31
0.0
  0
LINE
  5
457
330
351
100
AcDbEntity
  8
4
100
AcDbLine
 10
1.687
 20
3.76550587855713
 30
0.0
 11
2.187999999999999
 21
3.76550587855713
 31
0.0
  0
LINE
  5
458
330
351
100
AcDbEntity
  8
4
100
AcDbLine
 10
1.687
 20
3.70350587855713
 30
0.0
 11
2.187999999999999
 21
3.70350587855713
 31
0.0
  0
LINE
  5
459
330
351
100
AcDbEntity
  8
4
100
AcDbLine
 10
1.062
 20
3.76550587855713
 30
0.0
 11
1.562999999999999
 21
3.76550587855713
 31
0.0
  0
LINE
  5
45A
330
351
100
AcDbEntity
  8
4
100
AcDbLine
 10
1.062
 20
3.70350587855713
 30
0.0
 11
1.562999999999999
 21
3.70350587855713
 31
0.0
  0
LINE
  5
45B
330
351
100
AcDbEntity
  8
4
100
AcDbLine
 10
1.094
 20
3.797461724666486
 30
0.0
 11
1.094
 21
4.40600587855713
 31
0.0
  0
LINE
  5
45C
330
351
100
AcDbEntity
  8
4
100
AcDbLine
 10
1.094
 20
4.40600587855713
 30
0.0
 11
1.531
 21
4.40600587855713
 31
0.0
  0
LINE
  5
45D
330
351
100
AcDbEntity
  8
4
100
AcDbLine
 10
1.531
 20
4.40600587855713
 30
0.0
 11
1.530999999999999
 21
3.797461724666487
 31
0.0
  0
LINE
  5
45E
330
351
100
AcDbEntity
  8
4
100
AcDbLine
 10
1.530999999999999
 20
3.797461724666487
 30
0.0
 11
1.094
 21
3.797461724666486
 31
0.0
  0
LINE
  5
45F
330
351
100
AcDbEntity
  8
4
100
AcDbLine
 10
1.541
 20
4.28100587855713
 30
0.0
 11
1.541
 21
4.15600587855713
 31
0.0
  0
LINE
  5
460
330
351
100
AcDbEntity
  8
4
100
AcDbLine
 10
1.540999999999999
 20
4.046461724666487
 30
0.0
 11
1.540999999999999
 21
3.921461724666487
 31
0.0
  0
ENDBLK
  5
462
330
351
100
AcDbEntity
  8
0
100
AcDbBlockEnd
  0
BLOCK
  5
472
330
465
100
AcDbEntity
  8
8
100
AcDbBlockBegin
  2
TEMP6
 70
     0
 10
0.0
 20
0.0
 30
0.0
  3
TEMP6
  1

  0
TEXT
  5
466
330
465
100
AcDbEntity
  8
8
100
AcDbText
 10
4.750499999999999
 20
4.28818346661767
 30
0.0
 40
0.07
  1
9
 50
90.0
  7
ROMANS
 72
     1
 11
4.750499999999999
 21
4.319850133284337
 31
0.0
100
AcDbText
  0
TEXT
  5
467
330
465
100
AcDbEntity
  8
8
100
AcDbText
 10
4.750499999999999
 20
3.899688553647198
 30
0.0
 40
0.07
  1
9
 50
90.0
  7
ROMANS
 72
     1
 11
4.750499999999999
 21
3.931355220313864
 31
0.0
100
AcDbText
  0
INSERT
  5
468
330
465
100
AcDbEntity
  8
8
100
AcDbBlockReference
  2
TEMP2
 10
4.8125
 20
1.562
 30
0.0
  0
LINE
  5
469
330
465
100
AcDbEntity
  8
4
100
AcDbLine
 10
5.0025
 20
3.7505
 30
0.0
 11
4.750499999999999
 21
3.7505
 31
0.0
  0
LINE
  5
46A
330
465
100
AcDbEntity
  8
4
100
AcDbLine
 10
5.0025
 20
4.125
 30
0.0
 11
4.750499999999999
 21
4.125
 31
0.0
  0
INSERT
  5
46B
330
465
100
AcDbEntity
  8
4
100
AcDbBlockReference
  2
ARRO2
 10
4.8125
 20
4.125
 30
0.0
 50
90.0
  0
INSERT
  5
46C
330
465
100
AcDbEntity
  8
4
100
AcDbBlockReference
  2
ARRO2
 10
4.8125
 20
3.7505
 30
0.0
 50
270.0
  0
INSERT
  5
46D
330
465
100
AcDbEntity
  8
4
100
AcDbBlockReference
  2
ARRO
 10
4.8125
 20
4.5
 30
0.0
 50
270.0
  0
LINE
  5
46E
330
465
100
AcDbEntity
  8
4
100
AcDbLine
 10
4.8125
 20
4.5
 30
0.0
 11
4.8125
 21
1.562
 31
0.0
  0
LINE
  5
46F
330
465
100
AcDbEntity
  8
4
100
AcDbLine
 10
5.0025
 20
1.562
 30
0.0
 11
4.750499999999999
 21
1.562
 31
0.0
  0
INSERT
  5
470
330
465
100
AcDbEntity
  8
4
100
AcDbBlockReference
  2
ARRO
 10
4.8125
 20
1.5
 30
0.0
 50
270.0
  0
INSERT
  5
471
330
465
100
AcDbEntity
  8
4
100
AcDbBlockReference
  2
ARRO
 10
4.8125
 20
1.562
 30
0.0
 50
90.0
  0
ENDBLK
  5
473
330
465
100
AcDbEntity
  8
8
100
AcDbBlockEnd
  0
BLOCK
  5
53C
330
474
100
AcDbEntity
  8
0
100
AcDbBlockBegin
  2
Le1023
 70
     0
 10
0.0
 20
0.0
 30
0.0
  3
Le1023
  1

  0
CIRCLE
  5
475
330
474
100
AcDbEntity
  8
4
100
AcDbCircle
 10
1.443500000000001
 20
2.776200712897454
 30
0.0
 40
0.023
  0
LWPOLYLINE
  5
476
330
474
100
AcDbEntity
  8
4
100
AcDbPolyline
 90
        2
 70
     1
 43
0.01
 10
1.438500000000001
 20
2.828700712897454
 42
1.0
 10
1.448500000000001
 20
2.828700712897454
 42
1.0
  0
LWPOLYLINE
  5
477
330
474
100
AcDbEntity
  8
4
100
AcDbPolyline
 90
        2
 70
     1
 43
0.01
 10
1.438500000000001
 20
2.723700712897453
 42
1.0
 10
1.448500000000001
 20
2.723700712897453
 42
1.0
  0
CIRCLE
  5
478
330
474
100
AcDbEntity
  8
4
100
AcDbCircle
 10
1.177022825370309
 20
2.776200712897454
 30
0.0
 40
0.023
  0
LWPOLYLINE
  5
479
330
474
100
AcDbEntity
  8
4
100
AcDbPolyline
 90
        2
 70
     1
 43
0.01
 10
1.172022825370309
 20
2.828700712897454
 42
1.0
 10
1.182022825370309
 20
2.828700712897454
 42
1.0
  0
LWPOLYLINE
  5
47A
330
474
100
AcDbEntity
  8
4
100
AcDbPolyline
 90
        2
 70
     1
 43
0.01
 10
1.172022825370309
 20
2.723700712897454
 42
1.0
 10
1.182022825370309
 20
2.723700712897454
 42
1.0
  0
INSERT
  5
47B
330
474
100
AcDbEntity
  8
8
100
AcDbBlockReference
  2
TEMP6
 10
0.0
 20
0.0
 30
0.0
  0
LINE
  5
47C
330
474
100
AcDbEntity
  8
8
100
AcDbLine
 10
4.01203704013064
 20
0.0687889105085123
 30
0.0
 11
4.51203704013064
 21
0.0687889105085123
 31
0.0
  0
TEXT
  5
47D
330
474
100
AcDbEntity
  8
8
100
AcDbText
 10
2.270833333333333
 20
0.094
 30
0.0
 40
0.125
  1
QUIET LOCKER -     " TWO PERSON
  7
ROMANS
 72
     1
 11
4.125
 21
0.094
 31
0.0
100
AcDbText
  0
INSERT
  5
47E
330
474
100
AcDbEntity
  8
8
100
AcDbBlockReference
  2
TEMP3
 10
0.5859118825233172
 20
2.976192936617828
 30
0.0
  0
LINE
  5
47F
330
474
100
AcDbEntity
  8
4
100
AcDbLine
 10
1.270542952683817
 20
3.419
 30
0.0
 11
1.270542952683817
 21
3.294
 31
0.0
  0
LINE
  5
480
330
474
100
AcDbEntity
  8
4
100
AcDbLine
 10
5.0655
 20
1.594
 30
0.0
 11
5.1275
 21
1.594
 31
0.0
  0
LINE
  5
481
330
474
100
AcDbEntity
  8
4
100
AcDbLine
 10
6.375499999999999
 20
1.594
 30
0.0
 11
6.4375
 21
1.594
 31
0.0
  0
LINE
  5
482
330
474
100
AcDbEntity
  8
4
100
AcDbLine
 10
7.6245
 20
1.594
 30
0.0
 11
7.5625
 21
1.594
 31
0.0
  0
LINE
  5
483
330
474
100
AcDbEntity
  8
4
100
AcDbLine
 10
6.375499999999998
 20
3.782500000000001
 30
0.0
 11
6.437499999999998
 21
3.782500000000001
 31
0.0
  0
LINE
  5
484
330
474
100
AcDbEntity
  8
4
100
AcDbLine
 10
5.203499999999999
 20
3.7505
 30
0.0
 11
5.188499999999999
 21
3.7355
 31
0.0
  0
LINE
  5
485
330
474
100
AcDbEntity
  8
4
100
AcDbLine
 10
5.188499999999999
 20
3.7355
 30
0.0
 11
5.090499999999999
 21
3.7355
 31
0.0
  0
LINE
  5
486
330
474
100
AcDbEntity
  8
4
100
AcDbLine
 10
5.090499999999999
 20
3.7355
 30
0.0
 11
5.090499999999999
 21
3.70725385756244
 31
0.0
  0
LINE
  5
487
330
474
100
AcDbEntity
  8
4
100
AcDbLine
 10
5.265499999999999
 20
3.6885
 30
0.0
 11
5.203499999999999
 21
3.7505
 31
0.0
  0
LINE
  5
488
330
474
100
AcDbEntity
  8
4
100
AcDbLine
 10
5.630499999999999
 20
3.6885
 30
0.0
 11
5.265499999999999
 21
3.6885
 31
0.0
  0
LINE
  5
489
330
474
100
AcDbEntity
  8
4
100
AcDbLine
 10
5.630499999999999
 20
3.7505
 30
0.0
 11
5.630499999999999
 21
3.6885
 31
0.0
  0
LINE
  5
48A
330
474
100
AcDbEntity
  8
4
100
AcDbLine
 10
5.670499999999999
 20
3.7505
 30
0.0
 11
5.670499999999999
 21
3.6885
 31
0.0
  0
LINE
  5
48B
330
474
100
AcDbEntity
  8
4
100
AcDbLine
 10
5.065499999999999
 20
3.7505
 30
0.0
 11
5.173499999999998
 21
3.7505
 31
0.0
  0
LINE
  5
48C
330
474
100
AcDbEntity
  8
4
100
AcDbLine
 10
5.065499999999999
 20
3.625500000000001
 30
0.0
 11
5.065499999999999
 21
3.7505
 31
0.0
  0
LINE
  5
48D
330
474
100
AcDbEntity
  8
4
100
AcDbLine
 10
5.127499999999999
 20
3.625500000000001
 30
0.0
 11
5.065499999999999
 21
3.625500000000001
 31
0.0
  0
LINE
  5
48E
330
474
100
AcDbEntity
  8
4
100
AcDbLine
 10
5.203499999999999
 20
3.7505
 30
0.0
 11
5.670499999999999
 21
3.7505
 31
0.0
  0
LINE
  5
48F
330
474
100
AcDbEntity
  8
4
100
AcDbLine
 10
6.513499999999998
 20
3.7505
 30
0.0
 11
6.980499999999999
 21
3.7505
 31
0.0
  0
LINE
  5
490
330
474
100
AcDbEntity
  8
4
100
AcDbLine
 10
6.437499999999999
 20
3.625500000000001
 30
0.0
 11
6.375499999999998
 21
3.625500000000001
 31
0.0
  0
LINE
  5
491
330
474
100
AcDbEntity
  8
4
100
AcDbLine
 10
6.375499999999998
 20
3.625500000000001
 30
0.0
 11
6.375499999999998
 21
3.7505
 31
0.0
  0
LINE
  5
492
330
474
100
AcDbEntity
  8
4
100
AcDbLine
 10
6.375499999999998
 20
3.7505
 30
0.0
 11
6.483499999999998
 21
3.7505
 31
0.0
  0
LINE
  5
493
330
474
100
AcDbEntity
  8
4
100
AcDbLine
 10
6.980499999999999
 20
3.7505
 30
0.0
 11
6.980499999999999
 21
3.6885
 31
0.0
  0
LINE
  5
494
330
474
100
AcDbEntity
  8
4
100
AcDbLine
 10
6.940499999999999
 20
3.7505
 30
0.0
 11
6.940499999999999
 21
3.6885
 31
0.0
  0
LINE
  5
495
330
474
100
AcDbEntity
  8
4
100
AcDbLine
 10
6.940499999999999
 20
3.6885
 30
0.0
 11
6.575499999999999
 21
3.6885
 31
0.0
  0
LINE
  5
496
330
474
100
AcDbEntity
  8
4
100
AcDbLine
 10
6.575499999999999
 20
3.6885
 30
0.0
 11
6.513499999999998
 21
3.7505
 31
0.0
  0
LINE
  5
497
330
474
100
AcDbEntity
  8
4
100
AcDbLine
 10
6.400499999999999
 20
3.7355
 30
0.0
 11
6.400499999999999
 21
3.70725385756244
 31
0.0
  0
LINE
  5
498
330
474
100
AcDbEntity
  8
4
100
AcDbLine
 10
6.498499999999999
 20
3.7355
 30
0.0
 11
6.400499999999999
 21
3.7355
 31
0.0
  0
LINE
  5
499
330
474
100
AcDbEntity
  8
4
100
AcDbLine
 10
6.513499999999998
 20
3.7505
 30
0.0
 11
6.498499999999999
 21
3.7355
 31
0.0
  0
LINE
  5
49A
330
474
100
AcDbEntity
  8
4
100
AcDbLine
 10
7.486500000000001
 20
3.7505
 30
0.0
 11
7.5015
 21
3.7355
 31
0.0
  0
LINE
  5
49B
330
474
100
AcDbEntity
  8
4
100
AcDbLine
 10
7.5015
 20
3.7355
 30
0.0
 11
7.5995
 21
3.7355
 31
0.0
  0
LINE
  5
49C
330
474
100
AcDbEntity
  8
4
100
AcDbLine
 10
7.5995
 20
3.7355
 30
0.0
 11
7.5995
 21
3.70725385756244
 31
0.0
  0
LINE
  5
49D
330
474
100
AcDbEntity
  8
4
100
AcDbLine
 10
7.4245
 20
3.6885
 30
0.0
 11
7.486500000000001
 21
3.7505
 31
0.0
  0
LINE
  5
49E
330
474
100
AcDbEntity
  8
4
100
AcDbLine
 10
7.0595
 20
3.6885
 30
0.0
 11
7.4245
 21
3.6885
 31
0.0
  0
LINE
  5
49F
330
474
100
AcDbEntity
  8
4
100
AcDbLine
 10
7.0595
 20
3.7505
 30
0.0
 11
7.0595
 21
3.6885
 31
0.0
  0
LINE
  5
4A0
330
474
100
AcDbEntity
  8
4
100
AcDbLine
 10
7.0195
 20
3.7505
 30
0.0
 11
7.0195
 21
3.6885
 31
0.0
  0
LINE
  5
4A1
330
474
100
AcDbEntity
  8
4
100
AcDbLine
 10
7.624500000000001
 20
3.7505
 30
0.0
 11
7.516500000000001
 21
3.7505
 31
0.0
  0
LINE
  5
4A2
330
474
100
AcDbEntity
  8
4
100
AcDbLine
 10
7.624500000000001
 20
3.625500000000001
 30
0.0
 11
7.624500000000001
 21
3.7505
 31
0.0
  0
LINE
  5
4A3
330
474
100
AcDbEntity
  8
4
100
AcDbLine
 10
7.5625
 20
3.625500000000001
 30
0.0
 11
7.624500000000001
 21
3.625500000000001
 31
0.0
  0
LINE
  5
4A4
330
474
100
AcDbEntity
  8
4
100
AcDbLine
 10
7.486500000000001
 20
3.7505
 30
0.0
 11
7.0195
 21
3.7505
 31
0.0
  0
LINE
  5
4A5
330
474
100
AcDbEntity
  8
4
100
AcDbLine
 10
7.486500000000001
 20
4.125000000000001
 30
0.0
 11
7.0195
 21
4.125000000000001
 31
0.0
  0
LINE
  5
4A6
330
474
100
AcDbEntity
  8
4
100
AcDbLine
 10
7.5625
 20
4.063000000000001
 30
0.0
 11
7.624500000000001
 21
4.063000000000001
 31
0.0
  0
LINE
  5
4A7
330
474
100
AcDbEntity
  8
4
100
AcDbLine
 10
7.624500000000001
 20
4.063000000000001
 30
0.0
 11
7.624500000000001
 21
4.125000000000001
 31
0.0
  0
LINE
  5
4A8
330
474
100
AcDbEntity
  8
4
100
AcDbLine
 10
7.624500000000001
 20
4.125000000000001
 30
0.0
 11
7.516500000000001
 21
4.125000000000001
 31
0.0
  0
LINE
  5
4A9
330
474
100
AcDbEntity
  8
4
100
AcDbLine
 10
7.0195
 20
4.125000000000001
 30
0.0
 11
7.0195
 21
4.063000000000001
 31
0.0
  0
LINE
  5
4AA
330
474
100
AcDbEntity
  8
4
100
AcDbLine
 10
7.0595
 20
4.125000000000001
 30
0.0
 11
7.0595
 21
4.063000000000001
 31
0.0
  0
LINE
  5
4AB
330
474
100
AcDbEntity
  8
4
100
AcDbLine
 10
7.0595
 20
4.063000000000001
 30
0.0
 11
7.4245
 21
4.063000000000001
 31
0.0
  0
LINE
  5
4AC
330
474
100
AcDbEntity
  8
4
100
AcDbLine
 10
7.4245
 20
4.063000000000001
 30
0.0
 11
7.486500000000001
 21
4.125000000000001
 31
0.0
  0
LINE
  5
4AD
330
474
100
AcDbEntity
  8
4
100
AcDbLine
 10
7.5995
 20
4.110000000000001
 30
0.0
 11
7.5995
 21
4.081753857562441
 31
0.0
  0
LINE
  5
4AE
330
474
100
AcDbEntity
  8
4
100
AcDbLine
 10
7.5015
 20
4.110000000000001
 30
0.0
 11
7.5995
 21
4.110000000000001
 31
0.0
  0
LINE
  5
4AF
330
474
100
AcDbEntity
  8
4
100
AcDbLine
 10
7.486500000000001
 20
4.125000000000001
 30
0.0
 11
7.5015
 21
4.110000000000001
 31
0.0
  0
LINE
  5
4B0
330
474
100
AcDbEntity
  8
4
100
AcDbLine
 10
6.513499999999998
 20
4.125000000000001
 30
0.0
 11
6.498499999999999
 21
4.110000000000001
 31
0.0
  0
LINE
  5
4B1
330
474
100
AcDbEntity
  8
4
100
AcDbLine
 10
6.498499999999999
 20
4.110000000000001
 30
0.0
 11
6.400499999999999
 21
4.110000000000001
 31
0.0
  0
LINE
  5
4B2
330
474
100
AcDbEntity
  8
4
100
AcDbLine
 10
6.400499999999999
 20
4.110000000000001
 30
0.0
 11
6.400499999999999
 21
4.081753857562441
 31
0.0
  0
LINE
  5
4B3
330
474
100
AcDbEntity
  8
4
100
AcDbLine
 10
6.575499999999999
 20
4.063000000000001
 30
0.0
 11
6.513499999999998
 21
4.125000000000001
 31
0.0
  0
LINE
  5
4B4
330
474
100
AcDbEntity
  8
4
100
AcDbLine
 10
6.940499999999999
 20
4.063000000000001
 30
0.0
 11
6.575499999999999
 21
4.063000000000001
 31
0.0
  0
LINE
  5
4B5
330
474
100
AcDbEntity
  8
4
100
AcDbLine
 10
6.940499999999999
 20
4.125000000000001
 30
0.0
 11
6.940499999999999
 21
4.063000000000001
 31
0.0
  0
LINE
  5
4B6
330
474
100
AcDbEntity
  8
4
100
AcDbLine
 10
6.980499999999999
 20
4.125000000000001
 30
0.0
 11
6.980499999999999
 21
4.063000000000001
 31
0.0
  0
LINE
  5
4B7
330
474
100
AcDbEntity
  8
4
100
AcDbLine
 10
6.375499999999998
 20
4.125000000000001
 30
0.0
 11
6.483499999999998
 21
4.125000000000001
 31
0.0
  0
LINE
  5
4B8
330
474
100
AcDbEntity
  8
4
100
AcDbLine
 10
6.375499999999998
 20
4.063000000000001
 30
0.0
 11
6.375499999999998
 21
4.125000000000001
 31
0.0
  0
LINE
  5
4B9
330
474
100
AcDbEntity
  8
4
100
AcDbLine
 10
6.437499999999999
 20
4.063000000000001
 30
0.0
 11
6.375499999999998
 21
4.063000000000001
 31
0.0
  0
LINE
  5
4BA
330
474
100
AcDbEntity
  8
4
100
AcDbLine
 10
6.513499999999998
 20
4.125000000000001
 30
0.0
 11
6.980499999999999
 21
4.125000000000001
 31
0.0
  0
LINE
  5
4BB
330
474
100
AcDbEntity
  8
4
100
AcDbLine
 10
5.203499999999999
 20
4.125000000000001
 30
0.0
 11
5.670499999999999
 21
4.125000000000001
 31
0.0
  0
LINE
  5
4BC
330
474
100
AcDbEntity
  8
4
100
AcDbLine
 10
5.127499999999999
 20
4.063000000000001
 30
0.0
 11
5.065499999999999
 21
4.063000000000001
 31
0.0
  0
LINE
  5
4BD
330
474
100
AcDbEntity
  8
4
100
AcDbLine
 10
5.065499999999999
 20
4.063000000000001
 30
0.0
 11
5.065499999999999
 21
4.125000000000001
 31
0.0
  0
LINE
  5
4BE
330
474
100
AcDbEntity
  8
4
100
AcDbLine
 10
5.065499999999999
 20
4.125000000000001
 30
0.0
 11
5.173499999999998
 21
4.125000000000001
 31
0.0
  0
LINE
  5
4BF
330
474
100
AcDbEntity
  8
4
100
AcDbLine
 10
5.670499999999999
 20
4.125000000000001
 30
0.0
 11
5.670499999999999
 21
4.063000000000001
 31
0.0
  0
LINE
  5
4C0
330
474
100
AcDbEntity
  8
4
100
AcDbLine
 10
5.630499999999999
 20
4.125000000000001
 30
0.0
 11
5.630499999999999
 21
4.063000000000001
 31
0.0
  0
LINE
  5
4C1
330
474
100
AcDbEntity
  8
4
100
AcDbLine
 10
5.630499999999999
 20
4.063000000000001
 30
0.0
 11
5.265499999999999
 21
4.063000000000001
 31
0.0
  0
LINE
  5
4C2
330
474
100
AcDbEntity
  8
4
100
AcDbLine
 10
5.265499999999999
 20
4.063000000000001
 30
0.0
 11
5.203499999999999
 21
4.125000000000001
 31
0.0
  0
LINE
  5
4C3
330
474
100
AcDbEntity
  8
4
100
AcDbLine
 10
5.090499999999999
 20
4.110000000000001
 30
0.0
 11
5.090499999999999
 21
4.081753857562441
 31
0.0
  0
LINE
  5
4C4
330
474
100
AcDbEntity
  8
4
100
AcDbLine
 10
5.188499999999999
 20
4.110000000000001
 30
0.0
 11
5.090499999999999
 21
4.110000000000001
 31
0.0
  0
LINE
  5
4C5
330
474
100
AcDbEntity
  8
4
100
AcDbLine
 10
5.203499999999999
 20
4.125000000000001
 30
0.0
 11
5.188499999999999
 21
4.110000000000001
 31
0.0
  0
LINE
  5
4C6
330
474
100
AcDbEntity
  8
4
100
AcDbLine
 10
7.6245
 20
3.593500000000001
 30
0.0
 11
7.6245
 21
1.594
 31
0.0
  0
LINE
  5
4C7
330
474
100
AcDbEntity
  8
4
100
AcDbLine
 10
7.6245
 20
4.031000000000001
 30
0.0
 11
7.6245
 21
3.782500000000001
 31
0.0
  0
LINE
  5
4C8
330
474
100
AcDbEntity
  8
4
100
AcDbLine
 10
6.375499999999999
 20
3.593500000000001
 30
0.0
 11
6.375499999999999
 21
1.594
 31
0.0
  0
LINE
  5
4C9
330
474
100
AcDbEntity
  8
4
100
AcDbLine
 10
6.375499999999999
 20
4.031000000000001
 30
0.0
 11
6.375499999999999
 21
3.782500000000001
 31
0.0
  0
LINE
  5
4CA
330
474
100
AcDbEntity
  8
4
100
AcDbLine
 10
5.0655
 20
3.593500000000001
 30
0.0
 11
5.0655
 21
1.594
 31
0.0
  0
LINE
  5
4CB
330
474
100
AcDbEntity
  8
4
100
AcDbLine
 10
5.0655
 20
4.031000000000001
 30
0.0
 11
5.0655
 21
3.782500000000001
 31
0.0
  0
LINE
  5
4CC
330
474
100
AcDbEntity
  8
4
100
AcDbLine
 10
7.5625
 20
4.157000000000001
 30
0.0
 11
7.6245
 21
4.157000000000001
 31
0.0
  0
LINE
  5
4CD
330
474
100
AcDbEntity
  8
4
100
AcDbLine
 10
7.5625
 20
4.031000000000001
 30
0.0
 11
7.6245
 21
4.031000000000001
 31
0.0
  0
LINE
  5
4CE
330
474
100
AcDbEntity
  8
4
100
AcDbLine
 10
7.5625
 20
3.7825
 30
0.0
 11
7.6245
 21
3.7825
 31
0.0
  0
LINE
  5
4CF
330
474
100
AcDbEntity
  8
4
100
AcDbLine
 10
7.5625
 20
3.593500000000001
 30
0.0
 11
7.624499999999999
 21
3.593500000000001
 31
0.0
  0
LINE
  5
4D0
330
474
100
AcDbEntity
  8
4
100
AcDbLine
 10
6.375499999999998
 20
4.157000000000001
 30
0.0
 11
6.437499999999998
 21
4.157000000000001
 31
0.0
  0
LINE
  5
4D1
330
474
100
AcDbEntity
  8
4
100
AcDbLine
 10
6.375499999999998
 20
4.031000000000001
 30
0.0
 11
6.437499999999998
 21
4.031000000000001
 31
0.0
  0
LINE
  5
4D2
330
474
100
AcDbEntity
  8
4
100
AcDbLine
 10
6.375499999999997
 20
3.593500000000001
 30
0.0
 11
6.437499999999997
 21
3.593500000000001
 31
0.0
  0
LINE
  5
4D3
330
474
100
AcDbEntity
  8
4
100
AcDbLine
 10
5.065499999999999
 20
3.593500000000001
 30
0.0
 11
5.127499999999998
 21
3.593500000000001
 31
0.0
  0
LINE
  5
4D4
330
474
100
AcDbEntity
  8
4
100
AcDbLine
 10
5.0655
 20
3.7825
 30
0.0
 11
5.127499999999999
 21
3.7825
 31
0.0
  0
LINE
  5
4D5
330
474
100
AcDbEntity
  8
4
100
AcDbLine
 10
5.0655
 20
4.031000000000001
 30
0.0
 11
5.127499999999999
 21
4.031000000000001
 31
0.0
  0
LINE
  5
4D6
330
474
100
AcDbEntity
  8
4
100
AcDbLine
 10
5.0655
 20
4.157000000000001
 30
0.0
 11
5.127499999999999
 21
4.157000000000001
 31
0.0
  0
LINE
  5
4D7
330
474
100
AcDbEntity
  8
4
100
AcDbLine
 10
5.357479890102485
 20
3.626
 30
0.0
 11
5.419479890102484
 21
3.626
 31
0.0
  0
LINE
  5
4D8
330
474
100
AcDbEntity
  8
4
100
AcDbLine
 10
5.388479890102485
 20
3.626
 30
0.0
 11
5.388479890102485
 21
3.564
 31
0.0
  0
LINE
  5
4D9
330
474
100
AcDbEntity
  8
4
100
AcDbLine
 10
6.698479890102484
 20
3.626
 30
0.0
 11
6.698479890102484
 21
3.564
 31
0.0
  0
LINE
  5
4DA
330
474
100
AcDbEntity
  8
4
100
AcDbLine
 10
6.667479890102485
 20
3.626
 30
0.0
 11
6.729479890102484
 21
3.626
 31
0.0
  0
LINE
  5
4DB
330
474
100
AcDbEntity
  8
4
100
AcDbLine
 10
7.332520109897515
 20
3.626
 30
0.0
 11
7.270520109897516
 21
3.626
 31
0.0
  0
LINE
  5
4DC
330
474
100
AcDbEntity
  8
4
100
AcDbLine
 10
7.301520109897515
 20
3.626
 30
0.0
 11
7.301520109897515
 21
3.564
 31
0.0
  0
LINE
  5
4DD
330
474
100
AcDbEntity
  8
4
100
AcDbLine
 10
5.065499999999999
 20
4.406
 30
0.0
 11
5.127499999999999
 21
4.406
 31
0.0
  0
LINE
  5
4DE
330
474
100
AcDbEntity
  8
4
100
AcDbLine
 10
6.375499999999998
 20
4.406
 30
0.0
 11
6.437499999999999
 21
4.406
 31
0.0
  0
LINE
  5
4DF
330
474
100
AcDbEntity
  8
4
100
AcDbLine
 10
7.624500000000001
 20
4.406
 30
0.0
 11
7.5625
 21
4.406
 31
0.0
  0
LINE
  5
4E0
330
474
100
AcDbEntity
  8
4
100
AcDbLine
 10
7.6245
 20
4.406
 30
0.0
 11
7.6245
 21
4.157000000000001
 31
0.0
  0
LINE
  5
4E1
330
474
100
AcDbEntity
  8
4
100
AcDbLine
 10
6.375499999999999
 20
4.406
 30
0.0
 11
6.375499999999999
 21
4.157000000000001
 31
0.0
  0
LINE
  5
4E2
330
474
100
AcDbEntity
  8
4
100
AcDbLine
 10
5.0655
 20
4.406
 30
0.0
 11
5.0655
 21
4.157000000000001
 31
0.0
  0
LINE
  5
4E3
330
474
100
AcDbEntity
  8
4
100
AcDbLine
 10
1.364461124643972
 20
2.958184068538057
 30
0.0
 11
1.522461124643972
 21
2.958184068538057
 31
0.0
  0
LINE
  5
4E4
330
474
100
AcDbEntity
  8
4
100
AcDbLine
 10
1.522461124643972
 20
2.958184068538057
 30
0.0
 11
1.490461124643972
 21
2.665684068538057
 31
0.0
  0
LINE
  5
4E5
330
474
100
AcDbEntity
  8
4
100
AcDbLine
 10
1.364461124643972
 20
2.958184068538057
 30
0.0
 11
1.396461124643972
 21
2.665684068538057
 31
0.0
  0
LINE
  5
4E6
330
474
100
AcDbEntity
  8
4
100
AcDbLine
 10
1.396461124643972
 20
2.665684068538057
 30
0.0
 11
1.490461124643972
 21
2.665684068538057
 31
0.0
  0
LINE
  5
4E7
330
474
100
AcDbEntity
  8
4
100
AcDbLine
 10
1.381131596700671
 20
2.943184068538057
 30
0.0
 11
1.409958042981662
 21
2.680684068538057
 31
0.0
  0
LINE
  5
4E8
330
474
100
AcDbEntity
  8
4
100
AcDbLine
 10
1.409958042981662
 20
2.680684068538056
 30
0.0
 11
1.476964206306282
 21
2.680684068538057
 31
0.0
  0
LINE
  5
4E9
330
474
100
AcDbEntity
  8
4
100
AcDbLine
 10
1.505790652587274
 20
2.943184068538057
 30
0.0
 11
1.476964206306282
 21
2.680684068538057
 31
0.0
  0
LINE
  5
4EA
330
474
100
AcDbEntity
  8
4
100
AcDbLine
 10
1.381131596700671
 20
2.943184068538057
 30
0.0
 11
1.505790652587274
 21
2.943184068538057
 31
0.0
  0
LINE
  5
4EB
330
474
100
AcDbEntity
  8
4
100
AcDbLine
 10
1.458461124643972
 20
2.943184068538057
 30
0.0
 11
1.458461124643972
 21
2.896184068538057
 31
0.0
  0
LINE
  5
4EC
330
474
100
AcDbEntity
  8
4
100
AcDbLine
 10
1.458461124643972
 20
2.896184068538057
 30
0.0
 11
1.428461124643972
 21
2.896184068538057
 31
0.0
  0
LINE
  5
4ED
330
474
100
AcDbEntity
  8
4
100
AcDbLine
 10
1.428461124643972
 20
2.896184068538057
 30
0.0
 11
1.428461124643972
 21
2.943184068538057
 31
0.0
  0
LINE
  5
4EE
330
474
100
AcDbEntity
  8
4
100
AcDbLine
 10
1.162022825370309
 20
2.896184068538057
 30
0.0
 11
1.162022825370309
 21
2.943184068538057
 31
0.0
  0
LINE
  5
4EF
330
474
100
AcDbEntity
  8
4
100
AcDbLine
 10
1.192022825370309
 20
2.896184068538057
 30
0.0
 11
1.162022825370309
 21
2.896184068538057
 31
0.0
  0
LINE
  5
4F0
330
474
100
AcDbEntity
  8
4
100
AcDbLine
 10
1.192022825370309
 20
2.943184068538057
 30
0.0
 11
1.192022825370309
 21
2.896184068538057
 31
0.0
  0
LINE
  5
4F1
330
474
100
AcDbEntity
  8
4
100
AcDbLine
 10
1.114693297427008
 20
2.943184068538057
 30
0.0
 11
1.239352353313611
 21
2.943184068538057
 31
0.0
  0
LINE
  5
4F2
330
474
100
AcDbEntity
  8
4
100
AcDbLine
 10
1.239352353313611
 20
2.943184068538057
 30
0.0
 11
1.210525907032619
 21
2.680684068538057
 31
0.0
  0
LINE
  5
4F3
330
474
100
AcDbEntity
  8
4
100
AcDbLine
 10
1.143519743708
 20
2.680684068538056
 30
0.0
 11
1.210525907032619
 21
2.680684068538057
 31
0.0
  0
LINE
  5
4F4
330
474
100
AcDbEntity
  8
4
100
AcDbLine
 10
1.114693297427008
 20
2.943184068538057
 30
0.0
 11
1.143519743708
 21
2.680684068538057
 31
0.0
  0
LINE
  5
4F5
330
474
100
AcDbEntity
  8
4
100
AcDbLine
 10
1.130022825370309
 20
2.665684068538057
 30
0.0
 11
1.224022825370309
 21
2.665684068538057
 31
0.0
  0
LINE
  5
4F6
330
474
100
AcDbEntity
  8
4
100
AcDbLine
 10
1.098022825370309
 20
2.958184068538057
 30
0.0
 11
1.130022825370309
 21
2.665684068538057
 31
0.0
  0
LINE
  5
4F7
330
474
100
AcDbEntity
  8
4
100
AcDbLine
 10
1.256022825370309
 20
2.958184068538057
 30
0.0
 11
1.224022825370309
 21
2.665684068538057
 31
0.0
  0
LINE
  5
4F8
330
474
100
AcDbEntity
  8
4
100
AcDbLine
 10
1.098022825370309
 20
2.958184068538057
 30
0.0
 11
1.256022825370309
 21
2.958184068538057
 31
0.0
  0
ARC
  5
4F9
330
474
100
AcDbEntity
  8
4
100
AcDbCircle
 10
1.9825
 20
3.563
 30
0.0
 40
0.025
100
AcDbArc
 50
180.0
 51
0.0
  0
ARC
  5
4FA
330
474
100
AcDbEntity
  8
4
100
AcDbCircle
 10
3.2325
 20
3.563
 30
0.0
 40
0.025
100
AcDbArc
 50
180.0
 51
0.0
  0
ARC
  5
4FB
330
474
100
AcDbEntity
  8
4
100
AcDbCircle
 10
3.142500000000001
 20
3.563
 30
0.0
 40
0.025
100
AcDbArc
 50
180.0
 51
0.0
  0
ARC
  5
4FC
330
474
100
AcDbEntity
  8
4
100
AcDbCircle
 10
1.892500000000001
 20
3.563
 30
0.0
 40
0.025
100
AcDbArc
 50
180.0
 51
0.0
  0
LINE
  5
4FD
330
474
100
AcDbEntity
  8
4
100
AcDbLine
 10
2.619474179311579
 20
3.6255
 30
0.0
 11
2.812999999999999
 21
3.6255
 31
0.0
  0
LINE
  5
4FE
330
474
100
AcDbEntity
  8
4
100
AcDbLine
 10
2.625
 20
4.063
 30
0.0
 11
2.812999999999999
 21
4.063
 31
0.0
  0
LINE
  5
4FF
330
474
100
AcDbEntity
  8
4
100
AcDbLine
 10
2.625
 20
4.125
 30
0.0
 11
2.812999999999999
 21
4.125
 31
0.0
  0
LINE
  5
500
330
474
100
AcDbEntity
  8
4
100
AcDbLine
 10
3.2075
 20
3.625500000000001
 30
0.0
 11
3.207500000000001
 21
1.562
 31
0.0
  0
LINE
  5
501
330
474
100
AcDbEntity
  8
4
100
AcDbLine
 10
3.167500000000001
 20
1.562
 30
0.0
 11
3.167500000000001
 21
3.625500000000001
 31
0.0
  0
LINE
  5
502
330
474
100
AcDbEntity
  8
4
100
AcDbLine
 10
2.937
 20
4.125
 30
0.0
 11
3.437999999999999
 21
4.125
 31
0.0
  0
LINE
  5
503
330
474
100
AcDbEntity
  8
4
100
AcDbLine
 10
2.937
 20
4.063
 30
0.0
 11
3.437999999999999
 21
4.063
 31
0.0
  0
LINE
  5
504
330
474
100
AcDbEntity
  8
4
100
AcDbLine
 10
2.937
 20
3.6255
 30
0.0
 11
3.437999999999999
 21
3.6255
 31
0.0
  0
LINE
  5
505
330
474
100
AcDbEntity
  8
4
100
AcDbLine
 10
2.937
 20
3.7505
 30
0.0
 11
3.437999999999999
 21
3.7505
 31
0.0
  0
LINE
  5
506
330
474
100
AcDbEntity
  8
4
100
AcDbLine
 10
2.312
 20
4.125
 30
0.0
 11
2.5
 21
4.125
 31
0.0
  0
LINE
  5
507
330
474
100
AcDbEntity
  8
4
100
AcDbLine
 10
2.312
 20
4.063
 30
0.0
 11
2.5
 21
4.063
 31
0.0
  0
LINE
  5
508
330
474
100
AcDbEntity
  8
4
100
AcDbLine
 10
2.312
 20
3.6255
 30
0.0
 11
2.5
 21
3.6255
 31
0.0
  0
LINE
  5
509
330
474
100
AcDbEntity
  8
4
100
AcDbLine
 10
1.9575
 20
3.625500000000001
 30
0.0
 11
1.957500000000001
 21
1.562
 31
0.0
  0
LINE
  5
50A
330
474
100
AcDbEntity
  8
4
100
AcDbLine
 10
1.917500000000001
 20
1.562
 30
0.0
 11
1.917500000000001
 21
3.625500000000001
 31
0.0
  0
LINE
  5
50B
330
474
100
AcDbEntity
  8
4
100
AcDbLine
 10
1.687
 20
4.125
 30
0.0
 11
2.187999999999999
 21
4.125
 31
0.0
  0
LINE
  5
50C
330
474
100
AcDbEntity
  8
4
100
AcDbLine
 10
1.687
 20
4.063
 30
0.0
 11
2.187999999999999
 21
4.063
 31
0.0
  0
LINE
  5
50D
330
474
100
AcDbEntity
  8
4
100
AcDbLine
 10
1.687
 20
3.6255
 30
0.0
 11
2.187999999999999
 21
3.6255
 31
0.0
  0
LINE
  5
50E
330
474
100
AcDbEntity
  8
4
100
AcDbLine
 10
1.687
 20
3.7505
 30
0.0
 11
2.187999999999999
 21
3.7505
 31
0.0
  0
LINE
  5
50F
330
474
100
AcDbEntity
  8
4
100
AcDbLine
 10
1.084
 20
4.313000000000001
 30
0.0
 11
1.084
 21
4.375000000000001
 31
0.0
  0
LINE
  5
510
330
474
100
AcDbEntity
  8
4
100
AcDbLine
 10
1.084
 20
4.189
 30
0.0
 11
1.084
 21
4.251000000000001
 31
0.0
  0
LINE
  5
511
330
474
100
AcDbEntity
  8
4
100
AcDbLine
 10
1.541
 20
3.938
 30
0.0
 11
1.541
 21
4.0
 31
0.0
  0
LINE
  5
512
330
474
100
AcDbEntity
  8
4
100
AcDbLine
 10
1.541
 20
3.814
 30
0.0
 11
1.541
 21
3.876
 31
0.0
  0
LINE
  5
513
330
474
100
AcDbEntity
  8
4
100
AcDbLine
 10
1.062
 20
4.125
 30
0.0
 11
1.562999999999999
 21
4.125
 31
0.0
  0
LINE
  5
514
330
474
100
AcDbEntity
  8
4
100
AcDbLine
 10
1.062
 20
4.063
 30
0.0
 11
1.562999999999999
 21
4.063
 31
0.0
  0
LINE
  5
515
330
474
100
AcDbEntity
  8
4
100
AcDbLine
 10
1.094
 20
4.031
 30
0.0
 11
1.531
 21
4.031
 31
0.0
  0
LINE
  5
516
330
474
100
AcDbEntity
  8
4
100
AcDbLine
 10
1.531
 20
4.031
 30
0.0
 11
1.531
 21
3.782
 31
0.0
  0
LINE
  5
517
330
474
100
AcDbEntity
  8
4
100
AcDbLine
 10
1.531
 20
3.782
 30
0.0
 11
1.094
 21
3.782
 31
0.0
  0
LINE
  5
518
330
474
100
AcDbEntity
  8
4
100
AcDbLine
 10
1.094
 20
3.782
 30
0.0
 11
1.094
 21
4.031
 31
0.0
  0
LINE
  5
519
330
474
100
AcDbEntity
  8
4
100
AcDbLine
 10
1.094
 20
4.157
 30
0.0
 11
1.094
 21
4.406
 31
0.0
  0
LINE
  5
51A
330
474
100
AcDbEntity
  8
4
100
AcDbLine
 10
1.531
 20
4.157
 30
0.0
 11
1.094
 21
4.157
 31
0.0
  0
LINE
  5
51B
330
474
100
AcDbEntity
  8
4
100
AcDbLine
 10
1.531
 20
4.406
 30
0.0
 11
1.531
 21
4.157
 31
0.0
  0
LINE
  5
51C
330
474
100
AcDbEntity
  8
4
100
AcDbLine
 10
1.094
 20
4.406
 30
0.0
 11
1.531
 21
4.406
 31
0.0
  0
LINE
  5
51D
330
474
100
AcDbEntity
  8
4
100
AcDbLine
 10
1.062
 20
3.7505
 30
0.0
 11
1.562999999999999
 21
3.7505
 31
0.0
  0
LINE
  5
51E
330
474
100
AcDbEntity
  8
4
100
AcDbLine
 10
1.3325
 20
3.625500000000001
 30
0.0
 11
1.332500000000001
 21
1.562
 31
0.0
  0
LINE
  5
51F
330
474
100
AcDbEntity
  8
4
100
AcDbLine
 10
1.354542952683818
 20
1.893
 30
0.0
 11
1.354542952683818
 21
1.768
 31
0.0
  0
LINE
  5
520
330
474
100
AcDbEntity
  8
4
100
AcDbLine
 10
1.270542952683818
 20
2.043
 30
0.0
 11
1.270542952683818
 21
1.918
 31
0.0
  0
LINE
  5
521
330
474
100
AcDbEntity
  8
4
100
AcDbLine
 10
1.355542952683818
 20
2.581
 30
0.0
 11
1.355542952683818
 21
2.456
 31
0.0
  0
LINE
  5
522
330
474
100
AcDbEntity
  8
4
100
AcDbLine
 10
1.270542952683818
 20
2.731
 30
0.0
 11
1.270542952683818
 21
2.606
 31
0.0
  0
LINE
  5
523
330
474
100
AcDbEntity
  8
4
100
AcDbLine
 10
1.355542952683817
 20
3.269
 30
0.0
 11
1.355542952683817
 21
3.144000000000001
 31
0.0
  0
LINE
  5
524
330
474
100
AcDbEntity
  8
4
100
AcDbLine
 10
2.312
 20
3.75
 30
0.0
 11
2.5
 21
3.75
 31
0.0
  0
LINE
  5
525
330
474
100
AcDbEntity
  8
4
100
AcDbLine
 10
2.625
 20
3.75
 30
0.0
 11
2.812999999999999
 21
3.75
 31
0.0
  0
ARC
  5
526
330
474
100
AcDbEntity
  8
4
100
AcDbCircle
 10
1.712
 20
3.563
 30
0.0
 40
0.025
100
AcDbArc
 50
180.0
 51
0.0
  0
ARC
  5
527
330
474
100
AcDbEntity
  8
4
100
AcDbCircle
 10
2.163
 20
3.563
 30
0.0
 40
0.025
100
AcDbArc
 50
180.0
 51
0.0
  0
ARC
  5
528
330
474
100
AcDbEntity
  8
4
100
AcDbCircle
 10
2.337
 20
3.563
 30
0.0
 40
0.025
100
AcDbArc
 50
180.0
 51
0.0
  0
ARC
  5
529
330
474
100
AcDbEntity
  8
4
100
AcDbCircle
 10
2.787999999999999
 20
3.563
 30
0.0
 40
0.025
100
AcDbArc
 50
180.0
 51
0.0
  0
ARC
  5
52A
330
474
100
AcDbEntity
  8
4
100
AcDbCircle
 10
2.962
 20
3.563
 30
0.0
 40
0.025
100
AcDbArc
 50
180.0
 51
0.0
  0
ARC
  5
52B
330
474
100
AcDbEntity
  8
4
100
AcDbCircle
 10
3.412999999999999
 20
3.563
 30
0.0
 40
0.025
100
AcDbArc
 50
180.0
 51
0.0
  0
LINE
  5
52C
330
474
100
AcDbEntity
  8
4
100
AcDbLine
 10
1.260500000000003
 20
1.594
 30
0.0
 11
1.094
 21
1.594
 31
0.0
  0
LINE
  5
52D
330
474
100
AcDbEntity
  8
4
100
AcDbLine
 10
1.3645
 20
3.594
 30
0.0
 11
1.531
 21
3.594
 31
0.0
  0
LINE
  5
52E
330
474
100
AcDbEntity
  8
4
100
AcDbLine
 10
1.094
 20
1.594
 30
0.0
 11
1.094
 21
3.594
 31
0.0
  0
LINE
  5
52F
330
474
100
AcDbEntity
  8
4
100
AcDbLine
 10
1.094
 20
3.594
 30
0.0
 11
1.2605
 21
3.594
 31
0.0
  0
LINE
  5
530
330
474
100
AcDbEntity
  8
4
100
AcDbLine
 10
1.531
 20
3.594
 30
0.0
 11
1.530999999999999
 21
1.594
 31
0.0
  0
LINE
  5
531
330
474
100
AcDbEntity
  8
4
100
AcDbLine
 10
1.530999999999999
 20
1.594
 30
0.0
 11
1.364500000000003
 21
1.594
 31
0.0
  0
LINE
  5
532
330
474
100
AcDbEntity
  8
4
100
AcDbLine
 10
0.9609118825233171
 20
2.914192936617828
 30
0.0
 11
0.5859118825233172
 21
2.914192936617828
 31
0.0
  0
LINE
  5
533
330
474
100
AcDbEntity
  8
4
100
AcDbLine
 10
0.5859118825233172
 20
2.914192936617828
 30
0.0
 11
0.5859118825233172
 21
2.976192936617828
 31
0.0
  0
LINE
  5
534
330
474
100
AcDbEntity
  8
4
100
AcDbLine
 10
0.9609118825233171
 20
2.783285372243521
 30
0.0
 11
0.5859118825233172
 21
2.783285372243521
 31
0.0
  0
LINE
  5
535
330
474
100
AcDbEntity
  8
4
100
AcDbLine
 10
0.5859118825233172
 20
2.783285372243521
 30
0.0
 11
0.5859118825233172
 21
2.721285372243521
 31
0.0
  0
INSERT
  5
536
330
474
100
AcDbEntity
  8
4
100
AcDbBlockReference
  2
ARRO
 10
0.9609118825233171
 20
2.914192936617828
 30
0.0
 50
180.0
  0
INSERT
  5
537
330
474
100
AcDbEntity
  8
4
100
AcDbBlockReference
  2
ARRO
 10
0.9609118825233171
 20
2.783285372243521
 30
0.0
 50
180.0
  0
LINE
  5
538
330
474
100
AcDbEntity
  8
4
100
AcDbLine
 10
1.2605
 20
3.594
 30
0.0
 11
1.260500000000003
 21
1.594
 31
0.0
  0
LINE
  5
539
330
474
100
AcDbEntity
  8
4
100
AcDbLine
 10
1.3645
 20
3.594
 30
0.0
 11
1.364500000000003
 21
1.594
 31
0.0
  0
LINE
  5
53A
330
474
100
AcDbEntity
  8
4
100
AcDbLine
 10
1.292500000000001
 20
1.562
 30
0.0
 11
1.292500000000001
 21
3.625500000000001
 31
0.0
  0
LINE
  5
53B
330
474
100
AcDbEntity
  8
4
100
AcDbLine
 10
1.062
 20
3.6255
 30
0.0
 11
1.562999999999999
 21
3.6255
 31
0.0
  0
ENDBLK
  5
53D
330
474
100
AcDbEntity
  8
0
100
AcDbBlockEnd
  0
BLOCK
  5
5B4
330
540
100
AcDbEntity
  8
0
100
AcDbBlockBegin
  2
Le1024
 70
     0
 10
0.0
 20
0.0
 30
0.0
  3
Le1024
  1

  0
LINE
  5
541
330
540
100
AcDbEntity
  8
8
100
AcDbLine
 10
4.272196222405089
 20
0.0719212803658068
 30
0.0
 11
4.772196222405089
 21
0.0719212803658068
 31
0.0
  0
TEXT
  5
542
330
540
100
AcDbEntity
  8
8
100
AcDbText
 10
2.529761904761905
 20
0.094
 30
0.0
 40
0.125
  1
QUIET LOCKER -     " DUPLEX
  7
ROMANS
 72
     1
 11
4.125
 21
0.094
 31
0.0
100
AcDbText
  0
CIRCLE
  5
543
330
540
100
AcDbEntity
  8
4
100
AcDbCircle
 10
1.443500000000001
 20
2.987899612332098
 30
0.0
 40
0.023
  0
LWPOLYLINE
  5
544
330
540
100
AcDbEntity
  8
4
100
AcDbPolyline
 90
        2
 70
     1
 43
0.01
 10
1.438500000000001
 20
3.040399612332098
 42
1.0
 10
1.448500000000001
 20
3.040399612332098
 42
1.0
  0
LWPOLYLINE
  5
545
330
540
100
AcDbEntity
  8
4
100
AcDbPolyline
 90
        2
 70
     1
 43
0.01
 10
1.438500000000001
 20
2.935399612332098
 42
1.0
 10
1.448500000000001
 20
2.935399612332098
 42
1.0
  0
CIRCLE
  5
546
330
540
100
AcDbEntity
  8
4
100
AcDbCircle
 10
1.177022825370309
 20
2.987899612332098
 30
0.0
 40
0.023
  0
LWPOLYLINE
  5
547
330
540
100
AcDbEntity
  8
4
100
AcDbPolyline
 90
        2
 70
     1
 43
0.01
 10
1.172022825370309
 20
3.040399612332098
 42
1.0
 10
1.182022825370309
 20
3.040399612332098
 42
1.0
  0
LWPOLYLINE
  5
548
330
540
100
AcDbEntity
  8
4
100
AcDbPolyline
 90
        2
 70
     1
 43
0.01
 10
1.172022825370309
 20
2.935399612332098
 42
1.0
 10
1.182022825370309
 20
2.935399612332098
 42
1.0
  0
INSERT
  5
549
330
540
100
AcDbEntity
  8
8
100
AcDbBlockReference
  2
TEMP2
 10
4.8125
 20
1.562
 30
0.0
  0
INSERT
  5
54A
330
540
100
AcDbEntity
  8
8
100
AcDbBlockReference
  2
TEMP3
 10
0.5859118825233172
 20
3.202719462648754
 30
0.0
  0
LINE
  5
54B
330
540
100
AcDbEntity
  8
4
100
AcDbLine
 10
4.8125
 20
1.5
 30
0.0
 11
4.8125
 21
1.375
 31
0.0
  0
LINE
  5
54C
330
540
100
AcDbEntity
  8
4
100
AcDbLine
 10
5.0025
 20
1.562
 30
0.0
 11
4.8125
 21
1.562
 31
0.0
  0
LINE
  5
54D
330
540
100
AcDbEntity
  8
4
100
AcDbLine
 10
4.8125
 20
1.562
 30
0.0
 11
4.750499999999999
 21
1.562
 31
0.0
  0
INSERT
  5
54E
330
540
100
AcDbEntity
  8
4
100
AcDbBlockReference
  2
ARRO
 10
4.8125
 20
1.562
 30
0.0
 50
90.0
  0
INSERT
  5
54F
330
540
100
AcDbEntity
  8
4
100
AcDbBlockReference
  2
ARRO
 10
4.8125
 20
1.5
 30
0.0
 50
270.0
  0
LINE
  5
550
330
540
100
AcDbEntity
  8
4
100
AcDbLine
 10
5.0655
 20
1.594
 30
0.0
 11
5.1275
 21
1.594
 31
0.0
  0
LINE
  5
551
330
540
100
AcDbEntity
  8
4
100
AcDbLine
 10
6.375499999999999
 20
1.594
 30
0.0
 11
6.4375
 21
1.594
 31
0.0
  0
LINE
  5
552
330
540
100
AcDbEntity
  8
4
100
AcDbLine
 10
7.6245
 20
1.594
 30
0.0
 11
7.5625
 21
1.594
 31
0.0
  0
LINE
  5
553
330
540
100
AcDbEntity
  8
4
100
AcDbLine
 10
4.8125
 20
4.5
 30
0.0
 11
4.8125
 21
1.562
 31
0.0
  0
INSERT
  5
554
330
540
100
AcDbEntity
  8
4
100
AcDbBlockReference
  2
ARRO
 10
4.8125
 20
4.5
 30
0.0
 50
270.0
  0
LINE
  5
555
330
540
100
AcDbEntity
  8
4
100
AcDbLine
 10
5.357479890102485
 20
3.626
 30
0.0
 11
5.419479890102484
 21
3.626
 31
0.0
  0
LINE
  5
556
330
540
100
AcDbEntity
  8
4
100
AcDbLine
 10
5.388479890102485
 20
3.626
 30
0.0
 11
5.388479890102485
 21
3.564
 31
0.0
  0
LINE
  5
557
330
540
100
AcDbEntity
  8
4
100
AcDbLine
 10
5.6705
 20
3.688
 30
0.0
 11
5.6705
 21
3.75
 31
0.0
  0
LINE
  5
558
330
540
100
AcDbEntity
  8
4
100
AcDbLine
 10
5.6705
 20
3.75
 30
0.0
 11
5.1705
 21
3.75
 31
0.0
  0
LINE
  5
559
330
540
100
AcDbEntity
  8
4
100
AcDbLine
 10
5.1705
 20
3.75
 30
0.0
 11
5.1705
 21
3.688
 31
0.0
  0
LINE
  5
55A
330
540
100
AcDbEntity
  8
4
100
AcDbLine
 10
5.1705
 20
3.688
 30
0.0
 11
5.2015
 21
3.719
 31
0.0
  0
LINE
  5
55B
330
540
100
AcDbEntity
  8
4
100
AcDbLine
 10
6.4805
 20
3.688
 30
0.0
 11
6.511499999999999
 21
3.719
 31
0.0
  0
LINE
  5
55C
330
540
100
AcDbEntity
  8
4
100
AcDbLine
 10
6.4805
 20
3.75
 30
0.0
 11
6.4805
 21
3.688
 31
0.0
  0
LINE
  5
55D
330
540
100
AcDbEntity
  8
4
100
AcDbLine
 10
6.9805
 20
3.75
 30
0.0
 11
6.4805
 21
3.75
 31
0.0
  0
LINE
  5
55E
330
540
100
AcDbEntity
  8
4
100
AcDbLine
 10
6.9805
 20
3.688
 30
0.0
 11
6.9805
 21
3.75
 31
0.0
  0
LINE
  5
55F
330
540
100
AcDbEntity
  8
4
100
AcDbLine
 10
6.698479890102484
 20
3.626
 30
0.0
 11
6.698479890102484
 21
3.564
 31
0.0
  0
LINE
  5
560
330
540
100
AcDbEntity
  8
4
100
AcDbLine
 10
6.667479890102485
 20
3.626
 30
0.0
 11
6.729479890102484
 21
3.626
 31
0.0
  0
LINE
  5
561
330
540
100
AcDbEntity
  8
4
100
AcDbLine
 10
7.332520109897515
 20
3.626
 30
0.0
 11
7.270520109897516
 21
3.626
 31
0.0
  0
LINE
  5
562
330
540
100
AcDbEntity
  8
4
100
AcDbLine
 10
7.301520109897515
 20
3.626
 30
0.0
 11
7.301520109897515
 21
3.564
 31
0.0
  0
LINE
  5
563
330
540
100
AcDbEntity
  8
4
100
AcDbLine
 10
7.0195
 20
3.688
 30
0.0
 11
7.0195
 21
3.75
 31
0.0
  0
LINE
  5
564
330
540
100
AcDbEntity
  8
4
100
AcDbLine
 10
7.0195
 20
3.75
 30
0.0
 11
7.5195
 21
3.75
 31
0.0
  0
LINE
  5
565
330
540
100
AcDbEntity
  8
4
100
AcDbLine
 10
7.5195
 20
3.75
 30
0.0
 11
7.5195
 21
3.688
 31
0.0
  0
LINE
  5
566
330
540
100
AcDbEntity
  8
4
100
AcDbLine
 10
7.5195
 20
3.688
 30
0.0
 11
7.488500000000001
 21
3.719
 31
0.0
  0
LINE
  5
567
330
540
100
AcDbEntity
  8
4
100
AcDbLine
 10
5.0025
 20
3.75
 30
0.0
 11
4.8125
 21
3.75
 31
0.0
  0
LINE
  5
568
330
540
100
AcDbEntity
  8
4
100
AcDbLine
 10
4.8125
 20
3.75
 30
0.0
 11
4.750499999999999
 21
3.75
 31
0.0
  0
INSERT
  5
569
330
540
100
AcDbEntity
  8
4
100
AcDbBlockReference
  2
ARRO2
 10
4.8125
 20
3.75
 30
0.0
 50
90.0
  0
LINE
  5
56A
330
540
100
AcDbEntity
  8
4
100
AcDbLine
 10
5.065499999999999
 20
4.406
 30
0.0
 11
5.127499999999999
 21
4.406
 31
0.0
  0
LINE
  5
56B
330
540
100
AcDbEntity
  8
4
100
AcDbLine
 10
6.375499999999998
 20
4.406
 30
0.0
 11
6.437499999999999
 21
4.406
 31
0.0
  0
LINE
  5
56C
330
540
100
AcDbEntity
  8
4
100
AcDbLine
 10
7.624500000000001
 20
4.406
 30
0.0
 11
7.5625
 21
4.406
 31
0.0
  0
LINE
  5
56D
330
540
100
AcDbEntity
  8
4
100
AcDbLine
 10
7.6245
 20
4.406
 30
0.0
 11
7.6245
 21
1.594
 31
0.0
  0
LINE
  5
56E
330
540
100
AcDbEntity
  8
4
100
AcDbLine
 10
6.375499999999999
 20
4.406
 30
0.0
 11
6.375499999999999
 21
1.594
 31
0.0
  0
LINE
  5
56F
330
540
100
AcDbEntity
  8
4
100
AcDbLine
 10
5.0655
 20
4.406
 30
0.0
 11
5.0655
 21
1.594
 31
0.0
  0
LINE
  5
570
330
540
100
AcDbEntity
  8
4
100
AcDbLine
 10
1.098022825370309
 20
3.169882967972701
 30
0.0
 11
1.256022825370309
 21
3.169882967972701
 31
0.0
  0
LINE
  5
571
330
540
100
AcDbEntity
  8
4
100
AcDbLine
 10
1.256022825370309
 20
3.169882967972701
 30
0.0
 11
1.224022825370309
 21
2.8773829679727
 31
0.0
  0
LINE
  5
572
330
540
100
AcDbEntity
  8
4
100
AcDbLine
 10
1.098022825370309
 20
3.169882967972701
 30
0.0
 11
1.130022825370309
 21
2.8773829679727
 31
0.0
  0
LINE
  5
573
330
540
100
AcDbEntity
  8
4
100
AcDbLine
 10
1.130022825370309
 20
2.8773829679727
 30
0.0
 11
1.224022825370309
 21
2.8773829679727
 31
0.0
  0
LINE
  5
574
330
540
100
AcDbEntity
  8
4
100
AcDbLine
 10
1.114693297427008
 20
3.154882967972701
 30
0.0
 11
1.143519743708
 21
2.892382967972701
 31
0.0
  0
LINE
  5
575
330
540
100
AcDbEntity
  8
4
100
AcDbLine
 10
1.143519743708
 20
2.8923829679727
 30
0.0
 11
1.210525907032619
 21
2.892382967972701
 31
0.0
  0
LINE
  5
576
330
540
100
AcDbEntity
  8
4
100
AcDbLine
 10
1.239352353313611
 20
3.154882967972701
 30
0.0
 11
1.210525907032619
 21
2.892382967972701
 31
0.0
  0
LINE
  5
577
330
540
100
AcDbEntity
  8
4
100
AcDbLine
 10
1.114693297427008
 20
3.154882967972701
 30
0.0
 11
1.239352353313611
 21
3.154882967972701
 31
0.0
  0
LINE
  5
578
330
540
100
AcDbEntity
  8
4
100
AcDbLine
 10
1.192022825370309
 20
3.154882967972701
 30
0.0
 11
1.192022825370309
 21
3.107882967972701
 31
0.0
  0
LINE
  5
579
330
540
100
AcDbEntity
  8
4
100
AcDbLine
 10
1.192022825370309
 20
3.107882967972701
 30
0.0
 11
1.162022825370309
 21
3.107882967972701
 31
0.0
  0
LINE
  5
57A
330
540
100
AcDbEntity
  8
4
100
AcDbLine
 10
1.162022825370309
 20
3.107882967972701
 30
0.0
 11
1.162022825370309
 21
3.154882967972701
 31
0.0
  0
LINE
  5
57B
330
540
100
AcDbEntity
  8
4
100
AcDbLine
 10
3.2075
 20
3.688
 30
0.0
 11
3.437999999999999
 21
3.688
 31
0.0
  0
LINE
  5
57C
330
540
100
AcDbEntity
  8
4
100
AcDbLine
 10
3.2075
 20
3.75
 30
0.0
 11
3.437999999999999
 21
3.75
 31
0.0
  0
LINE
  5
57D
330
540
100
AcDbEntity
  8
4
100
AcDbLine
 10
2.646974179311579
 20
3.688
 30
0.0
 11
2.812999999999999
 21
3.688
 31
0.0
  0
LINE
  5
57E
330
540
100
AcDbEntity
  8
4
100
AcDbLine
 10
1.9575
 20
3.688
 30
0.0
 11
2.188
 21
3.688
 31
0.0
  0
LINE
  5
57F
330
540
100
AcDbEntity
  8
4
100
AcDbLine
 10
1.9575
 20
3.75
 30
0.0
 11
2.188
 21
3.75
 31
0.0
  0
LINE
  5
580
330
540
100
AcDbEntity
  8
4
100
AcDbLine
 10
1.687
 20
3.688
 30
0.0
 11
1.917500000000001
 21
3.688
 31
0.0
  0
LINE
  5
581
330
540
100
AcDbEntity
  8
4
100
AcDbLine
 10
2.937
 20
3.688
 30
0.0
 11
3.167500000000001
 21
3.688
 31
0.0
  0
LINE
  5
582
330
540
100
AcDbEntity
  8
4
100
AcDbLine
 10
2.312
 20
3.688
 30
0.0
 11
2.5
 21
3.688
 31
0.0
  0
LINE
  5
583
330
540
100
AcDbEntity
  8
4
100
AcDbLine
 10
1.687
 20
3.75
 30
0.0
 11
1.917500000000001
 21
3.75
 31
0.0
  0
LINE
  5
584
330
540
100
AcDbEntity
  8
4
100
AcDbLine
 10
2.312
 20
3.75
 30
0.0
 11
2.5
 21
3.75
 31
0.0
  0
LINE
  5
585
330
540
100
AcDbEntity
  8
4
100
AcDbLine
 10
2.625
 20
3.75
 30
0.0
 11
2.812999999999999
 21
3.75
 31
0.0
  0
LINE
  5
586
330
540
100
AcDbEntity
  8
4
100
AcDbLine
 10
2.937
 20
3.75
 30
0.0
 11
3.167500000000001
 21
3.75
 31
0.0
  0
ARC
  5
587
330
540
100
AcDbEntity
  8
4
100
AcDbCircle
 10
1.712
 20
3.563
 30
0.0
 40
0.025
100
AcDbArc
 50
180.0
 51
0.0
  0
ARC
  5
588
330
540
100
AcDbEntity
  8
4
100
AcDbCircle
 10
2.163
 20
3.563
 30
0.0
 40
0.025
100
AcDbArc
 50
180.0
 51
0.0
  0
ARC
  5
589
330
540
100
AcDbEntity
  8
4
100
AcDbCircle
 10
2.337
 20
3.563
 30
0.0
 40
0.025
100
AcDbArc
 50
180.0
 51
0.0
  0
ARC
  5
58A
330
540
100
AcDbEntity
  8
4
100
AcDbCircle
 10
2.787999999999999
 20
3.563
 30
0.0
 40
0.025
100
AcDbArc
 50
180.0
 51
0.0
  0
ARC
  5
58B
330
540
100
AcDbEntity
  8
4
100
AcDbCircle
 10
2.962
 20
3.563
 30
0.0
 40
0.025
100
AcDbArc
 50
180.0
 51
0.0
  0
ARC
  5
58C
330
540
100
AcDbEntity
  8
4
100
AcDbCircle
 10
3.412999999999999
 20
3.563
 30
0.0
 40
0.025
100
AcDbArc
 50
180.0
 51
0.0
  0
LINE
  5
58D
330
540
100
AcDbEntity
  8
4
100
AcDbLine
 10
1.9575
 20
4.220152299974358
 30
0.0
 11
1.957500000000001
 21
1.562
 31
0.0
  0
LINE
  5
58E
330
540
100
AcDbEntity
  8
4
100
AcDbLine
 10
1.917500000000001
 20
4.403847700025641
 30
0.0
 11
1.917500000000001
 21
4.438
 31
0.0
  0
LINE
  5
58F
330
540
100
AcDbEntity
  8
4
100
AcDbLine
 10
3.2075
 20
4.438
 30
0.0
 11
3.207500000000001
 21
1.562
 31
0.0
  0
LINE
  5
590
330
540
100
AcDbEntity
  8
4
100
AcDbLine
 10
3.167500000000001
 20
1.562
 30
0.0
 11
3.167500000000001
 21
4.438
 31
0.0
  0
LINE
  5
591
330
540
100
AcDbEntity
  8
4
100
AcDbLine
 10
1.9575
 20
4.438
 30
0.0
 11
1.9575
 21
4.403847700025641
 31
0.0
  0
LINE
  5
592
330
540
100
AcDbEntity
  8
4
100
AcDbLine
 10
1.917500000000001
 20
1.562
 30
0.0
 11
1.917500000000001
 21
4.220152299974358
 31
0.0
  0
LINE
  5
593
330
540
100
AcDbEntity
  8
4
100
AcDbLine
 10
1.260500000000003
 20
1.594
 30
0.0
 11
1.094
 21
1.594
 31
0.0
  0
LINE
  5
594
330
540
100
AcDbEntity
  8
4
100
AcDbLine
 10
1.3645
 20
4.406
 30
0.0
 11
1.531
 21
4.406
 31
0.0
  0
LINE
  5
595
330
540
100
AcDbEntity
  8
4
100
AcDbLine
 10
1.094
 20
1.594
 30
0.0
 11
1.094
 21
4.406
 31
0.0
  0
LINE
  5
596
330
540
100
AcDbEntity
  8
4
100
AcDbLine
 10
1.094
 20
4.406
 30
0.0
 11
1.2605
 21
4.406
 31
0.0
  0
LINE
  5
597
330
540
100
AcDbEntity
  8
4
100
AcDbLine
 10
1.531
 20
4.406
 30
0.0
 11
1.530999999999999
 21
1.594
 31
0.0
  0
LINE
  5
598
330
540
100
AcDbEntity
  8
4
100
AcDbLine
 10
1.530999999999999
 20
1.594
 30
0.0
 11
1.364500000000003
 21
1.594
 31
0.0
  0
LINE
  5
599
330
540
100
AcDbEntity
  8
4
100
AcDbLine
 10
1.270499999999999
 20
4.231
 30
0.0
 11
1.270499999999999
 21
4.106
 31
0.0
  0
LINE
  5
59A
330
540
100
AcDbEntity
  8
4
100
AcDbLine
 10
1.270499999999999
 20
3.137
 30
0.0
 11
1.270499999999999
 21
3.012
 31
0.0
  0
LINE
  5
59B
330
540
100
AcDbEntity
  8
4
100
AcDbLine
 10
1.270499999999999
 20
2.043
 30
0.0
 11
1.270499999999999
 21
1.918
 31
0.0
  0
LINE
  5
59C
330
540
100
AcDbEntity
  8
4
100
AcDbLine
 10
0.9609118825233171
 20
3.140719462648754
 30
0.0
 11
0.5859118825233172
 21
3.140719462648754
 31
0.0
  0
LINE
  5
59D
330
540
100
AcDbEntity
  8
4
100
AcDbLine
 10
0.5859118825233172
 20
3.140719462648754
 30
0.0
 11
0.5859118825233172
 21
3.202719462648754
 31
0.0
  0
LINE
  5
59E
330
540
100
AcDbEntity
  8
4
100
AcDbLine
 10
0.9609118825233171
 20
3.0
 30
0.0
 11
0.5859118825233172
 21
3.0
 31
0.0
  0
LINE
  5
59F
330
540
100
AcDbEntity
  8
4
100
AcDbLine
 10
0.5859118825233172
 20
3.0
 30
0.0
 11
0.5859118825233172
 21
2.938
 31
0.0
  0
INSERT
  5
5A0
330
540
100
AcDbEntity
  8
4
100
AcDbBlockReference
  2
ARRO
 10
0.9609118825233171
 20
3.140719462648754
 30
0.0
 50
180.0
  0
INSERT
  5
5A1
330
540
100
AcDbEntity
  8
4
100
AcDbBlockReference
  2
ARRO
 10
0.9609118825233171
 20
3.0
 30
0.0
 50
180.0
  0
LINE
  5
5A2
330
540
100
AcDbEntity
  8
4
100
AcDbLine
 10
1.2605
 20
4.406
 30
0.0
 11
1.260500000000003
 21
1.594
 31
0.0
  0
LINE
  5
5A3
330
540
100
AcDbEntity
  8
4
100
AcDbLine
 10
1.3645
 20
4.406
 30
0.0
 11
1.364500000000003
 21
1.594
 31
0.0
  0
LINE
  5
5A4
330
540
100
AcDbEntity
  8
4
100
AcDbLine
 10
1.292500000000001
 20
1.562
 30
0.0
 11
1.292500000000001
 21
4.438
 31
0.0
  0
LINE
  5
5A5
330
540
100
AcDbEntity
  8
4
100
AcDbLine
 10
1.3325
 20
4.438
 30
0.0
 11
1.332500000000001
 21
1.562
 31
0.0
  0
LINE
  5
5A6
330
540
100
AcDbEntity
  8
4
100
AcDbLine
 10
1.428461124643972
 20
3.107882967972701
 30
0.0
 11
1.428461124643972
 21
3.154882967972701
 31
0.0
  0
LINE
  5
5A7
330
540
100
AcDbEntity
  8
4
100
AcDbLine
 10
1.458461124643972
 20
3.107882967972701
 30
0.0
 11
1.428461124643972
 21
3.107882967972701
 31
0.0
  0
LINE
  5
5A8
330
540
100
AcDbEntity
  8
4
100
AcDbLine
 10
1.458461124643972
 20
3.154882967972701
 30
0.0
 11
1.458461124643972
 21
3.107882967972701
 31
0.0
  0
LINE
  5
5A9
330
540
100
AcDbEntity
  8
4
100
AcDbLine
 10
1.381131596700671
 20
3.154882967972701
 30
0.0
 11
1.505790652587274
 21
3.154882967972701
 31
0.0
  0
LINE
  5
5AA
330
540
100
AcDbEntity
  8
4
100
AcDbLine
 10
1.505790652587274
 20
3.154882967972701
 30
0.0
 11
1.476964206306282
 21
2.892382967972701
 31
0.0
  0
LINE
  5
5AB
330
540
100
AcDbEntity
  8
4
100
AcDbLine
 10
1.409958042981662
 20
2.8923829679727
 30
0.0
 11
1.476964206306282
 21
2.892382967972701
 31
0.0
  0
LINE
  5
5AC
330
540
100
AcDbEntity
  8
4
100
AcDbLine
 10
1.381131596700671
 20
3.154882967972701
 30
0.0
 11
1.409958042981662
 21
2.892382967972701
 31
0.0
  0
LINE
  5
5AD
330
540
100
AcDbEntity
  8
4
100
AcDbLine
 10
1.396461124643972
 20
2.8773829679727
 30
0.0
 11
1.490461124643972
 21
2.8773829679727
 31
0.0
  0
LINE
  5
5AE
330
540
100
AcDbEntity
  8
4
100
AcDbLine
 10
1.364461124643972
 20
3.169882967972701
 30
0.0
 11
1.396461124643972
 21
2.8773829679727
 31
0.0
  0
LINE
  5
5AF
330
540
100
AcDbEntity
  8
4
100
AcDbLine
 10
1.522461124643972
 20
3.169882967972701
 30
0.0
 11
1.490461124643972
 21
2.8773829679727
 31
0.0
  0
LINE
  5
5B0
330
540
100
AcDbEntity
  8
4
100
AcDbLine
 10
1.364461124643972
 20
3.169882967972701
 30
0.0
 11
1.522461124643972
 21
3.169882967972701
 31
0.0
  0
LINE
  5
5B1
330
540
100
AcDbEntity
  8
4
100
AcDbLine
 10
1.3545
 20
1.893
 30
0.0
 11
1.3545
 21
1.768
 31
0.0
  0
LINE
  5
5B2
330
540
100
AcDbEntity
  8
4
100
AcDbLine
 10
1.355499999999999
 20
2.987
 30
0.0
 11
1.355499999999999
 21
2.862
 31
0.0
  0
LINE
  5
5B3
330
540
100
AcDbEntity
  8
4
100
AcDbLine
 10
1.355499999999999
 20
4.081
 30
0.0
 11
1.355499999999999
 21
3.956
 31
0.0
  0
ENDBLK
  5
5B5
330
540
100
AcDbEntity
  8
0
100
AcDbBlockEnd
  0
BLOCK
  5
620
330
5D4
100
AcDbEntity
  8
0
100
AcDbBlockBegin
  2
A$C208909F4
 70
     0
 10
0.0
 20
0.0
 30
0.0
  3
A$C208909F4
  1

  0
LINE
  5
5D5
330
5D4
100
AcDbEntity
  8
4
100
AcDbLine
 10
1.114752718095576
 20
1.7185
 30
0.0
 11
1.239746439154376
 21
1.7185
 31
0.0
  0
LINE
  5
5D6
330
5D4
100
AcDbEntity
  8
4
100
AcDbLine
 10
1.239746439154376
 20
1.7185
 30
0.0
 11
1.219746439154375
 21
1.7385
 31
0.0
  0
LINE
  5
5D7
330
5D4
100
AcDbEntity
  8
4
100
AcDbLine
 10
1.114752718095576
 20
1.7185
 30
0.0
 11
1.134752718095575
 21
1.7385
 31
0.0
  0
LINE
  5
5D8
330
5D4
100
AcDbEntity
  8
4
100
AcDbLine
 10
1.114752718095576
 20
1.7685
 30
0.0
 11
1.239746439154376
 21
1.7685
 31
0.0
  0
LINE
  5
5D9
330
5D4
100
AcDbEntity
  8
4
100
AcDbLine
 10
1.239746439154376
 20
1.7685
 30
0.0
 11
1.219746439154375
 21
1.788499999999999
 31
0.0
  0
LINE
  5
5DA
330
5D4
100
AcDbEntity
  8
4
100
AcDbLine
 10
1.114752718095576
 20
1.7685
 30
0.0
 11
1.134752718095575
 21
1.788499999999999
 31
0.0
  0
LINE
  5
5DB
330
5D4
100
AcDbEntity
  8
4
100
AcDbLine
 10
1.114752718095576
 20
1.8185
 30
0.0
 11
1.239746439154376
 21
1.8185
 31
0.0
  0
LINE
  5
5DC
330
5D4
100
AcDbEntity
  8
4
100
AcDbLine
 10
1.239746439154376
 20
1.8185
 30
0.0
 11
1.219746439154375
 21
1.838499999999999
 31
0.0
  0
LINE
  5
5DD
330
5D4
100
AcDbEntity
  8
4
100
AcDbLine
 10
1.114752718095576
 20
1.8185
 30
0.0
 11
1.134752718095575
 21
1.838499999999999
 31
0.0
  0
LINE
  5
5DE
330
5D4
100
AcDbEntity
  8
4
100
AcDbLine
 10
1.114752718095576
 20
1.8685
 30
0.0
 11
1.239746439154376
 21
1.8685
 31
0.0
  0
LINE
  5
5DF
330
5D4
100
AcDbEntity
  8
4
100
AcDbLine
 10
1.239746439154376
 20
1.8685
 30
0.0
 11
1.219746439154375
 21
1.8885
 31
0.0
  0
LINE
  5
5E0
330
5D4
100
AcDbEntity
  8
4
100
AcDbLine
 10
1.114752718095576
 20
1.8685
 30
0.0
 11
1.134752718095575
 21
1.8885
 31
0.0
  0
LINE
  5
5E1
330
5D4
100
AcDbEntity
  8
4
100
AcDbLine
 10
1.114752718095576
 20
1.9185
 30
0.0
 11
1.239746439154376
 21
1.9185
 31
0.0
  0
LINE
  5
5E2
330
5D4
100
AcDbEntity
  8
4
100
AcDbLine
 10
1.239746439154376
 20
1.9185
 30
0.0
 11
1.219746439154375
 21
1.9385
 31
0.0
  0
LINE
  5
5E3
330
5D4
100
AcDbEntity
  8
4
100
AcDbLine
 10
1.114752718095576
 20
1.9185
 30
0.0
 11
1.134752718095575
 21
1.9385
 31
0.0
  0
LINE
  5
5E4
330
5D4
100
AcDbEntity
  8
4
100
AcDbLine
 10
1.114752718095576
 20
1.9685
 30
0.0
 11
1.134752718095575
 21
1.9885
 31
0.0
  0
LINE
  5
5E5
330
5D4
100
AcDbEntity
  8
4
100
AcDbLine
 10
1.239746439154376
 20
1.9685
 30
0.0
 11
1.219746439154375
 21
1.9885
 31
0.0
  0
LINE
  5
5E6
330
5D4
100
AcDbEntity
  8
4
100
AcDbLine
 10
1.114752718095576
 20
1.9685
 30
0.0
 11
1.239746439154376
 21
1.9685
 31
0.0
  0
LINE
  5
5E7
330
5D4
100
AcDbEntity
  8
4
100
AcDbLine
 10
1.385252718095575
 20
1.9685
 30
0.0
 11
1.510246439154376
 21
1.9685
 31
0.0
  0
LINE
  5
5E8
330
5D4
100
AcDbEntity
  8
4
100
AcDbLine
 10
1.510246439154376
 20
1.9685
 30
0.0
 11
1.490246439154375
 21
1.9885
 31
0.0
  0
LINE
  5
5E9
330
5D4
100
AcDbEntity
  8
4
100
AcDbLine
 10
1.385252718095575
 20
1.9685
 30
0.0
 11
1.405252718095575
 21
1.9885
 31
0.0
  0
LINE
  5
5EA
330
5D4
100
AcDbEntity
  8
4
100
AcDbLine
 10
1.385252718095575
 20
1.9185
 30
0.0
 11
1.405252718095575
 21
1.9385
 31
0.0
  0
LINE
  5
5EB
330
5D4
100
AcDbEntity
  8
4
100
AcDbLine
 10
1.510246439154376
 20
1.9185
 30
0.0
 11
1.490246439154375
 21
1.9385
 31
0.0
  0
LINE
  5
5EC
330
5D4
100
AcDbEntity
  8
4
100
AcDbLine
 10
1.385252718095575
 20
1.9185
 30
0.0
 11
1.510246439154376
 21
1.9185
 31
0.0
  0
LINE
  5
5ED
330
5D4
100
AcDbEntity
  8
4
100
AcDbLine
 10
1.385252718095575
 20
1.8685
 30
0.0
 11
1.405252718095575
 21
1.8885
 31
0.0
  0
LINE
  5
5EE
330
5D4
100
AcDbEntity
  8
4
100
AcDbLine
 10
1.510246439154376
 20
1.8685
 30
0.0
 11
1.490246439154375
 21
1.8885
 31
0.0
  0
LINE
  5
5EF
330
5D4
100
AcDbEntity
  8
4
100
AcDbLine
 10
1.385252718095575
 20
1.8685
 30
0.0
 11
1.510246439154376
 21
1.8685
 31
0.0
  0
LINE
  5
5F0
330
5D4
100
AcDbEntity
  8
4
100
AcDbLine
 10
1.385252718095575
 20
1.8185
 30
0.0
 11
1.405252718095575
 21
1.838499999999999
 31
0.0
  0
LINE
  5
5F1
330
5D4
100
AcDbEntity
  8
4
100
AcDbLine
 10
1.510246439154376
 20
1.8185
 30
0.0
 11
1.490246439154375
 21
1.838499999999999
 31
0.0
  0
LINE
  5
5F2
330
5D4
100
AcDbEntity
  8
4
100
AcDbLine
 10
1.385252718095575
 20
1.8185
 30
0.0
 11
1.510246439154376
 21
1.8185
 31
0.0
  0
LINE
  5
5F3
330
5D4
100
AcDbEntity
  8
4
100
AcDbLine
 10
1.385252718095575
 20
1.7685
 30
0.0
 11
1.405252718095575
 21
1.788499999999999
 31
0.0
  0
LINE
  5
5F4
330
5D4
100
AcDbEntity
  8
4
100
AcDbLine
 10
1.510246439154376
 20
1.7685
 30
0.0
 11
1.490246439154375
 21
1.788499999999999
 31
0.0
  0
LINE
  5
5F5
330
5D4
100
AcDbEntity
  8
4
100
AcDbLine
 10
1.385252718095575
 20
1.7685
 30
0.0
 11
1.510246439154376
 21
1.7685
 31
0.0
  0
LINE
  5
5F6
330
5D4
100
AcDbEntity
  8
4
100
AcDbLine
 10
1.385252718095575
 20
1.7185
 30
0.0
 11
1.405252718095575
 21
1.7385
 31
0.0
  0
LINE
  5
5F7
330
5D4
100
AcDbEntity
  8
4
100
AcDbLine
 10
1.510246439154376
 20
1.7185
 30
0.0
 11
1.490246439154375
 21
1.7385
 31
0.0
  0
LINE
  5
5F8
330
5D4
100
AcDbEntity
  8
4
100
AcDbLine
 10
1.385252718095575
 20
1.7185
 30
0.0
 11
1.510246439154376
 21
1.7185
 31
0.0
  0
LINE
  5
5F9
330
5D4
100
AcDbEntity
  8
4
100
AcDbLine
 10
1.385252718095575
 20
4.031
 30
0.0
 11
1.510246439154376
 21
4.031
 31
0.0
  0
LINE
  5
5FA
330
5D4
100
AcDbEntity
  8
4
100
AcDbLine
 10
1.510246439154376
 20
4.031
 30
0.0
 11
1.490246439154375
 21
4.051
 31
0.0
  0
LINE
  5
5FB
330
5D4
100
AcDbEntity
  8
4
100
AcDbLine
 10
1.385252718095575
 20
4.031
 30
0.0
 11
1.405252718095575
 21
4.051
 31
0.0
  0
LINE
  5
5FC
330
5D4
100
AcDbEntity
  8
4
100
AcDbLine
 10
1.385252718095575
 20
4.081
 30
0.0
 11
1.510246439154376
 21
4.081
 31
0.0
  0
LINE
  5
5FD
330
5D4
100
AcDbEntity
  8
4
100
AcDbLine
 10
1.510246439154376
 20
4.081
 30
0.0
 11
1.490246439154375
 21
4.100999999999999
 31
0.0
  0
LINE
  5
5FE
330
5D4
100
AcDbEntity
  8
4
100
AcDbLine
 10
1.385252718095575
 20
4.081
 30
0.0
 11
1.405252718095575
 21
4.100999999999999
 31
0.0
  0
LINE
  5
5FF
330
5D4
100
AcDbEntity
  8
4
100
AcDbLine
 10
1.385252718095575
 20
4.131
 30
0.0
 11
1.510246439154376
 21
4.131
 31
0.0
  0
LINE
  5
600
330
5D4
100
AcDbEntity
  8
4
100
AcDbLine
 10
1.510246439154376
 20
4.131
 30
0.0
 11
1.490246439154375
 21
4.150999999999999
 31
0.0
  0
LINE
  5
601
330
5D4
100
AcDbEntity
  8
4
100
AcDbLine
 10
1.385252718095575
 20
4.131
 30
0.0
 11
1.405252718095575
 21
4.150999999999999
 31
0.0
  0
LINE
  5
602
330
5D4
100
AcDbEntity
  8
4
100
AcDbLine
 10
1.385252718095575
 20
4.181
 30
0.0
 11
1.510246439154376
 21
4.181
 31
0.0
  0
LINE
  5
603
330
5D4
100
AcDbEntity
  8
4
100
AcDbLine
 10
1.510246439154376
 20
4.181
 30
0.0
 11
1.490246439154375
 21
4.201
 31
0.0
  0
LINE
  5
604
330
5D4
100
AcDbEntity
  8
4
100
AcDbLine
 10
1.385252718095575
 20
4.181
 30
0.0
 11
1.405252718095575
 21
4.201
 31
0.0
  0
LINE
  5
605
330
5D4
100
AcDbEntity
  8
4
100
AcDbLine
 10
1.385252718095575
 20
4.231
 30
0.0
 11
1.510246439154376
 21
4.231
 31
0.0
  0
LINE
  5
606
330
5D4
100
AcDbEntity
  8
4
100
AcDbLine
 10
1.510246439154376
 20
4.231
 30
0.0
 11
1.490246439154375
 21
4.251
 31
0.0
  0
LINE
  5
607
330
5D4
100
AcDbEntity
  8
4
100
AcDbLine
 10
1.385252718095575
 20
4.231
 30
0.0
 11
1.405252718095575
 21
4.251
 31
0.0
  0
LINE
  5
608
330
5D4
100
AcDbEntity
  8
4
100
AcDbLine
 10
1.385252718095575
 20
4.281
 30
0.0
 11
1.405252718095575
 21
4.301
 31
0.0
  0
LINE
  5
609
330
5D4
100
AcDbEntity
  8
4
100
AcDbLine
 10
1.510246439154376
 20
4.281
 30
0.0
 11
1.490246439154375
 21
4.301
 31
0.0
  0
LINE
  5
60A
330
5D4
100
AcDbEntity
  8
4
100
AcDbLine
 10
1.385252718095575
 20
4.281
 30
0.0
 11
1.510246439154376
 21
4.281
 31
0.0
  0
LINE
  5
60B
330
5D4
100
AcDbEntity
  8
4
100
AcDbLine
 10
1.114752718095576
 20
4.281
 30
0.0
 11
1.239746439154376
 21
4.281
 31
0.0
  0
LINE
  5
60C
330
5D4
100
AcDbEntity
  8
4
100
AcDbLine
 10
1.239746439154376
 20
4.281
 30
0.0
 11
1.219746439154375
 21
4.301
 31
0.0
  0
LINE
  5
60D
330
5D4
100
AcDbEntity
  8
4
100
AcDbLine
 10
1.114752718095576
 20
4.281
 30
0.0
 11
1.134752718095575
 21
4.301
 31
0.0
  0
LINE
  5
60E
330
5D4
100
AcDbEntity
  8
4
100
AcDbLine
 10
1.114752718095576
 20
4.231
 30
0.0
 11
1.134752718095575
 21
4.251
 31
0.0
  0
LINE
  5
60F
330
5D4
100
AcDbEntity
  8
4
100
AcDbLine
 10
1.239746439154376
 20
4.231
 30
0.0
 11
1.219746439154375
 21
4.251
 31
0.0
  0
LINE
  5
610
330
5D4
100
AcDbEntity
  8
4
100
AcDbLine
 10
1.114752718095576
 20
4.231
 30
0.0
 11
1.239746439154376
 21
4.231
 31
0.0
  0
LINE
  5
611
330
5D4
100
AcDbEntity
  8
4
100
AcDbLine
 10
1.114752718095576
 20
4.181
 30
0.0
 11
1.134752718095575
 21
4.201
 31
0.0
  0
LINE
  5
612
330
5D4
100
AcDbEntity
  8
4
100
AcDbLine
 10
1.239746439154376
 20
4.181
 30
0.0
 11
1.219746439154375
 21
4.201
 31
0.0
  0
LINE
  5
613
330
5D4
100
AcDbEntity
  8
4
100
AcDbLine
 10
1.114752718095576
 20
4.181
 30
0.0
 11
1.239746439154376
 21
4.181
 31
0.0
  0
LINE
  5
614
330
5D4
100
AcDbEntity
  8
4
100
AcDbLine
 10
1.114752718095576
 20
4.131
 30
0.0
 11
1.134752718095575
 21
4.150999999999999
 31
0.0
  0
LINE
  5
615
330
5D4
100
AcDbEntity
  8
4
100
AcDbLine
 10
1.239746439154376
 20
4.131
 30
0.0
 11
1.219746439154375
 21
4.150999999999999
 31
0.0
  0
LINE
  5
616
330
5D4
100
AcDbEntity
  8
4
100
AcDbLine
 10
1.114752718095576
 20
4.131
 30
0.0
 11
1.239746439154376
 21
4.131
 31
0.0
  0
LINE
  5
617
330
5D4
100
AcDbEntity
  8
4
100
AcDbLine
 10
1.114752718095576
 20
4.081
 30
0.0
 11
1.134752718095575
 21
4.100999999999999
 31
0.0
  0
LINE
  5
618
330
5D4
100
AcDbEntity
  8
4
100
AcDbLine
 10
1.239746439154376
 20
4.081
 30
0.0
 11
1.219746439154375
 21
4.100999999999999
 31
0.0
  0
LINE
  5
619
330
5D4
100
AcDbEntity
  8
4
100
AcDbLine
 10
1.114752718095576
 20
4.081
 30
0.0
 11
1.239746439154376
 21
4.081
 31
0.0
  0
LINE
  5
61A
330
5D4
100
AcDbEntity
  8
4
100
AcDbLine
 10
1.114752718095576
 20
4.031
 30
0.0
 11
1.134752718095575
 21
4.051
 31
0.0
  0
LINE
  5
61B
330
5D4
100
AcDbEntity
  8
4
100
AcDbLine
 10
1.239746439154376
 20
4.031
 30
0.0
 11
1.219746439154375
 21
4.051
 31
0.0
  0
LINE
  5
61C
330
5D4
100
AcDbEntity
  8
4
100
AcDbLine
 10
1.114752718095576
 20
4.031
 30
0.0
 11
1.239746439154376
 21
4.031
 31
0.0
  0
POINT
  5
61D
330
5D4
100
AcDbEntity
  8
0
100
AcDbPoint
 10
0.0
 20
0.0
 30
0.0
  0
ENDBLK
  5
621
330
5D4
100
AcDbEntity
  8
0
100
AcDbBlockEnd
  0
ENDSEC
  0
SECTION
  2
ENTITIES
  0
INSERT
  5
622
330
1F
100
AcDbEntity
  8
0
100
AcDbBlockReference
  2
A$C208909F4
 10
3.594395743751206
 20
2.302941164982442
 30
0.0
  0
LINE
  5
623
330
1F
100
AcDbEntity
  8
8
100
AcDbLine
 10
9.054353049084109
 20
2.374862445348249
 30
0.0
 11
9.554353049084109
 21
2.374862445348249
 31
0.0
  0
TEXT
  5
624
330
1F
100
AcDbEntity
  8
8
100
AcDbText
 10
4.954514791370256
 20
2.396941164982442
 30
0.0
 40
0.125
  1
STANDARD LOCKER WITH REC. HANDLE -     " DUPLEX
  7
ROMANS
 72
     1
 11
7.719395743751206
 21
2.396941164982442
 31
0.0
100
AcDbText
  0
CIRCLE
  5
625
330
1F
100
AcDbEntity
  8
4
100
AcDbCircle
 10
5.037895743751208
 20
5.29084077731454
 30
0.0
 40
0.023
  0
LWPOLYLINE
  5
626
330
1F
100
AcDbEntity
  8
4
100
AcDbPolyline
 90
        2
 70
     1
 43
0.01
 10
5.032895743751208
 20
5.343340777314541
 42
1.0
 10
5.042895743751207
 20
5.343340777314541
 42
1.0
  0
LWPOLYLINE
  5
627
330
1F
100
AcDbEntity
  8
4
100
AcDbPolyline
 90
        2
 70
     1
 43
0.01
 10
5.032895743751208
 20
5.23834077731454
 42
1.0
 10
5.042895743751207
 20
5.23834077731454
 42
1.0
  0
CIRCLE
  5
628
330
1F
100
AcDbEntity
  8
4
100
AcDbCircle
 10
4.771418569121516
 20
5.29084077731454
 30
0.0
 40
0.023
  0
LWPOLYLINE
  5
629
330
1F
100
AcDbEntity
  8
4
100
AcDbPolyline
 90
        2
 70
     1
 43
0.01
 10
4.766418569121516
 20
5.343340777314541
 42
1.0
 10
4.776418569121516
 20
5.343340777314541
 42
1.0
  0
LWPOLYLINE
  5
62A
330
1F
100
AcDbEntity
  8
4
100
AcDbPolyline
 90
        2
 70
     1
 43
0.01
 10
4.766418569121516
 20
5.23834077731454
 42
1.0
 10
4.776418569121516
 20
5.23834077731454
 42
1.0
  0
INSERT
  5
62B
330
1F
100
AcDbEntity
  8
8
100
AcDbBlockReference
  2
TEMP2
 10
8.406895743751206
 20
3.864941164982442
 30
0.0
  0
INSERT
  5
62C
330
1F
100
AcDbEntity
  8
8
100
AcDbBlockReference
  2
TEMP3
 10
4.180307626274523
 20
5.505660627631197
 30
0.0
  0
LINE
  5
62D
330
1F
100
AcDbEntity
  8
4
100
AcDbLine
 10
8.406895743751206
 20
3.802941164982442
 30
0.0
 11
8.406895743751206
 21
3.677941164982442
 31
0.0
  0
LINE
  5
62E
330
1F
100
AcDbEntity
  8
4
100
AcDbLine
 10
8.596895743751208
 20
3.864941164982442
 30
0.0
 11
8.406895743751206
 21
3.864941164982442
 31
0.0
  0
LINE
  5
62F
330
1F
100
AcDbEntity
  8
4
100
AcDbLine
 10
8.406895743751206
 20
3.864941164982442
 30
0.0
 11
8.344895743751205
 21
3.864941164982442
 31
0.0
  0
INSERT
  5
630
330
1F
100
AcDbEntity
  8
4
100
AcDbBlockReference
  2
ARRO
 10
8.406895743751206
 20
3.864941164982442
 30
0.0
 50
90.0
  0
INSERT
  5
631
330
1F
100
AcDbEntity
  8
4
100
AcDbBlockReference
  2
ARRO
 10
8.406895743751206
 20
3.802941164982442
 30
0.0
 50
270.0
  0
LINE
  5
632
330
1F
100
AcDbEntity
  8
4
100
AcDbLine
 10
8.659895743751206
 20
3.896941164982443
 30
0.0
 11
8.721895743751208
 21
3.896941164982443
 31
0.0
  0
LINE
  5
633
330
1F
100
AcDbEntity
  8
4
100
AcDbLine
 10
9.969895743751205
 20
3.896941164982443
 30
0.0
 11
10.0318957437512
 21
3.896941164982443
 31
0.0
  0
LINE
  5
634
330
1F
100
AcDbEntity
  8
4
100
AcDbLine
 10
11.25089574375121
 20
3.896941164982443
 30
0.0
 11
11.18889574375121
 21
3.896941164982443
 31
0.0
  0
LINE
  5
635
330
1F
100
AcDbEntity
  8
4
100
AcDbLine
 10
8.406895743751206
 20
6.802941164982442
 30
0.0
 11
8.406895743751206
 21
3.864941164982442
 31
0.0
  0
INSERT
  5
636
330
1F
100
AcDbEntity
  8
4
100
AcDbBlockReference
  2
ARRO
 10
8.406895743751206
 20
6.802941164982442
 30
0.0
 50
270.0
  0
LINE
  5
637
330
1F
100
AcDbEntity
  8
4
100
AcDbLine
 10
8.951875633853692
 20
5.928941164982442
 30
0.0
 11
9.013875633853691
 21
5.928941164982442
 31
0.0
  0
LINE
  5
638
330
1F
100
AcDbEntity
  8
4
100
AcDbLine
 10
8.982875633853691
 20
5.928941164982442
 30
0.0
 11
8.982875633853691
 21
5.866941164982442
 31
0.0
  0
LINE
  5
639
330
1F
100
AcDbEntity
  8
4
100
AcDbLine
 10
9.264895743751207
 20
5.990941164982443
 30
0.0
 11
9.264895743751207
 21
6.052941164982443
 31
0.0
  0
LINE
  5
63A
330
1F
100
AcDbEntity
  8
4
100
AcDbLine
 10
9.264895743751207
 20
6.052941164982443
 30
0.0
 11
8.764895743751207
 21
6.052941164982443
 31
0.0
  0
LINE
  5
63B
330
1F
100
AcDbEntity
  8
4
100
AcDbLine
 10
8.764895743751207
 20
6.052941164982443
 30
0.0
 11
8.764895743751207
 21
5.990941164982443
 31
0.0
  0
LINE
  5
63C
330
1F
100
AcDbEntity
  8
4
100
AcDbLine
 10
8.764895743751207
 20
5.990941164982443
 30
0.0
 11
8.795895743751206
 21
6.021941164982442
 31
0.0
  0
LINE
  5
63D
330
1F
100
AcDbEntity
  8
4
100
AcDbLine
 10
10.0748957437512
 20
5.990941164982443
 30
0.0
 11
10.1058957437512
 21
6.021941164982442
 31
0.0
  0
LINE
  5
63E
330
1F
100
AcDbEntity
  8
4
100
AcDbLine
 10
10.0748957437512
 20
6.052941164982443
 30
0.0
 11
10.0748957437512
 21
5.990941164982443
 31
0.0
  0
LINE
  5
63F
330
1F
100
AcDbEntity
  8
4
100
AcDbLine
 10
10.5748957437512
 20
6.052941164982443
 30
0.0
 11
10.0748957437512
 21
6.052941164982443
 31
0.0
  0
LINE
  5
640
330
1F
100
AcDbEntity
  8
4
100
AcDbLine
 10
10.5748957437512
 20
5.990941164982443
 30
0.0
 11
10.5748957437512
 21
6.052941164982443
 31
0.0
  0
LINE
  5
641
330
1F
100
AcDbEntity
  8
4
100
AcDbLine
 10
10.29287563385369
 20
5.928941164982442
 30
0.0
 11
10.29287563385369
 21
5.866941164982442
 31
0.0
  0
LINE
  5
642
330
1F
100
AcDbEntity
  8
4
100
AcDbLine
 10
10.26187563385369
 20
5.928941164982442
 30
0.0
 11
10.32387563385369
 21
5.928941164982442
 31
0.0
  0
LINE
  5
643
330
1F
100
AcDbEntity
  8
4
100
AcDbLine
 10
10.95891585364872
 20
5.928941164982442
 30
0.0
 11
10.89691585364872
 21
5.928941164982442
 31
0.0
  0
LINE
  5
644
330
1F
100
AcDbEntity
  8
4
100
AcDbLine
 10
10.92791585364872
 20
5.928941164982442
 30
0.0
 11
10.92791585364872
 21
5.866941164982442
 31
0.0
  0
LINE
  5
645
330
1F
100
AcDbEntity
  8
4
100
AcDbLine
 10
10.64589574375121
 20
5.990941164982443
 30
0.0
 11
10.64589574375121
 21
6.052941164982443
 31
0.0
  0
LINE
  5
646
330
1F
100
AcDbEntity
  8
4
100
AcDbLine
 10
10.64589574375121
 20
6.052941164982443
 30
0.0
 11
11.14589574375121
 21
6.052941164982443
 31
0.0
  0
LINE
  5
647
330
1F
100
AcDbEntity
  8
4
100
AcDbLine
 10
11.14589574375121
 20
6.052941164982443
 30
0.0
 11
11.14589574375121
 21
5.990941164982443
 31
0.0
  0
LINE
  5
648
330
1F
100
AcDbEntity
  8
4
100
AcDbLine
 10
11.14589574375121
 20
5.990941164982443
 30
0.0
 11
11.11489574375121
 21
6.021941164982442
 31
0.0
  0
LINE
  5
649
330
1F
100
AcDbEntity
  8
4
100
AcDbLine
 10
8.596895743751208
 20
6.052941164982443
 30
0.0
 11
8.406895743751206
 21
6.052941164982443
 31
0.0
  0
LINE
  5
64A
330
1F
100
AcDbEntity
  8
4
100
AcDbLine
 10
8.406895743751206
 20
6.052941164982443
 30
0.0
 11
8.344895743751205
 21
6.052941164982443
 31
0.0
  0
INSERT
  5
64B
330
1F
100
AcDbEntity
  8
4
100
AcDbBlockReference
  2
ARRO2
 10
8.406895743751206
 20
6.052941164982443
 30
0.0
 50
90.0
  0
LINE
  5
64C
330
1F
100
AcDbEntity
  8
4
100
AcDbLine
 10
8.659895743751206
 20
6.708941164982443
 30
0.0
 11
8.721895743751206
 21
6.708941164982443
 31
0.0
  0
LINE
  5
64D
330
1F
100
AcDbEntity
  8
4
100
AcDbLine
 10
9.969895743751205
 20
6.708941164982443
 30
0.0
 11
10.0318957437512
 21
6.708941164982443
 31
0.0
  0
LINE
  5
64E
330
1F
100
AcDbEntity
  8
4
100
AcDbLine
 10
11.25089574375121
 20
6.708941164982443
 30
0.0
 11
11.18889574375121
 21
6.708941164982443
 31
0.0
  0
LINE
  5
64F
330
1F
100
AcDbEntity
  8
4
100
AcDbLine
 10
11.25089574375121
 20
6.708941164982443
 30
0.0
 11
11.25089574375121
 21
3.896941164982443
 31
0.0
  0
LINE
  5
650
330
1F
100
AcDbEntity
  8
4
100
AcDbLine
 10
9.969895743751205
 20
6.708941164982443
 30
0.0
 11
9.969895743751205
 21
3.896941164982443
 31
0.0
  0
LINE
  5
651
330
1F
100
AcDbEntity
  8
4
100
AcDbLine
 10
8.659895743751206
 20
6.708941164982443
 30
0.0
 11
8.659895743751206
 21
3.896941164982443
 31
0.0
  0
LINE
  5
652
330
1F
100
AcDbEntity
  8
4
100
AcDbLine
 10
4.692418569121517
 20
5.472824132955143
 30
0.0
 11
4.850418569121516
 21
5.472824132955143
 31
0.0
  0
LINE
  5
653
330
1F
100
AcDbEntity
  8
4
100
AcDbLine
 10
4.850418569121516
 20
5.472824132955143
 30
0.0
 11
4.818418569121516
 21
5.180324132955143
 31
0.0
  0
LINE
  5
654
330
1F
100
AcDbEntity
  8
4
100
AcDbLine
 10
4.692418569121517
 20
5.472824132955143
 30
0.0
 11
4.724418569121517
 21
5.180324132955143
 31
0.0
  0
LINE
  5
655
330
1F
100
AcDbEntity
  8
4
100
AcDbLine
 10
4.724418569121517
 20
5.180324132955143
 30
0.0
 11
4.818418569121516
 21
5.180324132955143
 31
0.0
  0
LINE
  5
656
330
1F
100
AcDbEntity
  8
4
100
AcDbLine
 10
4.709089041178215
 20
5.457824132955144
 30
0.0
 11
4.737915487459206
 21
5.195324132955143
 31
0.0
  0
LINE
  5
657
330
1F
100
AcDbEntity
  8
4
100
AcDbLine
 10
4.737915487459206
 20
5.195324132955143
 30
0.0
 11
4.804921650783827
 21
5.195324132955143
 31
0.0
  0
LINE
  5
658
330
1F
100
AcDbEntity
  8
4
100
AcDbLine
 10
4.833748097064818
 20
5.457824132955144
 30
0.0
 11
4.804921650783827
 21
5.195324132955143
 31
0.0
  0
LINE
  5
659
330
1F
100
AcDbEntity
  8
4
100
AcDbLine
 10
4.709089041178215
 20
5.457824132955144
 30
0.0
 11
4.833748097064818
 21
5.457824132955144
 31
0.0
  0
LINE
  5
65A
330
1F
100
AcDbEntity
  8
4
100
AcDbLine
 10
4.786418569121516
 20
5.457824132955144
 30
0.0
 11
4.786418569121516
 21
5.410824132955143
 31
0.0
  0
LINE
  5
65B
330
1F
100
AcDbEntity
  8
4
100
AcDbLine
 10
4.786418569121516
 20
5.410824132955143
 30
0.0
 11
4.756418569121517
 21
5.410824132955143
 31
0.0
  0
LINE
  5
65C
330
1F
100
AcDbEntity
  8
4
100
AcDbLine
 10
4.756418569121517
 20
5.410824132955143
 30
0.0
 11
4.756418569121517
 21
5.457824132955144
 31
0.0
  0
LINE
  5
65D
330
1F
100
AcDbEntity
  8
4
100
AcDbLine
 10
6.801895743751208
 20
5.990941164982443
 30
0.0
 11
7.032395743751206
 21
5.990941164982443
 31
0.0
  0
LINE
  5
65E
330
1F
100
AcDbEntity
  8
4
100
AcDbLine
 10
6.801895743751208
 20
6.052941164982443
 30
0.0
 11
7.032395743751206
 21
6.052941164982443
 31
0.0
  0
LINE
  5
65F
330
1F
100
AcDbEntity
  8
4
100
AcDbLine
 10
6.241369923062785
 20
5.990941164982443
 30
0.0
 11
6.407395743751206
 21
5.990941164982443
 31
0.0
  0
LINE
  5
660
330
1F
100
AcDbEntity
  8
4
100
AcDbLine
 10
5.551895743751207
 20
5.990941164982443
 30
0.0
 11
5.782395743751207
 21
5.990941164982443
 31
0.0
  0
LINE
  5
661
330
1F
100
AcDbEntity
  8
4
100
AcDbLine
 10
5.551895743751207
 20
6.052941164982443
 30
0.0
 11
5.782395743751207
 21
6.052941164982443
 31
0.0
  0
LINE
  5
662
330
1F
100
AcDbEntity
  8
4
100
AcDbLine
 10
5.281395743751207
 20
5.990941164982443
 30
0.0
 11
5.511895743751209
 21
5.990941164982443
 31
0.0
  0
LINE
  5
663
330
1F
100
AcDbEntity
  8
4
100
AcDbLine
 10
6.531395743751207
 20
5.990941164982443
 30
0.0
 11
6.761895743751208
 21
5.990941164982443
 31
0.0
  0
LINE
  5
664
330
1F
100
AcDbEntity
  8
4
100
AcDbLine
 10
5.906395743751207
 20
5.990941164982443
 30
0.0
 11
6.094395743751206
 21
5.990941164982443
 31
0.0
  0
LINE
  5
665
330
1F
100
AcDbEntity
  8
4
100
AcDbLine
 10
5.281395743751207
 20
6.052941164982443
 30
0.0
 11
5.511895743751209
 21
6.052941164982443
 31
0.0
  0
LINE
  5
666
330
1F
100
AcDbEntity
  8
4
100
AcDbLine
 10
5.906395743751207
 20
6.052941164982443
 30
0.0
 11
6.094395743751206
 21
6.052941164982443
 31
0.0
  0
LINE
  5
667
330
1F
100
AcDbEntity
  8
4
100
AcDbLine
 10
6.219395743751206
 20
6.052941164982443
 30
0.0
 11
6.407395743751206
 21
6.052941164982443
 31
0.0
  0
LINE
  5
668
330
1F
100
AcDbEntity
  8
4
100
AcDbLine
 10
6.531395743751207
 20
6.052941164982443
 30
0.0
 11
6.761895743751208
 21
6.052941164982443
 31
0.0
  0
ARC
  5
669
330
1F
100
AcDbEntity
  8
4
100
AcDbCircle
 10
5.306395743751207
 20
5.865941164982443
 30
0.0
 40
0.025
100
AcDbArc
 50
180.0
 51
0.0
  0
ARC
  5
66A
330
1F
100
AcDbEntity
  8
4
100
AcDbCircle
 10
5.757395743751207
 20
5.865941164982443
 30
0.0
 40
0.025
100
AcDbArc
 50
180.0
 51
0.0
  0
ARC
  5
66B
330
1F
100
AcDbEntity
  8
4
100
AcDbCircle
 10
5.931395743751206
 20
5.865941164982443
 30
0.0
 40
0.025
100
AcDbArc
 50
180.0
 51
0.0
  0
ARC
  5
66C
330
1F
100
AcDbEntity
  8
4
100
AcDbCircle
 10
6.382395743751207
 20
5.865941164982443
 30
0.0
 40
0.025
100
AcDbArc
 50
180.0
 51
0.0
  0
ARC
  5
66D
330
1F
100
AcDbEntity
  8
4
100
AcDbCircle
 10
6.556395743751206
 20
5.865941164982443
 30
0.0
 40
0.025
100
AcDbArc
 50
180.0
 51
0.0
  0
ARC
  5
66E
330
1F
100
AcDbEntity
  8
4
100
AcDbCircle
 10
7.007395743751207
 20
5.865941164982443
 30
0.0
 40
0.025
100
AcDbArc
 50
180.0
 51
0.0
  0
LINE
  5
66F
330
1F
100
AcDbEntity
  8
4
100
AcDbLine
 10
5.551895743751207
 20
6.523093464956801
 30
0.0
 11
5.551895743751208
 21
3.864941164982442
 31
0.0
  0
LINE
  5
670
330
1F
100
AcDbEntity
  8
4
100
AcDbLine
 10
5.511895743751209
 20
6.706788865008084
 30
0.0
 11
5.511895743751209
 21
6.740941164982443
 31
0.0
  0
LINE
  5
671
330
1F
100
AcDbEntity
  8
4
100
AcDbLine
 10
6.801895743751207
 20
6.740941164982443
 30
0.0
 11
6.801895743751208
 21
3.864941164982442
 31
0.0
  0
LINE
  5
672
330
1F
100
AcDbEntity
  8
4
100
AcDbLine
 10
6.761895743751208
 20
3.864941164982442
 30
0.0
 11
6.761895743751208
 21
6.740941164982443
 31
0.0
  0
LINE
  5
673
330
1F
100
AcDbEntity
  8
4
100
AcDbLine
 10
5.551895743751207
 20
6.740941164982443
 30
0.0
 11
5.551895743751207
 21
6.706788865008084
 31
0.0
  0
LINE
  5
674
330
1F
100
AcDbEntity
  8
4
100
AcDbLine
 10
5.511895743751209
 20
3.864941164982442
 30
0.0
 11
5.511895743751209
 21
6.523093464956801
 31
0.0
  0
LINE
  5
675
330
1F
100
AcDbEntity
  8
4
100
AcDbLine
 10
4.854895743751209
 20
3.896941164982442
 30
0.0
 11
4.688395743751207
 21
3.896941164982442
 31
0.0
  0
LINE
  5
676
330
1F
100
AcDbEntity
  8
4
100
AcDbLine
 10
4.958895743751207
 20
6.708941164982443
 30
0.0
 11
5.125395743751207
 21
6.708941164982443
 31
0.0
  0
LINE
  5
677
330
1F
100
AcDbEntity
  8
4
100
AcDbLine
 10
4.688395743751207
 20
3.896941164982442
 30
0.0
 11
4.688395743751207
 21
6.708941164982443
 31
0.0
  0
LINE
  5
678
330
1F
100
AcDbEntity
  8
4
100
AcDbLine
 10
4.688395743751207
 20
6.708941164982443
 30
0.0
 11
4.854895743751207
 21
6.708941164982443
 31
0.0
  0
LINE
  5
679
330
1F
100
AcDbEntity
  8
4
100
AcDbLine
 10
5.125395743751207
 20
6.708941164982443
 30
0.0
 11
5.125395743751206
 21
3.896941164982443
 31
0.0
  0
LINE
  5
67A
330
1F
100
AcDbEntity
  8
4
100
AcDbLine
 10
5.125395743751206
 20
3.896941164982443
 30
0.0
 11
4.95889574375121
 21
3.896941164982442
 31
0.0
  0
LINE
  5
67B
330
1F
100
AcDbEntity
  8
4
100
AcDbLine
 10
4.864895743751207
 20
6.533941164982443
 30
0.0
 11
4.864895743751207
 21
6.408941164982443
 31
0.0
  0
LINE
  5
67C
330
1F
100
AcDbEntity
  8
4
100
AcDbLine
 10
4.864895743751207
 20
5.439941164982442
 30
0.0
 11
4.864895743751207
 21
5.314941164982442
 31
0.0
  0
LINE
  5
67D
330
1F
100
AcDbEntity
  8
4
100
AcDbLine
 10
4.864895743751207
 20
4.345941164982443
 30
0.0
 11
4.864895743751207
 21
4.220941164982443
 31
0.0
  0
LINE
  5
67E
330
1F
100
AcDbEntity
  8
4
100
AcDbLine
 10
4.555307626274523
 20
5.443660627631197
 30
0.0
 11
4.180307626274523
 21
5.443660627631197
 31
0.0
  0
LINE
  5
67F
330
1F
100
AcDbEntity
  8
4
100
AcDbLine
 10
4.180307626274523
 20
5.443660627631197
 30
0.0
 11
4.180307626274523
 21
5.505660627631197
 31
0.0
  0
LINE
  5
680
330
1F
100
AcDbEntity
  8
4
100
AcDbLine
 10
4.555307626274523
 20
5.302941164982442
 30
0.0
 11
4.180307626274523
 21
5.302941164982442
 31
0.0
  0
LINE
  5
681
330
1F
100
AcDbEntity
  8
4
100
AcDbLine
 10
4.180307626274523
 20
5.302941164982442
 30
0.0
 11
4.180307626274523
 21
5.240941164982443
 31
0.0
  0
INSERT
  5
682
330
1F
100
AcDbEntity
  8
4
100
AcDbBlockReference
  2
ARRO
 10
4.555307626274523
 20
5.443660627631197
 30
0.0
 50
180.0
  0
INSERT
  5
683
330
1F
100
AcDbEntity
  8
4
100
AcDbBlockReference
  2
ARRO
 10
4.555307626274523
 20
5.302941164982442
 30
0.0
 50
180.0
  0
LINE
  5
684
330
1F
100
AcDbEntity
  8
4
100
AcDbLine
 10
4.854895743751207
 20
6.708941164982443
 30
0.0
 11
4.854895743751209
 21
3.896941164982442
 31
0.0
  0
LINE
  5
685
330
1F
100
AcDbEntity
  8
4
100
AcDbLine
 10
4.958895743751207
 20
6.708941164982443
 30
0.0
 11
4.95889574375121
 21
3.896941164982442
 31
0.0
  0
LINE
  5
686
330
1F
100
AcDbEntity
  8
4
100
AcDbLine
 10
4.886895743751208
 20
3.864941164982442
 30
0.0
 11
4.886895743751208
 21
6.740941164982443
 31
0.0
  0
LINE
  5
687
330
1F
100
AcDbEntity
  8
4
100
AcDbLine
 10
4.926895743751207
 20
6.740941164982443
 30
0.0
 11
4.926895743751208
 21
3.864941164982442
 31
0.0
  0
LINE
  5
688
330
1F
100
AcDbEntity
  8
4
100
AcDbLine
 10
5.022856868395179
 20
5.410824132955143
 30
0.0
 11
5.022856868395179
 21
5.457824132955144
 31
0.0
  0
LINE
  5
689
330
1F
100
AcDbEntity
  8
4
100
AcDbLine
 10
5.05285686839518
 20
5.410824132955143
 30
0.0
 11
5.022856868395179
 21
5.410824132955143
 31
0.0
  0
LINE
  5
68A
330
1F
100
AcDbEntity
  8
4
100
AcDbLine
 10
5.05285686839518
 20
5.457824132955144
 30
0.0
 11
5.05285686839518
 21
5.410824132955143
 31
0.0
  0
LINE
  5
68B
330
1F
100
AcDbEntity
  8
4
100
AcDbLine
 10
4.975527340451877
 20
5.457824132955144
 30
0.0
 11
5.100186396338481
 21
5.457824132955144
 31
0.0
  0
LINE
  5
68C
330
1F
100
AcDbEntity
  8
4
100
AcDbLine
 10
5.100186396338481
 20
5.457824132955144
 30
0.0
 11
5.071359950057489
 21
5.195324132955143
 31
0.0
  0
LINE
  5
68D
330
1F
100
AcDbEntity
  8
4
100
AcDbLine
 10
5.00435378673287
 20
5.195324132955143
 30
0.0
 11
5.071359950057489
 21
5.195324132955143
 31
0.0
  0
LINE
  5
68E
330
1F
100
AcDbEntity
  8
4
100
AcDbLine
 10
4.975527340451877
 20
5.457824132955144
 30
0.0
 11
5.00435378673287
 21
5.195324132955143
 31
0.0
  0
LINE
  5
68F
330
1F
100
AcDbEntity
  8
4
100
AcDbLine
 10
4.990856868395179
 20
5.180324132955143
 30
0.0
 11
5.08485686839518
 21
5.180324132955143
 31
0.0
  0
LINE
  5
690
330
1F
100
AcDbEntity
  8
4
100
AcDbLine
 10
4.958856868395179
 20
5.472824132955143
 30
0.0
 11
4.990856868395179
 21
5.180324132955143
 31
0.0
  0
LINE
  5
691
330
1F
100
AcDbEntity
  8
4
100
AcDbLine
 10
5.11685686839518
 20
5.472824132955143
 30
0.0
 11
5.08485686839518
 21
5.180324132955143
 31
0.0
  0
LINE
  5
692
330
1F
100
AcDbEntity
  8
4
100
AcDbLine
 10
4.958856868395179
 20
5.472824132955143
 30
0.0
 11
5.11685686839518
 21
5.472824132955143
 31
0.0
  0
LINE
  5
693
330
1F
100
AcDbEntity
  8
4
100
AcDbLine
 10
4.948895743751206
 20
4.195941164982443
 30
0.0
 11
4.948895743751206
 21
4.070941164982443
 31
0.0
  0
LINE
  5
694
330
1F
100
AcDbEntity
  8
4
100
AcDbLine
 10
4.949895743751207
 20
5.289941164982442
 30
0.0
 11
4.949895743751207
 21
5.164941164982442
 31
0.0
  0
LINE
  5
695
330
1F
100
AcDbEntity
  8
4
100
AcDbLine
 10
4.949895743751206
 20
6.383941164982442
 30
0.0
 11
4.949895743751206
 21
6.258941164982443
 31
0.0
  0
TEXT
  5
727
330
1F
100
AcDbEntity
  8
8
100
AcDbText
 10
8.806895743751208
 20
3.994601876625628
 30
0.0
 40
0.07
  1
DEPTH
  7
ROMANS
 72
     1
 11
8.971895743751208
 21
3.994601876625628
 31
0.0
100
AcDbText
  0
TEXT
  5
728
330
1F
100
AcDbEntity
  8
8
100
AcDbText
 10
10.42939574375121
 20
3.994601876625628
 30
0.0
 40
0.07
  1
DEPTH
  7
ROMANS
 72
     1
 11
10.59439574375121
 21
3.994601876625628
 31
0.0
100
AcDbText
  0
TEXT
  5
729
330
1F
100
AcDbEntity
  8
8
100
AcDbText
 10
9.872234230824751
 20
3.049542171807752
 30
0.0
 40
0.1
  1
SR BACK TO BACK
  7
ROMANS
 72
     1
 11
10.59604375463427
 21
3.049542171807752
 31
0.0
100
AcDbText
  0
TEXT
  5
72A
330
1F
100
AcDbEntity
  8
8
100
AcDbText
 10
9.388785068309585
 20
2.864941164982442
 30
0.0
 40
0.1
  1
SECTIONS
  7
ROMANS
 72
     1
 11
9.741166020690538
 21
2.864941164982442
 31
0.0
100
AcDbText
  0
TEXT
  5
72B
330
1F
100
AcDbEntity
  8
8
100
AcDbText
 10
8.896448906878163
 20
3.049542171807752
 30
0.0
 40
0.1
  1
SR
  7
ROMANS
 72
     1
 11
8.994067954497211
 21
3.049542171807752
 31
0.0
100
AcDbText
  0
LINE
  5
72C
330
1F
100
AcDbEntity
  8
4
100
AcDbLine
 10
9.222395743751206
 20
6.552941164982442
 30
0.0
 11
9.48612734641661
 21
6.552941164982442
 31
0.0
  0
LINE
  5
72D
330
1F
100
AcDbEntity
  8
4
100
AcDbLine
 10
9.526554556089037
 20
6.552941164982442
 30
0.0
 11
9.70701835291298
 21
6.552941164982442
 31
0.0
  0
INSERT
  5
72E
330
1F
100
AcDbEntity
  8
4
100
AcDbBlockReference
  2
ARRO
 10
9.526554556089037
 20
6.552941164982442
 30
0.0
  0
LINE
  5
72F
330
1F
100
AcDbEntity
  8
4
100
AcDbLine
 10
9.70701835291298
 20
6.552941164982442
 30
0.0
 11
9.70701835291298
 21
6.34995349519193
 31
0.0
  0
TEXT
  5
730
330
1F
100
AcDbEntity
  8
8
100
AcDbText
 10
9.74201835291298
 20
4.974620161858596
 30
0.0
 40
0.07
  1
ANCHORING BY ERECTOR
 50
90.0
  7
ROMANS
 72
     2
 11
9.74201835291298
 21
6.28795349519193
 31
0.0
100
AcDbText
  0
TEXT
  5
731
330
1F
100
AcDbEntity
  8
8
100
AcDbText
 10
8.094895743751205
 20
4.881274498315775
 30
0.0
 40
0.07
  1
LOCKER HEIGHT
 50
90.0
  7
ROMANS
 72
     1
 11
8.094895743751205
 21
5.302941164982442
 31
0.0
100
AcDbText
  0
TEXT
  5
732
330
1F
100
AcDbEntity
  8
8
100
AcDbText
 10
4.939395743751205
 20
3.364941164982442
 30
0.0
 40
0.07
  1
LOCKER WIDTH - SEE SCHEDULE
  7
ROMANS
 72
     1
 11
5.844395743751206
 21
3.364941164982442
 31
0.0
100
AcDbText
  0
TEXT
  5
733
330
1F
100
AcDbEntity
  8
8
100
AcDbText
 10
5.180110029465493
 20
2.864941164982442
 30
0.0
 40
0.1
  1
FRONT ELEVATION
  7
ROMANS
 72
     1
 11
5.844395743751206
 21
2.864941164982442
 31
0.0
100
AcDbText
  0
LINE
  5
734
330
1F
100
AcDbEntity
  8
1
100
AcDbLine
 10
8.797895743751205
 20
3.865441164982442
 30
0.0
 11
8.782895743751206
 21
3.850441164982441
 31
0.0
  0
LINE
  5
735
330
1F
100
AcDbEntity
  8
1
100
AcDbLine
 10
8.782895743751206
 20
3.850441164982441
 30
0.0
 11
8.684895743751205
 21
3.850441164982441
 31
0.0
  0
LINE
  5
736
330
1F
100
AcDbEntity
  8
1
100
AcDbLine
 10
8.684895743751205
 20
3.850441164982441
 30
0.0
 11
8.684895743751205
 21
3.822195022544882
 31
0.0
  0
LINE
  5
737
330
1F
100
AcDbEntity
  8
1
100
AcDbLine
 10
8.859895743751206
 20
3.803441164982442
 30
0.0
 11
8.797895743751205
 21
3.865441164982442
 31
0.0
  0
LINE
  5
738
330
1F
100
AcDbEntity
  8
1
100
AcDbLine
 10
9.224895743751206
 20
3.803441164982442
 30
0.0
 11
8.859895743751206
 21
3.803441164982442
 31
0.0
  0
LINE
  5
739
330
1F
100
AcDbEntity
  8
1
100
AcDbLine
 10
9.224895743751206
 20
3.865441164982442
 30
0.0
 11
9.224895743751206
 21
3.803441164982442
 31
0.0
  0
LINE
  5
73A
330
1F
100
AcDbEntity
  8
1
100
AcDbLine
 10
9.264895743751207
 20
3.865441164982442
 30
0.0
 11
9.264895743751207
 21
3.803441164982442
 31
0.0
  0
LINE
  5
73B
330
1F
100
AcDbEntity
  8
1
100
AcDbLine
 10
8.659895743751206
 20
3.865441164982442
 30
0.0
 11
8.767895743751205
 21
3.865441164982442
 31
0.0
  0
LINE
  5
73C
330
1F
100
AcDbEntity
  8
1
100
AcDbLine
 10
8.659895743751206
 20
3.803441164982442
 30
0.0
 11
8.659895743751206
 21
3.865441164982442
 31
0.0
  0
LINE
  5
73D
330
1F
100
AcDbEntity
  8
1
100
AcDbLine
 10
8.721895743751206
 20
3.803441164982442
 30
0.0
 11
8.659895743751206
 21
3.803441164982442
 31
0.0
  0
LINE
  5
73E
330
1F
100
AcDbEntity
  8
1
100
AcDbLine
 10
8.797895743751205
 20
3.865441164982442
 30
0.0
 11
9.264895743751207
 21
3.865441164982442
 31
0.0
  0
LINE
  5
73F
330
1F
100
AcDbEntity
  8
1
100
AcDbLine
 10
10.1078957437512
 20
3.865441164982442
 30
0.0
 11
10.5748957437512
 21
3.865441164982442
 31
0.0
  0
LINE
  5
740
330
1F
100
AcDbEntity
  8
1
100
AcDbLine
 10
10.0318957437512
 20
3.803441164982442
 30
0.0
 11
9.969895743751205
 21
3.803441164982442
 31
0.0
  0
LINE
  5
741
330
1F
100
AcDbEntity
  8
1
100
AcDbLine
 10
9.969895743751205
 20
3.803441164982442
 30
0.0
 11
9.969895743751205
 21
3.865441164982442
 31
0.0
  0
LINE
  5
742
330
1F
100
AcDbEntity
  8
1
100
AcDbLine
 10
9.969895743751205
 20
3.865441164982442
 30
0.0
 11
10.0778957437512
 21
3.865441164982442
 31
0.0
  0
LINE
  5
743
330
1F
100
AcDbEntity
  8
1
100
AcDbLine
 10
10.5748957437512
 20
3.865441164982442
 30
0.0
 11
10.5748957437512
 21
3.803441164982442
 31
0.0
  0
LINE
  5
744
330
1F
100
AcDbEntity
  8
1
100
AcDbLine
 10
10.5348957437512
 20
3.865441164982442
 30
0.0
 11
10.5348957437512
 21
3.803441164982442
 31
0.0
  0
LINE
  5
745
330
1F
100
AcDbEntity
  8
1
100
AcDbLine
 10
10.5348957437512
 20
3.803441164982442
 30
0.0
 11
10.1698957437512
 21
3.803441164982442
 31
0.0
  0
LINE
  5
746
330
1F
100
AcDbEntity
  8
1
100
AcDbLine
 10
10.1698957437512
 20
3.803441164982442
 30
0.0
 11
10.1078957437512
 21
3.865441164982442
 31
0.0
  0
LINE
  5
747
330
1F
100
AcDbEntity
  8
1
100
AcDbLine
 10
9.994895743751206
 20
3.850441164982441
 30
0.0
 11
9.994895743751206
 21
3.822195022544882
 31
0.0
  0
LINE
  5
748
330
1F
100
AcDbEntity
  8
1
100
AcDbLine
 10
10.0928957437512
 20
3.850441164982441
 30
0.0
 11
9.994895743751206
 21
3.850441164982441
 31
0.0
  0
LINE
  5
749
330
1F
100
AcDbEntity
  8
1
100
AcDbLine
 10
10.1078957437512
 20
3.865441164982442
 30
0.0
 11
10.0928957437512
 21
3.850441164982441
 31
0.0
  0
LINE
  5
74A
330
1F
100
AcDbEntity
  8
1
100
AcDbLine
 10
11.11221856651024
 20
3.865441164982442
 30
0.0
 11
11.12721856651024
 21
3.850441164982441
 31
0.0
  0
LINE
  5
74B
330
1F
100
AcDbEntity
  8
1
100
AcDbLine
 10
11.12721856651024
 20
3.850441164982441
 30
0.0
 11
11.22521856651024
 21
3.850441164982441
 31
0.0
  0
LINE
  5
74C
330
1F
100
AcDbEntity
  8
1
100
AcDbLine
 10
11.22521856651024
 20
3.850441164982441
 30
0.0
 11
11.22521856651024
 21
3.822195022544882
 31
0.0
  0
LINE
  5
74D
330
1F
100
AcDbEntity
  8
1
100
AcDbLine
 10
11.05021856651024
 20
3.803441164982442
 30
0.0
 11
11.11221856651024
 21
3.865441164982442
 31
0.0
  0
LINE
  5
74E
330
1F
100
AcDbEntity
  8
1
100
AcDbLine
 10
10.68521856651024
 20
3.803441164982442
 30
0.0
 11
11.05021856651024
 21
3.803441164982442
 31
0.0
  0
LINE
  5
74F
330
1F
100
AcDbEntity
  8
1
100
AcDbLine
 10
10.68521856651024
 20
3.865441164982442
 30
0.0
 11
10.68521856651024
 21
3.803441164982442
 31
0.0
  0
LINE
  5
750
330
1F
100
AcDbEntity
  8
1
100
AcDbLine
 10
10.64521856651024
 20
3.865441164982442
 30
0.0
 11
10.64521856651024
 21
3.803441164982442
 31
0.0
  0
LINE
  5
751
330
1F
100
AcDbEntity
  8
1
100
AcDbLine
 10
11.25021856651024
 20
3.865441164982442
 30
0.0
 11
11.14221856651024
 21
3.865441164982442
 31
0.0
  0
LINE
  5
752
330
1F
100
AcDbEntity
  8
1
100
AcDbLine
 10
11.25021856651024
 20
3.803441164982442
 30
0.0
 11
11.25021856651024
 21
3.865441164982442
 31
0.0
  0
LINE
  5
753
330
1F
100
AcDbEntity
  8
1
100
AcDbLine
 10
11.18821856651024
 20
3.803441164982442
 30
0.0
 11
11.25021856651024
 21
3.803441164982442
 31
0.0
  0
LINE
  5
754
330
1F
100
AcDbEntity
  8
1
100
AcDbLine
 10
11.11221856651024
 20
3.865441164982442
 30
0.0
 11
10.64521856651024
 21
3.865441164982442
 31
0.0
  0
LINE
  5
755
330
1F
100
AcDbEntity
  8
1
100
AcDbLine
 10
11.1128957437512
 20
6.802941164982442
 30
0.0
 11
10.64589574375121
 21
6.802941164982442
 31
0.0
  0
LINE
  5
756
330
1F
100
AcDbEntity
  8
1
100
AcDbLine
 10
11.18889574375121
 20
6.740941164982442
 30
0.0
 11
11.25089574375121
 21
6.740941164982442
 31
0.0
  0
LINE
  5
757
330
1F
100
AcDbEntity
  8
1
100
AcDbLine
 10
11.25089574375121
 20
6.740941164982442
 30
0.0
 11
11.25089574375121
 21
6.802941164982442
 31
0.0
  0
LINE
  5
758
330
1F
100
AcDbEntity
  8
1
100
AcDbLine
 10
11.25089574375121
 20
6.802941164982442
 30
0.0
 11
11.14289574375121
 21
6.802941164982442
 31
0.0
  0
LINE
  5
759
330
1F
100
AcDbEntity
  8
1
100
AcDbLine
 10
10.64589574375121
 20
6.802941164982442
 30
0.0
 11
10.64589574375121
 21
6.740941164982442
 31
0.0
  0
LINE
  5
75A
330
1F
100
AcDbEntity
  8
1
100
AcDbLine
 10
10.68589574375121
 20
6.802941164982442
 30
0.0
 11
10.68589574375121
 21
6.740941164982442
 31
0.0
  0
LINE
  5
75B
330
1F
100
AcDbEntity
  8
1
100
AcDbLine
 10
10.68589574375121
 20
6.740941164982442
 30
0.0
 11
11.05089574375121
 21
6.740941164982442
 31
0.0
  0
LINE
  5
75C
330
1F
100
AcDbEntity
  8
1
100
AcDbLine
 10
11.05089574375121
 20
6.740941164982442
 30
0.0
 11
11.1128957437512
 21
6.802941164982442
 31
0.0
  0
LINE
  5
75D
330
1F
100
AcDbEntity
  8
1
100
AcDbLine
 10
11.22589574375121
 20
6.787941164982441
 30
0.0
 11
11.22589574375121
 21
6.759695022544882
 31
0.0
  0
LINE
  5
75E
330
1F
100
AcDbEntity
  8
1
100
AcDbLine
 10
11.12789574375121
 20
6.787941164982441
 30
0.0
 11
11.22589574375121
 21
6.787941164982441
 31
0.0
  0
LINE
  5
75F
330
1F
100
AcDbEntity
  8
1
100
AcDbLine
 10
11.1128957437512
 20
6.802941164982442
 30
0.0
 11
11.12789574375121
 21
6.787941164982441
 31
0.0
  0
LINE
  5
760
330
1F
100
AcDbEntity
  8
1
100
AcDbLine
 10
10.1078957437512
 20
6.802941164982442
 30
0.0
 11
10.0928957437512
 21
6.787941164982441
 31
0.0
  0
LINE
  5
761
330
1F
100
AcDbEntity
  8
1
100
AcDbLine
 10
10.0928957437512
 20
6.787941164982441
 30
0.0
 11
9.994895743751206
 21
6.787941164982441
 31
0.0
  0
LINE
  5
762
330
1F
100
AcDbEntity
  8
1
100
AcDbLine
 10
9.994895743751206
 20
6.787941164982441
 30
0.0
 11
9.994895743751206
 21
6.759695022544882
 31
0.0
  0
LINE
  5
763
330
1F
100
AcDbEntity
  8
1
100
AcDbLine
 10
10.1698957437512
 20
6.740941164982442
 30
0.0
 11
10.1078957437512
 21
6.802941164982442
 31
0.0
  0
LINE
  5
764
330
1F
100
AcDbEntity
  8
1
100
AcDbLine
 10
10.5348957437512
 20
6.740941164982442
 30
0.0
 11
10.1698957437512
 21
6.740941164982442
 31
0.0
  0
LINE
  5
765
330
1F
100
AcDbEntity
  8
1
100
AcDbLine
 10
10.5348957437512
 20
6.802941164982442
 30
0.0
 11
10.5348957437512
 21
6.740941164982442
 31
0.0
  0
LINE
  5
766
330
1F
100
AcDbEntity
  8
1
100
AcDbLine
 10
10.5748957437512
 20
6.802941164982442
 30
0.0
 11
10.5748957437512
 21
6.740941164982442
 31
0.0
  0
LINE
  5
767
330
1F
100
AcDbEntity
  8
1
100
AcDbLine
 10
9.969895743751205
 20
6.802941164982442
 30
0.0
 11
10.0778957437512
 21
6.802941164982442
 31
0.0
  0
LINE
  5
768
330
1F
100
AcDbEntity
  8
1
100
AcDbLine
 10
9.969895743751205
 20
6.740941164982442
 30
0.0
 11
9.969895743751205
 21
6.802941164982442
 31
0.0
  0
LINE
  5
769
330
1F
100
AcDbEntity
  8
1
100
AcDbLine
 10
10.0318957437512
 20
6.740941164982442
 30
0.0
 11
9.969895743751205
 21
6.740941164982442
 31
0.0
  0
LINE
  5
76A
330
1F
100
AcDbEntity
  8
1
100
AcDbLine
 10
10.1078957437512
 20
6.802941164982442
 30
0.0
 11
10.5748957437512
 21
6.802941164982442
 31
0.0
  0
LINE
  5
76B
330
1F
100
AcDbEntity
  8
1
100
AcDbLine
 10
8.797895743751205
 20
6.802941164982442
 30
0.0
 11
9.264895743751207
 21
6.802941164982442
 31
0.0
  0
LINE
  5
76C
330
1F
100
AcDbEntity
  8
1
100
AcDbLine
 10
8.721895743751206
 20
6.740941164982442
 30
0.0
 11
8.659895743751206
 21
6.740941164982442
 31
0.0
  0
LINE
  5
76D
330
1F
100
AcDbEntity
  8
1
100
AcDbLine
 10
8.659895743751206
 20
6.740941164982442
 30
0.0
 11
8.659895743751206
 21
6.802941164982442
 31
0.0
  0
LINE
  5
76E
330
1F
100
AcDbEntity
  8
1
100
AcDbLine
 10
8.659895743751206
 20
6.802941164982442
 30
0.0
 11
8.767895743751205
 21
6.802941164982442
 31
0.0
  0
LINE
  5
76F
330
1F
100
AcDbEntity
  8
1
100
AcDbLine
 10
9.264895743751207
 20
6.802941164982442
 30
0.0
 11
9.264895743751207
 21
6.740941164982442
 31
0.0
  0
LINE
  5
770
330
1F
100
AcDbEntity
  8
1
100
AcDbLine
 10
9.224895743751206
 20
6.802941164982442
 30
0.0
 11
9.224895743751206
 21
6.740941164982442
 31
0.0
  0
LINE
  5
771
330
1F
100
AcDbEntity
  8
1
100
AcDbLine
 10
9.224895743751206
 20
6.740941164982442
 30
0.0
 11
8.859895743751206
 21
6.740941164982442
 31
0.0
  0
LINE
  5
772
330
1F
100
AcDbEntity
  8
1
100
AcDbLine
 10
8.859895743751206
 20
6.740941164982442
 30
0.0
 11
8.797895743751205
 21
6.802941164982442
 31
0.0
  0
LINE
  5
773
330
1F
100
AcDbEntity
  8
1
100
AcDbLine
 10
8.684895743751205
 20
6.787941164982441
 30
0.0
 11
8.684895743751205
 21
6.759695022544882
 31
0.0
  0
LINE
  5
774
330
1F
100
AcDbEntity
  8
1
100
AcDbLine
 10
8.782895743751206
 20
6.787941164982441
 30
0.0
 11
8.684895743751205
 21
6.787941164982441
 31
0.0
  0
LINE
  5
775
330
1F
100
AcDbEntity
  8
1
100
AcDbLine
 10
8.797895743751205
 20
6.802941164982442
 30
0.0
 11
8.782895743751206
 21
6.787941164982441
 31
0.0
  0
LINE
  5
776
330
1F
100
AcDbEntity
  8
1
100
AcDbLine
 10
4.656395743751207
 20
3.864941164982442
 30
0.0
 11
5.157395743751206
 21
3.864941164982442
 31
0.0
  0
LINE
  5
777
330
1F
100
AcDbEntity
  8
4
100
AcDbLine
 10
5.46726245405922
 20
3.676941164982442
 30
0.0
 11
5.529262454059219
 21
3.676941164982442
 31
0.0
  0
CIRCLE
  5
778
330
1F
100
AcDbEntity
  8
4
100
AcDbCircle
 10
5.623262454059219
 20
3.676941164982442
 30
0.0
 40
0.094
  0
LINE
  5
779
330
1F
100
AcDbEntity
  8
4
100
AcDbLine
 10
5.373262454059219
 20
3.770941164982442
 30
0.0
 11
5.373262454059219
 21
3.895941164982442
 31
0.0
  0
CIRCLE
  5
77A
330
1F
100
AcDbEntity
  8
4
100
AcDbCircle
 10
5.373262454059219
 20
3.676941164982442
 30
0.0
 40
0.094
  0
CIRCLE
  5
77B
330
1F
100
AcDbEntity
  8
4
100
AcDbCircle
 10
5.531895743751206
 20
6.614941164982442
 30
0.0
 40
0.094
  0
LINE
  5
77C
330
1F
100
AcDbEntity
  8
4
100
AcDbLine
 10
5.531895743751206
 20
6.708941164982443
 30
0.0
 11
5.531895743751206
 21
6.833941164982443
 31
0.0
  0
LINE
  5
77D
330
1F
100
AcDbEntity
  8
1
100
AcDbLine
 10
6.094395743751205
 20
3.864941164982442
 30
0.0
 11
5.906395743751207
 21
3.864941164982442
 31
0.0
  0
LINE
  5
77E
330
1F
100
AcDbEntity
  8
1
100
AcDbLine
 10
6.219395743751206
 20
6.740941164982443
 30
0.0
 11
6.407395743751207
 21
6.740941164982443
 31
0.0
  0
LINE
  5
77F
330
1F
100
AcDbEntity
  8
1
100
AcDbLine
 10
6.469395743751206
 20
3.802941164982442
 30
0.0
 11
6.469395743751206
 21
6.802941164982442
 31
0.0
  0
LINE
  5
780
330
1F
100
AcDbEntity
  8
1
100
AcDbLine
 10
5.844395743751206
 20
3.802941164982442
 30
0.0
 11
5.844395743751206
 21
6.802941164982442
 31
0.0
  0
LINE
  5
781
330
1F
100
AcDbEntity
  8
1
100
AcDbLine
 10
5.219395743751206
 20
3.802941164982442
 30
0.0
 11
5.219395743751206
 21
6.802941164982442
 31
0.0
  0
LINE
  5
782
330
1F
100
AcDbEntity
  8
1
100
AcDbLine
 10
7.032395743751206
 20
3.864941164982442
 30
0.0
 11
6.531395743751207
 21
3.864941164982442
 31
0.0
  0
LINE
  5
783
330
1F
100
AcDbEntity
  8
1
100
AcDbLine
 10
7.032395743751207
 20
6.740941164982443
 30
0.0
 11
7.032395743751206
 21
3.864941164982442
 31
0.0
  0
LINE
  5
784
330
1F
100
AcDbEntity
  8
1
100
AcDbLine
 10
6.531395743751207
 20
6.740941164982443
 30
0.0
 11
7.032395743751207
 21
6.740941164982443
 31
0.0
  0
LINE
  5
785
330
1F
100
AcDbEntity
  8
1
100
AcDbLine
 10
6.531395743751207
 20
3.864941164982442
 30
0.0
 11
6.531395743751207
 21
6.740941164982443
 31
0.0
  0
LINE
  5
786
330
1F
100
AcDbEntity
  8
1
100
AcDbLine
 10
6.407395743751206
 20
3.864941164982442
 30
0.0
 11
6.219395743751206
 21
3.864941164982442
 31
0.0
  0
LINE
  5
787
330
1F
100
AcDbEntity
  8
1
100
AcDbLine
 10
6.407395743751207
 20
6.740941164982443
 30
0.0
 11
6.407395743751206
 21
3.864941164982442
 31
0.0
  0
LINE
  5
788
330
1F
100
AcDbEntity
  8
1
100
AcDbLine
 10
5.906395743751207
 20
6.740941164982443
 30
0.0
 11
6.094395743751206
 21
6.740941164982443
 31
0.0
  0
LINE
  5
789
330
1F
100
AcDbEntity
  8
1
100
AcDbLine
 10
5.906395743751207
 20
3.864941164982442
 30
0.0
 11
5.906395743751207
 21
6.740941164982443
 31
0.0
  0
LINE
  5
78A
330
1F
100
AcDbEntity
  8
1
100
AcDbLine
 10
5.782395743751206
 20
3.864941164982442
 30
0.0
 11
5.281395743751207
 21
3.864941164982442
 31
0.0
  0
LINE
  5
78B
330
1F
100
AcDbEntity
  8
1
100
AcDbLine
 10
5.782395743751207
 20
6.740941164982443
 30
0.0
 11
5.782395743751206
 21
3.864941164982442
 31
0.0
  0
LINE
  5
78C
330
1F
100
AcDbEntity
  8
1
100
AcDbLine
 10
5.281395743751207
 20
6.740941164982443
 30
0.0
 11
5.782395743751207
 21
6.740941164982443
 31
0.0
  0
LINE
  5
78D
330
1F
100
AcDbEntity
  8
1
100
AcDbLine
 10
5.281395743751207
 20
3.864941164982442
 30
0.0
 11
5.281395743751207
 21
6.740941164982443
 31
0.0
  0
LINE
  5
78E
330
1F
100
AcDbEntity
  8
1
100
AcDbLine
 10
5.157395743751207
 20
6.740941164982443
 30
0.0
 11
5.157395743751206
 21
3.864941164982442
 31
0.0
  0
LINE
  5
78F
330
1F
100
AcDbEntity
  8
1
100
AcDbLine
 10
4.656395743751207
 20
6.740941164982443
 30
0.0
 11
5.157395743751207
 21
6.740941164982443
 31
0.0
  0
LINE
  5
790
330
1F
100
AcDbEntity
  8
1
100
AcDbLine
 10
4.656395743751207
 20
3.864941164982442
 30
0.0
 11
4.656395743751207
 21
6.740941164982443
 31
0.0
  0
INSERT
  5
791
330
1F
100
AcDbEntity
  8
4
100
AcDbBlockReference
  2
ARRO
 10
11.25089574375121
 20
4.115441164982442
 30
0.0
 50
180.0
  0
INSERT
  5
792
330
1F
100
AcDbEntity
  8
4
100
AcDbBlockReference
  2
ARRO
 10
9.969395743751206
 20
4.115441164982442
 30
0.0
  0
INSERT
  5
793
330
1F
100
AcDbEntity
  8
4
100
AcDbBlockReference
  2
ARRO
 10
9.344395743751206
 20
4.115441164982442
 30
0.0
  0
INSERT
  5
794
330
1F
100
AcDbEntity
  8
4
100
AcDbBlockReference
  2
ARRO
 10
9.284395743751208
 20
4.115441164982442
 30
0.0
 50
180.0
  0
INSERT
  5
795
330
1F
100
AcDbEntity
  8
4
100
AcDbBlockReference
  2
ARRO
 10
8.659395743751208
 20
4.115441164982442
 30
0.0
  0
LINE
  5
796
330
1F
100
AcDbEntity
  8
4
100
AcDbLine
 10
9.969395743751206
 20
4.115441164982442
 30
0.0
 11
11.21939574375121
 21
4.115441164982442
 31
0.0
  0
LINE
  5
797
330
1F
100
AcDbEntity
  8
4
100
AcDbLine
 10
9.344395743751206
 20
4.115441164982442
 30
0.0
 11
9.594395743751206
 21
4.115441164982442
 31
0.0
  0
LINE
  5
798
330
1F
100
AcDbEntity
  8
4
100
AcDbLine
 10
9.284395743751208
 20
4.115441164982442
 30
0.0
 11
8.659395743751208
 21
4.115441164982442
 31
0.0
  0
INSERT
  5
799
330
1F
100
AcDbEntity
  8
4
100
AcDbBlockReference
  2
ARRO
 10
8.156895743751206
 20
3.802941164982442
 30
0.0
 50
90.0
  0
INSERT
  5
79A
330
1F
100
AcDbEntity
  8
4
100
AcDbBlockReference
  2
ARRO
 10
8.156895743751206
 20
6.802941164982442
 30
0.0
 50
270.0
  0
LINE
  5
79B
330
1F
100
AcDbEntity
  8
4
100
AcDbLine
 10
8.596895743751208
 20
6.802941164982442
 30
0.0
 11
8.096895743751208
 21
6.802941164982442
 31
0.0
  0
LINE
  5
79C
330
1F
100
AcDbEntity
  8
4
100
AcDbLine
 10
8.156895743751206
 20
3.802941164982442
 30
0.0
 11
8.156895743751206
 21
6.802941164982442
 31
0.0
  0
LINE
  5
79D
330
1F
100
AcDbEntity
  8
4
100
AcDbLine
 10
8.596895743751208
 20
3.802941164982442
 30
0.0
 11
8.096895743751208
 21
3.802941164982442
 31
0.0
  0
INSERT
  5
79E
330
1F
100
AcDbEntity
  8
4
100
AcDbBlockReference
  2
ARRO
 10
7.094395743751206
 20
3.302941164982442
 30
0.0
 50
180.0
  0
INSERT
  5
79F
330
1F
100
AcDbEntity
  8
4
100
AcDbBlockReference
  2
ARRO
 10
4.594395743751206
 20
3.302941164982442
 30
0.0
  0
LINE
  5
7A0
330
1F
100
AcDbEntity
  8
4
100
AcDbLine
 10
7.094395743751206
 20
3.302941164982442
 30
0.0
 11
4.594395743751206
 21
3.302941164982442
 31
0.0
  0
LINE
  5
7A1
330
1F
100
AcDbEntity
  8
4
100
AcDbLine
 10
7.094395743751206
 20
3.740941164982442
 30
0.0
 11
7.094395743751206
 21
3.240941164982442
 31
0.0
  0
LINE
  5
7A2
330
1F
100
AcDbEntity
  8
4
100
AcDbLine
 10
4.594395743751206
 20
3.740941164982442
 30
0.0
 11
4.594395743751206
 21
3.240941164982442
 31
0.0
  0
LINE
  5
7A3
330
1F
100
AcDbEntity
  8
1
100
AcDbLine
 10
9.284395743751208
 20
3.802941164982442
 30
0.0
 11
9.284395743751208
 21
6.802941164982442
 31
0.0
  0
LINE
  5
7A4
330
1F
100
AcDbEntity
  8
1
100
AcDbLine
 10
9.344395743751206
 20
7.052941164982442
 30
0.0
 11
9.469395743751206
 21
7.177941164982442
 31
0.0
  0
LINE
  5
7A5
330
1F
100
AcDbEntity
  8
1
100
AcDbLine
 10
9.344395743751206
 20
6.927941164982442
 30
0.0
 11
9.532395743751205
 21
7.115941164982442
 31
0.0
  0
LINE
  5
7A6
330
1F
100
AcDbEntity
  8
1
100
AcDbLine
 10
9.344395743751206
 20
6.802941164982442
 30
0.0
 11
9.532395743751205
 21
6.990941164982442
 31
0.0
  0
LINE
  5
7A7
330
1F
100
AcDbEntity
  8
1
100
AcDbLine
 10
9.344395743751206
 20
6.677941164982442
 30
0.0
 11
9.532395743751205
 21
6.865941164982442
 31
0.0
  0
LINE
  5
7A8
330
1F
100
AcDbEntity
  8
1
100
AcDbLine
 10
9.344395743751206
 20
6.552941164982442
 30
0.0
 11
9.532395743751205
 21
6.740941164982442
 31
0.0
  0
LINE
  5
7A9
330
1F
100
AcDbEntity
  8
1
100
AcDbLine
 10
9.344395743751206
 20
6.427941164982442
 30
0.0
 11
9.532395743751205
 21
6.615941164982442
 31
0.0
  0
LINE
  5
7AA
330
1F
100
AcDbEntity
  8
1
100
AcDbLine
 10
9.344395743751206
 20
6.302941164982442
 30
0.0
 11
9.532395743751205
 21
6.490941164982442
 31
0.0
  0
LINE
  5
7AB
330
1F
100
AcDbEntity
  8
1
100
AcDbLine
 10
9.344395743751206
 20
6.177941164982442
 30
0.0
 11
9.532395743751205
 21
6.365941164982442
 31
0.0
  0
LINE
  5
7AC
330
1F
100
AcDbEntity
  8
1
100
AcDbLine
 10
9.344395743751206
 20
6.052941164982442
 30
0.0
 11
9.532395743751205
 21
6.240941164982442
 31
0.0
  0
LINE
  5
7AD
330
1F
100
AcDbEntity
  8
1
100
AcDbLine
 10
9.344395743751206
 20
5.927941164982442
 30
0.0
 11
9.532395743751205
 21
6.115941164982442
 31
0.0
  0
LINE
  5
7AE
330
1F
100
AcDbEntity
  8
1
100
AcDbLine
 10
9.344395743751206
 20
5.802941164982442
 30
0.0
 11
9.532395743751205
 21
5.990941164982442
 31
0.0
  0
LINE
  5
7AF
330
1F
100
AcDbEntity
  8
1
100
AcDbLine
 10
9.344395743751206
 20
5.677941164982442
 30
0.0
 11
9.532395743751205
 21
5.865941164982442
 31
0.0
  0
LINE
  5
7B0
330
1F
100
AcDbEntity
  8
1
100
AcDbLine
 10
9.344395743751206
 20
5.552941164982442
 30
0.0
 11
9.532395743751205
 21
5.740941164982442
 31
0.0
  0
LINE
  5
7B1
330
1F
100
AcDbEntity
  8
1
100
AcDbLine
 10
9.344395743751206
 20
5.427941164982442
 30
0.0
 11
9.532395743751205
 21
5.615941164982442
 31
0.0
  0
LINE
  5
7B2
330
1F
100
AcDbEntity
  8
1
100
AcDbLine
 10
9.344395743751206
 20
5.302941164982442
 30
0.0
 11
9.532395743751205
 21
5.490941164982442
 31
0.0
  0
LINE
  5
7B3
330
1F
100
AcDbEntity
  8
1
100
AcDbLine
 10
9.344395743751206
 20
5.177941164982442
 30
0.0
 11
9.532395743751205
 21
5.365941164982442
 31
0.0
  0
LINE
  5
7B4
330
1F
100
AcDbEntity
  8
1
100
AcDbLine
 10
9.344395743751206
 20
5.052941164982442
 30
0.0
 11
9.532395743751205
 21
5.240941164982442
 31
0.0
  0
LINE
  5
7B5
330
1F
100
AcDbEntity
  8
1
100
AcDbLine
 10
9.344395743751206
 20
4.927941164982442
 30
0.0
 11
9.532395743751205
 21
5.115941164982442
 31
0.0
  0
LINE
  5
7B6
330
1F
100
AcDbEntity
  8
1
100
AcDbLine
 10
9.344395743751206
 20
4.802941164982442
 30
0.0
 11
9.532395743751205
 21
4.990941164982442
 31
0.0
  0
LINE
  5
7B7
330
1F
100
AcDbEntity
  8
1
100
AcDbLine
 10
9.344395743751206
 20
4.677941164982442
 30
0.0
 11
9.532395743751205
 21
4.865941164982442
 31
0.0
  0
LINE
  5
7B8
330
1F
100
AcDbEntity
  8
1
100
AcDbLine
 10
9.344395743751206
 20
4.552941164982442
 30
0.0
 11
9.532395743751205
 21
4.740941164982442
 31
0.0
  0
LINE
  5
7B9
330
1F
100
AcDbEntity
  8
1
100
AcDbLine
 10
9.344395743751206
 20
4.427941164982442
 30
0.0
 11
9.532395743751205
 21
4.615941164982442
 31
0.0
  0
LINE
  5
7BA
330
1F
100
AcDbEntity
  8
1
100
AcDbLine
 10
9.344395743751206
 20
4.302941164982442
 30
0.0
 11
9.532395743751205
 21
4.490941164982442
 31
0.0
  0
LINE
  5
7BB
330
1F
100
AcDbEntity
  8
1
100
AcDbLine
 10
9.344395743751206
 20
3.927941164982442
 30
0.0
 11
9.532395743751205
 21
4.115941164982442
 31
0.0
  0
LINE
  5
7BC
330
1F
100
AcDbEntity
  8
1
100
AcDbLine
 10
9.344395743751206
 20
3.802941164982442
 30
0.0
 11
9.532395743751205
 21
3.990941164982442
 31
0.0
  0
LINE
  5
7BD
330
1F
100
AcDbEntity
  8
1
100
AcDbLine
 10
6.219395743751206
 20
4.682915344294022
 30
0.0
 11
6.219395743751206
 21
3.677941164982442
 31
0.0
  0
LINE
  5
7BE
330
1F
100
AcDbEntity
  8
1
100
AcDbLine
 10
6.219395743751206
 20
5.085415344294021
 30
0.0
 11
6.219395743751206
 21
4.772915344294021
 31
0.0
  0
LINE
  5
7BF
330
1F
100
AcDbEntity
  8
1
100
AcDbLine
 10
6.219395743751206
 20
5.928908869134308
 30
0.0
 11
6.219395743751206
 21
5.085415344294021
 31
0.0
  0
LINE
  5
7C0
330
1F
100
AcDbEntity
  8
1
100
AcDbLine
 10
6.174395743751206
 20
5.967915344294022
 30
0.0
 11
6.264395743751206
 21
5.877915344294022
 31
0.0
  0
LINE
  5
7C1
330
1F
100
AcDbEntity
  8
1
100
AcDbLine
 10
6.264395743751206
 20
5.967915344294022
 30
0.0
 11
6.174395743751206
 21
5.967915344294022
 31
0.0
  0
LINE
  5
7C2
330
1F
100
AcDbEntity
  8
1
100
AcDbLine
 10
6.174395743751206
 20
6.057915344294022
 30
0.0
 11
6.264395743751206
 21
5.967915344294022
 31
0.0
  0
LINE
  5
7C3
330
1F
100
AcDbEntity
  8
1
100
AcDbLine
 10
6.174395743751206
 20
4.727915344294022
 30
0.0
 11
6.264395743751206
 21
4.637915344294022
 31
0.0
  0
LINE
  5
7C4
330
1F
100
AcDbEntity
  8
1
100
AcDbLine
 10
6.264395743751206
 20
4.727915344294022
 30
0.0
 11
6.174395743751206
 21
4.727915344294022
 31
0.0
  0
LINE
  5
7C5
330
1F
100
AcDbEntity
  8
1
100
AcDbLine
 10
6.174395743751206
 20
4.817915344294021
 30
0.0
 11
6.264395743751206
 21
4.727915344294022
 31
0.0
  0
LINE
  5
7C6
330
1F
100
AcDbEntity
  8
1
100
AcDbLine
 10
6.094395743751206
 20
4.057915344294022
 30
0.0
 11
6.094395743751206
 21
3.677941164982442
 31
0.0
  0
LINE
  5
7C7
330
1F
100
AcDbEntity
  8
1
100
AcDbLine
 10
6.094395743751206
 20
4.772915344294021
 30
0.0
 11
6.094395743751206
 21
4.147915344294021
 31
0.0
  0
LINE
  5
7C8
330
1F
100
AcDbEntity
  8
1
100
AcDbLine
 10
6.094395743751206
 20
5.307915344294022
 30
0.0
 11
6.094395743751206
 21
4.772915344294021
 31
0.0
  0
LINE
  5
7C9
330
1F
100
AcDbEntity
  8
1
100
AcDbLine
 10
6.049395743751206
 20
4.192915344294021
 30
0.0
 11
6.139395743751206
 21
4.102915344294022
 31
0.0
  0
LINE
  5
7CA
330
1F
100
AcDbEntity
  8
1
100
AcDbLine
 10
6.139395743751206
 20
4.102915344294022
 30
0.0
 11
6.049395743751206
 21
4.102915344294022
 31
0.0
  0
LINE
  5
7CB
330
1F
100
AcDbEntity
  8
1
100
AcDbLine
 10
6.049395743751206
 20
4.102915344294022
 30
0.0
 11
6.139395743751206
 21
4.012915344294022
 31
0.0
  0
LINE
  5
7CC
330
1F
100
AcDbEntity
  8
1
100
AcDbLine
 10
6.049395743751206
 20
5.442915344294021
 30
0.0
 11
6.139395743751206
 21
5.352915344294022
 31
0.0
  0
LINE
  5
7CD
330
1F
100
AcDbEntity
  8
1
100
AcDbLine
 10
6.139395743751206
 20
5.352915344294022
 30
0.0
 11
6.049395743751206
 21
5.352915344294022
 31
0.0
  0
LINE
  5
7CE
330
1F
100
AcDbEntity
  8
1
100
AcDbLine
 10
6.049395743751206
 20
5.352915344294022
 30
0.0
 11
6.139395743751206
 21
5.262915344294022
 31
0.0
  0
LINE
  5
7CF
330
1F
100
AcDbEntity
  8
1
100
AcDbLine
 10
6.106591774578189
 20
6.545719313467039
 30
0.0
 11
6.106591774578189
 21
5.378619694130112
 31
0.0
  0
LINE
  5
7D0
330
1F
100
AcDbEntity
  8
1
100
AcDbLine
 10
6.049395743751206
 20
6.602915344294022
 30
0.0
 11
6.139395743751206
 21
6.512915344294022
 31
0.0
  0
LINE
  5
7D1
330
1F
100
AcDbEntity
  8
1
100
AcDbLine
 10
6.139395743751206
 20
6.602915344294022
 30
0.0
 11
6.049395743751206
 21
6.602915344294022
 31
0.0
  0
LINE
  5
7D2
330
1F
100
AcDbEntity
  8
1
100
AcDbLine
 10
6.049395743751206
 20
6.692915344294021
 30
0.0
 11
6.139395743751206
 21
6.602915344294022
 31
0.0
  0
LINE
  5
7D3
330
1F
100
AcDbEntity
  8
1
100
AcDbLine
 10
6.094395743751206
 20
6.927941164982442
 30
0.0
 11
6.094395743751206
 21
6.647915344294021
 31
0.0
  0
LINE
  5
7D4
330
1F
100
AcDbEntity
  8
1
100
AcDbLine
 10
6.219395743751206
 20
6.927941164982442
 30
0.0
 11
6.219395743751206
 21
6.012915344294022
 31
0.0
  0
CIRCLE
  5
7D5
330
1F
100
AcDbEntity
  8
1
100
AcDbCircle
 10
7.719395743751206
 20
2.802941164982442
 30
0.0
 40
0.1875
  0
LINE
  5
7D6
330
1F
100
AcDbEntity
  8
1
100
AcDbLine
 10
9.344395743751206
 20
3.802941164982442
 30
0.0
 11
9.344395743751206
 21
7.177941164982442
 31
0.0
  0
LINE
  5
7D7
330
1F
100
AcDbEntity
  8
1
100
AcDbLine
 10
10.59439574375121
 20
3.802941164982442
 30
0.0
 11
10.59439574375121
 21
6.802941164982442
 31
0.0
  0
LINE
  5
7D8
330
1F
100
AcDbEntity
  8
1
100
AcDbLine
 10
7.094395743751206
 20
3.802941164982442
 30
0.0
 11
6.219395743751206
 21
3.802941164982442
 31
0.0
  0
LINE
  5
7D9
330
1F
100
AcDbEntity
  8
1
100
AcDbLine
 10
7.094395743751206
 20
6.802941164982442
 30
0.0
 11
7.094395743751206
 21
3.802941164982442
 31
0.0
  0
LINE
  5
7DA
330
1F
100
AcDbEntity
  8
1
100
AcDbLine
 10
6.219395743751206
 20
6.802941164982442
 30
0.0
 11
7.094395743751206
 21
6.802941164982442
 31
0.0
  0
LINE
  5
7DB
330
1F
100
AcDbEntity
  8
1
100
AcDbLine
 10
4.594395743751206
 20
6.802941164982442
 30
0.0
 11
6.094395743751206
 21
6.802941164982442
 31
0.0
  0
LINE
  5
7DC
330
1F
100
AcDbEntity
  8
1
100
AcDbLine
 10
4.594395743751206
 20
3.802941164982442
 30
0.0
 11
4.594395743751206
 21
6.802941164982442
 31
0.0
  0
LINE
  5
7DD
330
1F
100
AcDbEntity
  8
1
100
AcDbLine
 10
4.594395743751206
 20
3.802941164982442
 30
0.0
 11
6.094395743751206
 21
3.802941164982442
 31
0.0
  0
LINE
  5
7DE
330
1F
100
AcDbEntity
  8
1
100
AcDbLine
 10
3.594395743751206
 20
7.552941164982442
 30
0.0
 11
3.594395743751206
 21
2.302941164982442
 31
0.0
  0
LINE
  5
7DF
330
1F
100
AcDbEntity
  8
1
100
AcDbLine
 10
11.84439574375121
 20
7.552941164982442
 30
0.0
 11
3.594395743751206
 21
7.552941164982442
 31
0.0
  0
LINE
  5
7E0
330
1F
100
AcDbEntity
  8
1
100
AcDbLine
 10
11.84439574375121
 20
2.302941164982442
 30
0.0
 11
11.84439574375121
 21
7.552941164982442
 31
0.0
  0
LINE
  5
7E1
330
1F
100
AcDbEntity
  8
1
100
AcDbLine
 10
3.594395743751206
 20
2.302941164982442
 30
0.0
 11
11.84439574375121
 21
2.302941164982442
 31
0.0
  0
LINE
  5
7E2
330
1F
100
AcDbEntity
  8
1
100
AcDbLine
 10
10.6263957437512
 20
3.802941164982442
 30
0.0
 11
10.6263957437512
 21
6.802941164982442
 31
0.0
  0
VIEWPORT
  5
6E3
102
{ACAD_XDICTIONARY
360
719
102
}
330
1B
100
AcDbEntity
 67
     1
  8
0
100
AcDbViewport
 10
5.249717080860878
 20
4.008688058416201
 30
0.0
 40
13.33507478895314
 41
7.97297103171093
 68
     1
 69
     1
 12
5.249717080860878
 22
4.008688058416201
 13
0.0
 23
0.0
 14
10.0
 24
10.0
 15
10.0
 25
10.0
 16
0.0
 26
0.0
 36
1.0
 17
0.0
 27
0.0
 37
0.0
 42
50.0
 43
0.0
 44
0.0
 45
7.97297103171093
 50
0.0
 51
0.0
 72
   100
 90
    32800
  1

281
     0
 71
     1
 74
     0
110
0.0
120
0.0
130
0.0
111
1.0
121
0.0
131
0.0
112
0.0
122
1.0
132
0.0
 79
     0
146
0.0
  0
VIEWPORT
  5
6ED
102
{ACAD_XDICTIONARY
360
71D
102
}
330
1B
100
AcDbEntity
 67
     1
  8
VIEWPORT-1
100
AcDbViewport
 10
5.249999650820541
 20
4.008903852672226
 30
0.0
 40
10.40894574523808
 41
7.888908698585758
 68
     2
 69
     2
 12
7.719395743751206
 22
4.927941164982442
 13
0.0
 23
0.0
 14
0.5
 24
0.5
 15
0.5
 25
0.5
 16
0.0
 26
0.0
 36
1.0
 17
0.0
 27
0.0
 37
0.0
 42
50.0
 43
0.0
 44
0.0
 45
6.316999951327793
 50
0.0
 51
0.0
 72
   100
 90
    32864
  1

281
     0
 71
     1
 74
     0
110
0.0
120
0.0
130
0.0
111
1.0
121
0.0
131
0.0
112
0.0
122
1.0
132
0.0
 79
     0
146
0.0
  0
ENDSEC
  0
SECTION
  2
OBJECTS
  0
DICTIONARY
  5
C
330
0
100
AcDbDictionary
281
     1
  3
ACAD_COLOR
350
5CE
  3
ACAD_GROUP
350
D
  3
ACAD_LAYOUT
350
1A
  3
ACAD_MATERIAL
350
5B9
  3
ACAD_MLINESTYLE
350
17
  3
ACAD_PLOTSETTINGS
350
19
  3
ACAD_PLOTSTYLENAME
350
E
  3
ACAD_TABLESTYLE
350
5CF
  3
ACAD_VISUALSTYLE
350
5BD
  3
ACDBHEADERROUNDTRIPXREC
350
826
  3
AcDbVariableDictionary
350
6C2
  3
DWGPROPS
350
825
  0
DICTIONARY
  5
6AE
330
8
100
AcDbDictionary
280
     1
281
     1
  3
ACAD_XREC_ROUNDTRIP
360
706
  0
DICTIONARY
  5
6E7
330
2
100
AcDbDictionary
280
     1
281
     1
  3
ACAD_LAYERFILTERS
360
6EB
  3
ACAD_LAYERSTATES
360
701
  3
ACLYDICTIONARY
360
6EA
  0
DICTIONARY
  5
707
330
10
100
AcDbDictionary
280
     1
281
     1
  3
ACAD_XREC_ROUNDTRIP
360
708
  0
DICTIONARY
  5
709
330
33
100
AcDbDictionary
280
     1
281
     1
  3
ACAD_XREC_ROUNDTRIP
360
70A
  0
DICTIONARY
  5
70B
330
34
100
AcDbDictionary
280
     1
281
     1
  3
ACAD_XREC_ROUNDTRIP
360
70C
  0
DICTIONARY
  5
70D
330
35
100
AcDbDictionary
280
     1
281
     1
  3
ACAD_XREC_ROUNDTRIP
360
70E
  0
DICTIONARY
  5
70F
330
201
100
AcDbDictionary
280
     1
281
     1
  3
ACAD_XREC_ROUNDTRIP
360
710
  0
DICTIONARY
  5
71B
330
6E5
100
AcDbDictionary
280
     1
281
     1
  3
ACAD_XREC_ROUNDTRIP
360
71C
  0
DICTIONARY
  5
696
330
1F
100
AcDbDictionary
280
     1
281
     1
  3
ACAD_SORTENTS
360
697
  0
DICTIONARY
  5
61E
330
5D4
100
AcDbDictionary
280
     1
281
     1
  3
ACAD_SORTENTS
360
61F
  0
DICTIONARY
  5
719
330
6E3
100
AcDbDictionary
280
     1
281
     1
  3
ACAD_XREC_ROUNDTRIP
360
71A
  0
DICTIONARY
  5
71D
330
6ED
100
AcDbDictionary
280
     1
281
     1
  3
ACAD_XREC_ROUNDTRIP
360
71E
  0
DICTIONARY
  5
5CE
102
{ACAD_REACTORS
330
C
102
}
330
C
100
AcDbDictionary
281
     1
  0
DICTIONARY
  5
D
102
{ACAD_REACTORS
330
C
102
}
330
C
100
AcDbDictionary
281
     1
  0
DICTIONARY
  5
1A
102
{ACAD_REACTORS
330
C
102
}
330
C
100
AcDbDictionary
281
     1
  3
Layout1
350
1E
  3
Layout2
350
26
  3
Model
350
22
  0
DICTIONARY
  5
5B9
102
{ACAD_REACTORS
330
C
102
}
330
C
100
AcDbDictionary
281
     1
  3
ByBlock
350
5BB
  3
ByLayer
350
5BA
  3
Global
350
5BC
  0
DICTIONARY
  5
17
102
{ACAD_REACTORS
330
C
102
}
330
C
100
AcDbDictionary
281
     1
  3
Standard
350
18
  0
DICTIONARY
  5
19
102
{ACAD_REACTORS
330
C
102
}
330
C
100
AcDbDictionary
281
     1
  0
ACDBDICTIONARYWDFLT
  5
E
102
{ACAD_REACTORS
330
C
102
}
330
C
100
AcDbDictionary
281
     1
  3
Normal
350
F
100
AcDbDictionaryWithDefault
340
F
  0
DICTIONARY
  5
5CF
102
{ACAD_REACTORS
330
C
102
}
330
C
100
AcDbDictionary
281
     1
  3
Standard
350
5D0
  0
DICTIONARY
  5
5BD
102
{ACAD_REACTORS
330
C
102
}
330
C
100
AcDbDictionary
281
     1
  3
2dWireframe
350
5C3
  3
3D Hidden
350
5C5
  3
3dWireframe
350
5C4
  3
Basic
350
5C2
  3
Brighten
350
5C9
  3
ColorChange
350
5CD
  3
Conceptual
350
5C6
  3
Dim
350
5C8
  3
Facepattern
350
5CC
  3
Flat
350
5BE
  3
FlatWithEdges
350
5BF
  3
Gouraud
350
5C0
  3
GouraudWithEdges
350
5C1
  3
Linepattern
350
5CB
  3
Realistic
350
5C7
  3
Thicken
350
5CA
  0
DICTIONARY
  5
826
102
{ACAD_REACTORS
330
C
102
}
330
C
100
AcDbDictionary
281
     1
  3
COLORDICT
350
828
  3
MATERIALDICT
350
827
  0
DICTIONARY
  5
6C2
102
{ACAD_REACTORS
330
C
102
}
330
C
100
AcDbDictionary
281
     1
  3
CTABLESTYLE
350
6C3
  3
DIMASSOC
350
806
  3
PROJECTNAME
350
807
  0
XRECORD
  5
825
102
{ACAD_REACTORS
330
C
102
}
330
C
100
AcDbXrecord
280
     1
  1
DWGPROPS COOKIE
  2

  3

  4

  6

  7

  8
tjoseph
  9

300
=
301
=
302
=
303
=
304
=
305
=
306
=
307
=
308
=
309
=
 40
0.0583988657407407
 41
2452994.398152547
 42
2454728.648847836
  1

 90
        0
  0
XRECORD
  5
706
102
{ACAD_REACTORS
330
6AE
102
}
330
6AE
100
AcDbXrecord
280
     1
102
VTR_0.000_0.000_1.000_1.000_VISUALSTYLE
340
5C3
102
VTR_0.000_0.000_1.000_1.000_GRIDDISPLAY
 70
     3
102
VTR_0.000_0.000_1.000_1.000_GRIDMAJOR
 70
     5
102
VTR_0.000_0.000_1.000_1.000_DEFAULTLIGHTING
280
     1
102
VTR_0.000_0.000_1.000_1.000_DEFAULTLIGHTINGTYPE
 70
     1
102
VTR_0.000_0.000_1.000_1.000_BRIGHTNESS
141
0.0
102
VTR_0.000_0.000_1.000_1.000_CONTRAST
142
0.0
  0
DICTIONARY
  5
6EB
102
{ACAD_REACTORS
330
6E7
102
}
330
6E7
100
AcDbDictionary
281
     1
  0
DICTIONARY
  5
701
102
{ACAD_REACTORS
330
6E7
102
}
330
6E7
100
AcDbDictionary
281
     1
  0
DICTIONARY
  5
6EA
102
{ACAD_REACTORS
330
6E7
102
}
330
6E7
100
AcDbDictionary
281
     1
1001
ACAD
1000
<All
  0
XRECORD
  5
708
102
{ACAD_REACTORS
330
707
102
}
330
707
100
AcDbXrecord
280
     1
102
MATERIAL
340
5BC
  0
XRECORD
  5
70A
102
{ACAD_REACTORS
330
709
102
}
330
709
100
AcDbXrecord
280
     1
102
MATERIAL
340
5BC
  0
XRECORD
  5
70C
102
{ACAD_REACTORS
330
70B
102
}
330
70B
100
AcDbXrecord
280
     1
102
MATERIAL
340
5BC
  0
XRECORD
  5
70E
102
{ACAD_REACTORS
330
70D
102
}
330
70D
100
AcDbXrecord
280
     1
102
MATERIAL
340
5BC
  0
XRECORD
  5
710
102
{ACAD_REACTORS
330
70F
102
}
330
70F
100
AcDbXrecord
280
     1
102
MATERIAL
340
5BC
  0
XRECORD
  5
71C
102
{ACAD_REACTORS
330
71B
102
}
330
71B
100
AcDbXrecord
280
     1
102
MATERIAL
340
5BC
  0
SORTENTSTABLE
  5
697
102
{ACAD_REACTORS
330
696
102
}
330
696
100
AcDbSortentsTable
330
1F
331
663
  5
662
331
68B
  5
68A
331
630
  5
62F
331
63B
  5
63A
331
643
  5
642
331
66B
  5
66A
331
67E
  5
67D
331
623
  5
622
331
673
  5
672
331
64B
  5
64A
331
65E
  5
65D
331
62B
  5
62A
331
653
  5
652
331
686
  5
685
331
691
  5
690
331
666
  5
665
331
68E
  5
68D
331
633
  5
632
331
63E
  5
63D
331
646
  5
645
331
66E
  5
66D
331
679
  5
678
331
681
  5
680
331
626
  5
625
331
64E
  5
64D
331
659
  5
658
331
676
  5
675
331
639
  5
638
331
661
  5
660
331
689
  5
688
331
656
  5
655
331
62E
  5
62D
331
694
  5
693
331
641
  5
640
331
636
  5
635
331
669
  5
668
331
649
  5
648
331
671
  5
670
331
67C
  5
67B
331
684
  5
683
331
629
  5
628
331
651
  5
650
331
65C
  5
65B
331
664
  5
663
331
68C
  5
68B
331
631
  5
630
331
63C
  5
63B
331
644
  5
643
331
66C
  5
66B
331
67F
  5
67E
331
624
  5
623
331
674
  5
673
331
64C
  5
64B
331
65F
  5
65E
331
687
  5
686
331
654
  5
653
331
62C
  5
62B
331
692
  5
691
331
667
  5
666
331
68F
  5
68E
331
634
  5
633
331
63F
  5
63E
331
647
  5
646
331
66F
  5
66E
331
67A
  5
679
331
682
  5
681
331
627
  5
626
331
64F
  5
64E
331
65A
  5
659
331
677
  5
676
331
63A
  5
639
331
662
  5
661
331
68A
  5
689
331
657
  5
656
331
62F
  5
62E
331
695
  5
694
331
642
  5
641
331
637
  5
636
331
66A
  5
669
331
67D
  5
67C
331
622
  5
695
331
672
  5
671
331
64A
  5
649
331
685
  5
684
331
62A
  5
629
331
652
  5
651
331
65D
  5
65C
331
690
  5
68F
331
665
  5
664
331
68D
  5
68C
331
632
  5
631
331
63D
  5
63C
331
645
  5
644
331
66D
  5
66C
331
678
  5
677
331
658
  5
657
331
680
  5
67F
331
625
  5
624
331
675
  5
674
331
64D
  5
64C
331
638
  5
637
331
660
  5
65F
331
688
  5
687
331
655
  5
654
331
62D
  5
62C
331
693
  5
692
331
640
  5
63F
331
635
  5
634
331
668
  5
667
331
648
  5
647
331
670
  5
66F
331
67B
  5
67A
331
683
  5
682
331
628
  5
627
331
650
  5
64F
331
65B
  5
65A
  0
SORTENTSTABLE
  5
61F
102
{ACAD_REACTORS
330
61E
102
}
330
61E
100
AcDbSortentsTable
330
5D4
  0
XRECORD
  5
71A
102
{ACAD_REACTORS
330
719
102
}
330
719
100
AcDbXrecord
280
     1
102
VISUALSTYLE
340
5C3
102
GRIDDISPLAY
 70
     3
102
GRIDMAJOR
 70
     5
102
DEFAULTLIGHTING
280
     1
102
DEFAULTLIGHTINGTYPE
 70
     1
102
BRIGHTNESS
141
0.0
102
CONTRAST
142
0.0
102
SHADEPLOT
 70
     0
  0
XRECORD
  5
71E
102
{ACAD_REACTORS
330
71D
102
}
330
71D
100
AcDbXrecord
280
     1
102
VISUALSTYLE
340
5C3
102
GRIDDISPLAY
 70
     3
102
GRIDMAJOR
 70
     5
102
DEFAULTLIGHTING
280
     1
102
DEFAULTLIGHTINGTYPE
 70
     1
102
BRIGHTNESS
141
0.0
102
CONTRAST
142
0.0
102
SHADEPLOT
 70
     0
  0
LAYOUT
  5
1E
102
{ACAD_XDICTIONARY
360
703
102
}
102
{ACAD_REACTORS
330
1A
102
}
330
1A
100
AcDbPlotSettings
  1

  2
DWG To PDF.pc3
  4
ANSI_A_(11.00_x_8.50_Inches)
  6

 40
5.793749809265136
 41
17.79375076293945
 42
5.79376220703125
 43
17.79374694824219
 44
279.3999938964844
 45
215.8999938964844
 46
14.95334963761897
 47
0.0
 48
0.0
 49
0.0
140
0.0
141
0.0
142
1.0
143
1.111374691603575
 70
   692
 72
     0
 73
     0
 74
     1
  7
monochrome.ctb
 75
     0
147
0.8997865504361312
148
-1.153418679760557
149
-1.632459030245033
100
AcDbLayout
  1
Layout1
 70
     1
 71
     1
 10
-0.862377266523188
 20
-0.7142939069443969
 11
11.36274407405736
 21
8.732390704627221
 12
0.0
 22
0.0
 32
0.0
 14
0.0447694469451108
 24
0.0638006522914019
 34
-0.0000000349181948
 15
10.45466471477664
 25
7.953575464541
 35
0.0000000814935746
146
0.0
 13
0.0
 23
0.0
 33
0.0
 16
1.0
 26
0.0
 36
0.0
 17
0.0
 27
1.0
 37
0.0
 76
     0
330
1B
331
6E3
1001
ACAD_PSEXT
1000
DWG To PDF.pc3
1000
PDF
1000
File
1000

1070
     0
  0
LAYOUT
  5
26
102
{ACAD_XDICTIONARY
360
82C
102
}
102
{ACAD_REACTORS
330
1A
102
}
330
1A
100
AcDbPlotSettings
  1

  2
Lexmark 2050 ColorFine 2
  4

  6

 40
0.0
 41
0.0
 42
0.0
 43
0.0
 44
0.0
 45
0.0
 46
0.0
 47
0.0
 48
0.0
 49
0.0
140
0.0
141
0.0
142
1.0
143
1.0
 70
   688
 72
     0
 73
     0
 74
     5
  7
monochrome.ctb
 75
    16
147
1.0
148
0.0
149
0.0
100
AcDbLayout
  1
Layout2
 70
     1
 71
     2
 10
0.0
 20
0.0
 11
12.0
 21
9.0
 12
0.0
 22
0.0
 32
0.0
 14
0.0
 24
0.0
 34
0.0
 15
0.0
 25
0.0
 35
0.0
146
0.0
 13
0.0
 23
0.0
 33
0.0
 16
1.0
 26
0.0
 36
0.0
 17
0.0
 27
1.0
 37
0.0
 76
     0
330
23
  0
LAYOUT
  5
22
102
{ACAD_XDICTIONARY
360
82A
102
}
102
{ACAD_REACTORS
330
1A
102
}
330
1A
100
AcDbPlotSettings
  1

  2
none_device
  4
Letter_(8.50_x_11.00_Inches)
  6

 40
6.349999904632568
 41
6.349999904632568
 42
6.350006103515625
 43
6.350006103515625
 44
215.8999938964844
 45
279.3999938964844
 46
0.0
 47
0.0
 48
0.0
 49
0.0
140
0.0
141
0.0
142
1.0
143
1.0
 70
 11952
 72
     0
 73
     1
 74
     0
  7
monochrome.ctb
 75
     0
147
1.0
148
-128.6836908417063
149
-57.78627393909641
100
AcDbLayout
  1
Model
 70
     1
 71
     0
 10
0.0
 20
0.0
 11
12.0
 21
9.0
 12
0.0
 22
0.0
 32
0.0
 14
0.0
 24
0.0
 34
0.0
 15
0.0
 25
0.0
 35
0.0
146
0.0
 13
0.0
 23
0.0
 33
0.0
 16
1.0
 26
0.0
 36
0.0
 17
0.0
 27
1.0
 37
0.0
 76
     0
330
1F
  0
MATERIAL
  5
5BB
102
{ACAD_XDICTIONARY
360
713
102
}
102
{ACAD_REACTORS
330
5B9
102
}
330
5B9
100
AcDbMaterial
  1
ByBlock
  0
MATERIAL
  5
5BA
102
{ACAD_XDICTIONARY
360
711
102
}
102
{ACAD_REACTORS
330
5B9
102
}
330
5B9
100
AcDbMaterial
  1
ByLayer
  0
MATERIAL
  5
5BC
102
{ACAD_XDICTIONARY
360
715
102
}
102
{ACAD_REACTORS
330
5B9
102
}
330
5B9
100
AcDbMaterial
  1
Global
  0
MLINESTYLE
  5
18
102
{ACAD_REACTORS
330
17
102
}
330
17
100
AcDbMlineStyle
  2
STANDARD
 70
     0
  3

 62
   256
 51
90.0
 52
90.0
 71
     2
 49
0.5
 62
   256
  6
BYLAYER
 49
-0.5
 62
   256
  6
BYLAYER
  0
ACDBPLACEHOLDER
  5
F
102
{ACAD_REACTORS
330
E
102
}
330
E
  0
ACAD_PROXY_OBJECT
  5
5D0
102
{ACAD_XDICTIONARY
360
717
102
}
102
{ACAD_REACTORS
330
5CF
102
}
330
5CF
100
AcDbProxyObject
 90
      499
 91
      505
 95
  6815769
 70
     0
 93
     1849
310
4254DD185B99185C990028B81E85EB51B8AE3F2E07A17AD46E2B8FC02B5E8DC0F42B1CFD028000000C1008070000C3001FDFF8000000C1003FBFF000000182007F7FE00000030400FEFFC00000060801FDFF8000000C1003FBFF00000018200000000000000681FA0B0000001820100E000186003FBFF000000182007F7FE0
310
0000030400FEFFC00000060801FDFF8000000C1003FBFF000000182007F7FE000000304000AD7A3703D0AC73F4160000003040201C00030C007F7FE00000030400FEFFC00000060801FDFF8000000C1003FBFF000000182007F7FE00000030400FEFFC000000608000
340
11
340
11
340
11
 94
        0
1001
ACAD
1000
AcRTDxfName
1000
TABLESTYLE
1000
AcRTDxfName
1000
TABLESTYLE
1000
AcRTDxfName
1000
TABLESTYLE
  0
ACAD_PROXY_OBJECT
  5
5C3
102
{ACAD_REACTORS
330
5BD
102
}
330
5BD
100
AcDbProxyObject
 90
      499
 91
      504
 95
  6815769
 70
     0
 93
      598
310
430C9915DA5C99599C985B59401049028333333333333E3BF0000000000000FB023FFFFFF0802405048070000C3008000000C800405A000000320014050640A01C00030C010500920280D0
 94
        0
1001
ACAD
1000
AcDbSavedByObjectVersion
1070
     0
1000
AcRTDxfName
1000
VISUALSTYLE
1000
AcRTDxfName
1000
VISUALSTYLE
1000
AcRTDxfName
1000
VISUALSTYLE
  0
ACAD_PROXY_OBJECT
  5
5C5
102
{ACAD_REACTORS
330
5BD
102
}
330
5BD
100
AcDbProxyObject
 90
      499
 91
      504
 95
  6815769
 70
     0
 93
      662
310
428CD108121A5919195B8010640502408333333333333E3BF0000000000000FB023FFFFFF0802409028070000C3008000000C8004080000000000004440A000000320014050640A01C00030C010300920280D0
 94
        0
1001
ACAD
1000
AcDbSavedByObjectVersion
1070
     0
1000
AcRTDxfName
1000
VISUALSTYLE
1000
AcRTDxfName
1000
VISUALSTYLE
1000
AcRTDxfName
1000
VISUALSTYLE
  0
ACAD_PROXY_OBJECT
  5
5C4
102
{ACAD_REACTORS
330
5BD
102
}
330
5BD
100
AcDbProxyObject
 90
      499
 91
      504
 95
  6815769
 70
     0
 93
      598
310
430CD915DA5C99599C985B59401059028333333333333E3BF0000000000000FB023FFFFFF0802405048070000C3008000000C800405A000000320014050640A01C00030C010500920280D3
 94
        0
1001
ACAD
1000
AcDbSavedByObjectVersion
1070
     0
1000
AcRTDxfName
1000
VISUALSTYLE
1000
AcRTDxfName
1000
VISUALSTYLE
1000
AcRTDxfName
1000
VISUALSTYLE
  0
ACAD_PROXY_OBJECT
  5
5C2
102
{ACAD_REACTORS
330
5BD
102
}
330
5BD
100
AcDbProxyObject
 90
      499
 91
      504
 95
  6815769
 70
     0
 93
      558
310
4190985CDA58C0107406404333333333333E3BF0000000000000FB023FFFFFF08029048070000C3008000000C80040542201C00030C014050640A01C00030C010500920280D6
 94
        0
1001
ACAD
1000
AcDbSavedByObjectVersion
1070
     0
1000
AcRTDxfName
1000
VISUALSTYLE
1000
AcRTDxfName
1000
VISUALSTYLE
1000
AcRTDxfName
1000
VISUALSTYLE
  0
ACAD_PROXY_OBJECT
  5
5C9
102
{ACAD_REACTORS
330
5BD
102
}
330
5BD
100
AcDbProxyObject
 90
      499
 91
      504
 95
  6815769
 70
     0
 93
      598
310
42509C9A59DA1D195B8010C409028333333333333E3BF0000000000000FB023FFFFFF0802405048070000C3008000000C80040542201C00030C014050640A01C00030C010500920280A657
 94
        0
1001
ACAD
1000
AcDbSavedByObjectVersion
1070
     0
1000
AcRTDxfName
1000
VISUALSTYLE
1000
AcRTDxfName
1000
VISUALSTYLE
1000
AcRTDxfName
1000
VISUALSTYLE
  0
ACAD_PROXY_OBJECT
  5
5CD
102
{ACAD_REACTORS
330
5BD
102
}
330
5BD
100
AcDbProxyObject
 90
      499
 91
      504
 95
  6815769
 70
     0
 93
      622
310
4310DBDB1BDC90DA185B99D9401104090240C333333333333E3BF0000000000000FB0220202030802405048070000C3008000000C800405422202020308014050640A01C00030C010500920280D7
 94
        0
1001
ACAD
1000
AcDbSavedByObjectVersion
1070
     0
1000
AcRTDxfName
1000
VISUALSTYLE
1000
AcRTDxfName
1000
VISUALSTYLE
1000
AcRTDxfName
1000
VISUALSTYLE
  0
ACAD_PROXY_OBJECT
  5
5C6
102
{ACAD_REACTORS
330
5BD
102
}
330
5BD
100
AcDbProxyObject
 90
      499
 91
      504
 95
  6815769
 70
     0
 93
      670
310
42D0DBDB98D95C1D1D585B0010940D028333333333333E3BF0000000000000FB023FFFFFF0802409028070000C3008000000C800404000000000000444042201C00030C014050640A01C00030C010300920280D0
 94
        0
1001
ACAD
1000
AcDbSavedByObjectVersion
1070
     0
1000
AcRTDxfName
1000
VISUALSTYLE
1000
AcRTDxfName
1000
VISUALSTYLE
1000
AcRTDxfName
1000
VISUALSTYLE
  0
ACAD_PROXY_OBJECT
  5
5C8
102
{ACAD_REACTORS
330
5BD
102
}
330
5BD
100
AcDbProxyObject
 90
      499
 91
      504
 95
  6815769
 70
     0
 93
      582
310
41111A5B4010B409028333333333333E3BF0000000000000FB023FFFFFF0802405048070000C3008000000C80040542201C00030C014050640A01C00030C01050092028099DFFFFFF4
 94
        0
1001
ACAD
1000
AcDbSavedByObjectVersion
1070
     0
1000
AcRTDxfName
1000
VISUALSTYLE
1000
AcRTDxfName
1000
VISUALSTYLE
1000
AcRTDxfName
1000
VISUALSTYLE
  0
ACAD_PROXY_OBJECT
  5
5CC
102
{ACAD_REACTORS
330
5BD
102
}
330
5BD
100
AcDbProxyObject
 90
      499
 91
      504
 95
  6815769
 70
     0
 93
      614
310
43119858D95C185D1D195C9B8010F409028333333333333E3BF0000000000000FB023FFFFFF0802405048070000C3008000000C80040542201C00030C014050640A01C00030C010500920280D4
 94
        0
1001
ACAD
1000
AcDbSavedByObjectVersion
1070
     0
1000
AcRTDxfName
1000
VISUALSTYLE
1000
AcRTDxfName
1000
VISUALSTYLE
1000
AcRTDxfName
1000
VISUALSTYLE
  0
ACAD_PROXY_OBJECT
  5
5BE
102
{ACAD_REACTORS
330
5BD
102
}
330
5BD
100
AcDbProxyObject
 90
      499
 91
      504
 95
  6815769
 70
     0
 93
      558
310
41519B185D00240901404333333333333E3BF0000000000000F9023FFFFFF0801029048070000C3008000000C80040542201C00030C014050640A01C00030C010500920286D4
 94
        0
1001
ACAD
1000
AcDbSavedByObjectVersion
1070
     0
1000
AcRTDxfName
1000
VISUALSTYLE
1000
AcRTDxfName
1000
VISUALSTYLE
1000
AcRTDxfName
1000
VISUALSTYLE
  0
ACAD_PROXY_OBJECT
  5
5BF
102
{ACAD_REACTORS
330
5BD
102
}
330
5BD
100
AcDbProxyObject
 90
      499
 91
      504
 95
  6815769
 70
     0
 93
      638
310
43919B185D15DA5D1A115919D95CC010140901404333333333333E3BF0000000000000F9023FFFFFF080102405048070000C3008000000C800405A000000320014050640A01C00030C010500920286D4
 94
        0
1001
ACAD
1000
AcDbSavedByObjectVersion
1070
     0
1000
AcRTDxfName
1000
VISUALSTYLE
1000
AcRTDxfName
1000
VISUALSTYLE
1000
AcRTDxfName
1000
VISUALSTYLE
  0
ACAD_PROXY_OBJECT
  5
5C0
102
{ACAD_REACTORS
330
5BD
102
}
330
5BD
100
AcDbProxyObject
 90
      499
 91
      504
 95
  6815769
 70
     0
 93
      582
310
4211DBDD5C985D590010240902404333333333333E3BF0000000000000F9023FFFFFF0801029048070000C3008000000C800405A01C00030C014050640A01C00030C010500920286D4
 94
        0
1001
ACAD
1000
AcDbSavedByObjectVersion
1070
     0
1000
AcRTDxfName
1000
VISUALSTYLE
1000
AcRTDxfName
1000
VISUALSTYLE
1000
AcRTDxfName
1000
VISUALSTYLE
  0
ACAD_PROXY_OBJECT
  5
5C1
102
{ACAD_REACTORS
330
5BD
102
}
330
5BD
100
AcDbProxyObject
 90
      499
 91
      504
 95
  6815769
 70
     0
 93
      662
310
4451DBDD5C985D5915DA5D1A115919D95CC010340902404333333333333E3BF0000000000000F9023FFFFFF080102405048070000C3008000000C800405A000000320014050640A01C00030C010500920286D4
 94
        0
1001
ACAD
1000
AcDbSavedByObjectVersion
1070
     0
1000
AcRTDxfName
1000
VISUALSTYLE
1000
AcRTDxfName
1000
VISUALSTYLE
1000
AcRTDxfName
1000
VISUALSTYLE
  0
ACAD_PROXY_OBJECT
  5
5CB
102
{ACAD_REACTORS
330
5BD
102
}
330
5BD
100
AcDbProxyObject
 90
      499
 91
      504
 95
  6815769
 70
     0
 93
      614
310
43131A5B995C185D1D195C9B8010E409028333333333333E3BF0000000000000FB023FFFFFF0802405048070000C3008000000C80041D42201C00030C014050640A01C00030C010500920E80D5
 94
        0
1001
ACAD
1000
AcDbSavedByObjectVersion
1070
     0
1000
AcRTDxfName
1000
VISUALSTYLE
1000
AcRTDxfName
1000
VISUALSTYLE
1000
AcRTDxfName
1000
VISUALSTYLE
  0
ACAD_PROXY_OBJECT
  5
5C7
102
{ACAD_REACTORS
330
5BD
102
}
330
5BD
100
AcDbProxyObject
 90
      499
 91
      504
 95
  6815769
 70
     0
 93
      590
310
429499585B1A5CDD1A58C0108409028333333333333E3BF0000000000000FB023FFFFFF08024068070000C3008000000C8004054221E1E1E308014050640A01C00030C010500920286D0
 94
        0
1001
ACAD
1000
AcDbSavedByObjectVersion
1070
     0
1000
AcRTDxfName
1000
VISUALSTYLE
1000
AcRTDxfName
1000
VISUALSTYLE
1000
AcRTDxfName
1000
VISUALSTYLE
  0
ACAD_PROXY_OBJECT
  5
5CA
102
{ACAD_REACTORS
330
5BD
102
}
330
5BD
100
AcDbProxyObject
 90
      499
 91
      504
 95
  6815769
 70
     0
 93
      582
310
42151A1A58DAD95B8010D409028333333333333E3BF0000000000000FB023FFFFFF0802405048070000C3008000000C80040543201C00030C014050640A01C00030C010500920280D4
 94
        0
1001
ACAD
1000
AcDbSavedByObjectVersion
1070
     0
1000
AcRTDxfName
1000
VISUALSTYLE
1000
AcRTDxfName
1000
VISUALSTYLE
1000
AcRTDxfName
1000
VISUALSTYLE
  0
XRECORD
  5
828
102
{ACAD_REACTORS
330
826
102
}
330
826
100
AcDbXrecord
280
     1
340
5CE
  0
XRECORD
  5
827
102
{ACAD_REACTORS
330
826
102
}
330
826
100
AcDbXrecord
280
     1
340
5B9
  0
DICTIONARYVAR
  5
6C3
102
{ACAD_REACTORS
330
6C2
102
}
330
6C2
100
DictionaryVariables
280
     0
  1
STANDARD
  0
DICTIONARYVAR
  5
806
102
{ACAD_REACTORS
330
6C2
102
}
330
6C2
100
DictionaryVariables
280
     0
  1
1
  0
DICTIONARYVAR
  5
807
102
{ACAD_REACTORS
330
6C2
102
}
330
6C2
100
DictionaryVariables
280
     0
  1

  0
DICTIONARY
  5
703
330
1E
100
AcDbDictionary
280
     1
281
     1
  3
ACAD_XREC_ROUNDTRIP
360
829
  3
ADSK_XREC_LAYOUTTHUMBNAIL
360
704
  0
DICTIONARY
  5
82C
330
26
100
AcDbDictionary
280
     1
281
     1
  3
ACAD_XREC_ROUNDTRIP
360
82D
  0
DICTIONARY
  5
82A
330
22
100
AcDbDictionary
280
     1
281
     1
  3
ACAD_XREC_ROUNDTRIP
360
82B
  0
DICTIONARY
  5
713
330
5BB
100
AcDbDictionary
280
     1
281
     1
  3
ACAD_XREC_ROUNDTRIP
360
714
  0
DICTIONARY
  5
711
330
5BA
100
AcDbDictionary
280
     1
281
     1
  3
ACAD_XREC_ROUNDTRIP
360
712
  0
DICTIONARY
  5
715
330
5BC
100
AcDbDictionary
280
     1
281
     1
  3
ACAD_XREC_ROUNDTRIP
360
716
  0
DICTIONARY
  5
717
330
5D0
100
AcDbDictionary
280
     1
281
     1
  3
ACAD_XREC_ROUNDTRIP
360
718
  0
XRECORD
  5
829
102
{ACAD_REACTORS
330
703
102
}
330
703
100
AcDbXrecord
280
     1
102
SHADEPLOT
 70
     0
102
SHADEPLOTRESLEVEL
 70
     2
102
SHADEPLOTCUSTOMDPI
 70
   300
  0
XRECORD
  5
704
102
{ACAD_REACTORS
330
703
102
}
330
703
100
AcDbXrecord
280
     1
310
28000000B40000008B0000000100080000000000BC610000000000000000000000010000000000000000000000000000FFFFFF000000000000000000000000000000000000000000000000000000000000000000330000006600000099000000CC000000FF00000000330000333300006633000099330000CC330000FF3300
310
0000660000336600006666000099660000CC660000FF66000000990000339900006699000099990000CC990000FF99000000CC000033CC000066CC000099CC0000CCCC0000FFCC000000FF000033FF000066FF000099FF0000CCFF0000FFFF000000003300330033006600330099003300CC003300FF003300003333003333
310
33006633330099333300CC333300FF33330000663300336633006666330099663300CC663300FF66330000993300339933006699330099993300CC993300FF99330000CC330033CC330066CC330099CC3300CCCC3300FFCC330000FF330033FF330066FF330099FF3300CCFF3300FFFF330000006600330066006600660099
310
006600CC006600FF00660000336600333366006633660099336600CC336600FF33660000666600336666006666660099666600CC666600FF66660000996600339966006699660099996600CC996600FF99660000CC660033CC660066CC660099CC6600CCCC6600FFCC660000FF660033FF660066FF660099FF6600CCFF6600
310
FFFF660000009900330099006600990099009900CC009900FF00990000339900333399006633990099339900CC339900FF33990000669900336699006666990099669900CC669900FF66990000999900339999006699990099999900CC999900FF99990000CC990033CC990066CC990099CC9900CCCC9900FFCC990000FF99
310
0033FF990066FF990099FF9900CCFF9900FFFF99000000CC003300CC006600CC009900CC00CC00CC00FF00CC000033CC003333CC006633CC009933CC00CC33CC00FF33CC000066CC003366CC006666CC009966CC00CC66CC00FF66CC000099CC003399CC006699CC009999CC00CC99CC00FF99CC0000CCCC0033CCCC0066CC
310
CC0099CCCC00CCCCCC00FFCCCC0000FFCC0033FFCC0066FFCC0099FFCC00CCFFCC00FFFFCC000000FF003300FF006600FF009900FF00CC00FF00FF00FF000033FF003333FF006633FF009933FF00CC33FF00FF33FF000066FF003366FF006666FF009966FF00CC66FF00FF66FF000099FF003399FF006699FF009999FF00CC
310
99FF00FF99FF0000CCFF0033CCFF0066CCFF0099CCFF00CCCCFF00FFCCFF0000FFFF0033FFFF0066FFFF0099FFFF00CCFFFF00FFFFFF00000000000D0D0D001A1A1A00282828003535350043434300505050005D5D5D006B6B6B00787878008686860093939300A1A1A100AEAEAE00BBBBBB00C9C9C900D6D6D600E4E4E400
310
F1F1F100FFFFFF0000000000000000000000000000000000000000000000000000000000000000000000000000000000F5F5F5F5F5F5F5F5F5F5F5F5F5F5F5F5F5F5F5F5F5F5F5F5F5F5F5F5F5F5F5F5F5F5F5F5F5F5F5F5F5F5F5F5F5F5F5F5F5F5F5F5F5F5F5F5F5F5F5F5F5F5F5F5F5F5F5F5F5F5F5F5F5F5F5F5F5F5F5
310
F5F5F5F5F5F5F5F5F5F5F5F5F5F5F5F5F5F5F5F5F5F5F5F5F5F5F5F5F5F5F5F5F5F5F5F5F5F5F5F5F5F5F5F5F5F5F5F5F5F5F5F5F5F5F5F5F5F5F5F5F5F5F5F5F5F5F5F5F5F5F5F5F5F5F5F5F5F5F5F5F5F5F5F5F5F5F5F5F5F5F5F5F5F5F5F5F5F5F5F5EFE2E2E2E2E2E2E2E2E2E2E2E2E2E2E2E2E2E2E2E2E2E2E2E2E2E2
310
E2E2E2E2E2E2E2E2E2E2E2E2E2E2E2E2E2E2E2E2E2E2E2E2E2E2E2E2E2E2E2E2E2E2E2E2E2E2E2E2E2E2E2E2E2E2E2E2E2E2E2E2E2E2E2E2E2E2E2E2E2E2E2E2E2E2E2E2E2E2E2E2E2E2E2E2E2E2E2E2E2E2E2E2E2E2E2E2E2E2E2E2E2E2E2E2E2E2E2E2E2E2E2E2E2E2E2E2E2E2E2E2E2E2E2E2E2E2E2E2E2E2E2E2E2E2E2
310
E2E2E2E2E2E2E2E2E2E2E2E2E2E2E2E2E2E2E2E2E2E2E2E2F5F5EFE2E2E2E2E2E2E2E2E2E2E2E2E2E2E2E2E2E2E2E2E2E2E2E2E2E2E2E2E2E2E2E2E2E2E2E2E2E2E2E2E2E2E2E2E2E2E2E2E2E2E2E2E2E2E2E2E2E2E2E2E2E2E2E2E2E2E2E2E2E2E2E2E2E2E2E2E2E2E2E2E2E2E2E2E2E2E2E2E2E2E2E2E2E2E2E2E2E2E2E2
310
E2E2E2E2E2E2E2E2E2E2E2E2E2E2E2E2E2E2E2E2E2E2E2E2E2E2E2E2E2E2E2E2E2E2E2E2E2E2E2E2E2E2E2E2E2E2E2E2E2E2E2E2E2E2E2E2E2E2E2E2E2E2E2E2E2E2E2E2E2E2E2E2E2E2E2E2E2F5F5EFE2E2E2E2E2E2E2E2E2E2E2E2E2E2E2E2E2E2E2E2E2E2E2E2E2E2E2E2E2E2E2E2E2E2E2E2E2E2E2E2E2E2E2E2E2E2E2
310
E2E2E2E2E2E2E2E2E2E2E2E2E2E2E2E2E2E2E2E2E2E2E2E2E2E2E2E2E2E2E2E2E2E2E2E2E2E2E2E2E2E2E2E2E2E2E2E2E2E2E2E2E2E2E2E2E2E2E2E2E2E2E2E2E2E2E2E2E2E2E2E2E2E2E2E2E2E2E2E2E2E2E2E2E2E2E2E2E2E2E2E2E2E2E2E2E2E2E2E2E2E2E2E2E2E2E2E2E2E2E2E2E2E2E2E2E2E2E2E2E2E2E2E2E2E2E2
310
E2E2E2F5F5EFE2E2E2E2E2E2E2E2E2E2E2E2E2E2E2E2E2E2E2E2E2E2E2E2E2E2E2E2E2E2E2E2E2E2E2E2E2E2E2E2E2E2E2E2E2E2E2E2E2E2E2E2E2E2E2E2E2E2E2E2E2E2E2E2E2E2E2E2E2E2E2E2E2E2E2E2E2E2E2E2E2E2E2E2E2E2E2E2E2E2E2E2E2E2E2E2E2E2E2E2E2E2E2E2E2E2E2E2E2E2E2E2E2E2E2E2E2E2E2E2E2
310
E2E2E2E2E2E2E2E2E2E2E2E2E2E2E2E2E2E2E2E2E2E2E2E2E2E2E2E2E2E2E2E2E2E2E2E2E2E2E2E2E2E2E2E2E2E2E2E2E2E2E2E2E2E2E2E2F5F5EFE2E2E2E2E2E2E2E2E2E2E2E2E2E2E2E2E2E2E2E2E2E2E2E2E2E2E2E2E2E2E2E2E2E2E2E2E2E2E2E2E2E2E2E2E2E2E2E2E2E2E2E2E2E2E2E2E2E2E2E2E2E2E2E2E2E2E2E2
310
E2E2E2E2E2E2E2E2E2E2E2E2E2E2E2E2E2E2E2E2E2E2E2E2E2E2E2E2E2E2E2E2E2E2E2E2E2E2E2E2E2E2E2E2E2E2E2E2E2E2E2E2E2E2E2E2E2E2E2E2E2E2E2E2E2E2E2E2E2E2E2E2E2E2E2E2E2E2E2E2E2E2E2E2E2E2E2E2E2E2E2E2E2E2E2E2E2E2E2E2E2E2E2E2E2E2E2E2E2F5F5EFE2E2E2E2E2E2E2E2E2E2E2E2E2E2E2
310
E2E2E2E2E2E2E2E2E2E2E2E2E2E2E2E2E2E2E2E2E2E2E2E2E2E2E2E2E2E2E2E2E2E2E2E2E2E2E2E2E2E2E2E2E2E2E2E2E2E2E2E2E2E2E2E2E2E2E2E2E2E2E2E2E2E2E2E2E2E2E2E2E2E2E2E2E2E2E2E2E2E2E2E2E2E2E2E2E2E2E2E2E2E2E2E2E2E2E2E2E2E2E2E2E2E2E2E2E2E2E2E2E2E2E2E2E2E2E2E2E2E2E2E2E2E2E2
310
E2E2E2E2E2E2E2E2E2E2E2E2E2E2E2E2E2E2E2E2E2E2E2E2E2E2E2E2E2E2E2E2E2E2E2F5F5EFE2E2E2E2E2E2E2E2E2E2E2E2E2E2E2E2E2E2E2E2E2E2E2E2E2E2E2E2E2E2E2E2E2E2E2E2E2E2E2E2E2E2E2E2E2E2E2E2E2E2E2E2E2E2E2E2E2E2E2E2E2E2E2E2E2E2E2E2E2E2E2E2E2E2E2E2E2E2E2E2E2E2E2E2E2E2E2E2E2
310
E2E2E2E2E2E2E2E2E2E2E2E2E2E2E2E2E2E2E2E2E2E2E2E2E2E2E2E2E2E2E2E2E2E2E2E2E2E2E2E2E2E2E2E2E2E2E2E2E2E2E2E2E2E2E2E2E2E2E2E2E2E2E2E2E2E2E2E2E2E2E2E2E2E2E2E2E2E2E2E2E2E2E2E2E2E2E2E2F5F5EFE2E2E2E2E2E2E2E2E2E2E2E2E2E2E2E2E2E2E2E2E2E2E2E2E2E2E2E2E2E2E2E2E2E2E2E2
310
E2E2E2E2E2E2E2E2E2E2E2E2E2E2E2E2E2E2E2E2E2E2E2E2E2E2E2E2E2E2E2E2E2E2E2E2E2E2E2E2E2E2E2E2E2E2E2E2E2E2E2E2E2E2E2E2E2E2E2E2E2E2E2E2E2E2E2E2E2E2E2E2E2E2E2E2E2E2E2E2E2E2E2E2E2E2E2E2E2E2E2E2E2E2E2E2E2E2E2E2E2E2E2E2E2E2E2E2E2E2E2E2E2E2E2E2E2E2E2E2E2E2E2E2E2E2E2
310
E2E2E2E2E2E2E2E2E2E2E2E2E2E2F5F5EFE2E2E2E2E2E2E2E2E2E2E2E2E2E2E2E2E2E2E2E2E2E2E2E2E2E2E2E2E2E2E2E2E2E2E2E2E2E2E2E2E2E2E2E2E2E2E2E2E2E2E2E2E2E2E2E2E2E2E2E2E2E2E2E2E2E2E2E2E2E2E2E2E2E2E2E2E2E2E2E2E2E2E2E2E2E2E2E2E2E2E2E2E2E2E2E2E2E2E2E2E2E2E2E2E2E2E2E2E2E2
310
E2E2E2E2E2E2E2E2E2E2E2E2E2E2E2E2E2E2E2E2E2E2E2E2E2E2E2E2E2E2E2E2E2E2E2E2E2E2E2E2E2E2E2E2E2E2E2E2E2E2E2E2E2E2E2E2E2E2E2E2E2E2E2E2E2E2E2F5F5EFE2E2E2E2E2E2E2E2E2E2E2E2E2E2E2E2E2E2E2E2E2E2E2E2E2E2E2E2E2E2E2E2E2E2E2E2E2E2E2E2E2E2E2E2E2E2E2E2E2E2E2E2E2E2E2E2E2
310
E2E2E2E2E2E2E2E2E2E2E2E2E2E2E2E2E2E2E2E2E2E2E2E2E2E2E2E2E2E2E2E2E2E2E2E2E2E2E2E2E2E2E2E2E2E2E2E2E2E2E2E2E2E2E2E2E2E2E2E2E2E2E2E2E2E2E2E2E2E2E2E2E2E2E2E2E2E2E2E2E2E2E2E2E2E2E2E2E2E2E2E2E2E2E2E2E2E2E2E2E2E2E2E2E2E2E2E2E2E2E2E2E2E2E2E2E2E2E2E2F5F5EFE2E2E2E2
310
E2E2E2E2E2E2E2E2E2E2E2E2E2E2E2E2E2E2E2E2E2E2E2E2E2E2E2E2E2E2E2E2E2E2E2E2E2E2E2E2E2E2E2E2E2E2E2E2E2E2E2E2E2E2E2E2E2E2E2E2E2E2E2E2E2E2E2E2E2E2E2E2E2E2E2E2E2E2E2E2E2E2E2E2E2E2E2E2E2E2E2E2E2E2E2E2E2E2E2E2E2E2E2E2E2E2E2E2E2E2E2E2E2E2E2E2E2E2E2E2E2E2E2E2E2E2E2
310
E2E2E2E2E2E2E2E2E2E2E2E2E2E2E2E2E2E2E2E2E2E2E2E2E2E2E2E2E2E2E2E2E2E2E2E2E2E2E2E2E2E2E2E2E2E2F5F5EFE2E2E2F5F5F5F5F5F5F5F5E2E2C3C3C3C3C3C3C3C3C3C3C3C3C3C3C3C3C3C3C3C3C3C3C3C3C3C3C3C3C3C3C3C3C3C3C3C3C3C3C3C3C3C3C3C3C3C3C3C3C3C3C3C3C3C3C3C3C3C3C3C3C3C3C3C3C3
310
C3C3C3C3C3C3C3C3C3C3C3C3C3C3C3C3C3C3C3C3C3C3C3C3C3C3C3C3C3C3C3C3C3C3C3C3C3C3C3C3C3C3C3C3C3C3C3C3C3C3C3C3C3C3C3C3C3C3C3C3C3C3C3C3C3C3C3C3C3C3C3C3C3C3C3C3C3C3C3C3C3C3C3C3C3C3E2E2F5F5F5F5F5F5F5F5E2E2E2F5F5EFE2E2E2F5E2E2E2E2E2E2E2E2E2C3E2E2E2E2E2E2E2E2E2E2E2
310
E2E2E2E2E2E2E2E2E2E2E2E2E2E2E2E2E2E2E2E2E2E2E2E2E2E2E2E2E2E2E2E2E2E2E2E2E2E2E2E2E2E2E2E2E2E2E2E2E2E2E2E2E2E2E2E2E2E2E2E2E2E2E2E2E2E2E2E2E2E2E2E2E2E2E2E2E2E2E2E2E2E2E2E2E2E2E2E2E2E2E2E2E2E2E2E2E2E2E2E2E2E2E2E2E2E2E2E2E2E2E2E2E2E2E2E2E2E2E2E2E2E2E2E2E2E2E2
310
E2E2E2E2E2E2E2E2E2E2E2C3E2E2E2E2E2E2E2E2E2F5E2E2E2F5F5EFE2E2E2F5E2E2E2E2E2E2E2E2E2C3E2E2E2E2E2E2E2E2E2E2E2E2E2E2E2E2E2E2E2E2E2E2E2E2E2E2E2E2E2E2E2E2E2E2E2E2E2E2E2E2E2E2E2E2E2E2E2E2E2E2E2E2E2E2E2E2E2E2E2E2E2E2E2E2E2E2E2E2E2E2E2E2E2E2E2E2E2E2E2E2E2E2E2E2E2
310
E2E2E2E2E2E2E2E2E2E2E2E2E2E2E2E2E2E2E2E2E2E2E2E2E2E2E2E2E2E2E2E2E2E2E2E2E2E2E2E2E2E2E2E2E2E2E2E2E2E2E2E2E2E2E2E2E2E2E2E2E2E2E2E2C3E2E2E2E2E2E2E2E2E2F5E2E2E2F5F5EFE2E2E2F5E2E2E2E2E2E2E2E2E2C3E2E2E2E2E2E2E2E2E2E2E2E2E2E2E2E2E2E2E2E2E2E2E2E2E2E2E2E2E2E2E2E2
310
E2E2E2E2E2E2E2E2E2E2E2E2E2E2E2E2E2E2E2E2E2E2E2E2E2E2E2E2E2E2E2E2E2E2E2E2E2E2E2E2E2E2E2E2E2E2E2E2E2E2E2E2E2E2E2E2E2E2E2E2E2E2E2E2E2E2E2E2E2E2E2E2E2E2E2E2E2E2E2E2E2E2E2E2E2E2E2E2E2E2E2E2E2E2E2E2E2E2E2E2E2E2E2E2E2E2E2E2E2E2E2E2E2E2E2E2E2C3E2E2E2E2E2E2E2E2E2
310
F5E2E2E2F5F5EFE2E2E2F5E2E2E2E2E2E2E2E2E2C3E2E2E2E2E2E2E2E2E2E2E2E2E2E2E2E2E2E2E2E2E2E2E2E2E2E2E2E2E2E2E2E2E2E2E2E2E2E2E2E2E2E2E2E2E2E2E2E2E2E2E2E2E2E2E2E2E2E2E2E2E2E2E2E2E2E2E2E2E2E2E2E2E2E2E2E2E2E2E2E2E2E2E2E2E2E2E2E2E2E2E2E2E2E2E2E2E2E2E2E2E2E2E2E2E2E2
310
E2E2E2E2E2E2E2E2E2E2E2E2E2E2E2E2E2E2E2E2E2E2E2E2E2E2E2E2E2E2E2E2E2E2E2E2E2E2E2E2E2E2E2C3E2E2E2E2E2E2E2E2E2F5E2E2E2F5F5EFE2E2E2F5E2E2E2E2E2E2E2E2E2C3E2E2E2E2E2E2E2E2E2E2E2E2E2E2E2E2E2E2E2E2E2E2E2E2E2E2E2E2E2E2E2E2E2E2E2E2E2E2E2E2E2E2E2E2E2E2E2E2E2E2E2E2E2
310
E2E2E2E2E2E2E2E2E2E2E2E2E2E2E2E2E2E2E2E2E2E2E2E2E2E2E2E2E2E2E2E2E2E2E2E2E2E2E2E2E2E2E2E2E2E2E2E2E2E2E2E2E2E2E2E2E2E2E2E2E2E2E2E2E2E2E2E2E2E2E2E2E2E2E2E2E2E2E2E2E2E2E2E2E2E2E2E2E2E2E2E2E2E2E2E2C3E2E2E2E2E2E2E2E2E2F5E2E2E2F5F5EFE2E2E2F5E2E2E2E2E2E2E2E2E2C3
310
E2E2E2E2E2E2E2E2E2E2E2E2E2E2E2E2E2E2E2E2E2E2E2E2E2E2E2E2E2E2E2E2E2E2E2E2E2E2E2E2E2E2E2E2E2E2E2E2E2E2E2E2E2E2E2E2E2E2E2E2E2E2E2E2E2E2E2E2E2E2E2E2E2E2E2E2E2E2E2E2E2E2E2E2E2E2E2E2E2E2E2E2E2E2E2E2E2E2E2E2E2E2E2E2E2E2E2E2E2E2E2E2E2E2E2E2E2E2E2E2E2E2E2E2E2E2E2
310
E2E2E2E2E2E2E2E2E2E2E2E2E2E2E2E2E2E2E2E2E2E2C3E2E2E2E2E2E2E2E2E2F5E2E2E2F5F5EFE2E2E2F5E2E2E2E2E2E2E2E2E2C3E2E2E2E2E2E2E2E2E2E2E2E2E2E2E2E2E2E2E2E2E2E2E2E2E2E2E2E2E2E2E2E2E2E2E2E2E2E2E2E2E2E2E2E2E2E2E2E2E2E2E2E2E2E2E2E2E2E2E2E2E2E2E2E2E2E2E2E2E2E2E2E2E2E2
310
E2E2E2E2E2E2E2E2E2E2E2E2E2E2E2E2E2E2E2E2E2E2E2E2E2E2E2E2E2E2E2E2E2E2E2E2E2E2E2E2E2E2E2E2E2E2E2E2E2E2E2E2E2E2E2E2E2E2E2E2E2E2E2E2E2E2E2E2E2E2E2E2E2E2E2C3E2E2E2E2E2E2E2E2E2F5E2E2E2F5F5EFE2E2E2E2E2E2E2E2E2E2E2E2E2C3E2E2E2E2E2E2E2E2E2E2E2E2E2E2E2E2E2E2E2E2E2
310
E2E2E2E2E2E2E2E2E2E2E2E2E2E2E2E2E2E2E2E2E2E2E2E2E2E2E2E2E2E2E2E2E2E2E2E2E2E2E2E2E2E2E2E2E2E2E2E2E2E2E2E2E2E2E2E2E2E2E2E2E2E2E2E2E2E2E2E2E2E2E2E2E2E2E2E2E2E2E2E2E2E2E2E2E2E2E2E2E2E2E2E2E2E2E2E2E2E2E2E2E2E2E2E2E2E2E2E2E2E2E2E2E2E2E2E2E2E2E2E2E2E2E2E2E2E2E2
310
E2C3E2E2E2E2E2E2E2E2E2E2E2E2E2F5F5EFE2E2E2E2E2E2E2E2E2E2E2E2E2C3BEBEBEBEBEBEBEBEBEBEBEBEBEBEBEBEBEBEBEBEBEBEBEBEBEBEBEBEBEBEBEBEBEBEBEBEBEBEBEBEBEBEBEBEBEBEBEBEBEBEBEBEBEBEBEBEBEBEBEBEBEBEBEBEBEBEBEBEBEBEBEBEBEBEBEBEBEBEBEBEBEBEBEBEBEBEBEBEBEBEBEBEBEBEBE
310
BEBEBEBEBEBEBEBEBEBEBEBEBEBEBEBEBEBEBEBEBEBEBEBEBEBEBEBEBEBEBEBEBEBEBEBEBEBEBEBEBEBEBEBEBEBEBEBEBEBEBEBEBEBEC3E2E2E2E2E2E2E2E2E2E2E2E2E2F5F5EFE2E2E2E2E2E2E2E2E2E2E2E2E2C3E2E2E2E2E2E2E2E2E2E2E2E2E2E2E2E2E2E2E2E2E2E2E2E2E2E2E2E2E2E2E2E2E2E2E2E2E2E2E2E2E2E2
310
E2E2E2E2E2E2E2E2E2E2E2E2E2E2E2E2E2E2E2E2E2E2E2E2E2E2E2E2E2E2E2E2E2E2E2E2E2E2E2E2E2E2E2E2E2E2E2E2E2E2E2E2E2E2E2E2E2E2E2E2E2E2E2E2E2E2E2E2E2E2E2E2E2E2E2E2E2E2E2E2E2E2E2E2E2E2E2E2E2E2E2E2E2E2E2E2E2E2E2E2E2E2E2E2E2E2E2C3E2E2E2E2E2E2E2E2E2E2E2E2E2F5F5EFE2E2E2
310
E2E2E2E2E2E2E2E2E2E2C3E2E2E2E2E2E2E2E2E2E2E2E2E2DCDCDCDCDCE2DCE2DCDCDCE2DCDCDCDCDCE2E2DCDCDCDCDCDCDCDCDCDCDCDCE2DCE2E2DCDCDCE2DCDCDCE2E2E2DCDCDCDCDCDCDCE2E2DCE2DCE2DCDCDCDCDCDCDCDCDCDCE2DCDCDCDCE2E2DCDCDCDCDCDCE2DCDCDCDCE2DCDCDCE2E2E2E2E2DCDCDCDCDCDCDCDC
310
DCDCDCE2E2E2E2DCDCDCDCDCE2DCDCDCDCDCE2DCE2E2E2E2E2E2E2E2E2E2E2E2E2C3E2E2E2E2E2E2E2E2E2E2E2E2E2F5F5EFE2E2E2E2E2E2E2E2E2E2E2E2E2C3E2E2E2E2E2E2E2E2E2E2E2E2E2DCDCDCDCDCDCDCDCDCDCDCDCDCDCDCDCDCE2E2DCE2DCE2DCDCDCDCE2DCDCDCDCDCE2E2DCDCDCE2DCDCDCE2E2E2DCDCDCDCDC
310
DCE2E2E2DCDCDCDCDCDCDCDCE2DCE2DCDCE2E2DCDCDCDCE2E2DCDCE2DCDCDCE2DCDCDCDCDCDCDCDCE2E2DCDCDCE2E2E2E2E2E2E2E2E2E2E2E2E2E2E2DCDCDCDCDCDCDCE2DCDCE2DCE2E2E2E2E2E2E2E2E2E2E2E2E2E2C3E2E2E2E2E2E2E2E2E2E2E2E2E2F5F5EFE2E2E2E2E2E2E2E2E2E2E2E2E2C3E2E2E2E2E2E2E2E2E2E2
310
E2E2E2DCDCDCDCDCDCDCE2DCDCDCDCE2DCDCDCDCE2E2DCE2DCDCDCDCDCDCDCDCDCDCDCDCE2E2DCDCDCDCDCDCDCE2E2E2DCDCDCDCDCDCE2E2E2DCE2DCDCE2DCDCDCDCDCE2DCDCDCE2E2DCDCE2E2E2DCDCDCDCDCDCDCE2DCDCDCDCDCDCDCE2E2E2E2E2E2E2E2E2E2E2E2E2E2E2E2DCDCE2E2DCDCDCDCDCDCDCE2DCDCDCE2DCE2
310
E2E2E2E2E2E2E2E2E2E2E2E2C3E2E2E2E2E2E2E2E2E2E2E2E2E2F5F5EFE2E2E2E2E2E2E2E2E2E2E2E2E2C3E2E2E2E2E2E2E2E2E2E2E2E2E2E2E2E2E2E2E2E2E2E2E2E2E2E2E2E2E2E2E2E2E2E2E2E2E2E2E2E2E2E2E2E2E2E2E2E2E2E2E2E2E2E2E2E2E2E2E2E2E2E2E2E2E2E2E2E2E2E2E2E2E2E2E2E2E2E2E2E2E2E2E2E2
310
E2E2E2E2E2E2E2E2E2E2E2E2E2E2E2E2E2E2E2E2E2E2E2E2E2E2E2E2E2E2E2E2E2E2E2DCDCE2E2E2E2E2E2E2E2E2E2E2E2E2E2E2E2E2E2E2E2E2E2E2E2E2E2E2E2C3E2E2E2E2E2E2E2E2E2E2E2E2E2F5F5EFE2E2E2E2E2E2E2E2E2E2E2E2E2C3E2E2E2E2E2E2E2E2E2E2E2E2E2E2E2E2E2E2E2E2E2E2E2E2E2E2E2E2E2E2E2
310
E2E2E2E2E2E2E2E2E2E2E2E2E2E2E2E2E2E2E2E2E2E2E2E2E2E2E2E2E2E2E2E2E2E2E2E2E2E2E2E2E2E2E2BEE2E2E2E2E2E2E2E2E2E2E2E2E2E2E2E2E2E2E2E2E2E2E2E2E2E2E2E2E2E2E2E2E2E2E2E2E2E2E2E2E2E2E2E2E2E2E2E2E2E2E2E2E2E2E2E2E2E2E2E2E2E2E2E2E2E2E2E2E2E2E2E2E2E2C3E2E2E2E2E2E2E2E2
310
E2E2E2E2E2F5F5EFE2E2E2F5E2E2E2E2E2E2E2E2E2C3E2E2E2E2E2E2E2E2E2E2E2E2E2E2E2E2E2E2E2E2E2E2E2E2E2E2E2E2E2E2E2E2E2E2E2E2E2E2E2E2E2E2E2E2E2E2E2E2E2E2E2E2E2E2E2E2E2E2E2E2E2E2E2E2E2E2E2E2E2E2E2E2BEBEE2BEBEE2E2E2E2E2E2E2E2E2E2E2E2E2E2E2E2E2E2E2E2E2E2E2E2E2E2E2E2
310
E2E2E2E2E2E2E2E2E2E2E2E2E2E2E2E2E2E2E2E2E2E2E2E2E2E2E2E2E2E2E2E2E2E2E2E2E2E2E2E2E2E2E2E2C3E2E2E2E2E2E2E2E2E2F5E2E2E2F5F5EFE2E2E2F5E2E2E2E2E2E2E2E2E2C3E2E2E2E2E2E2E2E2E2E2E2E2E2E2E2E2E2E2E2E2E2E2E2E2E2E2E2E2E2E2E2E2E2E2E2E2E2E2E2E2E2E2E2E2E2E2E2E2E2E2E2E2
310
E2E2E2E2E2E2E2E2E2E2E2E2E2E2E2E2E2E2E2BEE2E2E2E2E2BEE2E2E2E2E2E2E2E2E2E2E2E2E2E2E2E2E2E2E2E2E2E2E2E2E2E2E2E2E2E2E2E2E2E2E2E2E2E2E2E2E2E2E2E2E2E2E2E2E2E2E2E2E2E2E2E2E2E2E2E2E2E2E2E2E2E2E2E2E2E2E2C3E2E2E2E2E2E2E2E2E2F5E2E2E2F5F5EFE2E2E2F5E2E2E2E2E2E2E2E2E2
310
C3E2E2E2E2E2E2E2E2E2E2E2E2E2E2E2E2E2E2E2E2E2E2E2E2E2E2E2E2E2E2E2E2E2E2E2E2E2E2E2E2E2E2E2E2E2E2E2E2E2E2E2E2E2E2E2E2E2E2E2E2E2E2E2E2E2E2E2E2E2E2E2BEE2E2E2E2E2BEE2E2E2E2E2E2E2E2E2E2E2E2E2E2E2E2E2E2E2E2E2E2E2E2E2E2E2E2E2E2E2E2E2E2E2E2E2E2E2E2E2E2E2E2E2E2E2E2
310
E2E2E2E2E2E2E2E2E2E2E2E2E2E2E2E2E2E2E2E2E2E2E2C3E2E2E2E2E2E2E2E2E2F5E2E2E2F5F5EFE2E2E2F5E2E2E2E2E2E2E2E2E2C3E2E2E2E2E2E2E2E2E2E2E2E2E2E2E2E2E2E2E2E2E2E2E2E2E2E2E2E2E2E2E2E2E2E2E2E2E2E2E2E2E2E2E2E2E2E2E2E2E2E2E2E2E2E2E2E2E2E2E2E2E2E2E2E2E2E2E2E2E2E2E2BEE2
310
E2E2E2E2BEE2E2E2E2E2E2E2E2E2E2E2E2E2E2E2E2E2E2E2E2E2E2E2E2E2E2E2E2E2E2E2E2E2E2E2E2E2E2E2E2E2E2E2E2E2E2E2E2E2E2E2E2E2E2E2E2E2E2E2E2E2E2E2E2E2E2E2E2E2E2E2C3E2E2E2E2E2E2E2E2E2F5E2E2E2F5F5EFE2E2E2F5E2E2E2E2E2E2E2E2E2C3E2E2E2E2E2E2E2E2E2E2E2E2E2E2E2E2E2E2E2E2
310
E2E2E2E2E2E2E2E2DCE2DCDCDCDCDCDCDCE2E2DCDCDCDCDCDCDCDCDCDCDCDCDCDCE2E2E2E2E2E2E2E2E2E2E2E2E2E2E2E2E2E2BEE2E2E2E2E2BEE2E2E2E2E2E2E2E2E2E2E2E2E2E2E2E2E2E2E2E2E2E2E2E2E2E2DCDCDCDCDCDCDCDCDCDCDCDCDCDCE2E2E2E2E2E2E2E2E2E2E2E2E2E2E2E2E2E2E2E2E2E2E2E2E2E2E2E2E2
310
E2E2C3E2E2E2E2E2E2E2E2E2F5E2E2E2F5F5EFE2E2E2F5E2E2E2E2E2E2E2E2E2C3E2E2E2E2E2E2E2E2E2E2E2E2E2E2E2E2E2E2E2E2E2E2E2E2E2E2E2E2DCDCDCDCDCDCDCDCDCDCE2DCDCE2DCDCE2DCDCDCDCDCDCDCDCE2E2E2E2E2E2E2E2E2E2E2E2E2E2E2E2E2E2E2BEE2E2E2BEE2E2E2E2E2E2E2E2E2E2E2E2E2E2E2E2E2
310
E2E2E2E2E2E2E2E2E2E2DCDCDCDCDCDCDCDCDCDCDCDCDCDCE2E2E2E2E2E2E2E2E2E2E2E2E2E2E2E2E2E2E2E2E2E2E2E2E2E2E2E2E2E2E2C3E2E2E2E2E2E2E2E2E2F5E2E2E2F5F5EFE2E2E2F5E2E2E2E2E2E2E2E2E2C3E2E2E2E2E2E2E2E2E2E2E2E2E2E2E2E2E2E2E2E2E2E2E2E2E2E2E2E2E2E2E2E2E2E2E2E2E2E2E2E2E2
310
E2E2E2E2E2E2E2E2E2E2E2E2E2E2E2E2E2E2E2E2E2E2E2E2E2E2E2E2E2E2E2E2BEBEBEE2E2E2E2E2E2E2E2E2E2E2E2E2E2E2E2E2E2E2E2E2E2E2E2E2E2E2E2E2E2E2E2E2E2E2E2E2E2E2E2E2E2E2E2E2E2E2E2E2E2E2E2E2E2E2E2E2E2E2E2E2E2E2E2E2E2E2E2E2E2E2E2E2C3E2E2E2E2E2E2E2E2E2F5E2E2E2F5F5EFE2E2
310
E2F5E2E2E2E2E2E2E2E2E2C3E2E2E2E2E2E2E2E2E2E2E2E2E2E2E2E2E2E2E2E2E2E2E2E2E2E2E2E2E2E2E2E2E2E2E2E2E2E2E2E2E2E2E2E2E2E2E2E2E2E2E2E2E2E2E2E2E2E2E2E2E2E2E2E2E2E2E2E2E2E2E2E2E2E2E2E2E2E2E2E2E2E2E2E2E2E2E2E2E2E2E2E2E2E2E2E2DCDCE2DCE2E2E2E2E2E2E2E2E2E2E2E2E2E2E2
310
E2E2E2E2E2E2E2E2E2DCDCDCDCE2E2E2E2E2E2E2E2E2E2E2E2E2E2E2E2E2E2E2E2E2C3E2E2E2E2E2E2E2E2E2F5E2E2E2F5F5EFE2E2E2F5E2E2E2E2E2E2E2E2E2C3E2E2E2E2E2E2E2E2E2E2E2E2E2E2E2E2E2E2E2E2E2E2E2E2E2E2E2E2E2E2E2E2E2E2E2E2E2E2E2E2E2E2E2E2E2E2E2E2E2E2E2E2E2E2E2E2E2E2E2E2E2E2
310
E2E2E2E2E2E2E2E2E2E2E2E2E2E2E2E2E2E2E2E2E2E2E2E2E2E2E2E2E2E2E2E2E2E2DCDCDCDCE2E2E2E2E2E2E2E2E2E2E2E2E2E2E2E2E2E2E2E2E2E2E2E2DCDCDCDCE2E2E2E2E2E2E2E2E2E2E2E2E2E2E2E2E2E2E2E2E2C3E2E2E2E2E2E2E2E2E2F5E2E2E2F5F5EFE2E2E2F5E2E2E2E2E2E2E2E2E2C3E2E2E2E2E2E2E2E2E2
310
E2E2E2E2E2E2E2E2E2E2E2E2E2E2E2E2E2E2E2E2E2E2E2E2E2E2E2E2E2E2E2E2E2E2E2E2E2E2E2E2E2E2E2E2E2E2E2E2E2E2E2E2E2E2E2E2E2E2E2E2E2E2E2E2E2E2E2E2E2E2E2E2E2E2E2E2E2E2E2E2E2E2E2E2E2E2E2DCDCDCE2E2E2E2E2E2E2E2E2E2E2E2E2E2E2E2E2E2E2E2E2E2E2E2E2DCDCDCDCE2E2E2E2E2E2E2E2
310
E2E2E2E2E2E2E2E2E2E2E2E2E2C3E2E2E2E2E2E2E2E2E2F5E2E2E2F5F5EFE2E2E2F5E2E2E2E2E2E2E2E2E2C3E2E2E2E2E2E2E2E2E2E2E2E2E2E2E2E2E2E22DE2E2E2E2E2E2E2E2E2E2E2E2E2E2E2E2E2E2E2E2E2E2E2E2E2E2E2E2E2E2E2E2E2E2E2E2E2E2E2E2E2E2E2E22DE2E2E2E2E2E2E2E2E2E2E2E2E2E2E2E2E2E2E2
310
E2E2E2E2E2E2E2E2E2E2E2E2E2E2E2E2E2E2E2E2E2E2E2E2E2E2E2E2E2E2E2E2E2E2E2E2E2E2E2E2E2E2E2E2E2E2E2E2E2E2E2E2E2E2E2E2E2E2E2E2E2E2E2E2E2E2C3E2E2E2E2E2E2E2E2E2F5E2E2E2F5F5EFE2E2E2F5E2E2E2E2E2E2E2E2E2C3E2E2E2E2E2E2E2E2E2E2E2E2E2E2E2E2E2E22DE22DE2E2E2E2E2E2E2E2E2
310
E2E2E2E2E2E2E2E2E2E2E2E2E2E2E2E2E2E2E2E2E2E2E2E2E2E2E2E2E2E22D2DE22DE2E2E2E2E2E2E2E2E2E2E2E2E2E2E2E2E2E2E2E2E2E2E2E2E2E2E2E2E2E2E2E2E2E2E2E2E2E2E2E2E2E2E2E2E2E2E2E2E2E2E2E2E2E2E2E2E2E2E2E2E2E2E2E2E2E2E2E2E2E2E2E2E2E2E2E2E2E2E2E2E2E2E2E2E2C3E2E2E2E2E2E2E2
310
E2E2F5E2E2E2F5F5EFE2E2E2F5E2E2E2E2E2E2E2E2E2C3E2E2E2E2E2E2E2E2E2E2E2E2E2E2E2E2E2E22D2D2D2D2D2D2D2D2D2D2D2D2D2D2D2D2D2D2D2D2D2D2D2D2D2D2D2D2D2D2D2D2D2D2D2D2D2D2D2D2D2D2D2D2D2DE2E2E2E2E2E2E2E2E2E2E2E2E2E2E2E2E2E2E2E2E2E2E2E2E2E2E2E2E2E2E2E2E2E2E2E2E2E2E2E2
310
E2E2E2E2E2E2E2E2E2E2E2E2E2E2E2E2E2E2E2E2E2E2E2E2E2E2E2E2E2E2E2E2E2E2E2E2E2E2E2E2E2E2E2E2E2C3E2E2E2E2E2E2E2E2E2F5E2E2E2F5F5EFE2E2E2F5E2E2E2E2E2E2E2E2E2C3E2E2E2E2E2E2E2E2E2E2E2E2E2E2E2E2E2E22DE2E2E2E2E2DCDCDCDCDCDCDCDCE2DCDCDCDCDCDCDCDCE2DCDCDCDCE2DCDCDCDC
310
DCDCDCDCDCDCE2E2E2E2E2E22DE2E2E2E2E2E2E2E2E2E2E2E2E2E2E2E2E2E2E2E2E2E2E2E2E2E2E2E2E2E2E2E2E2E2E2E2E2E2E2E2E2E2E2E2E2E2E2E2E2E2E2E2E2E2E2E2E2E2E2E2E2E2E2E2E2E2E2E2E2E2E2E2E2E2E2E2E2E2E2E2E2E2E2E2E2C3E2E2E2E2E2E2E2E2E2F5E2E2E2F5F5EFE2E2E2F5E2E2E2E2E2E2E2E2
310
E2C3E2E2E2E2E2E2E2E2E2E2E2E2E2E2E2E2E2E22DE2E2E2E2E2DCDCDCDCDCDCDCDCDCDCDCDCDCDCDCE2E2E2DCDCDCDCE2DCDCDCDCDCDCDCDCDCDCE2E2E2E2E2E22DE2E2E2E2E2E2E2E2E2E2E2E2E2E2E2E2E2E2E2E2E2E2E2E2E2E2E2E2E2E2E2E2E2E2E2E2E2E2E2E2E2E2E2E2E2E2E2E2E2E2E2E2E2E2E2E2E2E2E2E2E2
310
E2E2E2E2E2E2E2E2E2E2E2E2E2E2E2E2E2E2E2E2E2E2E2E2C3E2E2E2E2E2E2E2E2E2F5E2E2E2F5F5EFE2E2E2E2E2E2E2E2E2E2E2E2E2C3E2E2E2E2E2E2E2E2E2E2E2E2E2E2E2E2E2E22DE2E2E2E2E2E2E2E2E2E2E2E2E2E2E2E2E2E2E2E2E2E2E2E2E2E2E2E2E2E2E2E2E2E2E2E2E2E2E2E2E2E2E2E22DE2E2E2E2E2E2E2E2
310
E2E2E2E2E2E2E2E2E2E2E2E2E2E2E2E2E2E2E2E2E2E2E2E2E2E2E2E2E2E2E2E2E2E2E2E2E2E2E2E2E2E2E2E2E2E2E2E2E2E2E2E2E2E2E2E2E2E2E2E2E2E2E2E2E2E2E2E2E2E2E2E2E2E2E2E2E2C3E2E2E2E2E2E2E2E2E2E2E2E2E2F5F5EFE2E2E2E2E2E2E2E2E2E2E2E2E2C3E2E2E2E2E2E2E2E2E2E2E2E2E2E2E2E2E2E22D
310
E2E2E2E2E2E2E2E2E2E2E2E2E2E2E2E2E2E2E2E2E2E2E2E2E2E2E2E2E2E2E2E2E2E2E2E2E2E2E2E2E2E2E2E22DE2E2E2E2E2E2E2E2E2E2E2E2E2E2E2E2E2E2E2E2E2E2E2E2E2E2E2E2E2E2E2E2E2E2E2E2E2E2E2E2E2E2E2E2E2E2E2E2E2E2E2E2E2E2E2E2E2E2E2E2E2E2E2E2E2E2E2E2E2E2E2E2E2E2E2E2E2E2E2E2E2E2
310
E2E2E2C3E2E2E2E2E2E2E2E2E2E2E2E2E2F5F5EFE2E2E2E2E2E2E2E2E2E2E2E2E2C3E2E2E2E2E2E2E2E2E2E2E2E2E2E2E2E2E2E22DE2E2E2E2E2E2E2E2E2E2E22D2D2D2DE22D2D2DE2E2E2E2E2E2E2E2E2E2E2E2E2E2E2E2E2E2E2E2E2E2E2E2E22DE2E2E2E2E2E2E2E2E2E2E2E2E2E2E2E2E2E2E2E2E2E2E2E2E2E2E2E2E2
310
E2E2E2E2E2E2E2E2E2E2E2E2E2E2E2E2E2E2E2E2E2E2E2E2E2E2E2E2E2E2E2E2E2E2E2E2E2E2E2E2E2E2E2E2E2E2E2E2E2E2E2E2E2E2E2E2C3E2E2E2E2E2E2E2E2E2E2E2E2E2F5F5EFE2E2E2E2E2E2E2E2E2E2E2E2E2C3E2E2E2E2E2E2E2E2E2E2E2E2E2E2E2E2E2E22DE2E2E2E2E2E2E2E2E2E2E22DE2E22D2DE2E2E22DE2
310
E2E2E2E2E2BEE2BEE2E2E2E2E2E2E2E2E2E2E2E2E2E2E22DE2E2E2E2E2E2E2E2E2E2E2E2E2E2E2E2E2E2E2E2E2E22D2DE2E2E2E2E2E2E2E2E2E2E2E2E2E2E2E2E2E2E2E2E2E2E2E2E2E2E2E2E2E2E2E2E2E2E2E2E2E2E2E2E2E2E2E2E2E2E2E2E2E2E2E2E2E2E2E2E2E2E2E2E2C3E2E2E2E2E2E2E2E2E2E2E2E2E2F5F5EFE2
310
E2E2E2E2E2E2E2E2E2E2E2E2C3E2E2E2E2E2E2E2E2E2E2E2E2E2E2E2E2E2E22DE2E2E2E2E2E2E2E2E2E2E22DE2E22DE22DE2E22DE2E2E2E2E2E2BEE2BEE2E2E2E2E2E2E2E2E2E2E2E2E2E2E22DE2E2E2E2E2E2E2E2E2E2E2E2E2E2E2E2E2E2E2E2E2E22D2DE2E2E2E2E2E2E2E2E2E2E2E2E2E2E2E2E2E2E2E2E2E2E2E2E2E2
310
E2E2E2E2E2E2E2E2E2E2E2E2E2E2E2E2E2E2E2E2E2E2E2E2E2E2E2E2E2E2E2E2E2E2E2C3E2E2E2E2E2E2E2E2E2E2E2E2E2F5F5EFE2E2E2E2E2E2E2E2E2E2E2E2E2C3E2E2E2E2E2E2E2E2E2E2E2E2E2E2E2E2E2E2E2E2E2E2E2E2E2E2E2E2E2E22D2D2D2DE22D2D2DE2E2E2E2E2E2E2BEE2BEE2E2E2E2E2E2E2E2E2E2E2E2E2
310
E2E2E2E2E2E2E2E2E2E2E2E2E2E2E2E2E2E2E2E2E2E2E2E2E22DE2E2E2E2E2E2E2E2E2E2E2E2E2E2E2E2E2E2E2E2E2E2E2E2E2E2E2E2E2E2E2E2E2E2E2E2E2E2E2E2E2E2E2E2E2E2E2E2E2E2E2E2E2E2E2E2E2E2E2E2E2E2C3E2E2E2E2E2E2E2E2E2E2E2E2E2F5F5EFE2E2E2E2E2E2E2E2E2E2E2E2E2C3E2E2E2E2E2E2E2E2
310
E2E2E2E2E2E2E2E2E2E2BEBEBEBEBEBEBEBEBEBEBEBEBEBEBEBEBEBEBEBEBEBEBEBEBEBEBEBEE2BEBEBEBEBEBEBEBEBEBEBEBEBEBEBEBEBEE2E2E2E2E2E2E2E2E2E2E2E2E2E2E2E2E22D2D2D2D2D2D2D2D2D2DBEBEBEE2BEBEBEBEBEBEBEBEBEE2E2E2E2E2E2E2E2E2E2E2BEBEBEBEBEBEBEBEBEBEBEBEBEBEBEBEBEBEBEBE
310
BEBEBEE2E2E2E2E2E2E2E2E2E2E2C3E2E2E2E2E2E2E2E2E2E2E2E2E2F5F5EFE2E2E2E2E2E2E2E2E2E2E2E2E2C3E2E2E2E2E2E2E2E2E2E2E2E2E2E2E2E2E2E2BE2D2D2D2D2D2D2D2D2DBEBEBEBEBEBE2D2DBEBEBEBEBEBEBEBEBEBEE2BEBEBEBEBEE2BEBEBEBE2DBEBEBEBEBEBEE2E2E2E2E2E2E2E2E2E2E2E2E2E2E2E2E2E2
310
2DE2E22D2D2D2D2D2D2D2DBEBEBEBEBEBEBEBEBEBEBEBEE2E2E2E2E2E2E2E2E2E22D2DBEBEBEBEBEBEBEBEBEBEBEBEBEBEBEBEBEBEBE2D2DE2E2E2E2E2E2E2E2E2E2E2C3E2E2E2E2E2E2E2E2E2E2E2E2E2F5F5EFE2E2E2F5E2E2E2E2E2E2E2E2E2C3E2E2E2E2E2E2E2E2E2E2E2E2E2E2E2E2E2E2BE2DE2E22D2D2DE2E22DBE
310
BEBEE2E2E22D2DE2E2E2BEBEBEE2E2E2BEE2BEE2E2BEBEE2BEE2E2E22DE2E2E2E2BEBEE2E2E2E2E2E2E2E2E2E2E2E2E2E2E2E2E2E22DE2E2E22D2DE2E2E22DE2E2E2E2E2E2E2E2E2E2BEBEE2BEBEE2E2E2E2E2E2E2E22DE2E2E2E2E2E2E2E2E2E2BEE2E2E2E2E2E2E2E2E2E22DE2E2E2E2E2E2E2E2E2E2E2C3E2E2E2E2E2E2
310
E2E2E2F5E2E2E2F5F5EFE2E2E2F5E2E2E2E2E2E2E2E2E2C3E2E2E2E2E2E2E2E2E2E2E2E2E2E2E2E2E2E2BE2DE2E22D2D2DE2E22DBEBEBEE2E2E22D2DE2E2E2BEBEBEE2E2E2BEE2BEE2E2BEBEE2BEE2E2E22DE2E2E2E2BEBEE2E2E2E2E2E2E2E2E2E2E2E2E2E2E2E2E2E22DE2E2E22D2DE2E2E22DE2E2DCDCDCE2DCDCE2E2BE
310
BEBEE2E2BEE2E2E2E2E2E2E22DE2E2E2E2E2E2E2DCDCDCBEDCDCDCE2E2E2E2E2E2E22DE2E2E2E2E2E2E2E2E2E2E2C3E2E2E2E2E2E2E2E2E2F5E2E2E2F5F5EFE2E2E2F5E2E2E2E2E2E2E2E2E2C3E2E2E2E2E2E2E2E2E2E2E2E2E2E2E2E2E2E2BE2D2D2D2D2D2D2D2D2DBEBEBEE2E2E22D2DE2E2E2BEBEBEE2E2E2BEE2BEE2E2
310
BEBEE2BEE2E2E22DE2E2E2E2BEBEE2E2E2E2E2E2E2E2E2E2E2E2E2E2E2E2E2E22DE2DCDC2DE2E2E2E22DE2E2DCDCDCDCDCDCE2E2BEBEE2BEBEE2E2E2E2E2E2E2E22DE2E2E2E2E2E2E2DCDCDCBEDCDCDCE2E2E2E2E2E2E22DE2E2E2E2E2E2E2E2E2E2E2C3E2E2E2E2E2E2E2E2E2F5E2E2E2F5F5EFE2E2E2F5E2E2E2E2E2E2E2
310
E2E2C3E2E2E2E2E2E2E2E2E2E2E2E2E2E2E2E2E2E2BE2D2D2D2D2D2D2D2D2DBEBEBEE2E2E22D2DE2E2E2BEBEBEE2E2BEBEE2BEE2E2BEBEE2BEE2E2E22DE2E2E2E2BEBEE2E2E2E2E2E2E2E2E2E2E2E2E2E2E2E2E2E22DE2E2E22DE2E2E2E22D2D2D2D2D2D2D2D2D2D2DBEBE2D2D2DBE2DE2E2E2E2E2E22D2D2D2D2D2D2D2D2D
310
2D2DBE2D2D2D2D2D2D2D2D2D2D2DE2E2E2E2E2E2E2E2E2E2E2C3E2E2E2E2E2E2E2E2E2F5E2E2E2F5F5EFE2E2E2F5E2E2E2E2E2E2E2E2E2C3E2E2E2E2E2E2E2E2E2E2E2E2E2E2E2E2E2E2BE2D2D2D2D2D2D2D2D2DBEBEBEE2E2E22D2DE2E2E2BEBEBEE2E2E2BEE2BEE2E2BEBEE2BEE2E2E22DE2E2E2E2BEBEE2E2E2E2E2E2E2
310
E2E2E2E2E2E2E2E2E2E2E22DE2E2E22DE2E2E2E22D2D2DE2E2E2E2E2E22D2DBEBEE22D2DE2E2E2E2E2E2E2E22D2D2DE2E2E2E2E2E2E2E2BEE2E2E2E2E2E2E2E22D2D2DE2E2E2E2E2E2E2E2E2E2E2C3E2E2E2E2E2E2E2E2E2F5E2E2E2F5F5EFE2E2E2F5E2E2E2E2E2E2E2E2E2C3E2E2E2E2E2E2E2E2E2DCDCDCE2E2E2E2E2E2
310
BE2D2D2D2D2D2D2D2D2DBEBEBEE2E2E22D2DE2E2E2BEBEBEE2E2BEBEE2BEE2E2BEBEE2BEE2E2E22DE2E2E2E2BEBEE2E2E2E2E2E2E2E2E2E2E2E2E2E2E2E2E2E22DE2E2E22DE2E2E2E22DE2E2E2E2E2E2E2E2E2E2BEBEE2E2E2E2E2E2E2E2E2E2E22DE2E2E2E2E2E2E2E2E2E2BEE2E2E2E2E2E2E2E2E2E22DE2E2E2E2E2E2E2
310
E2E2E2E2C3E2E2E2E2E2E2E2E2E2F5E2E2E2F5F5EFE2E2E2F5E2E2E2E2E2E2E2E2E2C3E2E2E2E2E2E2E2E2E2DCDCDCE2E2E2E2E2E2BE2D2D2D2D2D2D2D2D2DBEBEBEE2E2E22D2DE2E2E2BEBEBEE2E2E2BEE2BEE2E2BEBEE2BEE2E2E22DE2E2E2E2BEBEE2E2E2E2E2E2E2E2E2E2E2E2E2E2E2E2E2E22DE2E2E22DE2E2E2E22D
310
E2E2E2E2E2E2E2E2E2E2BEBEE2E2E2E2E2E2E2E2E2E2E22DE2E2E2E2E2E2E2E2E2E2BEE2E2E2E2E2E2E2E2E2E22DE2E2E2E2E2E2E2E2E2E2E2C3E2E2E2E2E2E2E2E2E2F5E2E2E2F5F5EFE2E2E2F5E2E2E2E2E2E2E2E2E2C3E2E2E2E2E2E2E2E2E2DCDCDCE2E2E2E2E2E2BE2DE2E22D2D2DE2E22DBEBEBEE2E2E22D2DE2E2E2
310
BEBEBEE2E2E2BEE2BEE2E2BEBEE2BEE2E2E22DE2E2E2E2BEBEE2E2E2E2E2E2E2E2E2E2E2E2E2E2E2E2E2E22DE2E2E22DE2E2E2E22DE2E2E2E2E2E2E2E2E2E2BEBEE2E2E2E2E2E2E2E2E2E2E22DE2E2E2E2E2E2E2E2E2E2BEE2E2E2E2E2E2E2E2E2E22DE2E2E2E2E2E2E2E2E2E2E2C3E2E2E2E2E2E2E2E2E2F5E2E2E2F5F5EF
310
E2E2E2F5E2E2E2E2E2E2E2E2E2C3E2E2E2E2E2E2E2E2E2DCDCDCE2E2E2E2E2E2BE2DE2E22D2D2DE2E22DBEBEBEE2E2E22D2DE2E2E2BEBEBEE2E2E2BEE2BEE2E2BEBEE2BEE2E2E22DE2E2E2E2BEBEE2E2E2E2E2E2E2E2E2E2E2E2E2E2E2E2E2E22DE2E2E22DE2E2E2E22DE2E2E2E2E2E2E2E2E2E2BEBEBEE2E2E2E2E2E2E2E2
310
E2E22DE2E2E2E2E2E2E2E2E2E2BEE2E2E2E2E2E2E2E2E2E22DE2E2E2E2E2E2E2E2E2E2E2C3E2E2E2E2E2E2E2E2E2F5E2E2E2F5F5EFE2E2E2F5E2E2E2E2E2E2E2E2E2C3E2E2E2E2E2E2E2E2E2DCE2DCE2E2E2E2E2E2BE2DE2E22D2D2DE2E22DBEBEBEE2E2E22D2DE2E2E2BEBEBEE2E2E2BEE2BEE2E2BEBEE2BEE2E2E22DE2E2
310
E2E2BEBEE2E2E2E2E2E2E2E2E2E2E2E2E2E2E2E2E2E22DE2E2E22DE2E2E2E22DE2E2E2E2E2E2E2E2E2E2BEBEE2BEBEE2E2E2E2E2E2E2E22DE2E2E2E2E2E2E2E2E2E2BEE2E2E2E2E2E2E2E2E2E22DE2E2E2E2E2E2E2E2E2E2E2C3E2E2E2E2E2E2E2E2E2F5E2E2E2F5F5EFE2E2E2F5E2E2E2E2E2E2E2E2E2C3E2E2E2E2E2E2E2
310
E2E2E2E2E2E2E2E2E2E2E2BE2DE2E22D2D2DE2E22DBEBEBEE2E2E22D2DE2E2E2BEBEBEE2E2E2BEE2BEE2E2BEBEE2BEE2E2E22DE2E2E2E2BEBEE2E2E2E2E2E2E2E2E2E2E2E2E2E2E2E2E2E22DE2E2E22DE2E2E2E22DE2E2E2E2E2E2E2E2E2E2BEBEBEE2E2BEE2E2E2E2E2E2E22DE2E2E2E2E2E2E2E2E2E2BEE2E2E2E2E2E2E2
310
E2E2E22DE2E2E2E2E2E2E2E2E2E2E2C3E2E2E2E2E2E2E2E2E2F5E2E2E2F5F5EFE2E2E2F5E2E2E2E2E2E2E2E2E2C3E2E2E2E2E2E2E2E2E2DCDCDCE2E2E2E2E2E2BE2DE2E22D2D2DE2E22DBEBEBEE2E2E22D2DE2E2E2BEBEBEE2E2E2BEE2BEE2E2BEBEE2BEE2E2E22DE2E2E2E2BEBEE2E2E2E2E2E2E2E2E2E2E2E2E2E2E2E2E2
310
E22DE2E2E22DE2E2E2E22DE2E2E2E2E2E2E2E2E2E2BEBEE2BEBEE2E2E2E2E2E2E2E22DE2E2E2E2E2E2E2E2E2E2BEE2E2E2E2E2E2E2E2E2E22DE2E2E2E2E2E2E2E2E2E2E2C3E2E2E2E2E2E2E2E2E2F5E2E2E2F5F5EFE2E2E2F5E2E2E2E2E2E2E2E2E2C3E2E2E2E2E2E2E2E2E2DCDCDCE2E2E2E2E2E2BE2DE2E22D2D2DE2E22D
310
BEBEBEE2E2E22D2DE2E2E2BEBEBEE2E2E2BEE2BEE2E2BEBEE2BEE2E2E22DE2E2E2E2BEBEE2E2E2E2E2E2E2E2E2E2E2E2E2E2E2E2E2E22DE2E2E22DE2E2E2E22DE2E2E2E2E2E2E2E2E2E2BEBEBEE2E2BEE2E2E2E2E2E2E22DE2E2E2E2E2E2E2E2E2E2BEE2E2E2E2E2E2E2E2E2E22DE2E2E2E2E2E2E2E2E2E2E2C3E2E2E2E2E2
310
E2E2E2E2F5E2E2E2F5F5EFE2E2E2F5E2E2E2E2E2E2E2E2E2C3E2E2E2E2E2E2E2E2E2DCDCDCE2E2E2E2E2E2BE2DE2E22D2D2DE2E22DBEBEBEE2E2E22D2DE2E2E2BEBEBEE2E2E2BEE2BEBEE2BEBEE2BEE2E2E22DE2E2E2E2BEBEE2E2E2E2E2E2E2E2E2E2E2E2E2E2E2E2E2E22DE2E2E22DE2E2E2E22DE2E2E2E2E2E2E2E2E2E2
310
BEBEE2BEE2E2E2E2E2E2E2E2E22DE2E2E2E2E2E2E2E2E2E2BEE2E2E2E2E2E2E2E2E2E22DE2E2E2E2E2E2E2E2E2E2E2C3E2E2E2E2E2E2E2E2E2F5E2E2E2F5F5EFE2E2E2E2E2E2E2E2E2E2E2E2E2C3E2E2E2E2E2E2E2E2E2DCDCDCE2E2E2E2E2E2BE2DE2E22D2D2DE2E22DBEBEBEE2E2E22D2DE2E2E2BEBEBEE2E2E2BEBEBEBE
310
E2BEBEE2BEE2E2E22DE2E2E2E2BEBEE2E2E2E2E2E2E2E2E2E2E2E2E2E2E2E2E2E22DE2E2E22DE2E2E2E22DE2E2E2E2E2E2E2E2E2E2BEBEBEE2BEE2E2E2E2E2E2E2E22DE2E2E2E2E2E2E2E2E2E2BEE2E2E2E2E2E2E2E2E2E22DE2E2E2E2E2E2E2E2E2E2E2C3E2E2E2E2E2E2E2E2E2E2E2E2E2F5F5EFE2E2E2E2E2E2E2E2E2E2
310
E2E2E2C3E2E2E2E2E2E2E2E2E2DCDCDCE2E2E2E2E2E2BE2DE2E22D2D2DE2E22DBEBEBEE2E2E22D2DE2E2E2BEBEBEE2E2E2BEE2BEE2E2BEBEE2BEE2E2E22DE2E2E2E2BEBEE2E2E2E2E2E2E2E2E2E2E2E2E2E2E2E2E2E22DE2E2E22DE2E2E2E22DE2E2E2E2E2E2E2E2E2E2BEBEE2BEE2BEE2E2E2E2E2E2E22DE2E2E2E2E2E2E2
310
E2E2E2BEE2E2E2E2E2E2E2E2E2E22DE2E2E2E2E2E2E2E2E2E2E2C3E2E2E2E2E2E2E2E2E2E2E2E2E2F5F5EFE2E2E2E2E2E2E2E2E2E2E2E2E2C3E2E2E2E2E2E2E2E2E2DCDCDCE2E2E2E2E2E2BE2DE2E22D2D2DE2E22DBEBEBEE2E2E22D2DE2E2E2BEBEBEE2E2E2BEBEBEE2E2BEBEE2BEE2E2E22DE2E2E2E2BEBEE2E2E2E2E2E2
310
E2E2E2E2E2E2E2E2E2E2E2E22DE2E2E22DE2E2E2E22DE2E2E2E2E2E2E2E2E2E2BEBEE2E2BEE2E2E2E2E2E2E2E22DE2E2E2E2E2E2E2E2E2E2BEE2E2E2E2E2E2E2E2E2E22DE2E2E2E2E2E2E2E2E2E2E2C3E2E2E2E2E2E2E2E2E2E2E2E2E2F5F5EFE2E2E2E2E2E2E2E2E2E2E2E2E2C3E2E2E2E2E2E2E2E2E2DCDCDCE2E2E2E2E2
310
E2BE2DE2E22D2D2DE2E22DBEBEBEE2E2E22D2DE2E2E2BEBEBEE2E2E2BEE2BEE2E2BEBEE2BEE2E2E22DE2E2E2E2BEBEE2E2E2E2E2E2E2E2E2E2E2E2E2E2E2E2DCDC2DE2E2E22DE2E2E2E22DE2E2E2E2E2E2E2E2E2E2BEBEBEE2E2BEE2E2E2E2E2E2E22DE2E2E2E2E2E2E2E2E2E2BEE2E2E2E2E2E2E2E2E2E22DE2E2E2E2E2E2
310
E2E2E2E2E2C3E2E2E2E2E2E2E2E2E2E2E2E2E2F5F5EFE2E2E2E2E2E2E2E2E2E2E2E2E2C3E2E2E2E2E2E2E2E2E2DCDCDCE2E2E2E2E2E2BE2DE2E22D2D2DE2E22DBEBEBEE2E2E22D2DE2E2E2BEBEBEE2E2E2BEE2BEE2E2BEBEE2BEE2E2E22DE2E2E2E2BEBEE2E2E2E2E2E2E2E2E2E2E2E2E2E2E2E2DCDC2DE2E2E22DE2E2E2E2
310
2DE2E2E2E2E2E2E2E2E2E2BEBEE2BEBEE2E2E2E2E2E2E2E22DE2E2E2E2E2E2E2E2E2E2BEE2E2E2E2E2E2E2E2E2E22DE2E2E2E2E2E2E2E2E2E2E2C3E2E2E2E2E2E2E2E2E2E2E2E2E2F5F5EFE2E2E2E2E2E2E2E2E2E2E2E2E2C3E2E2E2E2E2E2E2E2E2DCDCDCE2E2E2E2E2E2BE2DE2E22D2D2DE2E22DBEBEBEE2E2E22D2DE2E2
310
E2BEBEBEE2E2E2BEE2BEE2E2BEBEE2BEE2E2E22DE2E2E2E2BEBEE2E2E2E2E2E2E2E2E2E2E2E2E2E2E2E2DCDC2DE2E2E22DE2E2E2E22DE2E2E2E2E2E2E2E2E2E2BEBEBEE2E2BEE2DCDCDCE2E2E22DE2E2E2E2E2E2E2E2E2E2BEE2E2E2E2E2E2E2E2E2E22DE2E2E2E2E2E2E2E2E2E2E2C3E2E2E2E2E2E2E2E2E2E2E2E2E2F5F5
310
EFE2E2E2E2E2E2E2E2E2E2E2E2E2C3E2E2E2E2E2E2E2E2E2DCDCDCE2E2E2E2E2E2BE2DE2E22D2D2DE2E22DBEBEBEE2E2E22D2DE2E2E2BEBEBEE2E2E2BEE2BEE2E2BEBEE2BEE2E2E22DE2E2E2E2BEBEE2E2E2E2E2E2E2E2E2E2E2E2E2E2E2E2DCDC2DE2E2E22DE2E2E2E22DE2E2E2E2E2E2E2E2E2E2BEBEE2BEBEE2E2DCDCDC
310
E2E2E22DE2E2E2E2E2E2E2E2E2E2BEE2E2E2E2E2E2E2E2E2E22DE2E2E2E2E2E2E2E2E2E2E2C3E2E2E2E2E2E2E2E2E2E2E2E2E2F5F5EFE2E2E2E2E2E2E2E2E2E2E2E2E2C3E2E2E2E2E2E2E2E2E2DCDCDCE2E2E2E2E2E2BE2DE2E22D2D2DE2E22DBEBEBEE2E2E22D2DE2E2E2BEBEBEE2E2E2BEE2BEE2E2BEBEE2BEE2E2E22DE2
310
E2E2E2BEBEE2E2E2E2E2E2E2E2E2E2E2E2E2E2E2E2DCDC2DE2E2E22DE2E2E2E22DE2E2E2E2E2E2E2E2E2E2BEBEBEE2E2BEE2DCDCDCE2E2E22DE2E2E2E2E2E2E2E2E2E2BEE2E2E2E2E2E2E2E2E2E22DE2E2E2E2E2E2E2E2E2E2E2C3E2E2E2E2E2E2E2E2E2E2E2E2E2F5F5EFE2E2E2E2E2E2E2E2E2E2E2E2E2C3E2E2E2E2E2E2
310
E2E2E2DCDCDCE2E2E2E2E2E2BE2DE2E22D2D2DE2E22DBEBEBEE2E2E22D2DE2E2E2BEBEBEE2E2E2BEE2BEE2E2BEBEE2BEE2E2E22DE2E2E2E2BEBEE2E2E2E2E2E2E2E2E2E2E2E2E2E2E2E2DCDC2DE2E2E22DE2E2E2E22DE2E2E2E2E2E2E2E2E2E2BEBEE2BEE2E2E2DCDCDCE2E2E22DE2E2E2E2E2E2E2E2E2E2BEE2E2E2E2E2E2
310
E2E2E2E22DE2E2E2E2E2E2E2E2E2E2E2C3E2E2E2E2E2E2E2E2E2E2E2E2E2F5F5EFE2E2E2F5E2E2E2E2E2E2E2E2E2C3E2E2E2E2E2E2E2E2E2DCDCDCE2E2E2E2E2E2BE2D2D2D2D2D2D2D2D2DBEBEBEE2E2E22D2DE2E2E2BEBEBEE2E2E2BEE2BEE2E2BEBEE2BEE2E2E22DE2E2E2E2BEBEE2E2E2E2E2E2E2E2E2E2E2E2E2E2E2E2
310
DCDC2DE2E2E22DE2E2E2E22DE2E2E2E2E2E2E2E2E2E2BEBEE2E2BEE2E2DCDCDCE2E2E22DE2E2E2E2E2E2E2E2E2E2BEE2E2E2E2E2E2E2E2E2E22DE2E2E2E2E2E2E2E2E2E2E2C3E2E2E2E2E2E2E2E2E2F5E2E2E2F5F5EFE2E2E2F5E2E2E2E2E2E2E2E2E2C3E2E2E2E2E2E2E2E2E2E22DE2E2E2E22DE2E2BE2D2D2D2D2D2D2D2D
310
2DBEBEBEE2E2E22D2DE2E2E2BEBEBEE2E2E2BEE2BEE2E2BEBEE2BEE2E2E22DE2E2E2E2BEBEE2E2E2E2E2E2E2E2E2E2E2E2E2E2E2E2DCDC2DE2E2E22DE2E2E2E22DE2E2E2E2E2E2E2E2E2E2BEBEBEE2E2BEE2DCDCDCE2E2E22DE2E2E2E2E2E2E2E2E2E2BEE2E2E2E2E2E2E2E2E2E22DE2E2E2E2E2E2E2E2E2E2E2C3E2E2E2E2
310
E2E2E2E2E2F5E2E2E2F5F5EFE2E2E2F5E2E2E2E2E2E2E2E2E2C3E2E2E2E2E2E2E2E2E2E22D2D2D2D2D2D2D2DBE2D2D2D2D2D2D2D2D2DBEBEBEE2E2E22D2DE2E2E2BEBEBEE2E2E2BEE2BEE2E2BEBEE2BEE2E2E22DE2E2E2E2BEBEE2E2E2E2E2E2E2E2E2E2E2E2E2E2E2E2E2E22DE2E2E22DE2E2E2E22DE2E2E2E2E2E2E2E2E2
310
E2BEBEE2BEBEE2E2DCDCDCE2E2E22DE2E2E2E2E2E2E2E2E2E2BEE2E2E2E2E2E2E2E2E2E22DE2E2E2E2E2E2E2E2E2E2E2C3E2E2E2E2E2E2E2E2E2F5E2E2E2F5F5EFE2E2E2F5E2E2E2E2E2E2E2E2E2C3E2E2E2E2E2E2E2E2E2E2E2E2E2E2E2E2E2E2BE2D2D2D2D2D2D2D2D2DBEBEBEE2E2E22D2DE2E2E2BEBEBEE2E2BEBEE2BE
310
E2E2BEBEE2BEE2E2E22DE2E2E2E2BEBEE2E2E2E2E2E2E2E2E2E2E2E2E2E2E2E2DCDC2DE2E2E22DE2E2E2E22DE2E2E2E2E2E2E2E2E2E2BEBEBEE2E2BEE2DCDCDCE2E2E22DE2E2E2E2E2E2E2E2E2E2BEE2E2E2E2E2E2E2E2E2E22DE2E2E2E2E2E2E2E2E2E2E2C3E2E2E2E2E2E2E2E2E2F5E2E2E2F5F5EFE2E2E2F5E2E2E2E2E2
310
E2E2E2E2C3E2E2E2E2E2E2E2E2E2E22D2D2D2D2D2D2D2DBE2D2D2D2D2D2D2D2D2DBEBEBEE2E2E22D2DE2E2E2BEBEBEE2E2BEBEE2BEE2E2BEBEE2BEE2E2E22DE2E2E2E2BEBEE2E2E2E2E2E2E2E2E2E2E2E2E2E2E2E2DCDC2DE2E2E22DE2E2E2E22DE2E2E2E2E2E2E2E2E2E2BEBEE2BEBEE2E2DCDCDCE2E2E22DE2E2E2E2E2E2
310
E2E2E2E2BEE2E2E2E2E2E2E2E2E2E22DE2E2E2E2E2E2E2E2E2E2E2C3E2E2E2E2E2E2E2E2E2F5E2E2E2F5F5EFE2E2E2F5E2E2E2E2E2E2E2E2E2C3E2E2E2E2E2E2E2E2E2E22DE2E2E2E22D2DE2BE2D2D2D2D2D2D2D2D2DBEBEBEE2E2E22D2DE2E2E2BEBEBEE2E2E2BEE2BEE2E2BEBEE2BEE2E2E22DE2E2E2E2BEBEE2E2E2E2E2
310
E2E2E2E2E2E2E2E2E2E2E2DCDC2DE2E2E22DE2E2E2E22DE2E2E2E2E2E2E2E2E2E2BEBEBEE2E2BEE2DCDCDCE2E2E22DE2E2E2E2E2E2E2E2E2E2BEE2E2E2E2E2E2E2E2E2E22DE2E2E2E2E2E2E2E2E2E2E2C3E2E2E2E2E2E2E2E2E2F5E2E2E2F5F5EFE2E2E2F5E2E2E2E2E2E2E2E2E2C3E2E2E2E2E2E2E2E2E2E2E2E2E2E2E2E2
310
E2E2BE2DE2E22D2D2DE2E22DBEBEBEE2E2E22D2DE2E2E2BEBEBEE2E2E2BEE2BEE2E2BEBEE2BEE2E2E22DE2E2E2E2BEBEE2E2E2E2E2E2E2E2E2E2E2E2E2E2E2E2DCDC2DE2E2E22DE2E2E2E22DE2E2E2E2E2E2E2E2E2E2BEBEE2BEBEE2E2DCDCDCE2E2E22DE2E2E2E2E2E2E2E2E2E2BEE2E2E2E2E2E2E2E2E2E22DE2E2E2E2E2
310
E2E2E2E2E2E2C3E2E2E2E2E2E2E2E2E2F5E2E2E2F5F5EFE2E2E2F5E2E2E2E2E2E2E2E2E2C3E2E2E2E2E2E2E2E2E2DCDCDCE2E2E2E2E2E2BE2DE2E22D2D2DE2E22DBEBEBEE2E2E22D2DE2E2E2BEBEBEE2E2E2BEE2BEE2E2BEBEE2BEE2E2E22DE2E2E2E2BEBEE2E2E2E2E2E2E2E2E2E2E2E2E2E2E2E2DCDC2DE2E2E22DE2E2E2
310
E22DE2E2E2E2E2E2E2E2E2E2BEBEBEE2E2BEE2E2E2E2E2E2E22DE2E2E2E2E2E2E2E2E2E2BEE2E2E2E2E2E2E2E2E2E22DE2E2E2E2E2E2E2E2E2E2E2C3E2E2E2E2E2E2E2E2E2F5E2E2E2F5F5EFE2E2E2F5E2E2E2E2E2E2E2E2E2C3E2E2E2E2E2E2E2E2E2DCDCDCE2E2E2E2E2E2BE2DE2E22D2D2DE2E22DBEBEBEE2E2E22D2DE2
310
E2E2BEBEBEE2E2E2BEE2BEE2E2BEBEE2BEE2E2E22DE2E2E2E2BEBEE2E2E2E2E2E2E2E2E2E2E2E2E2E2E2E2DCDC2DE2E2E22DE2E2E2E22DE2E2E2E2E2E2E2E2E2E2BEBEE2BEE2E2E2DCDCDCE2E2E22DE2E2E2E2E2E2E2E2E2E2BEE2E2E2E2E2E2E2E2E2E22DE2E2E2E2E2E2E2E2E2E2E2C3E2E2E2E2E2E2E2E2E2F5E2E2E2F5
310
F5EFE2E2E2F5E2E2E2E2E2E2E2E2E2C3E2E2E2E2E2E2E2E2E2DCDCDCE2E2E2E2E2E2BE2DE2E22D2D2DE2E22DBEBEBEE2E2E22D2DE2E2E2BEBEBEE2E2E2BEE2BEE2E2BEBEE2BEE2E2E22DE2E2E2E2BEBEE2E2E2E2E2E2E2E2E2E2E2E2E2E2E2E2DCDC2DE2E2E22DE2E2E2E22DE2E2E2E2E2E2E2E2E2E2BEBEE2E2BEE2E2DCDC
310
DCE2E2E22DE2E2E2E2E2E2E2E2E2E2BEE2E2E2E2E2E2E2E2E2E22DE2E2E2E2E2E2E2E2E2E2E2C3E2E2E2E2E2E2E2E2E2F5E2E2E2F5F5EFE2E2E2F5E2E2E2E2E2E2E2E2E2C3E2E2E2E2E2E2E2E2E2DCDCDCE2E2E2E2E2E2BE2DE2E22D2D2DE2E22DBEBEBEE2E2E22D2DE2E2E2BEBEBEE2E2E2BEE2BEE2E2BEBEE2BEE2E2E22D
310
E2E2E2E2BEBEE2E2E2E2E2E2E2E2E2E2E2E2E2E2E2E2E2E22DE2E2E22DE2E2E2E22DE2E2E2E2E2E2E2E2E2E2BEBEBEE2E2BEE2DCDCDCE2E2E22DE2E2E2E2E2E2E2E2E2E2BEE2E2E2E2E2E2E2E2E2E22DE2E2E2E2E2E2E2E2E2E2E2C3E2E2E2E2E2E2E2E2E2F5E2E2E2F5F5EFE2E2E2F5E2E2E2E2E2E2E2E2E2C3E2E2E2E2E2
310
E2E2E2E2DCDCDCE2E2E2E2E2E2BE2DE2E22D2D2DE2E22DBEBEBEE2E2E22D2DE2E2E2BEBEBEE2E2E2BEE2BEE2E2BEBEE2BEE2E2E22DE2E2E2E2BEBEE2E2E2E2E2E2E2E2E2E2E2E2E2E2E2E2E2E22DE2E2E22DE2E2E2E22DE2E2E2E2E2E2E2E2E2E2BEBEE2BEBEE2E2E2E2E2E2E2E22DE2E2E2E2E2E2E2E2E2E2BEE2E2E2E2E2
310
E2E2E2E2E22DE2E2E2E2E2E2E2E2E2E2E2C3E2E2E2E2E2E2E2E2E2F5E2E2E2F5F5EFE2E2E2F5E2E2E2E2E2E2E2E2E2C3E2E2E2E2E2E2E2E2E2DCDCDCE2E2E2E2E2E2BE2DE2E22D2D2DE2E22DBEBE2D2DE2E22D2DE2E22D2DBE2D2DE2E2BEE2BEBE2D2DBEE22DE2E2E22DE2E2E22D2DBEE2E2E2E2E2E2E2E2E2E2E2E2E2E2E2
310
E2E2E22DE2E2E22DE2E2E2E22DE2E2E2E2E22DE2E2E2E2BEBEBEE2E2BEE2DCDCDCE2E2E22DE2E2E2E22DE2E2E2E2E2BEE2E2E2E22DE2E2E2E2E22DE2E2E2E2E2E2E2E2E2E2E2C3E2E2E2E2E2E2E2E2E2F5E2E2E2F5F5EFE2E2E2F5E2E2E2E2E2E2E2E2E2C3E2E2E2E2E2E2E2E2E2DCDCDCE2E2E2E2E2E2BE2DE2E22D2D2DE2
310
E22DBEBEBEE2E2E22D2DE2E2E2BEBEBEE2E2E2BEE2BEE2E2BEBEE2BEE2E2E22DE2E2E2E2BEBEE2E2E2E2E2E2E2E2E2E2E2E2E2E2E2E2E2E22DE2E2E22D2DE2E2E22DE2E2E2E22D2DE2E2E2E2BEBEE2BEBEE2E2DCDCDCE2E2E22DE2E2E2E22D2DE2E2E2E2BEE2E2E2E22D2DE2E2E2E22DE2E2E2E2E2E2E2E2E2E2E2C3E2E2E2
310
E2E2E2E2E2E2F5E2E2E2F5F5EFE2E2E2E2E2E2E2E2E2E2E2E2E2C3E2E2E2E2E2E2E2E2E2DCE2DCE2E2E2E2E2E2BE2DE2E22D2D2DE2E22DBEBE2D2D2D2D2D2D2D2D2D2DBE2D2D2D2D2DBE2D2D2D2DBEE22D2D2D2D2D2D2D2D2D2DBEE2E2E2E2E2E2E2E2E2E2E2E2E2E2E2E2E2E22DE2E2E22D2DE2E2E22DE22DE2E2E2E2E2E2
310
E2E22DBEBEE2E2BEE2DCDCDCE2E2E22DE22DE2E2E2E2E2E2E2E22DE2E2E2E2E2E2E2E22DE22DE2E2E2E2E2E2E2E2E2E2E2C3E2E2E2E2E2E2E2E2E2E2E2E2E2F5F5EFE2E2E2E2E2E2E2E2E2E2E2E2E2C3E2E2E2E2E2E2E2E2E2E2DCDCE2E2E2E2E2E2BE2DE2E22D2D2DE2E22DBEBE2D2D2D2D2D2D2D2D2D2DBE2D2D2D2D2DBE
310
2D2D2D2DBEE22D2D2D2D2D2D2D2D2D2DBEE2E2E2E2E2E2E2E2E2E2E2E2E2E2E2E2E2E22DE2E22D2D2D2D2D2D2DE22D2D2D2D2D2D2D2D2D2DBEE2BEE2E2E2DCDCDCE2E2E22DE22D2D2D2D2D2D2D2D2D2D2D2D2D2D2D2D2D2D2DE22DE2E2E2E2E2E2E2E2E2E2E2C3E2E2E2E2E2E2E2E2E2E2E2E2E2F5F5EFE2E2E2E2E2E2E2E2
310
E2E2E2E2E2C3E2E2E2E2E2E2E2E2E2DCDCDCE2E2E2E2E2E2BE2DE2E22D2D2DE2E22DBEBEBEE2E2E22D2DE2E2E2BEBEBEE2E2E2BEE2BEE2E2BEBEE2BEE2E2E22DE2E2E2E2BEBEE2E2E2E2E2E2E2E2E2E2E2E2E2E2E2E2E2E22DE2E2E22DE2E2E2E22DE2E2E2E2E2E2E2E2E2E2BEBEBEE2BEE2E2DCDCDCE2E2E22DE2E2E2E2E2
310
E2E2E2E2E2BEE2E2E2E2E2E2E2E2E2E22DE2E2E2E2E2E2E2E2E2E2E2C3E2E2E2E2E2E2E2E2E2E2E2E2E2F5F5EFE2E2E2E2E2E2E2E2E2E2E2E2E2C3E2E2E2E2E2E2E2E2E2E2E2E2E2E2E2E2E2E2BE2DE2E22D2D2DE2E22DBEBEBEE2E2E22D2DE2E2E2BEBEBEE2E2E2BEE2BEE2E2BEBEE2BEE2E2E22DE2E2E2E2BEBEE2E2E2E2
310
E2E2E2E2E2E2E2E2E2E2E2E2E2E22DE2E2E22D2DE2E2E22DE2E2E2E2E2E2E2E2E2E2BEBEE2BEE2BEE2DCDCDCE2E2E22DE2E2E2E2E2E2E2E2E2E2BEE2E2E2E2E2E2E2E2E2E22DE2E2E2E2E2E2E2E2E2E2E2C3E2E2E2E2E2E2E2E2E2E2E2E2E2F5F5EFE2E2E2E2E2E2E2E2E2E2E2E2E2C3E2E2E2E2E2E2E2E2E2DCDCDCE2E2E2
310
E2E2E2BE2DE2E22D2D2DE2E22DBEBEBEE2E2E22D2DE2E2E2BEBEBEE2E2E2BEE2BEE2E2BEBEE2BEE2E2E22DE2E2E2E2BEBEE2E2E2E2E2E2E2E2E2E2E2E2E2E2E2E2E2E22DE2E2E22D2DE2E2E22DE2E2E2E2E2E2E2E2E2E2BEBEE2E2BEE2E2DCDCDCE2E2E22DE2E2E2E2E2E2E2E2E2E2BEE2E2E2E2E2E2E2E2E2E22DE2E2E2E2
310
E2E2E2E2E2E2E2C3E2E2E2E2E2E2E2E2E2E2E2E2E2F5F5EFE2E2E2E2E2E2E2E2E2E2E2E2E2C3E2E2E2E2E2E2E2E2E2DCDCDCE2E2E2E2E2E2BE2DE2E22D2D2DE2E22DBEBEBEE2E2E22D2DE2E2E2BEBEBEE2E2E2BEE2BEE2E2BEBEE2BEE2E2E22DE2E2E2E2BEBEE2E2E2E2E2E2E2E2E2E2E2E2E2E2E2E2E2E22DE2E2E22DE2E2
310
E2E22DE2E2E2E2E2E2E2E2E2E2BEBEBEE2E2BEE2DCDCDCE2E2E22DE2E2E2E2E2E2E2E2E2E2BEE2E2E2E2E2E2E2E2E2E22DE2E2E2E2E2E2E2E2E2E2E2C3E2E2E2E2E2E2E2E2E2E2E2E2E2F5F5EFE2E2E2E2E2E2E2E2E2E2E2E2E2C3E2E2E2E2E2E2E2E2E2DCDCE2E2E2E2E2E2E2BE2DE2E22D2D2DE2E22DBEBEBEE2E2E22D2D
310
E2E2E2BEBEBEE2E2E2BEE2BEE2E2BEBEE2BEE2E2E22DE2E2E2E2BEBEE2E2E2E2E2E2E2E2E2E2E2E2E2E2E2E2E2E22DE2E2E22DE2E2E2E22DE2E2E2E2E2E2E2E2E2E2BEBEE2BEBEE2E2DCDCDCE2E2E22DE2E2E2E2E2E2E2E2E2E2BEE2E2E2E2E2E2E2E2E2E22DE2E2E2E2E2E2E2E2E2E2E2C3E2E2E2E2E2E2E2E2E2E2E2E2E2
310
F5F5EFE2E2E2E2E2E2E2E2E2E2E2E2E2C3E2E2E2E2E2E2E2E2E2DCDCDCE2E2E2E2E2E2BE2D2D2D2D2D2D2D2D2DBEBEBEE2E2E22D2DE2E2E2BEBEBEE2E2E2BEE2BEE2E2BEBEE2BEE2E2E22DE2E2E2E2BEBEE2E2E2E2E2E2E2E2E2E2E2E2E2E2E2E2E2E22DE2E2E22DE2E2E2E22DE2E2E2E2E2E2E2E2E2E2BEBEBEE2E2BEE2E2
310
2DE2E2E2E22DE2E2E2E2E2E2E2E2E2E2BEE2E2E2E2E2E2E2E2E2E22DE2E2E2E2E2E2E2E2E2E2E2C3E2E2E2E2E2E2E2E2E2E2E2E2E2F5F5EFE2E2E2F5E2E2E2E2E2E2E2E2E2C3E2E2E2E2E2E2E2E2E2E2DCDCE2E2E2E2E2E2BE2D2D2D2D2D2D2D2D2DBEBEBEE2E2E22D2DE2E2E2BEBEBEE2E2E2BEE2BEE2E2BEBEE2BEE2E2E2
310
2DE2E2E2E2BEBEE2E2E2E2E2E2E2E2E2E2E2E2E2E2E2E2E2E22DE2E2E22DE2E2E2E22DE2E2E2E2E2E2E2E2E2E2BEBEE2BEBEE2E2E22DE2E2E2E22DE2E2E2E2E2E2E2E2E2E2BEE2E2E2E2E2E2E2E2E2E22DE2E2E2E2E2E2E2E2E2E2E2C3E2E2E2E2E2E2E2E2E2F5E2E2E2F5F5EFE2E2E2F5E2E2E2E2E2E2E2E2E2C3E2E2E2E2
310
E2E2E2E2E2E2E2E2E2E2E2E2E2E2BE2D2D2D2D2D2D2D2D2DBEBEBEE2E2E22D2DE2E2E2BEBEBEE2E2E2BEE2BEE2E2BEBEE2BEE2E2E22DE2E2E2E2BEBEE2E2E2E2E2E2E2E2E2E2E2E2E2E2E2E2E2E22DE2E2E22DE2E2E2E22DE2E2E2E2E2E2E2E2E2E2BEBEBEE2E2BEE2E22DE2E2E2E22DE2E2E2E2E2E2E2E2E2E2BEE2E2E2E2
310
E2E2E2E2E2E22DE2E2E2E2E2E2E2E2E2E2E2C3E2E2E2E2E2E2E2E2E2F5E2E2E2F5F5EFE2E2E2F5E2E2E2E2E2E2E2E2E2C3E2E2E2E2E2E2E2E2E2E2E2E2E2E2E2E2E2E2BE2D2D2D2D2D2D2D2D2DBEBEBEE2E22D2D2D2DE2E2BEBEBEE2E2E2BEE2BEE2E2BEBEE2BEE2E2E22DE2E2E2E2BEBEE2E2E2E2E2E2E2E2E2E2E2E2E2E2
310
E2E2E2E22DE2E2E22DE2E2E2E22DE2E2E2E2E2E2E2E2E22DBEBE2DBE2D2D2D2D2DE2E2E2E22DE2E2E2E2E2E2E2E2E2E2BEE2E2E2E2E2E2E2E2E2E22DE2E2E2E2E2E2E2E2E2E2E2C3E2E2E2E2E2E2E2E2E2F5E2E2E2F5F5EFE2E2E2F5E2E2E2E2E2E2E2E2E2C3E2E2E2E2E2E2E2E2E2E2E2E2E2E2E2E2E2E2BE2D2D2D2D2D2D
310
2D2D2DBEBEBEE2E22DE2E22DE2E2BEBEBEE2E2BEBEE2BEE2E2BEBEE2BEE2E2E22DE2E2E2E2BEBEE2E2E2E2E2E2E2E2E2E2E2E2E2E2E2E2E2E22DE2E2E22DE2E2E2E22DE2E2E2E2E2E2E2E2E2E2BEBEBEE2BEE22D2DE2E2E2E2E22DE2E2E2E2E2E2E2E2E2E2BEE2E2E2E2E2E2E2E2E2E22DE2E2E2E2E2E2E2E2E2E2E2C3E2E2
310
E2E2E2E2E2E2E2F5E2E2E2F5F5EFE2E2E2F5E2E2E2E2E2E2E2E2E2C3E2E2E2E2E2E2E2E2E2E2E2E2E2E2E2E2E2E2BE2DE2E22D2D2DE2E22DBEBEBEE2E22DE2E22DE2E2BEBEBEE2E2E2BEE2BEE2E2BEBEE2BEE2E2E22DE2E2E2E2BEBEE2E2E2E2E2E2E2E2E2E2E2E2E2E2E2E2E2E22DE2E2E22DE2E2E2E22DE2E2E2E2E2E2E2
310
E2E2E2BEBEE2BEE2BEE2E2E2E2E2E2E22DE2E2E2E2E2E2E2E2E2E2BEE2E2E2E2E2E2E2E2E2E22DE2E2E2E2E2E2E2E2E2E2E2C3E2E2E2E2E2E2E2E2E2F5E2E2E2F5F5EFE2E2E2F5E2E2E2E2E2E2E2E2E2C3E2E2E2E2E2E2E2E2E2E2E2E2E2E2E2E2E2E2BE2D2D2D2D2D2D2D2D2DBEBEBEE2E22D2D2D2DE2E2BEBEBEE2E2BEBE
310
E2BEE2E2BEBEE2BEE2E2E22DE2E2E2E2BEBEE2E2E2E2E2E2E2E2E2E2E2E2E2E2E2E2E2E22DE2E2E22D2DE2E2E22D2DE2E2E2E2E2E2E2E2E2BEBEE2E2BEE2E2E2E2E2E2E2E22D2DE2E2E2E2E2E2E2E2E2BEE2E2E2E2E2E2E2E2E22D2DE2E2E2E2E2E2E2E2E2E2E2C3E2E2E2E2E2E2E2E2E2F5E2E2E2F5F5EFE2E2E2F5E2E2E2
310
E2E2E2E2E2E2C3E2E2E2E2E2E2E2E2E2E2E2E2E2E2E2E2E2E2BEBEBEBEBE2D2DBEBEBEBEBEBEBEBEBE2D2DBEBEBEBEBEBEBEBEBEBEE2BEBEBEBEBEE2BEBEBEBE2DBEBEBEBEBEBEE2E2E2E2E2E2E2E2E2E2E2E2E2E2E2E2E2E22DE2E2E22D2DE2E2E2BEBEE2E2BEBEBEBEBEBEBEBEBEBEE2E2BEE2E2E2E2E2E2E2BEBEE2BEBE
310
BEBEBEBEBEBEBEBEBEBEBEBEBEBEBEE2BEBEE2E2E2E2E2E2E2E2E2E2E2C3E2E2E2E2E2E2E2E2E2F5E2E2E2F5F5EFE2E2E2F5E2E2E2E2E2E2E2E2E2C3E2E2E2E2E2E2E2E2E2E2E2E2E2E2E2E2E2E2BEBEBEBEBEBEBEBEBEBEBEBEBEBEBEBEBEBEBEBEBEBEBEBEBEBEBEBEE2BEBEBEBEBEBEBEBEBEBEBEBEBEBEBEBEBEE2E2E2
310
E2E2E2E2E2E2E2E2E2E2E2E2E2E22D2D2D2D2D2D2D2D2D2DBEBEBEBEBEBEBEBEBEBEBEBEBEE2BEBEE2E2E2E2E2E2E2E2BEBEBEBEBEBEBEBEBEBEBEBEBEBEBEBEBEBEBEBEBEBEBEE2E2E2E2E2E2E2E2E2E2E2C3E2E2E2E2E2E2E2E2E2F5E2E2E2F5F5EFE2E2E2F5E2E2E2E2E2E2E2E2E2C3E2E2E2E2E2E2E2E2E2E2E2E2E2E2
310
E2E2E2E2E2E2E2E2E2E2E2E2E2E2E2E2E2E2E2E22DE2E2E2E2E2E2E2E2E2E2BEE2BEE2E2E2E2E2E2E2E2E2E2E2E2E2E2E2E2E2E2E2E2E2E2E2E2E2E2E2E2E2E2E2E2E2E2E2E2E2E2E2E2E2E2E2E2E2E2E2E2E2E2E2E2E2E2E2BEBEE2E2BEE2E2E2E2E2E2E2E2E2E2E2E2E2E2E2E2E2E2E2E2E2E2E2E2E2E2E2E2E2E2E2E2E2
310
E2E2E2E2E2E2E2E2C3E2E2E2E2E2E2E2E2E2F5E2E2E2F5F5EFE2E2E2F5E2E2E2E2E2E2E2E2E2C3E2E2E2E2E2E2E2E2E2E2E2E2E2E2E2E2E2E2E2E2E2E2E2E2E2E2E2E2E2E2E2E2E2E2E2E2E2E2E2E2E2E2E2E2E2BEE2BEE2E2E2E2E2E2E2E2E2E2E2E2E2E2E2E2E2E2E2E2E2E2E2E2E2E2E2E2E2E2E2E2E2E2E2E2E2E2E2E2
310
E2E2E2E2E2E2E2E2E2E2E2E2E2E2E2BEE2BEBEE2E2E2E2E2E2E2E2E2E2E2E2E2E2E2E2E2E2E2E2E2E2E2E2E2E2E2E2E2E2E2E2E2E2E2E2E2E2E2E2E2E2C3E2E2E2E2E2E2E2E2E2F5E2E2E2F5F5EFE2E2E2F5E2E2E2E2E2E2E2E2E2C3E2E2E2E2E2E2E2E2E2E2E2E2E2E2E2E2E2E2E2E2E2E2E2E2E2E2E2E2E2E2E2E2E2E2E2
310
E2E2E2E2E2E2E2E2E2E2E2E2E2E2E2E2E2E2E2E2E2E2E2E2E2E2E2E2E2E2E2E2E2E2E2E2E2E2E2E2E2E2E2E2E2E2E2E2E2E2E2E2E2E2E2E2E2E2E2E2E2E2E2E2E2E2E2E2BEBEE2E2BEE2E2E2E2E2E2E2E2E2E2E2E2E2E2E2E2E2E2E2E2E2E2E2E2E2E2E2E2E2E2E2E2E2E2E2E2E2E2E2E2E2C3E2E2E2E2E2E2E2E2E2F5E2E2
310
E2F5F5EFE2E2E2F5E2E2E2E2E2E2E2E2E2C3E2E2E2E2E2E2E2E2E2E2E2E2E2E2E2E2E2E2E2E2E2E2E2E2E2E2E2E2E2E2E2E2E2E2E2E2E2E2E2E2E2E2E2E2E2E2E2E2E2E2E2E2E2E2E2E2E2E2E2E2E2E2E2E2E2E2E2E2E2E2E2E2E2E2E2E2E2E2E2E2E2E2E2E2E2E2E2E2E2E2E2E2E2E2E2E2E2E2E2E2E2E2E2BEE2BEE2E2E2
310
E2E2E2E2E2E2E2E2E2E2E2E2E2E2E2E2E2E2E2E2E2E2E2E2E2E2E2E2E2E2E2E2E2E2E2E2E2E2E2E2C3E2E2E2E2E2E2E2E2E2F5E2E2E2F5F5EFE2E2E2F5E2E2E2E2E2E2E2E2E2C3E2E2E2E2E2E2E2E2E2E2E2E2E2E2E2E2E2E2E2E2E2E2E2E2E2E2E2E2E2E2E2E2E2E2E2E2E2E2E2E2E2E2E2E2E2E2E2E2E2E2E2E2E2E2E2E2
310
E2E2E2E2E2E2E2E2E2E2E2E2E2E2E2E2E2E2E2E2E2E2E2E2E2E2E2E2E2E2E2E2E2E2E2E2E2E2E2E2E2E2E2E2E2E2E2BEE2E2BEE2E2E2E2E2E2E2E2E2E2E2E2E2E2E2E2E2E2E2E2E2E2E2E2E2E2E2E2E2E2E2E2E2E2E2E2E2E2E2E2E2E2C3E2E2E2E2E2E2E2E2E2F5E2E2E2F5F5EFE2E2E2F5E2E2E2E2E2E2E2E2E2C3E2E2E2
310
E2E2E2E2E2E2E2E2E2E2E2E2E2E2E2E2E2E2E2E2E2E2E2E2E2E2E2E2E2E2E2E2E2E2E2E2E2E2E2E2E2E2E2E2E2E2E2E2E2E2E2E2E2E2E2E2E2E2E2E2E2E2E2E2E2E2E2E2E2E2E2E2E2E2E2E2E2E2E2E2E2E2E2E2E2E2E2E2E2E2E2E2E2E2E2E2E2E2E2E2BEBEBEE2BEE2E2E2E2E2E2E2E2E2E2E2E2E2E2E2E2E2E2E2E2E2E2
310
E2E2E2E2E2E2E2E2E2E2E2E2E2E2E2E2E2E2E2C3E2E2E2E2E2E2E2E2E2F5E2E2E2F5F5EFE2E2E2F5E2E2E2E2E2E2E2E2E2C3E2E2E2E2E2E2E2E2E2E2E2E2E2E2E2E2E2E2E2E2E2E2E2E2E2E2E2E2E2E2E2E2E2E2E2E2E2E2E2E2E2E2E2E2E2E2E2E2E2E2E2E2E2E2E2E2E2E2E2E2E2E2E2E2E2E2E2E2E2E2E2E2E2E2E2E2E2
310
E2E2E2E2E2E2E2E2E2E2E2E2E2E2E2E2E2E2E2E2E2E2E2E2E2E2BEE2E2BEE2E2E2E2E2E2E2E2E2E2E2E2E2E2E2E2E2E2E2E2E2E2E2E2E2E2E2E2E2E2E2E2E2E2E2E2E2E2E2E2E2E2C3E2E2E2E2E2E2E2E2E2F5E2E2E2F5F5EFE2E2E2E2E2E2E2E2E2E2E2E2E2C3E2E2E2E2E2E2E2E2E2E2E2E2E2E2E2E2E2E2E2E2E2E2E2E2
310
E2E2E2E2E2E2E2E2E2E2E2E2E2E2E2E2E2E2E2E2E2E2E2E2E2E2E2E2E2E2E2E2E2E2E2E2E2E2E2E2E2E2E2E2E2E2E2E2E2E2E2E2E2E2E2E2E2E2E2E2E2E2E2E2E2E2E2E2E2E2E2E2E2E2E2E2E2E2E2E2E2E2E2E2E2E2E2E2E2E2E2E2E2E2E2E2E2E2E2E2E2E2E2E2E2E2E2E2E2E2E2E2E2E2E2E2E2E2E2E2E2E2E2E2E2C3E2
310
E2E2E2E2E2E2E2E2E2E2E2E2F5F5EFE2E2E2E2E2E2E2E2E2E2E2E2E2C3E2E2E2E2E2E2E2E2E2E2E2E2E2E2E2E2E2E2E2E2E2E2E2E2E2E2E2E2E2E2E2E2E2E2E2E2E2E2E2E2E2E2E2E2E2E2E2E2E2E2E2E2E2E2E2E2E2E2E2E2E2E2E2E2E2E2E2E2E2E2E2E2E2E2E2E2E2E2E2E2E2E2E2E2E2E2E2E2E2E2E2E2E2E2E2E2E2E2
310
E2E2E2E2E2E2E2E2E2E2E2E2E2E2E2E2E2E2E2E2E2E2E2E2E2E2E2E2E2E2E2E2E2E2E2E2E2E2E2E2E2E2E2E2E2E2E2E2E2E2E2C3E2E2E2E2E2E2E2E2E2E2E2E2E2F5F5EFE2E2E2E2E2E2E2E2E2E2E2E2E2C3E2E2E2E2E2E2E2E2E2E2E2E2E2E2E2E2E2E2E2E2E2E2E2E2E2E2E2E2E2E2E2E2E2E2E2E2E2E2E2E2E2E2E2E2E2
310
E2E2E2E2E2E2E2E2E2E2E2E2E2E2E2E2E2E2E2E2E2E2E2E2E2E2E2E2E2E2E2E2E2E2E2E2E2E2E2E2E2E2E2E2E2E2E2E2E2E2E2E2E2E2E2E2E2E2E2E2E2E2E2E2E2E2E2E2E2E2E2E2E2E2E2E2E2E2E2E2E2E2E2E2E2E2E2E2E2E2E2E2E2E2E2E2E2E2E2E2E2E2E2E2C3E2E2E2E2E2E2E2E2E2E2E2E2E2F5F5EFE2E2E2E2E2E2
310
E2E2E2E2E2E2E2C3E2E2E2E2E2E2E2E2E2E2E2E2E2E2E2E2E2E2E2E2E2E2E2E2E2E2E2E2E2E2E2E2E2E2E2E2E2E2E2E2E2E2E2E2E2E2E2E2E2E2E2E2E2E2E2E2E2E2E2E2E2E2E2E2E2E2E2E2E2E2E2E2E2E2E2E2E2E2E2E2E2E2E2E2E2E2E2E2E2E2E2E2E2E2E2E2E2E2E2E2E2E2E2E2E2E2E2E2E2E2E2E2E2E2E2E2E2E2E2
310
E2E2E2E2E2E2E2E2E2E2E2E2E2E2E2E2E2E2E2E2E2E2E2E2E2E2E2E2E2E2C3E2E2E2E2E2E2E2E2E2E2E2E2E2F5F5EFE2E2E2E2E2E2E2E2E2E2E2E2E2C3E2E2E2E2E2E2E2E2E2E2E2E2E2E2E2E2E2E2E2E2E2E2E2E2E2E2E2E2E2E2E2E2E2E2E2E2E2E2E2E2E2E2E2E2E2E2E2E2E2E2E2E2E2E2E2E2E2E2E2E2E2E2E2E2E2E2
310
E2E2E2E2E2E2E2E2E2E2E2E2E2E2E2E2E2E2E2E2E2E2E2E2E2E2E2E2E2E2E2E2E2E2E2E2E2E2E2E2E2E2E2E2E2E2E2E2E2E2E2E2E2E2E2E2E2E2E2E2E2E2E2E2E2E2E2E2E2E2E2E2E2E2E2E2E2E2E2E2E2E2E2C3E2E2E2E2E2E2E2E2E2E2E2E2E2F5F5EFE2E2E2E2E2E2E2E2E2E2E2E2E2C3E2E2E2E2E2E2E2E2E2E2E2E2E2
310
E2E2E2E2E2E2E2E2E2E2E2E2E2E2E2E2E2E2E2E2E2E2E2E2E2E2E2E2E2E2E2E2E2E2E2E2E2E2E2E2E2E2E2E2E2E2E2E2E2E2E2E2E2E2E2E2E2E2E2E2E2E2E2E2E2E2E2E2E2E2E2E2E2E2E2E2E2E2E2E2E2E2E2E2E2E2E2E2E2E2E2E2E2E2E2E2E2E2E2E2E2E2E2E2E2E2E2E2E2E2E2E2E2E2E2E2E2E2E2E2E2E2E2E2E2E2E2
310
E2E2E2E2E2E2E2E2E2C3E2E2E2E2E2E2E2E2E2E2E2E2E2F5F5EFE2E2E2E2E2E2E2E2E2E2E2E2E2C3BEBEBEBEBEBEBEBEBEBEBEBEBEBEBEBEBEBEBEBEBEBEBEBEBEBEBEBEBEBEBEBEBEBEBEBEBEBEBEBEBEBEBEBEBEBEBEBEBEBEBEBEBEBEBEBEBEBEBEBEBEBEBEBEBEBEBEBEBEBEBEBEBEBEBEBEBEBEBEBEBEBEBEBEBEBEBE
310
BEBEBEBEBEBEBEBEBEBEBEBEBEBEBEBEBEBEBEBEBEBEBEBEBEBEBEBEBEBEBEBEBEBEBEBEBEBEBEBEBEBEBEBEBEBEBEBEBEBEBEBEBEBEBEBEBEBEBEBEBEBEC3E2E2E2E2E2E2E2E2E2E2E2E2E2F5F5EFE2E2E2E2E2E2E2E2E2E2E2E2E2C3E2E2E2E2E2E2E2E2E2E2E2E2E2E2E2E2E2E2E2E2E2E2E2E2E2E2E2E2E2E2E2E2E2E2
310
E2E2E2E2E2E2E2E2E2E2E2E2E2E2E2E2E2E2E2E2E2E2E2E2E2E2E2E2E2E2E2E2E2E2E2E2E2E2E2E2E2E2E2E2E2E2E2E2E2E2E2E2E2E2E2E2E2E2E2E2E2E2E2E2E2E2E2E2E2E2E2E2E2E2E2E2E2E2E2E2E2E2E2E2E2E2E2E2E2E2E2E2E2E2E2E2E2E2E2E2E2E2E2E2E2E2E2E2E2E2E2E2E2E2E2C3E2E2E2E2E2E2E2E2E2E2E2
310
E2E2F5F5EFE2E2E2F5E2E2E2E2E2E2E2E2E2C3E2E2E2E2E2E2E2E2E2E2E2E2E2E2E2E2E2E2E2E2E2E2E2E2E2E2E2E2E2E2E2E2E2E2E2E2E2E2E2E2E2E2E2E2E2E2E2E2E2E2E2E2E2E2E2E2E2E2E2E2E2E2E2E2E2E2E2E2E2E2E2E2E2E2E2E2E2E2E2E2E2E2E2E2E2E2E2E2E2E2E2E2E2E2E2E2E2E2E2E2E2E2E2E2E2E2E2E2
310
E2E2E2E2E2E2E2E2E2E2E2E2E2E2E2E2E2E2E2E2E2E2E2E2E2E2E2E2E2E2E2E2E2E2E2E2E2E2E2E2E2C3E2E2E2E2E2E2E2E2E2F5E2E2E2F5F5EFE2E2E2F5E2E2E2E2E2E2E2E2E2C3E2E2E2E2E2E2E2E2E2E2E2E2E2E2E2E2E2E2E2E2E2E2E2E2E2E2E2E2E2E2E2E2E2E2E2E2E2E2E2E2E2E2E2E2E2E2E2E2E2E2E2E2E2E2E2
310
E2E2E2E2E2E2E2E2E2E2E2E2E2E2E2E2E2E2E2E2E2E2E2E2E2E2E2E2E2E2E2E2E2E2E2E2E2E2E2E2E2E2E2E2E2E2E2E2E2E2E2E2E2E2E2E2E2E2E2E2E2E2E2E2E2E2E2E2E2E2E2E2E2E2E2E2E2E2E2E2E2E2E2E2E2E2E2E2E2E2E2E2E2E2C3E2E2E2E2E2E2E2E2E2F5E2E2E2F5F5EFE2E2E2F5E2E2E2E2E2E2E2E2E2C3E2E2
310
E2E2E2E2E2E2E2E2E2E2E2E2E2E2E2E2E2E2E2E2E2E2E2E2E2E2E2E2E2E2E2E2E2E2E2E2E2E2E2E2E2E2E2E2E2E2E2E2E2E2E2E2E2E2E2E2E2E2E2E2E2E2E2E2E2E2E2E2E2E2E2E2E2E2E2E2E2E2E2E2E2E2E2E2E2E2E2E2E2E2E2E2E2E2E2E2E2E2E2E2E2E2E2E2E2E2E2E2E2E2E2E2E2E2E2E2E2E2E2E2E2E2E2E2E2E2E2
310
E2E2E2E2E2E2E2E2E2E2E2E2E2E2E2E2E2E2E2E2C3E2E2E2E2E2E2E2E2E2F5E2E2E2F5F5EFE2E2E2F5E2E2E2E2E2E2E2E2E2C3E2E2E2E2E2E2E2E2E2E2E2E2E2E2E2E2E2E2E2E2E2E2E2E2E2E2E2E2E2E2E2E2E2E2E2E2E2E2E2E2E2E2E2E2E2E2E2E2E2E2E2E2E2E2E2E2E2E2E2E2E2E2E2E2E2E2E2E2E2E2E2E2E2E2E2E2
310
E2E2E2E2E2E2E2E2E2E2E2E2E2E2E2E2E2E2E2E2E2E2E2E2E2E2E2E2E2E2E2E2E2E2E2E2E2E2E2E2E2E2E2E2E2E2E2E2E2E2E2E2E2E2E2E2E2E2E2E2E2E2E2E2E2E2E2E2E2E2E2E2E2C3E2E2E2E2E2E2E2E2E2F5E2E2E2F5F5EFE2E2E2F5E2E2E2E2E2E2E2E2E2C3E2E2E2E2E2E2E2E2E2E2E2E2E2E2E2E2E2E2E2E2E2E2E2
310
E2E2E2E2E2E2E2E2E2E2E2E2E2E2E2E2E2E2E2E2E2E2E2E2E2E2E2E2E2E2E2E2E2E2E2E2E2E2E2E2E2E2E2E2E2E2E2E2E2E2E2E2E2E2E2E2E2E2E2E2E2E2E2E2E2E2E2E2E2E2E2E2E2E2E2E2E2E2E2E2E2E2E2E2E2E2E2E2E2E2E2E2E2E2E2E2E2E2E2E2E2E2E2E2E2E2E2E2E2E2E2E2E2E2E2E2E2E2E2E2E2E2E2E2E2E2C3
310
E2E2E2E2E2E2E2E2E2F5E2E2E2F5F5EFE2E2E2F5E2E2E2E2E2E2E2E2E2C3E2E2E2E2E2E2E2E2E2E2E2E2E2E2E2E2E2E2E2E2E2E2E2E2E2E2E2E2E2E2E2E2E2E2E2E2E2E2E2E2E2E2E2E2E2E2E2E2E2E2E2E2E2E2E2E2E2E2E2E2E2E2E2E2E2E2E2E2E2E2E2E2E2E2E2E2E2E2E2E2E2E2E2E2E2E2E2E2E2E2E2E2E2E2E2E2E2
310
E2E2E2E2E2E2E2E2E2E2E2E2E2E2E2E2E2E2E2E2E2E2E2E2E2E2E2E2E2E2E2E2E2E2E2E2E2E2E2E2E2E2E2E2E2E2E2E2E2E2E2E2C3E2E2E2E2E2E2E2E2E2F5E2E2E2F5F5EFE2E2E2F5E2E2E2E2E2E2E2E2E2C3E2E2E2E2E2E2E2E2E2E2E2E2E2E2E2E2E2E2E2E2E2E2E2E2E2E2E2E2E2E2E2E2E2E2E2E2E2E2E2E2E2E2E2E2
310
E2E2E2E2E2E2E2E2E2E2E2E2E2E2E2E2E2E2E2E2E2E2E2E2E2E2E2E2E2E2E2E2E2E2E2E2E2E2E2E2E2E2E2E2E2E2E2E2E2E2E2E2E2E2E2E2E2E2E2E2E2E2E2E2E2E2E2E2E2E2E2E2E2E2E2E2E2E2E2E2E2E2E2E2E2E2E2E2E2E2E2E2E2E2E2E2E2E2E2E2E2E2E2E2E2C3E2E2E2E2E2E2E2E2E2F5E2E2E2F5F5EFE2E2E2F5F5
310
F5F5F5F5F5F5E2E2C3C3C3C3C3C3C3C3C3C3C3C3C3C3C3C3C3C3C3C3C3C3C3C3C3C3C3C3C3C3C3C3C3C3C3C3C3C3C3C3C3C3C3C3C3C3C3C3C3C3C3C3C3C3C3C3C3C3C3C3C3C3C3C3C3C3C3C3C3C3C3C3C3C3C3C3C3C3C3C3C3C3C3C3C3C3C3C3C3C3C3C3C3C3C3C3C3C3C3C3C3C3C3C3C3C3C3C3C3C3C3C3C3C3C3C3C3C3C3
310
C3C3C3C3C3C3C3C3C3C3C3C3C3C3C3C3C3C3C3C3C3C3C3C3C3C3C3C3C3C3C3C3E2E2F5F5F5F5F5F5F5F5E2E2E2F5F5EFE2E2E2E2E2E2E2E2E2E2E2E2E2E2E2E2E2E2E2E2E2E2E2E2E2E2E2E2E2E2E2E2E2E2E2E2E2E2E2E2E2E2E2E2E2E2E2E2E2E2E2E2E2E2E2E2E2E2E2E2E2E2E2E2E2E2E2E2E2E2E2E2E2E2E2E2E2E2E2
310
E2E2E2E2E2E2E2E2E2E2E2E2E2E2E2E2E2E2E2E2E2E2E2E2E2E2E2E2E2E2E2E2E2E2E2E2E2E2E2E2E2E2E2E2E2E2E2E2E2E2E2E2E2E2E2E2E2E2E2E2E2E2E2E2E2E2E2E2E2E2E2E2E2E2E2E2E2E2E2E2E2E2E2E2E2E2E2E2E2E2E2E2E2E2E2E2E2E2F5F5EFE2E2E2E2E2E2E2E2E2E2E2E2E2E2E2E2E2E2E2E2E2E2E2E2E2E2
310
E2E2E2E2E2E2E2E2E2E2E2E2E2E2E2E2E2E2E2E2E2E2E2E2E2E2E2E2E2E2E2E2E2E2E2E2E2E2E2E2E2E2E2E2E2E2E2E2E2E2E2E2E2E2E2E2E2E2E2E2E2E2E2E2E2E2E2E2E2E2E2E2E2E2E2E2E2E2E2E2E2E2E2E2E2E2E2E2E2E2E2E2E2E2E2E2E2E2E2E2E2E2E2E2E2E2E2E2E2E2E2E2E2E2E2E2E2E2E2E2E2E2E2E2E2E2E2
310
E2E2E2E2E2E2E2E2E2E2E2E2E2E2E2E2E2E2E2E2E2E2E2E2F5F5EFE2E2E2E2E2E2E2E2E2E2E2E2E2E2E2E2E2E2E2E2E2E2E2E2E2E2E2E2E2E2E2E2E2E2E2E2E2E2E2E2E2E2E2E2E2E2E2E2E2E2E2E2E2E2E2E2E2E2E2E2E2E2E2E2E2E2E2E2E2E2E2E2E2E2E2E2E2E2E2E2E2E2E2E2E2E2E2E2E2E2E2E2E2E2E2E2E2E2E2E2
310
E2E2E2E2E2E2E2E2E2E2E2E2E2E2E2E2E2E2E2E2E2E2E2E2E2E2E2E2E2E2E2E2E2E2E2E2E2E2E2E2E2E2E2E2E2E2E2E2E2E2E2E2E2E2E2E2E2E2E2E2E2E2E2E2E2E2E2E2E2E2E2E2E2E2E2E2E2F5F5EFE2E2E2E2E2E2E2E2E2E2E2E2E2E2E2E2E2E2E2E2E2E2E2E2E2E2E2E2E2E2E2E2E2E2E2E2E2E2E2E2E2E2E2E2E2E2E2
310
E2E2E2E2E2E2E2E2E2E2E2E2E2E2E2E2E2E2E2E2E2E2E2E2E2E2E2E2E2E2E2E2E2E2E2E2E2E2E2E2E2E2E2E2E2E2E2E2E2E2E2E2E2E2E2E2E2E2E2E2E2E2E2E2E2E2E2E2E2E2E2E2E2E2E2E2E2E2E2E2E2E2E2E2E2E2E2E2E2E2E2E2E2E2E2E2E2E2E2E2E2E2E2E2E2E2E2E2E2E2E2E2E2E2E2E2E2E2E2E2E2E2E2E2E2E2E2
310
E2E2E2F5F5EFE2E2E2E2E2E2E2E2E2E2E2E2E2E2E2E2E2E2E2E2E2E2E2E2E2E2E2E2E2E2E2E2E2E2E2E2E2E2E2E2E2E2E2E2E2E2E2E2E2E2E2E2E2E2E2E2E2E2E2E2E2E2E2E2E2E2E2E2E2E2E2E2E2E2E2E2E2E2E2E2E2E2E2E2E2E2E2E2E2E2E2E2E2E2E2E2E2E2E2E2E2E2E2E2E2E2E2E2E2E2E2E2E2E2E2E2E2E2E2E2E2
310
E2E2E2E2E2E2E2E2E2E2E2E2E2E2E2E2E2E2E2E2E2E2E2E2E2E2E2E2E2E2E2E2E2E2E2E2E2E2E2E2E2E2E2E2E2E2E2E2E2E2E2E2E2E2E2E2F5F5EFE2E2E2E2E2E2E2E2E2E2E2E2E2E2E2E2E2E2E2E2E2E2E2E2E2E2E2E2E2E2E2E2E2E2E2E2E2E2E2E2E2E2E2E2E2E2E2E2E2E2E2E2E2E2E2E2E2E2E2E2E2E2E2E2E2E2E2E2
310
E2E2E2E2E2E2E2E2E2E2E2E2E2E2E2E2E2E2E2E2E2E2E2E2E2E2E2E2E2E2E2E2E2E2E2E2E2E2E2E2E2E2E2E2E2E2E2E2E2E2E2E2E2E2E2E2E2E2E2E2E2E2E2E2E2E2E2E2E2E2E2E2E2E2E2E2E2E2E2E2E2E2E2E2E2E2E2E2E2E2E2E2E2E2E2E2E2E2E2E2E2E2E2E2E2E2E2E2E2F5F5EFE2E2E2E2E2E2E2E2E2E2E2E2E2E2E2
310
E2E2E2E2E2E2E2E2E2E2E2E2E2E2E2E2E2E2E2E2E2E2E2E2E2E2E2E2E2E2E2E2E2E2E2E2E2E2E2E2E2E2E2E2E2E2E2E2E2E2E2E2E2E2E2E2E2E2E2E2E2E2E2E2E2E2E2E2E2E2E2E2E2E2E2E2E2E2E2E2E2E2E2E2E2E2E2E2E2E2E2E2E2E2E2E2E2E2E2E2E2E2E2E2E2E2E2E2E2E2E2E2E2E2E2E2E2E2E2E2E2E2E2E2E2E2E2
310
E2E2E2E2E2E2E2E2E2E2E2E2E2E2E2E2E2E2E2E2E2E2E2E2E2E2E2E2E2E2E2E2E2E2E2F5F5EFE2E2E2E2E2E2E2E2E2E2E2E2E2E2E2E2E2E2E2E2E2E2E2E2E2E2E2E2E2E2E2E2E2E2E2E2E2E2E2E2E2E2E2E2E2E2E2E2E2E2E2E2E2E2E2E2E2E2E2E2E2E2E2E2E2E2E2E2E2E2E2E2E2E2E2E2E2E2E2E2E2E2E2E2E2E2E2E2E2
310
E2E2E2E2E2E2E2E2E2E2E2E2E2E2E2E2E2E2E2E2E2E2E2E2E2E2E2E2E2E2E2E2E2E2E2E2E2E2E2E2E2E2E2E2E2E2E2E2E2E2E2E2E2E2E2E2E2E2E2E2E2E2E2E2E2E2E2E2E2E2E2E2E2E2E2E2E2E2E2E2E2E2E2E2E2E2E2E2F5F5EFE2E2E2E2E2E2E2E2E2E2E2E2E2E2E2E2E2E2E2E2E2E2E2E2E2E2E2E2E2E2E2E2E2E2E2E2
310
E2E2E2E2E2E2E2E2E2E2E2E2E2E2E2E2E2E2E2E2E2E2E2E2E2E2E2E2E2E2E2E2E2E2E2E2E2E2E2E2E2E2E2E2E2E2E2E2E2E2E2E2E2E2E2E2E2E2E2E2E2E2E2E2E2E2E2E2E2E2E2E2E2E2E2E2E2E2E2E2E2E2E2E2E2E2E2E2E2E2E2E2E2E2E2E2E2E2E2E2E2E2E2E2E2E2E2E2E2E2E2E2E2E2E2E2E2E2E2E2E2E2E2E2E2E2E2
310
E2E2E2E2E2E2E2E2E2E2E2E2E2E2F5F5EFE2E2E2E2E2E2E2E2E2E2E2E2E2E2E2E2E2E2E2E2E2E2E2E2E2E2E2E2E2E2E2E2E2E2E2E2E2E2E2E2E2E2E2E2E2E2E2E2E2E2E2E2E2E2E2E2E2E2E2E2E2E2E2E2E2E2E2E2E2E2E2E2E2E2E2E2E2E2E2E2E2E2E2E2E2E2E2E2E2E2E2E2E2E2E2E2E2E2E2E2E2E2E2E2E2E2E2E2E2E2
310
E2E2E2E2E2E2E2E2E2E2E2E2E2E2E2E2E2E2E2E2E2E2E2E2E2E2E2E2E2E2E2E2E2E2E2E2E2E2E2E2E2E2E2E2E2E2E2E2E2E2E2E2E2E2E2E2E2E2E2E2E2E2E2E2E2E2E2F5EFEFE2E2E2E2E2E2E2E2E2E2E2E2E2E2E2E2E2E2E2E2E2E2E2E2E2E2E2E2E2E2E2E2E2E2E2E2E2E2E2E2E2E2E2E2E2E2E2E2E2E2E2E2E2E2E2E2E2
310
E2E2E2E2E2E2E2E2E2E2E2E2E2E2E2E2E2E2E2E2E2E2E2E2E2E2E2E2E2E2E2E2E2E2E2E2E2E2E2E2E2E2E2E2E2E2E2E2E2E2E2E2E2E2E2E2E2E2E2E2E2E2E2E2E2E2E2E2E2E2E2E2E2E2E2E2E2E2E2E2E2E2E2E2E2E2E2E2E2E2E2E2E2E2E2E2E2E2E2E2E2E2E2E2E2E2E2E2E2E2E2E2E2E2E2E2E2E2E2E2F5EFEFF5F5F5F5
310
F5F5F5F5F5F5F5F5F5F5F5F5F5F5F5F5F5F5F5F5F5F5F5F5F5F5F5F5F5F5F5F5F5F5F5F5F5F5F5F5F5F5F5F5F5F5F5F5F5F5F5F5F5F5F5F5F5F5F5F5F5F5F5F5F5F5F5F5F5F5F5F5F5F5F5F5F5F5F5F5F5F5F5F5F5F5F5F5F5F5F5F5F5F5F5F5F5F5F5F5F5F5F5F5F5F5F5F5F5F5F5F5F5F5F5F5F5F5F5F5F5F5F5F5F5F5F5
310
F5F5F5F5F5F5F5F5F5F5F5F5F5F5F5F5F5F5F5F5F5F5F5F5F5F5F5F5F5F5F5F5F5F5F5F5F5F5F5F5F5F5F5F5F5F5F5EFEF
  0
XRECORD
  5
82D
102
{ACAD_REACTORS
330
82C
102
}
330
82C
100
AcDbXrecord
280
     1
102
SHADEPLOT
 70
     0
102
SHADEPLOTRESLEVEL
 70
     2
102
SHADEPLOTCUSTOMDPI
 70
   300
  0
XRECORD
  5
82B
102
{ACAD_REACTORS
330
82A
102
}
330
82A
100
AcDbXrecord
280
     1
102
SHADEPLOT
 70
     0
102
SHADEPLOTRESLEVEL
 70
     2
102
SHADEPLOTCUSTOMDPI
 70
   300
  0
XRECORD
  5
714
102
{ACAD_REACTORS
330
713
102
}
330
713
100
AcDbXrecord
280
     1
102
MATERIAL
148
0.0
149
0.0
149
0.0
 93
        0
 94
       63
282
     0
 72
     1
 77
     1
171
     1
175
     1
179
     1
273
     0
  0
XRECORD
  5
712
102
{ACAD_REACTORS
330
711
102
}
330
711
100
AcDbXrecord
280
     1
102
MATERIAL
148
0.0
149
0.0
149
0.0
 93
        0
 94
       63
282
     0
 72
     1
 77
     1
171
     1
175
     1
179
     1
273
     0
  0
XRECORD
  5
716
102
{ACAD_REACTORS
330
715
102
}
330
715
100
AcDbXrecord
280
     1
102
MATERIAL
148
0.0
149
0.0
149
0.0
 93
        0
 94
       63
282
     0
 72
     1
 77
     1
171
     1
175
     1
179
     1
273
     0
  0
XRECORD
  5
718
102
{ACAD_REACTORS
330
717
102
}
330
717
100
AcDbXrecord
280
     1
102
ACAD_ROUNDTRIP_PRE2007_TABLESTYLE
 90
      512
 91
        0
  1

 92
      512
 93
        0
  2

 94
      512
 95
        0
  3

  0
ENDSEC
  0
EOF
