  0
SECTION
  2
HEADER
  9
$ACADVER
  1
AC1015
  9
$ACADMAINTVER
 70
    20
  9
$DWGCODEPAGE
  3
ANSI_1252
  9
$INSBASE
 10
0.0
 20
0.0
 30
0.0
  9
$EXTMIN
 10
3.629699739196453
 20
1.649734519945614
 30
-0.0000000000112498
  9
$EXTMAX
 10
11.88043215670673
 20
6.900512713823133
 30
0.0000000000002956
  9
$LIMMIN
 10
0.0
 20
0.0
  9
$LIMMAX
 10
12.0
 20
9.0
  9
$ORTHOMODE
 70
     1
  9
$REGENMODE
 70
     1
  9
$FILLMODE
 70
     1
  9
$QTEXTMODE
 70
     0
  9
$MIRRTEXT
 70
     1
  9
$LTSCALE
 40
1.0
  9
$ATTMODE
 70
     1
  9
$TEXTSIZE
 40
0.2
  9
$TRACEWID
 40
0.05
  9
$TEXTSTYLE
  7
Standard
  9
$CLAYER
  8
0
  9
$CELTYPE
  6
ByLayer
  9
$CECOLOR
 62
   256
  9
$CELTSCALE
 40
1.0
  9
$DISPSILH
 70
     0
  9
$DIMSCALE
 40
1.0
  9
$DIMASZ
 40
0.18
  9
$DIMEXO
 40
0.0625
  9
$DIMDLI
 40
0.38
  9
$DIMRND
 40
0.0
  9
$DIMDLE
 40
0.0
  9
$DIMEXE
 40
0.18
  9
$DIMTP
 40
0.0
  9
$DIMTM
 40
0.0
  9
$DIMTXT
 40
0.18
  9
$DIMCEN
 40
0.09
  9
$DIMTSZ
 40
0.0
  9
$DIMTOL
 70
     0
  9
$DIMLIM
 70
     0
  9
$DIMTIH
 70
     1
  9
$DIMTOH
 70
     1
  9
$DIMSE1
 70
     0
  9
$DIMSE2
 70
     0
  9
$DIMTAD
 70
     0
  9
$DIMZIN
 70
     0
  9
$DIMBLK
  1

  9
$DIMASO
 70
     1
  9
$DIMSHO
 70
     1
  9
$DIMPOST
  1

  9
$DIMAPOST
  1

  9
$DIMALT
 70
     0
  9
$DIMALTD
 70
     2
  9
$DIMALTF
 40
25.4
  9
$DIMLFAC
 40
1.0
  9
$DIMTOFL
 70
     0
  9
$DIMTVP
 40
0.0
  9
$DIMTIX
 70
     0
  9
$DIMSOXD
 70
     0
  9
$DIMSAH
 70
     0
  9
$DIMBLK1
  1

  9
$DIMBLK2
  1

  9
$DIMSTYLE
  2
Standard
  9
$DIMCLRD
 70
     0
  9
$DIMCLRE
 70
     0
  9
$DIMCLRT
 70
     0
  9
$DIMTFAC
 40
1.0
  9
$DIMGAP
 40
0.09
  9
$DIMJUST
 70
     0
  9
$DIMSD1
 70
     0
  9
$DIMSD2
 70
     0
  9
$DIMTOLJ
 70
     1
  9
$DIMTZIN
 70
     0
  9
$DIMALTZ
 70
     0
  9
$DIMALTTZ
 70
     0
  9
$DIMUPT
 70
     0
  9
$DIMDEC
 70
     4
  9
$DIMTDEC
 70
     4
  9
$DIMALTU
 70
     2
  9
$DIMALTTD
 70
     2
  9
$DIMTXSTY
  7
Standard
  9
$DIMAUNIT
 70
     0
  9
$DIMADEC
 70
     0
  9
$DIMALTRND
 40
0.0
  9
$DIMAZIN
 70
     0
  9
$DIMDSEP
 70
    46
  9
$DIMATFIT
 70
     3
  9
$DIMFRAC
 70
     0
  9
$DIMLDRBLK
  1

  9
$DIMLUNIT
 70
     2
  9
$DIMLWD
 70
    -2
  9
$DIMLWE
 70
    -2
  9
$DIMTMOVE
 70
     0
  9
$LUNITS
 70
     2
  9
$LUPREC
 70
     4
  9
$SKETCHINC
 40
0.1
  9
$FILLETRAD
 40
0.5
  9
$AUNITS
 70
     0
  9
$AUPREC
 70
     0
  9
$MENU
  1
.
  9
$ELEVATION
 40
0.0
  9
$PELEVATION
 40
0.0
  9
$THICKNESS
 40
0.0
  9
$LIMCHECK
 70
     0
  9
$CHAMFERA
 40
0.5
  9
$CHAMFERB
 40
0.5
  9
$CHAMFERC
 40
1.0
  9
$CHAMFERD
 40
0.0
  9
$SKPOLY
 70
     0
  9
$TDCREATE
 40
2452994.398152547
  9
$TDUCREATE
 40
2452994.606485880
  9
$TDUPDATE
 40
2454728.648490116
  9
$TDUUPDATE
 40
2454728.856823449
  9
$TDINDWG
 40
0.1017068171
  9
$TDUSRTIMER
 40
0.1016889931
  9
$USRTIMER
 70
     1
  9
$ANGBASE
 50
0.0
  9
$ANGDIR
 70
     0
  9
$PDMODE
 70
     0
  9
$PDSIZE
 40
0.0
  9
$PLINEWID
 40
0.0
  9
$SPLFRAME
 70
     0
  9
$SPLINETYPE
 70
     6
  9
$SPLINESEGS
 70
     8
  9
$HANDSEED
  5
A23
  9
$SURFTAB1
 70
     6
  9
$SURFTAB2
 70
     6
  9
$SURFTYPE
 70
     6
  9
$SURFU
 70
     6
  9
$SURFV
 70
     6
  9
$UCSBASE
  2

  9
$UCSNAME
  2

  9
$UCSORG
 10
0.0
 20
0.0
 30
0.0
  9
$UCSXDIR
 10
1.0
 20
0.0
 30
0.0
  9
$UCSYDIR
 10
0.0
 20
1.0
 30
0.0
  9
$UCSORTHOREF
  2

  9
$UCSORTHOVIEW
 70
     0
  9
$UCSORGTOP
 10
0.0
 20
0.0
 30
0.0
  9
$UCSORGBOTTOM
 10
0.0
 20
0.0
 30
0.0
  9
$UCSORGLEFT
 10
0.0
 20
0.0
 30
0.0
  9
$UCSORGRIGHT
 10
0.0
 20
0.0
 30
0.0
  9
$UCSORGFRONT
 10
0.0
 20
0.0
 30
0.0
  9
$UCSORGBACK
 10
0.0
 20
0.0
 30
0.0
  9
$PUCSBASE
  2

  9
$PUCSNAME
  2

  9
$PUCSORG
 10
0.0
 20
0.0
 30
0.0
  9
$PUCSXDIR
 10
1.0
 20
0.0
 30
0.0
  9
$PUCSYDIR
 10
0.0
 20
1.0
 30
0.0
  9
$PUCSORTHOREF
  2

  9
$PUCSORTHOVIEW
 70
     0
  9
$PUCSORGTOP
 10
0.0
 20
0.0
 30
0.0
  9
$PUCSORGBOTTOM
 10
0.0
 20
0.0
 30
0.0
  9
$PUCSORGLEFT
 10
0.0
 20
0.0
 30
0.0
  9
$PUCSORGRIGHT
 10
0.0
 20
0.0
 30
0.0
  9
$PUCSORGFRONT
 10
0.0
 20
0.0
 30
0.0
  9
$PUCSORGBACK
 10
0.0
 20
0.0
 30
0.0
  9
$USERI1
 70
     0
  9
$USERI2
 70
     0
  9
$USERI3
 70
     0
  9
$USERI4
 70
     0
  9
$USERI5
 70
     0
  9
$USERR1
 40
0.0
  9
$USERR2
 40
0.0
  9
$USERR3
 40
0.0
  9
$USERR4
 40
0.0
  9
$USERR5
 40
0.0
  9
$WORLDVIEW
 70
     1
  9
$SHADEDGE
 70
     3
  9
$SHADEDIF
 70
    70
  9
$TILEMODE
 70
     1
  9
$MAXACTVP
 70
    64
  9
$PINSBASE
 10
0.0
 20
0.0
 30
0.0
  9
$PLIMCHECK
 70
     0
  9
$PEXTMIN
 10
-0.5237790456457674
 20
0.1274698821824813
 30
-0.0000000349181948
  9
$PEXTMAX
 10
10.94654761024218
 20
7.917871605128905
 30
0.0000000814935746
  9
$PLIMMIN
 10
-0.8300373518286352
 20
-0.6911558332082123
  9
$PLIMMAX
 10
11.31209360878398
 20
8.691399848800211
  9
$UNITMODE
 70
     0
  9
$VISRETAIN
 70
     1
  9
$PLINEGEN
 70
     0
  9
$PSLTSCALE
 70
     1
  9
$TREEDEPTH
 70
  3020
  9
$CMLSTYLE
  2
Standard
  9
$CMLJUST
 70
     0
  9
$CMLSCALE
 40
1.0
  9
$PROXYGRAPHICS
 70
     1
  9
$MEASUREMENT
 70
     0
  9
$CELWEIGHT
370
    -1
  9
$ENDCAPS
280
     0
  9
$JOINSTYLE
280
     0
  9
$LWDISPLAY
290
     0
  9
$INSUNITS
 70
     1
  9
$HYPERLINKBASE
  1

  9
$STYLESHEET
  1
monochrome.ctb
  9
$XEDIT
290
     1
  9
$CEPSNTYPE
380
     0
  9
$PSTYLEMODE
290
     1
  9
$FINGERPRINTGUID
  2
{8AF59900-32CF-11D8-8CE1-F4C5890AA422}
  9
$VERSIONGUID
  2
{66148AC6-967A-480B-B695-D9B0DA3BC1CC}
  9
$EXTNAMES
290
     1
  9
$PSVPSCALE
 40
0.0
  9
$OLESTARTUP
290
     0
  0
ENDSEC
  0
SECTION
  2
CLASSES
  0
CLASS
  1
ACDBDICTIONARYWDFLT
  2
AcDbDictionaryWithDefault
  3
ObjectDBX Classes
 90
        0
280
     0
281
     0
  0
CLASS
  1
ACDBPLACEHOLDER
  2
AcDbPlaceHolder
  3
ObjectDBX Classes
 90
        0
280
     0
281
     0
  0
CLASS
  1
LAYOUT
  2
AcDbLayout
  3
ObjectDBX Classes
 90
        0
280
     0
281
     0
  0
CLASS
  1
MATERIAL
  2
AcDbMaterial
  3
ObjectDBX Classes
 90
        0
280
     0
281
     0
  0
CLASS
  1
VISUALSTYLE
  2
AcDbVisualStyle
  3
ObjectDBX Classes
 90
     4095
280
     0
281
     0
  0
CLASS
  1
TABLESTYLE
  2
AcDbTableStyle
  3
ObjectDBX Classes
 90
     4095
280
     0
281
     0
  0
CLASS
  1
DICTIONARYVAR
  2
AcDbDictionaryVar
  3
ObjectDBX Classes
 90
        0
280
     0
281
     0
  0
CLASS
  1
SORTENTSTABLE
  2
AcDbSortentsTable
  3
ObjectDBX Classes
 90
        0
280
     0
281
     0
  0
ENDSEC
  0
SECTION
  2
TABLES
  0
TABLE
  2
VPORT
  5
8
102
{ACAD_XDICTIONARY
360
86C
102
}
330
0
100
AcDbSymbolTable
 70
     2
  0
VPORT
  5
A19
330
8
100
AcDbSymbolTableRecord
100
AcDbViewportTableRecord
  2
*Active
 70
     0
 10
0.0
 20
0.0
 11
1.0
 21
1.0
 12
7.755065947951592
 22
4.275123616884373
 13
0.0
 23
0.0
 14
0.5
 24
0.5
 15
0.5
 25
0.5
 16
0.0
 26
0.0
 36
1.0
 17
0.0
 27
0.0
 37
0.0
 40
5.545189497268501
 41
1.495145631067961
 42
50.0
 43
0.0
 44
0.0
 50
0.0
 51
0.0
 71
     0
 72
   100
 73
     1
 74
     0
 75
     0
 76
     0
 77
     0
 78
     0
281
     0
 65
     1
110
0.0
120
0.0
130
0.0
111
1.0
121
0.0
131
0.0
112
0.0
122
1.0
132
0.0
 79
     0
146
0.0
  0
ENDTAB
  0
TABLE
  2
LTYPE
  5
5
330
0
100
AcDbSymbolTable
 70
     1
  0
LTYPE
  5
14
330
5
100
AcDbSymbolTableRecord
100
AcDbLinetypeTableRecord
  2
ByBlock
 70
     0
  3

 72
    65
 73
     0
 40
0.0
  0
LTYPE
  5
15
330
5
100
AcDbSymbolTableRecord
100
AcDbLinetypeTableRecord
  2
ByLayer
 70
     0
  3

 72
    65
 73
     0
 40
0.0
  0
LTYPE
  5
16
330
5
100
AcDbSymbolTableRecord
100
AcDbLinetypeTableRecord
  2
Continuous
 70
     0
  3
Solid line
 72
    65
 73
     0
 40
0.0
  0
ENDTAB
  0
TABLE
  2
LAYER
  5
2
102
{ACAD_XDICTIONARY
360
88B
102
}
330
0
100
AcDbSymbolTable
 70
     5
  0
LAYER
  5
10
102
{ACAD_XDICTIONARY
360
8BF
102
}
330
2
100
AcDbSymbolTableRecord
100
AcDbLayerTableRecord
  2
0
 70
     0
 62
     7
  6
Continuous
370
    -3
390
F
  0
LAYER
  5
33
102
{ACAD_XDICTIONARY
360
8C1
102
}
330
2
100
AcDbSymbolTableRecord
100
AcDbLayerTableRecord
  2
1
 70
     0
 62
     1
  6
Continuous
370
    -3
390
F
  0
LAYER
  5
34
102
{ACAD_XDICTIONARY
360
8C3
102
}
330
2
100
AcDbSymbolTableRecord
100
AcDbLayerTableRecord
  2
4
 70
     0
 62
     4
  6
Continuous
370
    -3
390
F
  0
LAYER
  5
35
102
{ACAD_XDICTIONARY
360
8C5
102
}
330
2
100
AcDbSymbolTableRecord
100
AcDbLayerTableRecord
  2
8
 70
     0
 62
     2
  6
Continuous
370
    -3
390
F
  0
LAYER
  5
889
102
{ACAD_XDICTIONARY
360
8D1
102
}
330
2
100
AcDbSymbolTableRecord
100
AcDbLayerTableRecord
  2
VIEWPORT-1
 70
     0
 62
     6
  6
Continuous
290
     0
370
    -3
390
F
1001
AcAecLayerStandard
1000

1000

  0
ENDTAB
  0
TABLE
  2
STYLE
  5
3
330
0
100
AcDbSymbolTable
 70
     2
  0
STYLE
  5
11
330
3
100
AcDbSymbolTableRecord
100
AcDbTextStyleTableRecord
  2
Standard
 70
     0
 40
0.0
 41
1.0
 50
0.0
 71
     0
 42
0.2
  3
txt
  4

  0
STYLE
  5
36
330
3
100
AcDbSymbolTableRecord
100
AcDbTextStyleTableRecord
  2
ROMANS
 70
     0
 40
0.0
 41
1.0
 50
0.0
 71
     0
 42
0.07
  3
ROMANS
  4

  0
ENDTAB
  0
TABLE
  2
VIEW
  5
6
330
0
100
AcDbSymbolTable
 70
     0
  0
ENDTAB
  0
TABLE
  2
UCS
  5
7
330
0
100
AcDbSymbolTable
 70
     0
  0
ENDTAB
  0
TABLE
  2
APPID
  5
9
330
0
100
AcDbSymbolTable
 70
     3
  0
APPID
  5
12
330
9
100
AcDbSymbolTableRecord
100
AcDbRegAppTableRecord
  2
ACAD
 70
     0
  0
APPID
  5
888
330
9
100
AcDbSymbolTableRecord
100
AcDbRegAppTableRecord
  2
ACAD_PSEXT
 70
     0
  0
APPID
  5
88A
330
9
100
AcDbSymbolTableRecord
100
AcDbRegAppTableRecord
  2
AcAecLayerStandard
 70
     0
  0
ENDTAB
  0
TABLE
  2
DIMSTYLE
  5
A
330
0
100
AcDbSymbolTable
 70
     1
100
AcDbDimStyleTable
 71
     1
340
27
  0
DIMSTYLE
105
27
330
A
100
AcDbSymbolTableRecord
100
AcDbDimStyleTableRecord
  2
Standard
 70
     0
340
11
  0
ENDTAB
  0
TABLE
  2
BLOCK_RECORD
  5
1
330
0
100
AcDbSymbolTable
 70
     8
  0
BLOCK_RECORD
  5
1F
102
{ACAD_XDICTIONARY
360
86A
102
}
330
1
100
AcDbSymbolTableRecord
100
AcDbBlockTableRecord
  2
*Model_Space
340
22
  0
BLOCK_RECORD
  5
1B
330
1
100
AcDbSymbolTableRecord
100
AcDbBlockTableRecord
  2
*Paper_Space
340
1E
  0
BLOCK_RECORD
  5
23
330
1
100
AcDbSymbolTableRecord
100
AcDbBlockTableRecord
  2
*Paper_Space0
340
26
  0
BLOCK_RECORD
  5
2B
330
1
100
AcDbSymbolTableRecord
100
AcDbBlockTableRecord
  2
ARRO
340
0
102
{BLKREFS
331
5C0
331
608
331
609
331
60D
331
60E
331
612
331
613
331
614
331
615
331
616
331
6C9
331
719
331
71A
331
68D
331
68E
331
7D1
331
7D2
331
80D
331
85D
331
85E
331
92C
331
92D
331
931
331
932
331
936
331
937
331
938
331
939
331
93A
331
8E4
102
}
  0
BLOCK_RECORD
  5
F7
330
1
100
AcDbSymbolTableRecord
100
AcDbBlockTableRecord
  2
ARRO2
340
0
102
{BLKREFS
331
6D8
331
81C
102
}
  0
BLOCK_RECORD
  5
109
330
1
100
AcDbSymbolTableRecord
100
AcDbBlockTableRecord
  2
TEMP2
340
0
102
{BLKREFS
331
687
331
7CB
102
}
  0
BLOCK_RECORD
  5
23E
330
1
100
AcDbSymbolTableRecord
100
AcDbBlockTableRecord
  2
TEMP3
340
0
102
{BLKREFS
331
688
331
7CC
102
}
  0
BLOCK_RECORD
  5
5B8
330
1
100
AcDbSymbolTableRecord
100
AcDbBlockTableRecord
  2
Le1002
340
0
  0
BLOCK_RECORD
  5
67F
330
1
100
AcDbSymbolTableRecord
100
AcDbBlockTableRecord
  2
Le1020
340
0
  0
BLOCK_RECORD
  5
761
102
{ACAD_XDICTIONARY
360
7AB
102
}
330
1
100
AcDbSymbolTableRecord
100
AcDbBlockTableRecord
  2
A$C1F7806BA
340
0
102
{BLKREFS
331
7AF
102
}
1001
ACAD
1000
DesignCenter Data
1002
{
1070
     1
1070
     1
1002
}
  0
ENDTAB
  0
ENDSEC
  0
SECTION
  2
BLOCKS
  0
BLOCK
  5
20
330
1F
100
AcDbEntity
  8
0
100
AcDbBlockBegin
  2
*Model_Space
 70
     0
 10
0.0
 20
0.0
 30
0.0
  3
*Model_Space
  1

  0
ENDBLK
  5
21
330
1F
100
AcDbEntity
  8
0
100
AcDbBlockEnd
  0
BLOCK
  5
1C
330
1B
100
AcDbEntity
 67
     1
  8
0
100
AcDbBlockBegin
  2
*Paper_Space
 70
     0
 10
0.0
 20
0.0
 30
0.0
  3
*Paper_Space
  1

  0
ENDBLK
  5
1D
330
1B
100
AcDbEntity
 67
     1
  8
0
100
AcDbBlockEnd
  0
BLOCK
  5
24
330
23
100
AcDbEntity
  8
0
100
AcDbBlockBegin
  2
*Paper_Space0
 70
     0
 10
0.0
 20
0.0
 30
0.0
  3
*Paper_Space0
  1

  0
ENDBLK
  5
25
330
23
100
AcDbEntity
  8
0
100
AcDbBlockEnd
  0
BLOCK
  5
31
330
2B
100
AcDbEntity
  8
4
100
AcDbBlockBegin
  2
ARRO
 70
     0
 10
0.0
 20
0.0
 30
0.0
  3
ARRO
  1

  0
LINE
  5
2C
330
2B
100
AcDbEntity
  8
4
100
AcDbLine
 10
0.1250000000000018
 20
0.0199999999999996
 30
0.0
 11
0.1250000000000018
 21
-0.0200000000000005
 31
0.0
  0
LINE
  5
2D
330
2B
100
AcDbEntity
  8
4
100
AcDbLine
 10
0.1250000000000018
 20
-0.0100000000000007
 30
0.0
 11
0.0000000000000009
 21
0.0
 31
0.0
  0
LINE
  5
2E
330
2B
100
AcDbEntity
  8
4
100
AcDbLine
 10
0.1250000000000018
 20
0.0099999999999989
 30
0.0
 11
0.0000000000000018
 21
0.0
 31
0.0
  0
LINE
  5
2F
330
2B
100
AcDbEntity
  8
4
100
AcDbLine
 10
0.0000000000000018
 20
0.0
 30
0.0
 11
0.1250000000000018
 21
-0.0200000000000005
 31
0.0
  0
LINE
  5
30
330
2B
100
AcDbEntity
  8
4
100
AcDbLine
 10
0.1250000000000018
 20
0.0199999999999996
 30
0.0
 11
0.0000000000000018
 21
0.0
 31
0.0
  0
ENDBLK
  5
32
330
2B
100
AcDbEntity
  8
4
100
AcDbBlockEnd
  0
BLOCK
  5
102
330
F7
100
AcDbEntity
  8
8
100
AcDbBlockBegin
  2
ARRO2
 70
     0
 10
0.0
 20
0.0
 30
0.0
  3
ARRO2
  1

  0
LINE
  5
F8
330
F7
100
AcDbEntity
  8
4
100
AcDbLine
 10
-0.124999999999992
 20
-0.0200000000000005
 30
0.0
 11
0.000000000000008
 21
-0.0000000000000009
 31
0.0
  0
LINE
  5
F9
330
F7
100
AcDbEntity
  8
4
100
AcDbLine
 10
0.000000000000008
 20
-0.0000000000000009
 30
0.0
 11
-0.124999999999992
 21
0.0199999999999996
 31
0.0
  0
LINE
  5
FA
330
F7
100
AcDbEntity
  8
4
100
AcDbLine
 10
-0.124999999999992
 20
-0.0099999999999998
 30
0.0
 11
0.000000000000008
 21
-0.0000000000000009
 31
0.0
  0
LINE
  5
FB
330
F7
100
AcDbEntity
  8
4
100
AcDbLine
 10
-0.124999999999992
 20
0.0099999999999998
 30
0.0
 11
0.0000000000000089
 21
-0.0000000000000009
 31
0.0
  0
LINE
  5
FC
330
F7
100
AcDbEntity
  8
4
100
AcDbLine
 10
-0.124999999999992
 20
-0.0200000000000005
 30
0.0
 11
-0.124999999999992
 21
0.0199999999999996
 31
0.0
  0
LINE
  5
FD
330
F7
100
AcDbEntity
  8
4
100
AcDbLine
 10
0.1250000000000124
 20
0.0199999999999987
 30
0.0
 11
0.1250000000000124
 21
-0.0200000000000014
 31
0.0
  0
LINE
  5
FE
330
F7
100
AcDbEntity
  8
4
100
AcDbLine
 10
0.1250000000000124
 20
-0.0100000000000016
 30
0.0
 11
0.0000000000000115
 21
-0.0000000000000009
 31
0.0
  0
LINE
  5
FF
330
F7
100
AcDbEntity
  8
4
100
AcDbLine
 10
0.1250000000000124
 20
0.009999999999998
 30
0.0
 11
0.0000000000000124
 21
-0.0000000000000009
 31
0.0
  0
LINE
  5
100
330
F7
100
AcDbEntity
  8
4
100
AcDbLine
 10
0.0000000000000124
 20
-0.0000000000000009
 30
0.0
 11
0.1250000000000124
 21
-0.0200000000000014
 31
0.0
  0
LINE
  5
101
330
F7
100
AcDbEntity
  8
4
100
AcDbLine
 10
0.1250000000000124
 20
0.0199999999999987
 30
0.0
 11
0.0000000000000124
 21
-0.0000000000000009
 31
0.0
  0
ENDBLK
  5
103
330
F7
100
AcDbEntity
  8
8
100
AcDbBlockEnd
  0
BLOCK
  5
10B
330
109
100
AcDbEntity
  8
8
100
AcDbBlockBegin
  2
TEMP2
 70
     0
 10
0.0
 20
0.0
 30
0.0
  3
TEMP2
  1

  0
TEXT
  5
10A
330
109
100
AcDbEntity
  8
8
100
AcDbText
 10
-0.0620000000000003
 20
0.1763333333333335
 30
0.0
 40
0.07
  1
1
 50
90.0
 72
     1
 11
-0.0620000000000003
 21
0.1880000000000002
 31
0.0
100
AcDbText
  0
ENDBLK
  5
10C
330
109
100
AcDbEntity
  8
8
100
AcDbBlockEnd
  0
BLOCK
  5
241
330
23E
100
AcDbEntity
  8
4
100
AcDbBlockBegin
  2
TEMP3
 70
     0
 10
0.0
 20
0.0
 30
0.0
  3
TEMP3
  1

  0
TEXT
  5
23F
330
23E
100
AcDbEntity
  8
8
100
AcDbText
 10
0.03
 20
0.0619999999999998
 30
0.0
 40
0.07
  1
HANDLE & P/A
 50
90.0
  7
ROMANS
100
AcDbText
  0
TEXT
  5
240
330
23E
100
AcDbEntity
  8
8
100
AcDbText
 10
0.03
 20
-1.33310960351371
 30
0.0
 40
0.07
  1
LOCK ESCUTCHEON
 50
90.0
  7
ROMANS
 72
     2
 11
0.03
 21
-0.3264429368470441
 31
0.0
100
AcDbText
  0
ENDBLK
  5
242
330
23E
100
AcDbEntity
  8
4
100
AcDbBlockEnd
  0
BLOCK
  5
67C
330
5B8
100
AcDbEntity
  8
0
100
AcDbBlockBegin
  2
Le1002
 70
     0
 10
0.0
 20
0.0
 30
0.0
  3
Le1002
  1

  0
TEXT
  5
5B9
330
5B8
100
AcDbEntity
  8
8
100
AcDbText
 10
5.2125
 20
1.708979331896792
 30
0.0
 40
0.07
  1
DEPTH
  7
ROMANS
 72
     1
 11
5.3775
 21
1.708979331896792
 31
0.0
100
AcDbText
  0
TEXT
  5
5BA
330
5B8
100
AcDbEntity
  8
8
100
AcDbText
 10
6.834999999999999
 20
1.708979331896792
 30
0.0
 40
0.07
  1
DEPTH
  7
ROMANS
 72
     1
 11
7.0
 21
1.708979331896792
 31
0.0
100
AcDbText
  0
TEXT
  5
5BB
330
5B8
100
AcDbEntity
  8
8
100
AcDbText
 10
6.899267058502116
 20
0.7466010068253098
 30
0.0
 40
0.1
  1
DR
  7
ROMANS
 72
     1
 11
7.001648010883068
 21
0.7466010068253098
 31
0.0
100
AcDbText
  0
TEXT
  5
5BC
330
5B8
100
AcDbEntity
  8
8
100
AcDbText
 10
5.794389324558379
 20
0.5620000000000003
 30
0.0
 40
0.1
  1
SECTIONS
  7
ROMANS
 72
     1
 11
6.146770276939331
 21
0.5620000000000003
 31
0.0
100
AcDbText
  0
TEXT
  5
5BD
330
5B8
100
AcDbEntity
  8
8
100
AcDbText
 10
5.302053163126957
 20
0.7466010068253098
 30
0.0
 40
0.1
  1
SR
  7
ROMANS
 72
     1
 11
5.399672210746004
 21
0.7466010068253098
 31
0.0
100
AcDbText
  0
LINE
  5
5BE
330
5B8
100
AcDbEntity
  8
4
100
AcDbLine
 10
5.628
 20
4.25
 30
0.0
 11
5.891731602665403
 21
4.25
 31
0.0
  0
LINE
  5
5BF
330
5B8
100
AcDbEntity
  8
4
100
AcDbLine
 10
5.93215881233783
 20
4.25
 30
0.0
 11
6.112622609161773
 21
4.25
 31
0.0
  0
INSERT
  5
5C0
330
5B8
100
AcDbEntity
  8
4
100
AcDbBlockReference
  2
ARRO
 10
5.93215881233783
 20
4.25
 30
0.0
  0
LINE
  5
5C1
330
5B8
100
AcDbEntity
  8
4
100
AcDbLine
 10
6.112622609161773
 20
4.25
 30
0.0
 11
6.112622609161773
 21
4.047012330209487
 31
0.0
  0
TEXT
  5
5C2
330
5B8
100
AcDbEntity
  8
8
100
AcDbText
 10
6.147622609161773
 20
2.671678996876154
 30
0.0
 40
0.07
  1
ANCHORING BY ERECTOR
 50
90.0
  7
ROMANS
 72
     2
 11
6.147622609161773
 21
3.985012330209487
 31
0.0
100
AcDbText
  0
TEXT
  5
5C3
330
5B8
100
AcDbEntity
  8
8
100
AcDbText
 10
4.500499999999999
 20
2.578333333333333
 30
0.0
 40
0.07
  1
LOCKER HEIGHT
 50
90.0
  7
ROMANS
 72
     1
 11
4.500499999999999
 21
3.0
 31
0.0
100
AcDbText
  0
TEXT
  5
5C4
330
5B8
100
AcDbEntity
  8
8
100
AcDbText
 10
1.344999999999998
 20
1.062
 30
0.0
 40
0.07
  1
LOCKER WIDTH - SEE SCHEDULE
  7
ROMANS
 72
     1
 11
2.249999999999999
 21
1.062
 31
0.0
100
AcDbText
  0
TEXT
  5
5C5
330
5B8
100
AcDbEntity
  8
8
100
AcDbText
 10
1.585714285714285
 20
0.5620000000000003
 30
0.0
 40
0.1
  1
FRONT ELEVATION
  7
ROMANS
 72
     1
 11
2.249999999999999
 21
0.5620000000000003
 31
0.0
100
AcDbText
  0
LINE
  5
5C6
330
5B8
100
AcDbEntity
  8
1
100
AcDbLine
 10
0.0
 20
0.0
 30
0.0
 11
8.25
 21
0.0
 31
0.0
  0
LINE
  5
5C7
330
5B8
100
AcDbEntity
  8
1
100
AcDbLine
 10
8.25
 20
0.0
 30
0.0
 11
8.25
 21
5.25
 31
0.0
  0
LINE
  5
5C8
330
5B8
100
AcDbEntity
  8
1
100
AcDbLine
 10
8.25
 20
5.25
 30
0.0
 11
0.0
 21
5.25
 31
0.0
  0
LINE
  5
5C9
330
5B8
100
AcDbEntity
  8
1
100
AcDbLine
 10
0.0
 20
5.25
 30
0.0
 11
0.0
 21
0.0
 31
0.0
  0
LINE
  5
5CA
330
5B8
100
AcDbEntity
  8
1
100
AcDbLine
 10
1.0
 20
1.5
 30
0.0
 11
2.5
 21
1.5
 31
0.0
  0
LINE
  5
5CB
330
5B8
100
AcDbEntity
  8
1
100
AcDbLine
 10
1.0
 20
1.5
 30
0.0
 11
1.0
 21
4.5
 31
0.0
  0
LINE
  5
5CC
330
5B8
100
AcDbEntity
  8
1
100
AcDbLine
 10
1.0
 20
4.5
 30
0.0
 11
2.5
 21
4.5
 31
0.0
  0
LINE
  5
5CD
330
5B8
100
AcDbEntity
  8
1
100
AcDbLine
 10
2.625
 20
4.5
 30
0.0
 11
3.5
 21
4.5
 31
0.0
  0
LINE
  5
5CE
330
5B8
100
AcDbEntity
  8
1
100
AcDbLine
 10
3.5
 20
4.5
 30
0.0
 11
3.499999999999999
 21
1.5
 31
0.0
  0
LINE
  5
5CF
330
5B8
100
AcDbEntity
  8
1
100
AcDbLine
 10
3.499999999999999
 20
1.5
 30
0.0
 11
2.624999999999999
 21
1.5
 31
0.0
  0
LINE
  5
5D0
330
5B8
100
AcDbEntity
  8
1
100
AcDbLine
 10
7.0
 20
1.5
 30
0.0
 11
7.0
 21
4.5
 31
0.0
  0
LINE
  5
5D1
330
5B8
100
AcDbEntity
  8
1
100
AcDbLine
 10
5.75
 20
1.5
 30
0.0
 11
5.75
 21
4.875
 31
0.0
  0
CIRCLE
  5
5D2
330
5B8
100
AcDbEntity
  8
1
100
AcDbCircle
 10
4.125
 20
0.5
 30
0.0
 40
0.1875
  0
LINE
  5
5D3
330
5B8
100
AcDbEntity
  8
1
100
AcDbLine
 10
2.625
 20
4.625
 30
0.0
 11
2.625
 21
3.709974179311579
 31
0.0
  0
LINE
  5
5D4
330
5B8
100
AcDbEntity
  8
1
100
AcDbLine
 10
2.5
 20
4.625
 30
0.0
 11
2.5
 21
4.344974179311579
 31
0.0
  0
LINE
  5
5D5
330
5B8
100
AcDbEntity
  8
1
100
AcDbLine
 10
2.455
 20
4.389974179311579
 30
0.0
 11
2.544999999999999
 21
4.299974179311579
 31
0.0
  0
LINE
  5
5D6
330
5B8
100
AcDbEntity
  8
1
100
AcDbLine
 10
2.544999999999999
 20
4.299974179311579
 30
0.0
 11
2.455
 21
4.299974179311579
 31
0.0
  0
LINE
  5
5D7
330
5B8
100
AcDbEntity
  8
1
100
AcDbLine
 10
2.455
 20
4.299974179311579
 30
0.0
 11
2.544999999999999
 21
4.209974179311579
 31
0.0
  0
LINE
  5
5D8
330
5B8
100
AcDbEntity
  8
1
100
AcDbLine
 10
2.512196030826982
 20
4.242778148484597
 30
0.0
 11
2.512196030826982
 21
3.07567852914767
 31
0.0
  0
LINE
  5
5D9
330
5B8
100
AcDbEntity
  8
1
100
AcDbLine
 10
2.454999999999999
 20
3.049974179311579
 30
0.0
 11
2.544999999999999
 21
2.959974179311579
 31
0.0
  0
LINE
  5
5DA
330
5B8
100
AcDbEntity
  8
1
100
AcDbLine
 10
2.544999999999999
 20
3.049974179311579
 30
0.0
 11
2.454999999999999
 21
3.049974179311579
 31
0.0
  0
LINE
  5
5DB
330
5B8
100
AcDbEntity
  8
1
100
AcDbLine
 10
2.454999999999999
 20
3.139974179311579
 30
0.0
 11
2.544999999999999
 21
3.049974179311579
 31
0.0
  0
LINE
  5
5DC
330
5B8
100
AcDbEntity
  8
1
100
AcDbLine
 10
2.454999999999999
 20
1.799974179311579
 30
0.0
 11
2.544999999999999
 21
1.709974179311579
 31
0.0
  0
LINE
  5
5DD
330
5B8
100
AcDbEntity
  8
1
100
AcDbLine
 10
2.544999999999999
 20
1.799974179311579
 30
0.0
 11
2.454999999999999
 21
1.799974179311579
 31
0.0
  0
LINE
  5
5DE
330
5B8
100
AcDbEntity
  8
1
100
AcDbLine
 10
2.454999999999999
 20
1.889974179311579
 30
0.0
 11
2.544999999999999
 21
1.799974179311579
 31
0.0
  0
LINE
  5
5DF
330
5B8
100
AcDbEntity
  8
1
100
AcDbLine
 10
2.5
 20
3.004974179311579
 30
0.0
 11
2.5
 21
2.469974179311579
 31
0.0
  0
LINE
  5
5E0
330
5B8
100
AcDbEntity
  8
1
100
AcDbLine
 10
2.5
 20
2.469974179311579
 30
0.0
 11
2.499999999999999
 21
1.844974179311579
 31
0.0
  0
LINE
  5
5E1
330
5B8
100
AcDbEntity
  8
1
100
AcDbLine
 10
2.499999999999999
 20
1.754974179311579
 30
0.0
 11
2.499999999999999
 21
1.375
 31
0.0
  0
LINE
  5
5E2
330
5B8
100
AcDbEntity
  8
1
100
AcDbLine
 10
2.579999999999999
 20
2.514974179311579
 30
0.0
 11
2.669999999999999
 21
2.424974179311579
 31
0.0
  0
LINE
  5
5E3
330
5B8
100
AcDbEntity
  8
1
100
AcDbLine
 10
2.669999999999999
 20
2.424974179311579
 30
0.0
 11
2.579999999999999
 21
2.424974179311579
 31
0.0
  0
LINE
  5
5E4
330
5B8
100
AcDbEntity
  8
1
100
AcDbLine
 10
2.579999999999999
 20
2.424974179311579
 30
0.0
 11
2.669999999999999
 21
2.334974179311579
 31
0.0
  0
LINE
  5
5E5
330
5B8
100
AcDbEntity
  8
1
100
AcDbLine
 10
2.58
 20
3.754974179311579
 30
0.0
 11
2.669999999999999
 21
3.664974179311579
 31
0.0
  0
LINE
  5
5E6
330
5B8
100
AcDbEntity
  8
1
100
AcDbLine
 10
2.669999999999999
 20
3.664974179311579
 30
0.0
 11
2.58
 21
3.664974179311579
 31
0.0
  0
LINE
  5
5E7
330
5B8
100
AcDbEntity
  8
1
100
AcDbLine
 10
2.58
 20
3.664974179311579
 30
0.0
 11
2.669999999999999
 21
3.574974179311579
 31
0.0
  0
LINE
  5
5E8
330
5B8
100
AcDbEntity
  8
1
100
AcDbLine
 10
2.625
 20
3.625967704151865
 30
0.0
 11
2.625
 21
2.782474179311579
 31
0.0
  0
LINE
  5
5E9
330
5B8
100
AcDbEntity
  8
1
100
AcDbLine
 10
2.625
 20
2.782474179311579
 30
0.0
 11
2.625
 21
2.469974179311579
 31
0.0
  0
LINE
  5
5EA
330
5B8
100
AcDbEntity
  8
1
100
AcDbLine
 10
2.625
 20
2.379974179311579
 30
0.0
 11
2.624999999999999
 21
1.375
 31
0.0
  0
LINE
  5
5EB
330
5B8
100
AcDbEntity
  8
1
100
AcDbLine
 10
5.75
 20
1.5
 30
0.0
 11
5.937999999999999
 21
1.687999999999999
 31
0.0
  0
LINE
  5
5EC
330
5B8
100
AcDbEntity
  8
1
100
AcDbLine
 10
5.75
 20
1.625
 30
0.0
 11
5.937999999999999
 21
1.812999999999999
 31
0.0
  0
LINE
  5
5ED
330
5B8
100
AcDbEntity
  8
1
100
AcDbLine
 10
5.75
 20
2.0
 30
0.0
 11
5.937999999999999
 21
2.187999999999999
 31
0.0
  0
LINE
  5
5EE
330
5B8
100
AcDbEntity
  8
1
100
AcDbLine
 10
5.75
 20
2.125
 30
0.0
 11
5.937999999999999
 21
2.312999999999999
 31
0.0
  0
LINE
  5
5EF
330
5B8
100
AcDbEntity
  8
1
100
AcDbLine
 10
5.75
 20
2.25
 30
0.0
 11
5.937999999999999
 21
2.437999999999999
 31
0.0
  0
LINE
  5
5F0
330
5B8
100
AcDbEntity
  8
1
100
AcDbLine
 10
5.75
 20
2.375
 30
0.0
 11
5.937999999999999
 21
2.562999999999999
 31
0.0
  0
LINE
  5
5F1
330
5B8
100
AcDbEntity
  8
1
100
AcDbLine
 10
5.75
 20
2.5
 30
0.0
 11
5.937999999999999
 21
2.687999999999999
 31
0.0
  0
LINE
  5
5F2
330
5B8
100
AcDbEntity
  8
1
100
AcDbLine
 10
5.75
 20
2.625
 30
0.0
 11
5.937999999999999
 21
2.812999999999999
 31
0.0
  0
LINE
  5
5F3
330
5B8
100
AcDbEntity
  8
1
100
AcDbLine
 10
5.75
 20
2.75
 30
0.0
 11
5.937999999999999
 21
2.937999999999999
 31
0.0
  0
LINE
  5
5F4
330
5B8
100
AcDbEntity
  8
1
100
AcDbLine
 10
5.75
 20
2.875
 30
0.0
 11
5.937999999999999
 21
3.062999999999999
 31
0.0
  0
LINE
  5
5F5
330
5B8
100
AcDbEntity
  8
1
100
AcDbLine
 10
5.75
 20
3.0
 30
0.0
 11
5.937999999999999
 21
3.187999999999999
 31
0.0
  0
LINE
  5
5F6
330
5B8
100
AcDbEntity
  8
1
100
AcDbLine
 10
5.75
 20
3.125
 30
0.0
 11
5.937999999999999
 21
3.312999999999999
 31
0.0
  0
LINE
  5
5F7
330
5B8
100
AcDbEntity
  8
1
100
AcDbLine
 10
5.75
 20
3.25
 30
0.0
 11
5.937999999999999
 21
3.437999999999999
 31
0.0
  0
LINE
  5
5F8
330
5B8
100
AcDbEntity
  8
1
100
AcDbLine
 10
5.75
 20
3.375
 30
0.0
 11
5.937999999999999
 21
3.562999999999999
 31
0.0
  0
LINE
  5
5F9
330
5B8
100
AcDbEntity
  8
1
100
AcDbLine
 10
5.75
 20
3.5
 30
0.0
 11
5.937999999999999
 21
3.687999999999999
 31
0.0
  0
LINE
  5
5FA
330
5B8
100
AcDbEntity
  8
1
100
AcDbLine
 10
5.75
 20
3.625
 30
0.0
 11
5.937999999999999
 21
3.812999999999999
 31
0.0
  0
LINE
  5
5FB
330
5B8
100
AcDbEntity
  8
1
100
AcDbLine
 10
5.75
 20
3.75
 30
0.0
 11
5.937999999999999
 21
3.937999999999999
 31
0.0
  0
LINE
  5
5FC
330
5B8
100
AcDbEntity
  8
1
100
AcDbLine
 10
5.75
 20
3.875
 30
0.0
 11
5.937999999999999
 21
4.062999999999999
 31
0.0
  0
LINE
  5
5FD
330
5B8
100
AcDbEntity
  8
1
100
AcDbLine
 10
5.75
 20
4.0
 30
0.0
 11
5.937999999999999
 21
4.187999999999999
 31
0.0
  0
LINE
  5
5FE
330
5B8
100
AcDbEntity
  8
1
100
AcDbLine
 10
5.75
 20
4.125
 30
0.0
 11
5.937999999999999
 21
4.312999999999999
 31
0.0
  0
LINE
  5
5FF
330
5B8
100
AcDbEntity
  8
1
100
AcDbLine
 10
5.75
 20
4.25
 30
0.0
 11
5.937999999999999
 21
4.437999999999999
 31
0.0
  0
LINE
  5
600
330
5B8
100
AcDbEntity
  8
1
100
AcDbLine
 10
5.75
 20
4.375
 30
0.0
 11
5.937999999999999
 21
4.562999999999999
 31
0.0
  0
LINE
  5
601
330
5B8
100
AcDbEntity
  8
1
100
AcDbLine
 10
5.75
 20
4.5
 30
0.0
 11
5.937999999999999
 21
4.687999999999999
 31
0.0
  0
LINE
  5
602
330
5B8
100
AcDbEntity
  8
1
100
AcDbLine
 10
5.75
 20
4.625
 30
0.0
 11
5.937999999999999
 21
4.812999999999999
 31
0.0
  0
LINE
  5
603
330
5B8
100
AcDbEntity
  8
1
100
AcDbLine
 10
5.75
 20
4.75
 30
0.0
 11
5.875
 21
4.875
 31
0.0
  0
LINE
  5
604
330
5B8
100
AcDbEntity
  8
1
100
AcDbLine
 10
5.69
 20
1.5
 30
0.0
 11
5.69
 21
4.5
 31
0.0
  0
LINE
  5
605
330
5B8
100
AcDbEntity
  8
4
100
AcDbLine
 10
1.0
 20
1.437999999999999
 30
0.0
 11
0.9999999999999998
 21
0.9379999999999999
 31
0.0
  0
LINE
  5
606
330
5B8
100
AcDbEntity
  8
4
100
AcDbLine
 10
3.499999999999999
 20
1.437999999999999
 30
0.0
 11
3.499999999999999
 21
0.9379999999999999
 31
0.0
  0
LINE
  5
607
330
5B8
100
AcDbEntity
  8
4
100
AcDbLine
 10
3.499999999999999
 20
1.0
 30
0.0
 11
0.9999999999999998
 21
1.0
 31
0.0
  0
INSERT
  5
608
330
5B8
100
AcDbEntity
  8
4
100
AcDbBlockReference
  2
ARRO
 10
0.9999999999999998
 20
1.0
 30
0.0
  0
INSERT
  5
609
330
5B8
100
AcDbEntity
  8
4
100
AcDbBlockReference
  2
ARRO
 10
3.499999999999999
 20
0.9999999999999998
 30
0.0
 50
180.0
  0
LINE
  5
60A
330
5B8
100
AcDbEntity
  8
4
100
AcDbLine
 10
5.0025
 20
1.5
 30
0.0
 11
4.5025
 21
1.5
 31
0.0
  0
LINE
  5
60B
330
5B8
100
AcDbEntity
  8
4
100
AcDbLine
 10
4.5625
 20
1.5
 30
0.0
 11
4.5625
 21
4.5
 31
0.0
  0
LINE
  5
60C
330
5B8
100
AcDbEntity
  8
4
100
AcDbLine
 10
5.0025
 20
4.5
 30
0.0
 11
4.5025
 21
4.5
 31
0.0
  0
INSERT
  5
60D
330
5B8
100
AcDbEntity
  8
4
100
AcDbBlockReference
  2
ARRO
 10
4.5625
 20
4.5
 30
0.0
 50
270.0
  0
INSERT
  5
60E
330
5B8
100
AcDbEntity
  8
4
100
AcDbBlockReference
  2
ARRO
 10
4.5625
 20
1.5
 30
0.0
 50
90.0
  0
LINE
  5
60F
330
5B8
100
AcDbEntity
  8
4
100
AcDbLine
 10
5.69
 20
1.8125
 30
0.0
 11
5.065
 21
1.8125
 31
0.0
  0
LINE
  5
610
330
5B8
100
AcDbEntity
  8
4
100
AcDbLine
 10
5.75
 20
1.8125
 30
0.0
 11
6.0
 21
1.8125
 31
0.0
  0
LINE
  5
611
330
5B8
100
AcDbEntity
  8
4
100
AcDbLine
 10
6.375
 20
1.8125
 30
0.0
 11
7.625
 21
1.8125
 31
0.0
  0
INSERT
  5
612
330
5B8
100
AcDbEntity
  8
4
100
AcDbBlockReference
  2
ARRO
 10
5.065
 20
1.8125
 30
0.0
  0
INSERT
  5
613
330
5B8
100
AcDbEntity
  8
4
100
AcDbBlockReference
  2
ARRO
 10
5.69
 20
1.8125
 30
0.0
 50
180.0
  0
INSERT
  5
614
330
5B8
100
AcDbEntity
  8
4
100
AcDbBlockReference
  2
ARRO
 10
5.75
 20
1.8125
 30
0.0
  0
INSERT
  5
615
330
5B8
100
AcDbEntity
  8
4
100
AcDbBlockReference
  2
ARRO
 10
6.375
 20
1.8125
 30
0.0
  0
INSERT
  5
616
330
5B8
100
AcDbEntity
  8
4
100
AcDbBlockReference
  2
ARRO
 10
7.625
 20
1.8125
 30
0.0
 50
180.0
  0
LINE
  5
617
330
5B8
100
AcDbEntity
  8
1
100
AcDbLine
 10
1.062
 20
1.562
 30
0.0
 11
1.062
 21
2.96900587855713
 31
0.0
  0
LINE
  5
618
330
5B8
100
AcDbEntity
  8
1
100
AcDbLine
 10
1.062
 20
4.438
 30
0.0
 11
1.563
 21
4.438
 31
0.0
  0
LINE
  5
619
330
5B8
100
AcDbEntity
  8
1
100
AcDbLine
 10
1.563
 20
4.438
 30
0.0
 11
1.562999999999999
 21
3.03100587855713
 31
0.0
  0
LINE
  5
61A
330
5B8
100
AcDbEntity
  8
1
100
AcDbLine
 10
1.687
 20
1.562
 30
0.0
 11
1.687
 21
2.96900587855713
 31
0.0
  0
LINE
  5
61B
330
5B8
100
AcDbEntity
  8
1
100
AcDbLine
 10
1.687
 20
4.438
 30
0.0
 11
2.188
 21
4.438
 31
0.0
  0
LINE
  5
61C
330
5B8
100
AcDbEntity
  8
1
100
AcDbLine
 10
2.188
 20
4.438
 30
0.0
 11
2.188
 21
3.03100587855713
 31
0.0
  0
LINE
  5
61D
330
5B8
100
AcDbEntity
  8
1
100
AcDbLine
 10
2.187999999999999
 20
1.562
 30
0.0
 11
1.687
 21
1.562
 31
0.0
  0
LINE
  5
61E
330
5B8
100
AcDbEntity
  8
1
100
AcDbLine
 10
2.312
 20
1.562
 30
0.0
 11
2.312
 21
2.96900587855713
 31
0.0
  0
LINE
  5
61F
330
5B8
100
AcDbEntity
  8
1
100
AcDbLine
 10
2.312
 20
4.438
 30
0.0
 11
2.5
 21
4.438
 31
0.0
  0
LINE
  5
620
330
5B8
100
AcDbEntity
  8
1
100
AcDbLine
 10
2.813
 20
4.438
 30
0.0
 11
2.813
 21
3.03100587855713
 31
0.0
  0
LINE
  5
621
330
5B8
100
AcDbEntity
  8
1
100
AcDbLine
 10
2.812999999999999
 20
1.562
 30
0.0
 11
2.625
 21
1.562
 31
0.0
  0
LINE
  5
622
330
5B8
100
AcDbEntity
  8
1
100
AcDbLine
 10
2.937
 20
1.562
 30
0.0
 11
2.937
 21
2.96900587855713
 31
0.0
  0
LINE
  5
623
330
5B8
100
AcDbEntity
  8
1
100
AcDbLine
 10
2.937
 20
4.438
 30
0.0
 11
3.438
 21
4.438
 31
0.0
  0
LINE
  5
624
330
5B8
100
AcDbEntity
  8
1
100
AcDbLine
 10
3.438
 20
4.438
 30
0.0
 11
3.438
 21
3.03100587855713
 31
0.0
  0
LINE
  5
625
330
5B8
100
AcDbEntity
  8
1
100
AcDbLine
 10
3.437999999999999
 20
1.562
 30
0.0
 11
2.937
 21
1.562
 31
0.0
  0
LINE
  5
626
330
5B8
100
AcDbEntity
  8
1
100
AcDbLine
 10
1.625
 20
1.5
 30
0.0
 11
1.625
 21
4.5
 31
0.0
  0
LINE
  5
627
330
5B8
100
AcDbEntity
  8
1
100
AcDbLine
 10
2.25
 20
1.5
 30
0.0
 11
2.25
 21
4.5
 31
0.0
  0
LINE
  5
628
330
5B8
100
AcDbEntity
  8
1
100
AcDbLine
 10
2.875
 20
1.5
 30
0.0
 11
2.875
 21
4.5
 31
0.0
  0
LINE
  5
629
330
5B8
100
AcDbEntity
  8
1
100
AcDbLine
 10
2.625
 20
4.438
 30
0.0
 11
2.813
 21
4.438
 31
0.0
  0
LINE
  5
62A
330
5B8
100
AcDbEntity
  8
1
100
AcDbLine
 10
2.499999999999999
 20
1.562
 30
0.0
 11
2.312
 21
1.562
 31
0.0
  0
LINE
  5
62B
330
5B8
100
AcDbEntity
  8
4
100
AcDbLine
 10
1.9375
 20
4.406
 30
0.0
 11
1.9375
 21
4.531
 31
0.0
  0
CIRCLE
  5
62C
330
5B8
100
AcDbEntity
  8
4
100
AcDbCircle
 10
1.9375
 20
4.312
 30
0.0
 40
0.094
  0
CIRCLE
  5
62D
330
5B8
100
AcDbEntity
  8
4
100
AcDbCircle
 10
1.778866710308013
 20
1.373999999999999
 30
0.0
 40
0.094
  0
LINE
  5
62E
330
5B8
100
AcDbEntity
  8
4
100
AcDbLine
 10
1.778866710308013
 20
1.467999999999999
 30
0.0
 11
1.778866710308013
 21
1.592999999999999
 31
0.0
  0
CIRCLE
  5
62F
330
5B8
100
AcDbEntity
  8
4
100
AcDbCircle
 10
2.028866710308013
 20
1.373999999999999
 30
0.0
 40
0.094
  0
LINE
  5
630
330
5B8
100
AcDbEntity
  8
4
100
AcDbLine
 10
1.872866710308013
 20
1.373999999999999
 30
0.0
 11
1.934866710308013
 21
1.373999999999999
 31
0.0
  0
LINE
  5
631
330
5B8
100
AcDbEntity
  8
1
100
AcDbLine
 10
1.062
 20
1.562
 30
0.0
 11
1.562999999999999
 21
1.562
 31
0.0
  0
LINE
  5
632
330
5B8
100
AcDbEntity
  8
1
100
AcDbLine
 10
5.203499999999999
 20
4.5
 30
0.0
 11
5.188499999999999
 21
4.484999999999999
 31
0.0
  0
LINE
  5
633
330
5B8
100
AcDbEntity
  8
1
100
AcDbLine
 10
5.188499999999999
 20
4.484999999999999
 30
0.0
 11
5.090499999999999
 21
4.484999999999999
 31
0.0
  0
LINE
  5
634
330
5B8
100
AcDbEntity
  8
1
100
AcDbLine
 10
5.090499999999999
 20
4.484999999999999
 30
0.0
 11
5.090499999999999
 21
4.456753857562439
 31
0.0
  0
LINE
  5
635
330
5B8
100
AcDbEntity
  8
1
100
AcDbLine
 10
5.265499999999999
 20
4.437999999999999
 30
0.0
 11
5.203499999999999
 21
4.5
 31
0.0
  0
LINE
  5
636
330
5B8
100
AcDbEntity
  8
1
100
AcDbLine
 10
5.630499999999999
 20
4.437999999999999
 30
0.0
 11
5.265499999999999
 21
4.437999999999999
 31
0.0
  0
LINE
  5
637
330
5B8
100
AcDbEntity
  8
1
100
AcDbLine
 10
5.630499999999999
 20
4.5
 30
0.0
 11
5.630499999999999
 21
4.437999999999999
 31
0.0
  0
LINE
  5
638
330
5B8
100
AcDbEntity
  8
1
100
AcDbLine
 10
5.670499999999999
 20
4.5
 30
0.0
 11
5.670499999999999
 21
4.437999999999999
 31
0.0
  0
LINE
  5
639
330
5B8
100
AcDbEntity
  8
1
100
AcDbLine
 10
5.065499999999999
 20
4.5
 30
0.0
 11
5.173499999999998
 21
4.5
 31
0.0
  0
LINE
  5
63A
330
5B8
100
AcDbEntity
  8
1
100
AcDbLine
 10
5.065499999999999
 20
4.437999999999999
 30
0.0
 11
5.065499999999999
 21
4.5
 31
0.0
  0
LINE
  5
63B
330
5B8
100
AcDbEntity
  8
1
100
AcDbLine
 10
5.127499999999999
 20
4.437999999999999
 30
0.0
 11
5.065499999999999
 21
4.437999999999999
 31
0.0
  0
LINE
  5
63C
330
5B8
100
AcDbEntity
  8
1
100
AcDbLine
 10
5.203499999999999
 20
4.5
 30
0.0
 11
5.670499999999999
 21
4.5
 31
0.0
  0
LINE
  5
63D
330
5B8
100
AcDbEntity
  8
1
100
AcDbLine
 10
6.513499999999998
 20
4.5
 30
0.0
 11
6.980499999999999
 21
4.5
 31
0.0
  0
LINE
  5
63E
330
5B8
100
AcDbEntity
  8
1
100
AcDbLine
 10
6.437499999999999
 20
4.437999999999999
 30
0.0
 11
6.375499999999998
 21
4.437999999999999
 31
0.0
  0
LINE
  5
63F
330
5B8
100
AcDbEntity
  8
1
100
AcDbLine
 10
6.375499999999998
 20
4.437999999999999
 30
0.0
 11
6.375499999999998
 21
4.5
 31
0.0
  0
LINE
  5
640
330
5B8
100
AcDbEntity
  8
1
100
AcDbLine
 10
6.375499999999998
 20
4.5
 30
0.0
 11
6.483499999999998
 21
4.5
 31
0.0
  0
LINE
  5
641
330
5B8
100
AcDbEntity
  8
1
100
AcDbLine
 10
6.980499999999999
 20
4.5
 30
0.0
 11
6.980499999999999
 21
4.437999999999999
 31
0.0
  0
LINE
  5
642
330
5B8
100
AcDbEntity
  8
1
100
AcDbLine
 10
6.940499999999999
 20
4.5
 30
0.0
 11
6.940499999999999
 21
4.437999999999999
 31
0.0
  0
LINE
  5
643
330
5B8
100
AcDbEntity
  8
1
100
AcDbLine
 10
6.940499999999999
 20
4.437999999999999
 30
0.0
 11
6.575499999999999
 21
4.437999999999999
 31
0.0
  0
LINE
  5
644
330
5B8
100
AcDbEntity
  8
1
100
AcDbLine
 10
6.575499999999999
 20
4.437999999999999
 30
0.0
 11
6.513499999999998
 21
4.5
 31
0.0
  0
LINE
  5
645
330
5B8
100
AcDbEntity
  8
1
100
AcDbLine
 10
6.400499999999999
 20
4.484999999999999
 30
0.0
 11
6.400499999999999
 21
4.456753857562439
 31
0.0
  0
LINE
  5
646
330
5B8
100
AcDbEntity
  8
1
100
AcDbLine
 10
6.498499999999999
 20
4.484999999999999
 30
0.0
 11
6.400499999999999
 21
4.484999999999999
 31
0.0
  0
LINE
  5
647
330
5B8
100
AcDbEntity
  8
1
100
AcDbLine
 10
6.513499999999998
 20
4.5
 30
0.0
 11
6.498499999999999
 21
4.484999999999999
 31
0.0
  0
LINE
  5
648
330
5B8
100
AcDbEntity
  8
1
100
AcDbLine
 10
7.486500000000001
 20
4.5
 30
0.0
 11
7.5015
 21
4.484999999999999
 31
0.0
  0
LINE
  5
649
330
5B8
100
AcDbEntity
  8
1
100
AcDbLine
 10
7.5015
 20
4.484999999999999
 30
0.0
 11
7.5995
 21
4.484999999999999
 31
0.0
  0
LINE
  5
64A
330
5B8
100
AcDbEntity
  8
1
100
AcDbLine
 10
7.5995
 20
4.484999999999999
 30
0.0
 11
7.5995
 21
4.456753857562439
 31
0.0
  0
LINE
  5
64B
330
5B8
100
AcDbEntity
  8
1
100
AcDbLine
 10
7.4245
 20
4.437999999999999
 30
0.0
 11
7.486500000000001
 21
4.5
 31
0.0
  0
LINE
  5
64C
330
5B8
100
AcDbEntity
  8
1
100
AcDbLine
 10
7.0595
 20
4.437999999999999
 30
0.0
 11
7.4245
 21
4.437999999999999
 31
0.0
  0
LINE
  5
64D
330
5B8
100
AcDbEntity
  8
1
100
AcDbLine
 10
7.0595
 20
4.5
 30
0.0
 11
7.0595
 21
4.437999999999999
 31
0.0
  0
LINE
  5
64E
330
5B8
100
AcDbEntity
  8
1
100
AcDbLine
 10
7.0195
 20
4.5
 30
0.0
 11
7.0195
 21
4.437999999999999
 31
0.0
  0
LINE
  5
64F
330
5B8
100
AcDbEntity
  8
1
100
AcDbLine
 10
7.624500000000001
 20
4.5
 30
0.0
 11
7.516500000000001
 21
4.5
 31
0.0
  0
LINE
  5
650
330
5B8
100
AcDbEntity
  8
1
100
AcDbLine
 10
7.624500000000001
 20
4.437999999999999
 30
0.0
 11
7.624500000000001
 21
4.5
 31
0.0
  0
LINE
  5
651
330
5B8
100
AcDbEntity
  8
1
100
AcDbLine
 10
7.5625
 20
4.437999999999999
 30
0.0
 11
7.624500000000001
 21
4.437999999999999
 31
0.0
  0
LINE
  5
652
330
5B8
100
AcDbEntity
  8
1
100
AcDbLine
 10
7.486500000000001
 20
4.5
 30
0.0
 11
7.0195
 21
4.5
 31
0.0
  0
LINE
  5
653
330
5B8
100
AcDbEntity
  8
1
100
AcDbLine
 10
7.486500000000001
 20
1.5625
 30
0.0
 11
7.0195
 21
1.5625
 31
0.0
  0
LINE
  5
654
330
5B8
100
AcDbEntity
  8
1
100
AcDbLine
 10
7.5625
 20
1.500499999999999
 30
0.0
 11
7.624500000000001
 21
1.500499999999999
 31
0.0
  0
LINE
  5
655
330
5B8
100
AcDbEntity
  8
1
100
AcDbLine
 10
7.624500000000001
 20
1.500499999999999
 30
0.0
 11
7.624500000000001
 21
1.5625
 31
0.0
  0
LINE
  5
656
330
5B8
100
AcDbEntity
  8
1
100
AcDbLine
 10
7.624500000000001
 20
1.5625
 30
0.0
 11
7.516500000000001
 21
1.5625
 31
0.0
  0
LINE
  5
657
330
5B8
100
AcDbEntity
  8
1
100
AcDbLine
 10
7.0195
 20
1.5625
 30
0.0
 11
7.0195
 21
1.500499999999999
 31
0.0
  0
LINE
  5
658
330
5B8
100
AcDbEntity
  8
1
100
AcDbLine
 10
7.0595
 20
1.5625
 30
0.0
 11
7.0595
 21
1.500499999999999
 31
0.0
  0
LINE
  5
659
330
5B8
100
AcDbEntity
  8
1
100
AcDbLine
 10
7.0595
 20
1.500499999999999
 30
0.0
 11
7.4245
 21
1.500499999999999
 31
0.0
  0
LINE
  5
65A
330
5B8
100
AcDbEntity
  8
1
100
AcDbLine
 10
7.4245
 20
1.500499999999999
 30
0.0
 11
7.486500000000001
 21
1.5625
 31
0.0
  0
LINE
  5
65B
330
5B8
100
AcDbEntity
  8
1
100
AcDbLine
 10
7.5995
 20
1.547499999999999
 30
0.0
 11
7.5995
 21
1.519253857562439
 31
0.0
  0
LINE
  5
65C
330
5B8
100
AcDbEntity
  8
1
100
AcDbLine
 10
7.5015
 20
1.547499999999999
 30
0.0
 11
7.5995
 21
1.547499999999999
 31
0.0
  0
LINE
  5
65D
330
5B8
100
AcDbEntity
  8
1
100
AcDbLine
 10
7.486500000000001
 20
1.5625
 30
0.0
 11
7.5015
 21
1.547499999999999
 31
0.0
  0
LINE
  5
65E
330
5B8
100
AcDbEntity
  8
1
100
AcDbLine
 10
6.513499999999998
 20
1.5625
 30
0.0
 11
6.498499999999999
 21
1.547499999999999
 31
0.0
  0
LINE
  5
65F
330
5B8
100
AcDbEntity
  8
1
100
AcDbLine
 10
6.498499999999999
 20
1.547499999999999
 30
0.0
 11
6.400499999999999
 21
1.547499999999999
 31
0.0
  0
LINE
  5
660
330
5B8
100
AcDbEntity
  8
1
100
AcDbLine
 10
6.400499999999999
 20
1.547499999999999
 30
0.0
 11
6.400499999999999
 21
1.519253857562439
 31
0.0
  0
LINE
  5
661
330
5B8
100
AcDbEntity
  8
1
100
AcDbLine
 10
6.575499999999999
 20
1.500499999999999
 30
0.0
 11
6.513499999999998
 21
1.5625
 31
0.0
  0
LINE
  5
662
330
5B8
100
AcDbEntity
  8
1
100
AcDbLine
 10
6.940499999999999
 20
1.500499999999999
 30
0.0
 11
6.575499999999999
 21
1.500499999999999
 31
0.0
  0
LINE
  5
663
330
5B8
100
AcDbEntity
  8
1
100
AcDbLine
 10
6.940499999999999
 20
1.5625
 30
0.0
 11
6.940499999999999
 21
1.500499999999999
 31
0.0
  0
LINE
  5
664
330
5B8
100
AcDbEntity
  8
1
100
AcDbLine
 10
6.980499999999999
 20
1.5625
 30
0.0
 11
6.980499999999999
 21
1.500499999999999
 31
0.0
  0
LINE
  5
665
330
5B8
100
AcDbEntity
  8
1
100
AcDbLine
 10
6.375499999999998
 20
1.5625
 30
0.0
 11
6.483499999999998
 21
1.5625
 31
0.0
  0
LINE
  5
666
330
5B8
100
AcDbEntity
  8
1
100
AcDbLine
 10
6.375499999999998
 20
1.500499999999999
 30
0.0
 11
6.375499999999998
 21
1.5625
 31
0.0
  0
LINE
  5
667
330
5B8
100
AcDbEntity
  8
1
100
AcDbLine
 10
6.437499999999999
 20
1.500499999999999
 30
0.0
 11
6.375499999999998
 21
1.500499999999999
 31
0.0
  0
LINE
  5
668
330
5B8
100
AcDbEntity
  8
1
100
AcDbLine
 10
6.513499999999998
 20
1.5625
 30
0.0
 11
6.980499999999999
 21
1.5625
 31
0.0
  0
LINE
  5
669
330
5B8
100
AcDbEntity
  8
1
100
AcDbLine
 10
5.203499999999999
 20
1.5625
 30
0.0
 11
5.670499999999999
 21
1.5625
 31
0.0
  0
LINE
  5
66A
330
5B8
100
AcDbEntity
  8
1
100
AcDbLine
 10
5.127499999999999
 20
1.500499999999999
 30
0.0
 11
5.065499999999999
 21
1.500499999999999
 31
0.0
  0
LINE
  5
66B
330
5B8
100
AcDbEntity
  8
1
100
AcDbLine
 10
5.065499999999999
 20
1.500499999999999
 30
0.0
 11
5.065499999999999
 21
1.5625
 31
0.0
  0
LINE
  5
66C
330
5B8
100
AcDbEntity
  8
1
100
AcDbLine
 10
5.065499999999999
 20
1.5625
 30
0.0
 11
5.173499999999998
 21
1.5625
 31
0.0
  0
LINE
  5
66D
330
5B8
100
AcDbEntity
  8
1
100
AcDbLine
 10
5.670499999999999
 20
1.5625
 30
0.0
 11
5.670499999999999
 21
1.500499999999999
 31
0.0
  0
LINE
  5
66E
330
5B8
100
AcDbEntity
  8
1
100
AcDbLine
 10
5.630499999999999
 20
1.5625
 30
0.0
 11
5.630499999999999
 21
1.500499999999999
 31
0.0
  0
LINE
  5
66F
330
5B8
100
AcDbEntity
  8
1
100
AcDbLine
 10
5.630499999999999
 20
1.500499999999999
 30
0.0
 11
5.265499999999999
 21
1.500499999999999
 31
0.0
  0
LINE
  5
670
330
5B8
100
AcDbEntity
  8
1
100
AcDbLine
 10
5.265499999999999
 20
1.500499999999999
 30
0.0
 11
5.203499999999999
 21
1.5625
 31
0.0
  0
LINE
  5
671
330
5B8
100
AcDbEntity
  8
1
100
AcDbLine
 10
5.090499999999999
 20
1.547499999999999
 30
0.0
 11
5.090499999999999
 21
1.519253857562439
 31
0.0
  0
LINE
  5
672
330
5B8
100
AcDbEntity
  8
1
100
AcDbLine
 10
5.188499999999999
 20
1.547499999999999
 30
0.0
 11
5.090499999999999
 21
1.547499999999999
 31
0.0
  0
LINE
  5
673
330
5B8
100
AcDbEntity
  8
1
100
AcDbLine
 10
5.203499999999999
 20
1.5625
 30
0.0
 11
5.188499999999999
 21
1.547499999999999
 31
0.0
  0
LINE
  5
674
330
5B8
100
AcDbEntity
  8
1
100
AcDbLine
 10
1.062
 20
3.03100587855713
 30
0.0
 11
1.062
 21
4.438
 31
0.0
  0
LINE
  5
675
330
5B8
100
AcDbEntity
  8
1
100
AcDbLine
 10
1.562999999999999
 20
2.96900587855713
 30
0.0
 11
1.562999999999999
 21
1.562
 31
0.0
  0
LINE
  5
676
330
5B8
100
AcDbEntity
  8
1
100
AcDbLine
 10
1.687
 20
3.03100587855713
 30
0.0
 11
1.687
 21
4.438
 31
0.0
  0
LINE
  5
677
330
5B8
100
AcDbEntity
  8
1
100
AcDbLine
 10
2.187999999999999
 20
2.96900587855713
 30
0.0
 11
2.187999999999999
 21
1.562
 31
0.0
  0
LINE
  5
678
330
5B8
100
AcDbEntity
  8
1
100
AcDbLine
 10
2.312
 20
3.03100587855713
 30
0.0
 11
2.312
 21
4.438
 31
0.0
  0
LINE
  5
679
330
5B8
100
AcDbEntity
  8
1
100
AcDbLine
 10
2.812999999999999
 20
2.96900587855713
 30
0.0
 11
2.812999999999999
 21
1.562
 31
0.0
  0
LINE
  5
67A
330
5B8
100
AcDbEntity
  8
1
100
AcDbLine
 10
2.937
 20
3.03100587855713
 30
0.0
 11
2.937
 21
4.438
 31
0.0
  0
LINE
  5
67B
330
5B8
100
AcDbEntity
  8
1
100
AcDbLine
 10
3.437999999999999
 20
2.96900587855713
 30
0.0
 11
3.437999999999999
 21
1.562
 31
0.0
  0
ENDBLK
  5
67D
330
5B8
100
AcDbEntity
  8
0
100
AcDbBlockEnd
  0
BLOCK
  5
726
330
67F
100
AcDbEntity
  8
0
100
AcDbBlockBegin
  2
Le1020
 70
     0
 10
0.0
 20
0.0
 30
0.0
  3
Le1020
  1

  0
CIRCLE
  5
680
330
67F
100
AcDbEntity
  8
4
100
AcDbCircle
 10
1.207234055463451
 20
2.265483801611809
 30
0.0
 40
0.023
  0
LWPOLYLINE
  5
681
330
67F
100
AcDbEntity
  8
4
100
AcDbPolyline
 90
        2
 70
     1
 43
0.01
 10
1.202234055463451
 20
2.317983801611808
 42
1.0
 10
1.212234055463451
 20
2.317983801611808
 42
1.0
  0
LWPOLYLINE
  5
682
330
67F
100
AcDbEntity
  8
4
100
AcDbPolyline
 90
        2
 70
     1
 43
0.01
 10
1.202234055463451
 20
2.212983801611808
 42
1.0
 10
1.212234055463451
 20
2.212983801611808
 42
1.0
  0
CIRCLE
  5
683
330
67F
100
AcDbEntity
  8
4
100
AcDbCircle
 10
1.207234055463451
 20
3.734483801611808
 30
0.0
 40
0.023
  0
LWPOLYLINE
  5
684
330
67F
100
AcDbEntity
  8
4
100
AcDbPolyline
 90
        2
 70
     1
 43
0.01
 10
1.202234055463451
 20
3.786983801611808
 42
1.0
 10
1.212234055463451
 20
3.786983801611808
 42
1.0
  0
LWPOLYLINE
  5
685
330
67F
100
AcDbEntity
  8
4
100
AcDbPolyline
 90
        2
 70
     1
 43
0.01
 10
1.202234055463451
 20
3.681983801611808
 42
1.0
 10
1.212234055463451
 20
3.681983801611808
 42
1.0
  0
LINE
  5
686
330
67F
100
AcDbEntity
  8
8
100
AcDbLine
 10
4.022399952231749
 20
0.0667078154663381
 30
0.0
 11
4.512399952231749
 21
0.0667078154663381
 31
0.0
  0
INSERT
  5
687
330
67F
100
AcDbEntity
  8
8
100
AcDbBlockReference
  2
TEMP2
 10
4.8125
 20
1.561999999999999
 30
0.0
  0
INSERT
  5
688
330
67F
100
AcDbEntity
  8
8
100
AcDbBlockReference
  2
TEMP3
 10
0.5859118825233172
 20
3.936828065315101
 30
0.0
  0
TEXT
  5
689
330
67F
100
AcDbEntity
  8
8
100
AcDbText
 10
2.270833333333333
 20
0.094
 30
0.0
 40
0.125
  1
QUIET LOCKER -     " DOUBLE TIER
  7
ROMANS
 72
     1
 11
4.125
 21
0.094
 31
0.0
100
AcDbText
  0
LINE
  5
68A
330
67F
100
AcDbEntity
  8
4
100
AcDbLine
 10
4.8125
 20
1.5
 30
0.0
 11
4.8125
 21
1.375
 31
0.0
  0
LINE
  5
68B
330
67F
100
AcDbEntity
  8
4
100
AcDbLine
 10
5.0025
 20
1.562
 30
0.0
 11
4.8125
 21
1.562
 31
0.0
  0
LINE
  5
68C
330
67F
100
AcDbEntity
  8
4
100
AcDbLine
 10
4.8125
 20
1.562
 30
0.0
 11
4.750499999999999
 21
1.562
 31
0.0
  0
INSERT
  5
68D
330
67F
100
AcDbEntity
  8
4
100
AcDbBlockReference
  2
ARRO
 10
4.8125
 20
1.562
 30
0.0
 50
90.0
  0
INSERT
  5
68E
330
67F
100
AcDbEntity
  8
4
100
AcDbBlockReference
  2
ARRO
 10
4.8125
 20
1.5
 30
0.0
 50
270.0
  0
LINE
  5
68F
330
67F
100
AcDbEntity
  8
4
100
AcDbLine
 10
5.0655
 20
1.594
 30
0.0
 11
5.1275
 21
1.594
 31
0.0
  0
LINE
  5
690
330
67F
100
AcDbEntity
  8
4
100
AcDbLine
 10
6.375499999999999
 20
1.594
 30
0.0
 11
6.4375
 21
1.594
 31
0.0
  0
LINE
  5
691
330
67F
100
AcDbEntity
  8
4
100
AcDbLine
 10
7.6245
 20
1.594
 30
0.0
 11
7.5625
 21
1.594
 31
0.0
  0
LINE
  5
692
330
67F
100
AcDbEntity
  8
4
100
AcDbLine
 10
7.6245
 20
2.93700587855713
 30
0.0
 11
7.6245
 21
1.594
 31
0.0
  0
LINE
  5
693
330
67F
100
AcDbEntity
  8
4
100
AcDbLine
 10
6.375499999999999
 20
2.93700587855713
 30
0.0
 11
6.375499999999999
 21
1.594
 31
0.0
  0
LINE
  5
694
330
67F
100
AcDbEntity
  8
4
100
AcDbLine
 10
5.0655
 20
2.93700587855713
 30
0.0
 11
5.0655
 21
1.594
 31
0.0
  0
LINE
  5
695
330
67F
100
AcDbEntity
  8
4
100
AcDbLine
 10
4.8125
 20
4.5
 30
0.0
 11
4.8125
 21
1.562
 31
0.0
  0
LINE
  5
696
330
67F
100
AcDbEntity
  8
4
100
AcDbLine
 10
7.301520109897515
 20
2.91104618398978
 30
0.0
 11
7.301520109897515
 21
2.84904618398978
 31
0.0
  0
LINE
  5
697
330
67F
100
AcDbEntity
  8
4
100
AcDbLine
 10
7.332520109897515
 20
2.91104618398978
 30
0.0
 11
7.270520109897516
 21
2.91104618398978
 31
0.0
  0
LINE
  5
698
330
67F
100
AcDbEntity
  8
4
100
AcDbLine
 10
7.0195
 20
2.874046183989781
 30
0.0
 11
7.0195
 21
2.92404618398978
 31
0.0
  0
ARC
  5
699
330
67F
100
AcDbEntity
  8
4
100
AcDbCircle
 10
7.0445
 20
2.874046183989781
 30
0.0
 40
0.025
100
AcDbArc
 50
180.0
 51
0.0
  0
ARC
  5
69A
330
67F
100
AcDbEntity
  8
4
100
AcDbCircle
 10
6.9555
 20
2.874046183989781
 30
0.0
 40
0.025
100
AcDbArc
 50
180.0
 51
0.0
  0
LINE
  5
69B
330
67F
100
AcDbEntity
  8
4
100
AcDbLine
 10
6.9805
 20
2.874046183989781
 30
0.0
 11
6.9805
 21
2.92404618398978
 31
0.0
  0
LINE
  5
69C
330
67F
100
AcDbEntity
  8
4
100
AcDbLine
 10
6.667479890102485
 20
2.91104618398978
 30
0.0
 11
6.729479890102484
 21
2.91104618398978
 31
0.0
  0
LINE
  5
69D
330
67F
100
AcDbEntity
  8
4
100
AcDbLine
 10
6.698479890102484
 20
2.91104618398978
 30
0.0
 11
6.698479890102484
 21
2.84904618398978
 31
0.0
  0
LINE
  5
69E
330
67F
100
AcDbEntity
  8
4
100
AcDbLine
 10
5.388479890102485
 20
2.91104618398978
 30
0.0
 11
5.388479890102485
 21
2.84904618398978
 31
0.0
  0
LINE
  5
69F
330
67F
100
AcDbEntity
  8
4
100
AcDbLine
 10
5.357479890102485
 20
2.91104618398978
 30
0.0
 11
5.419479890102484
 21
2.91104618398978
 31
0.0
  0
LINE
  5
6A0
330
67F
100
AcDbEntity
  8
4
100
AcDbLine
 10
5.6705
 20
2.874046183989781
 30
0.0
 11
5.6705
 21
2.92404618398978
 31
0.0
  0
ARC
  5
6A1
330
67F
100
AcDbEntity
  8
4
100
AcDbCircle
 10
5.645500000000001
 20
2.874046183989781
 30
0.0
 40
0.025
100
AcDbArc
 50
180.0
 51
0.0
  0
LINE
  5
6A2
330
67F
100
AcDbEntity
  8
4
100
AcDbLine
 10
6.375499999999999
 20
2.93700587855713
 30
0.0
 11
6.437499999999999
 21
2.93700587855713
 31
0.0
  0
LINE
  5
6A3
330
67F
100
AcDbEntity
  8
4
100
AcDbLine
 10
7.5625
 20
2.93700587855713
 30
0.0
 11
7.624499999999999
 21
2.93700587855713
 31
0.0
  0
LINE
  5
6A4
330
67F
100
AcDbEntity
  8
4
100
AcDbLine
 10
7.5625
 20
3.062961724666486
 30
0.0
 11
7.624499999999999
 21
3.062961724666486
 31
0.0
  0
LINE
  5
6A5
330
67F
100
AcDbEntity
  8
4
100
AcDbLine
 10
6.375499999999998
 20
3.062961724666486
 30
0.0
 11
6.437499999999999
 21
3.062961724666486
 31
0.0
  0
LINE
  5
6A6
330
67F
100
AcDbEntity
  8
4
100
AcDbLine
 10
5.0655
 20
2.93700587855713
 30
0.0
 11
5.1275
 21
2.93700587855713
 31
0.0
  0
LINE
  5
6A7
330
67F
100
AcDbEntity
  8
4
100
AcDbLine
 10
5.0655
 20
3.062961724666487
 30
0.0
 11
5.127499999999999
 21
3.062961724666487
 31
0.0
  0
LINE
  5
6A8
330
67F
100
AcDbEntity
  8
4
100
AcDbLine
 10
7.486500000000001
 20
3.03100587855713
 30
0.0
 11
7.0195
 21
3.03100587855713
 31
0.0
  0
LINE
  5
6A9
330
67F
100
AcDbEntity
  8
4
100
AcDbLine
 10
7.5625
 20
2.96900587855713
 30
0.0
 11
7.624500000000001
 21
2.96900587855713
 31
0.0
  0
LINE
  5
6AA
330
67F
100
AcDbEntity
  8
4
100
AcDbLine
 10
7.624500000000001
 20
2.96900587855713
 30
0.0
 11
7.624500000000001
 21
3.03100587855713
 31
0.0
  0
LINE
  5
6AB
330
67F
100
AcDbEntity
  8
4
100
AcDbLine
 10
7.624500000000001
 20
3.03100587855713
 30
0.0
 11
7.516500000000001
 21
3.03100587855713
 31
0.0
  0
LINE
  5
6AC
330
67F
100
AcDbEntity
  8
4
100
AcDbLine
 10
7.0195
 20
3.03100587855713
 30
0.0
 11
7.0195
 21
2.96900587855713
 31
0.0
  0
LINE
  5
6AD
330
67F
100
AcDbEntity
  8
4
100
AcDbLine
 10
7.0595
 20
3.03100587855713
 30
0.0
 11
7.0595
 21
2.96900587855713
 31
0.0
  0
LINE
  5
6AE
330
67F
100
AcDbEntity
  8
4
100
AcDbLine
 10
7.0595
 20
2.96900587855713
 30
0.0
 11
7.4245
 21
2.96900587855713
 31
0.0
  0
LINE
  5
6AF
330
67F
100
AcDbEntity
  8
4
100
AcDbLine
 10
7.4245
 20
2.96900587855713
 30
0.0
 11
7.486500000000001
 21
3.03100587855713
 31
0.0
  0
LINE
  5
6B0
330
67F
100
AcDbEntity
  8
4
100
AcDbLine
 10
7.5995
 20
3.016005878557129
 30
0.0
 11
7.5995
 21
2.98775973611957
 31
0.0
  0
LINE
  5
6B1
330
67F
100
AcDbEntity
  8
4
100
AcDbLine
 10
7.5015
 20
3.016005878557129
 30
0.0
 11
7.5995
 21
3.016005878557129
 31
0.0
  0
LINE
  5
6B2
330
67F
100
AcDbEntity
  8
4
100
AcDbLine
 10
7.486500000000001
 20
3.03100587855713
 30
0.0
 11
7.5015
 21
3.016005878557129
 31
0.0
  0
LINE
  5
6B3
330
67F
100
AcDbEntity
  8
4
100
AcDbLine
 10
6.513499999999998
 20
3.03100587855713
 30
0.0
 11
6.498499999999999
 21
3.016005878557129
 31
0.0
  0
LINE
  5
6B4
330
67F
100
AcDbEntity
  8
4
100
AcDbLine
 10
6.498499999999999
 20
3.016005878557129
 30
0.0
 11
6.400499999999999
 21
3.016005878557129
 31
0.0
  0
LINE
  5
6B5
330
67F
100
AcDbEntity
  8
4
100
AcDbLine
 10
6.400499999999999
 20
3.016005878557129
 30
0.0
 11
6.400499999999999
 21
2.98775973611957
 31
0.0
  0
LINE
  5
6B6
330
67F
100
AcDbEntity
  8
4
100
AcDbLine
 10
6.575499999999999
 20
2.96900587855713
 30
0.0
 11
6.513499999999998
 21
3.03100587855713
 31
0.0
  0
LINE
  5
6B7
330
67F
100
AcDbEntity
  8
4
100
AcDbLine
 10
6.940499999999999
 20
2.96900587855713
 30
0.0
 11
6.575499999999999
 21
2.96900587855713
 31
0.0
  0
LINE
  5
6B8
330
67F
100
AcDbEntity
  8
4
100
AcDbLine
 10
6.940499999999999
 20
3.03100587855713
 30
0.0
 11
6.940499999999999
 21
2.96900587855713
 31
0.0
  0
LINE
  5
6B9
330
67F
100
AcDbEntity
  8
4
100
AcDbLine
 10
6.980499999999999
 20
3.03100587855713
 30
0.0
 11
6.980499999999999
 21
2.96900587855713
 31
0.0
  0
LINE
  5
6BA
330
67F
100
AcDbEntity
  8
4
100
AcDbLine
 10
6.375499999999998
 20
3.03100587855713
 30
0.0
 11
6.483499999999998
 21
3.03100587855713
 31
0.0
  0
LINE
  5
6BB
330
67F
100
AcDbEntity
  8
4
100
AcDbLine
 10
6.375499999999998
 20
2.96900587855713
 30
0.0
 11
6.375499999999998
 21
3.03100587855713
 31
0.0
  0
LINE
  5
6BC
330
67F
100
AcDbEntity
  8
4
100
AcDbLine
 10
6.437499999999999
 20
2.96900587855713
 30
0.0
 11
6.375499999999998
 21
2.96900587855713
 31
0.0
  0
LINE
  5
6BD
330
67F
100
AcDbEntity
  8
4
100
AcDbLine
 10
6.513499999999998
 20
3.03100587855713
 30
0.0
 11
6.980499999999999
 21
3.03100587855713
 31
0.0
  0
LINE
  5
6BE
330
67F
100
AcDbEntity
  8
4
100
AcDbLine
 10
5.203499999999999
 20
3.03100587855713
 30
0.0
 11
5.670499999999999
 21
3.03100587855713
 31
0.0
  0
LINE
  5
6BF
330
67F
100
AcDbEntity
  8
4
100
AcDbLine
 10
5.127499999999999
 20
2.96900587855713
 30
0.0
 11
5.065499999999999
 21
2.96900587855713
 31
0.0
  0
LINE
  5
6C0
330
67F
100
AcDbEntity
  8
4
100
AcDbLine
 10
5.065499999999999
 20
2.96900587855713
 30
0.0
 11
5.065499999999999
 21
3.03100587855713
 31
0.0
  0
LINE
  5
6C1
330
67F
100
AcDbEntity
  8
4
100
AcDbLine
 10
5.065499999999999
 20
3.03100587855713
 30
0.0
 11
5.173499999999998
 21
3.03100587855713
 31
0.0
  0
LINE
  5
6C2
330
67F
100
AcDbEntity
  8
4
100
AcDbLine
 10
5.670499999999999
 20
3.03100587855713
 30
0.0
 11
5.670499999999999
 21
2.96900587855713
 31
0.0
  0
LINE
  5
6C3
330
67F
100
AcDbEntity
  8
4
100
AcDbLine
 10
5.630499999999999
 20
3.03100587855713
 30
0.0
 11
5.630499999999999
 21
2.96900587855713
 31
0.0
  0
LINE
  5
6C4
330
67F
100
AcDbEntity
  8
4
100
AcDbLine
 10
5.630499999999999
 20
2.96900587855713
 30
0.0
 11
5.265499999999999
 21
2.96900587855713
 31
0.0
  0
LINE
  5
6C5
330
67F
100
AcDbEntity
  8
4
100
AcDbLine
 10
5.265499999999999
 20
2.96900587855713
 30
0.0
 11
5.203499999999999
 21
3.03100587855713
 31
0.0
  0
LINE
  5
6C6
330
67F
100
AcDbEntity
  8
4
100
AcDbLine
 10
5.090499999999999
 20
3.016005878557129
 30
0.0
 11
5.090499999999999
 21
2.98775973611957
 31
0.0
  0
LINE
  5
6C7
330
67F
100
AcDbEntity
  8
4
100
AcDbLine
 10
5.188499999999999
 20
3.016005878557129
 30
0.0
 11
5.090499999999999
 21
3.016005878557129
 31
0.0
  0
LINE
  5
6C8
330
67F
100
AcDbEntity
  8
4
100
AcDbLine
 10
5.203499999999999
 20
3.03100587855713
 30
0.0
 11
5.188499999999999
 21
3.016005878557129
 31
0.0
  0
INSERT
  5
6C9
330
67F
100
AcDbEntity
  8
4
100
AcDbBlockReference
  2
ARRO
 10
4.8125
 20
4.5
 30
0.0
 50
270.0
  0
ARC
  5
6CA
330
67F
100
AcDbEntity
  8
4
100
AcDbCircle
 10
5.645500000000001
 20
4.343000000000001
 30
0.0
 40
0.025
100
AcDbArc
 50
180.0
 51
0.0
  0
LINE
  5
6CB
330
67F
100
AcDbEntity
  8
4
100
AcDbLine
 10
5.6705
 20
4.343000000000001
 30
0.0
 11
5.6705
 21
4.393
 31
0.0
  0
LINE
  5
6CC
330
67F
100
AcDbEntity
  8
4
100
AcDbLine
 10
5.357479890102485
 20
4.379999999999999
 30
0.0
 11
5.419479890102484
 21
4.379999999999999
 31
0.0
  0
LINE
  5
6CD
330
67F
100
AcDbEntity
  8
4
100
AcDbLine
 10
5.388479890102485
 20
4.379999999999999
 30
0.0
 11
5.388479890102485
 21
4.318
 31
0.0
  0
LINE
  5
6CE
330
67F
100
AcDbEntity
  8
4
100
AcDbLine
 10
6.698479890102484
 20
4.379999999999999
 30
0.0
 11
6.698479890102484
 21
4.318
 31
0.0
  0
LINE
  5
6CF
330
67F
100
AcDbEntity
  8
4
100
AcDbLine
 10
6.667479890102485
 20
4.379999999999999
 30
0.0
 11
6.729479890102484
 21
4.379999999999999
 31
0.0
  0
LINE
  5
6D0
330
67F
100
AcDbEntity
  8
4
100
AcDbLine
 10
6.9805
 20
4.343000000000001
 30
0.0
 11
6.9805
 21
4.393
 31
0.0
  0
ARC
  5
6D1
330
67F
100
AcDbEntity
  8
4
100
AcDbCircle
 10
6.9555
 20
4.343000000000001
 30
0.0
 40
0.025
100
AcDbArc
 50
180.0
 51
0.0
  0
ARC
  5
6D2
330
67F
100
AcDbEntity
  8
4
100
AcDbCircle
 10
7.0445
 20
4.343000000000001
 30
0.0
 40
0.025
100
AcDbArc
 50
180.0
 51
0.0
  0
LINE
  5
6D3
330
67F
100
AcDbEntity
  8
4
100
AcDbLine
 10
7.0195
 20
4.343000000000001
 30
0.0
 11
7.0195
 21
4.393
 31
0.0
  0
LINE
  5
6D4
330
67F
100
AcDbEntity
  8
4
100
AcDbLine
 10
7.332520109897515
 20
4.379999999999999
 30
0.0
 11
7.270520109897516
 21
4.379999999999999
 31
0.0
  0
LINE
  5
6D5
330
67F
100
AcDbEntity
  8
4
100
AcDbLine
 10
7.301520109897515
 20
4.379999999999999
 30
0.0
 11
7.301520109897515
 21
4.318
 31
0.0
  0
LINE
  5
6D6
330
67F
100
AcDbEntity
  8
4
100
AcDbLine
 10
5.0025
 20
3.03100587855713
 30
0.0
 11
4.8125
 21
3.03100587855713
 31
0.0
  0
LINE
  5
6D7
330
67F
100
AcDbEntity
  8
4
100
AcDbLine
 10
4.8125
 20
3.03100587855713
 30
0.0
 11
4.750499999999999
 21
3.03100587855713
 31
0.0
  0
INSERT
  5
6D8
330
67F
100
AcDbEntity
  8
4
100
AcDbBlockReference
  2
ARRO2
 10
4.8125
 20
3.03100587855713
 30
0.0
 50
90.0
  0
LINE
  5
6D9
330
67F
100
AcDbEntity
  8
4
100
AcDbLine
 10
5.065499999999999
 20
4.406
 30
0.0
 11
5.127499999999999
 21
4.406
 31
0.0
  0
LINE
  5
6DA
330
67F
100
AcDbEntity
  8
4
100
AcDbLine
 10
6.375499999999998
 20
4.406
 30
0.0
 11
6.437499999999999
 21
4.406
 31
0.0
  0
LINE
  5
6DB
330
67F
100
AcDbEntity
  8
4
100
AcDbLine
 10
7.624500000000001
 20
4.406
 30
0.0
 11
7.5625
 21
4.406
 31
0.0
  0
LINE
  5
6DC
330
67F
100
AcDbEntity
  8
4
100
AcDbLine
 10
7.6245
 20
4.406
 30
0.0
 11
7.6245
 21
3.062961724666486
 31
0.0
  0
LINE
  5
6DD
330
67F
100
AcDbEntity
  8
4
100
AcDbLine
 10
6.375499999999999
 20
4.406
 30
0.0
 11
6.375499999999999
 21
3.062961724666486
 31
0.0
  0
LINE
  5
6DE
330
67F
100
AcDbEntity
  8
4
100
AcDbLine
 10
5.0655
 20
4.406
 30
0.0
 11
5.0655
 21
3.062961724666486
 31
0.0
  0
LINE
  5
6DF
330
67F
100
AcDbEntity
  8
4
100
AcDbLine
 10
1.113234055463451
 20
3.916467157252412
 30
0.0
 11
1.301234055463451
 21
3.916467157252412
 31
0.0
  0
LINE
  5
6E0
330
67F
100
AcDbEntity
  8
4
100
AcDbLine
 10
1.301234055463451
 20
3.916467157252412
 30
0.0
 11
1.269234055463451
 21
3.613967157252412
 31
0.0
  0
LINE
  5
6E1
330
67F
100
AcDbEntity
  8
4
100
AcDbLine
 10
1.113234055463451
 20
3.916467157252412
 30
0.0
 11
1.145234055463451
 21
3.613967157252412
 31
0.0
  0
LINE
  5
6E2
330
67F
100
AcDbEntity
  8
4
100
AcDbLine
 10
1.145234055463451
 20
3.613967157252412
 30
0.0
 11
1.269234055463451
 21
3.613967157252412
 31
0.0
  0
LINE
  5
6E3
330
67F
100
AcDbEntity
  8
4
100
AcDbLine
 10
1.129904527520149
 20
3.901467157252411
 30
0.0
 11
1.158730973801141
 21
3.628967157252412
 31
0.0
  0
LINE
  5
6E4
330
67F
100
AcDbEntity
  8
4
100
AcDbLine
 10
1.158730973801141
 20
3.628967157252411
 30
0.0
 11
1.255737137125761
 21
3.628967157252412
 31
0.0
  0
LINE
  5
6E5
330
67F
100
AcDbEntity
  8
4
100
AcDbLine
 10
1.284563583406752
 20
3.901467157252411
 30
0.0
 11
1.255737137125761
 21
3.628967157252412
 31
0.0
  0
LINE
  5
6E6
330
67F
100
AcDbEntity
  8
4
100
AcDbLine
 10
1.129904527520149
 20
3.901467157252411
 30
0.0
 11
1.284563583406752
 21
3.901467157252411
 31
0.0
  0
LINE
  5
6E7
330
67F
100
AcDbEntity
  8
4
100
AcDbLine
 10
1.222234055463451
 20
3.901467157252411
 30
0.0
 11
1.222234055463451
 21
3.854467157252411
 31
0.0
  0
LINE
  5
6E8
330
67F
100
AcDbEntity
  8
4
100
AcDbLine
 10
1.222234055463451
 20
3.854467157252411
 30
0.0
 11
1.192234055463451
 21
3.854467157252411
 31
0.0
  0
LINE
  5
6E9
330
67F
100
AcDbEntity
  8
4
100
AcDbLine
 10
1.192234055463451
 20
3.854467157252411
 30
0.0
 11
1.192234055463451
 21
3.901467157252411
 31
0.0
  0
ARC
  5
6EA
330
67F
100
AcDbEntity
  8
4
100
AcDbCircle
 10
3.412999999999999
 20
2.874046183989781
 30
0.0
 40
0.025
100
AcDbArc
 50
180.0
 51
0.0
  0
ARC
  5
6EB
330
67F
100
AcDbEntity
  8
4
100
AcDbCircle
 10
2.962
 20
2.874046183989781
 30
0.0
 40
0.025
100
AcDbArc
 50
180.0
 51
0.0
  0
ARC
  5
6EC
330
67F
100
AcDbEntity
  8
4
100
AcDbCircle
 10
2.787999999999999
 20
2.874046183989781
 30
0.0
 40
0.025
100
AcDbArc
 50
180.0
 51
0.0
  0
ARC
  5
6ED
330
67F
100
AcDbEntity
  8
4
100
AcDbCircle
 10
2.337
 20
2.874046183989781
 30
0.0
 40
0.025
100
AcDbArc
 50
180.0
 51
0.0
  0
ARC
  5
6EE
330
67F
100
AcDbEntity
  8
4
100
AcDbCircle
 10
2.163
 20
2.874046183989781
 30
0.0
 40
0.025
100
AcDbArc
 50
180.0
 51
0.0
  0
ARC
  5
6EF
330
67F
100
AcDbEntity
  8
4
100
AcDbCircle
 10
1.712
 20
2.874046183989781
 30
0.0
 40
0.025
100
AcDbArc
 50
180.0
 51
0.0
  0
LINE
  5
6F0
330
67F
100
AcDbEntity
  8
4
100
AcDbLine
 10
3.155
 20
2.91104618398978
 30
0.0
 11
3.217
 21
2.91104618398978
 31
0.0
  0
LINE
  5
6F1
330
67F
100
AcDbEntity
  8
4
100
AcDbLine
 10
3.217
 20
2.91104618398978
 30
0.0
 11
3.217
 21
2.84904618398978
 31
0.0
  0
LINE
  5
6F2
330
67F
100
AcDbEntity
  8
4
100
AcDbLine
 10
3.155
 20
2.91104618398978
 30
0.0
 11
3.155
 21
2.84904618398978
 31
0.0
  0
LINE
  5
6F3
330
67F
100
AcDbEntity
  8
4
100
AcDbLine
 10
1.905
 20
2.91104618398978
 30
0.0
 11
1.905
 21
2.84904618398978
 31
0.0
  0
LINE
  5
6F4
330
67F
100
AcDbEntity
  8
4
100
AcDbLine
 10
1.967
 20
2.91104618398978
 30
0.0
 11
1.967
 21
2.84904618398978
 31
0.0
  0
LINE
  5
6F5
330
67F
100
AcDbEntity
  8
4
100
AcDbLine
 10
1.905
 20
2.91104618398978
 30
0.0
 11
1.967
 21
2.91104618398978
 31
0.0
  0
LINE
  5
6F6
330
67F
100
AcDbEntity
  8
4
100
AcDbLine
 10
3.155
 20
4.379999999999999
 30
0.0
 11
3.155
 21
4.318
 31
0.0
  0
LINE
  5
6F7
330
67F
100
AcDbEntity
  8
4
100
AcDbLine
 10
3.217
 20
4.379999999999999
 30
0.0
 11
3.217
 21
4.318
 31
0.0
  0
LINE
  5
6F8
330
67F
100
AcDbEntity
  8
4
100
AcDbLine
 10
3.155
 20
4.379999999999999
 30
0.0
 11
3.217
 21
4.379999999999999
 31
0.0
  0
ARC
  5
6F9
330
67F
100
AcDbEntity
  8
4
100
AcDbCircle
 10
1.712
 20
4.343
 30
0.0
 40
0.025
100
AcDbArc
 50
180.0
 51
0.0
  0
ARC
  5
6FA
330
67F
100
AcDbEntity
  8
4
100
AcDbCircle
 10
2.163
 20
4.343
 30
0.0
 40
0.025
100
AcDbArc
 50
180.0
 51
0.0
  0
ARC
  5
6FB
330
67F
100
AcDbEntity
  8
4
100
AcDbCircle
 10
2.337
 20
4.343
 30
0.0
 40
0.025
100
AcDbArc
 50
180.0
 51
0.0
  0
ARC
  5
6FC
330
67F
100
AcDbEntity
  8
4
100
AcDbCircle
 10
2.787999999999999
 20
4.343
 30
0.0
 40
0.025
100
AcDbArc
 50
180.0
 51
0.0
  0
ARC
  5
6FD
330
67F
100
AcDbEntity
  8
4
100
AcDbCircle
 10
2.962
 20
4.343
 30
0.0
 40
0.025
100
AcDbArc
 50
180.0
 51
0.0
  0
ARC
  5
6FE
330
67F
100
AcDbEntity
  8
4
100
AcDbCircle
 10
3.412999999999999
 20
4.343
 30
0.0
 40
0.025
100
AcDbArc
 50
180.0
 51
0.0
  0
LINE
  5
6FF
330
67F
100
AcDbEntity
  8
4
100
AcDbLine
 10
2.625
 20
2.96900587855713
 30
0.0
 11
2.812999999999999
 21
2.96900587855713
 31
0.0
  0
LINE
  5
700
330
67F
100
AcDbEntity
  8
4
100
AcDbLine
 10
2.625
 20
3.03100587855713
 30
0.0
 11
2.812999999999999
 21
3.03100587855713
 31
0.0
  0
LINE
  5
701
330
67F
100
AcDbEntity
  8
4
100
AcDbLine
 10
2.937
 20
3.03100587855713
 30
0.0
 11
3.437999999999999
 21
3.03100587855713
 31
0.0
  0
LINE
  5
702
330
67F
100
AcDbEntity
  8
4
100
AcDbLine
 10
2.937
 20
2.96900587855713
 30
0.0
 11
3.437999999999999
 21
2.96900587855713
 31
0.0
  0
LINE
  5
703
330
67F
100
AcDbEntity
  8
4
100
AcDbLine
 10
2.312
 20
3.03100587855713
 30
0.0
 11
2.473968300754448
 21
3.03100587855713
 31
0.0
  0
LINE
  5
704
330
67F
100
AcDbEntity
  8
4
100
AcDbLine
 10
2.312
 20
2.96900587855713
 30
0.0
 11
2.499999999999999
 21
2.96900587855713
 31
0.0
  0
LINE
  5
705
330
67F
100
AcDbEntity
  8
4
100
AcDbLine
 10
1.687
 20
3.03100587855713
 30
0.0
 11
2.187999999999999
 21
3.03100587855713
 31
0.0
  0
LINE
  5
706
330
67F
100
AcDbEntity
  8
4
100
AcDbLine
 10
1.687
 20
2.96900587855713
 30
0.0
 11
2.187999999999999
 21
2.96900587855713
 31
0.0
  0
LINE
  5
707
330
67F
100
AcDbEntity
  8
4
100
AcDbLine
 10
1.062
 20
3.03100587855713
 30
0.0
 11
1.562999999999999
 21
3.03100587855713
 31
0.0
  0
LINE
  5
708
330
67F
100
AcDbEntity
  8
4
100
AcDbLine
 10
1.062
 20
2.96900587855713
 30
0.0
 11
1.562999999999999
 21
2.96900587855713
 31
0.0
  0
LINE
  5
709
330
67F
100
AcDbEntity
  8
4
100
AcDbLine
 10
1.540999999999999
 20
1.967961724666487
 30
0.0
 11
1.540999999999999
 21
1.842961724666487
 31
0.0
  0
LINE
  5
70A
330
67F
100
AcDbEntity
  8
4
100
AcDbLine
 10
1.541
 20
2.68700587855713
 30
0.0
 11
1.541
 21
2.56200587855713
 31
0.0
  0
LINE
  5
70B
330
67F
100
AcDbEntity
  8
4
100
AcDbLine
 10
1.530999999999999
 20
1.593961724666487
 30
0.0
 11
1.093999999999999
 21
1.593961724666486
 31
0.0
  0
LINE
  5
70C
330
67F
100
AcDbEntity
  8
4
100
AcDbLine
 10
1.531
 20
2.93700587855713
 30
0.0
 11
1.530999999999999
 21
1.593961724666487
 31
0.0
  0
LINE
  5
70D
330
67F
100
AcDbEntity
  8
4
100
AcDbLine
 10
1.094
 20
2.93700587855713
 30
0.0
 11
1.531
 21
2.93700587855713
 31
0.0
  0
LINE
  5
70E
330
67F
100
AcDbEntity
  8
4
100
AcDbLine
 10
1.093999999999999
 20
1.593961724666486
 30
0.0
 11
1.094
 21
2.93700587855713
 31
0.0
  0
LINE
  5
70F
330
67F
100
AcDbEntity
  8
4
100
AcDbLine
 10
1.094
 20
3.062961724666486
 30
0.0
 11
1.094
 21
4.40600587855713
 31
0.0
  0
LINE
  5
710
330
67F
100
AcDbEntity
  8
4
100
AcDbLine
 10
1.094
 20
4.40600587855713
 30
0.0
 11
1.531
 21
4.40600587855713
 31
0.0
  0
LINE
  5
711
330
67F
100
AcDbEntity
  8
4
100
AcDbLine
 10
1.531
 20
4.40600587855713
 30
0.0
 11
1.530999999999999
 21
3.062961724666487
 31
0.0
  0
LINE
  5
712
330
67F
100
AcDbEntity
  8
4
100
AcDbLine
 10
1.530999999999999
 20
3.062961724666487
 30
0.0
 11
1.094
 21
3.062961724666486
 31
0.0
  0
LINE
  5
713
330
67F
100
AcDbEntity
  8
4
100
AcDbLine
 10
1.541
 20
4.15600587855713
 30
0.0
 11
1.541
 21
4.03100587855713
 31
0.0
  0
LINE
  5
714
330
67F
100
AcDbEntity
  8
4
100
AcDbLine
 10
1.540999999999999
 20
3.436961724666486
 30
0.0
 11
1.540999999999999
 21
3.311961724666486
 31
0.0
  0
LINE
  5
715
330
67F
100
AcDbEntity
  8
4
100
AcDbLine
 10
0.9609118825233171
 20
3.874828065315101
 30
0.0
 11
0.5859118825233172
 21
3.874828065315101
 31
0.0
  0
LINE
  5
716
330
67F
100
AcDbEntity
  8
4
100
AcDbLine
 10
0.5859118825233172
 20
3.874828065315101
 30
0.0
 11
0.5859118825233172
 21
3.936828065315101
 31
0.0
  0
LINE
  5
717
330
67F
100
AcDbEntity
  8
4
100
AcDbLine
 10
0.9609118825233171
 20
3.734483801611808
 30
0.0
 11
0.5859118825233172
 21
3.734483801611808
 31
0.0
  0
LINE
  5
718
330
67F
100
AcDbEntity
  8
4
100
AcDbLine
 10
0.5859118825233172
 20
3.734483801611808
 30
0.0
 11
0.5859118825233172
 21
3.672483801611809
 31
0.0
  0
INSERT
  5
719
330
67F
100
AcDbEntity
  8
4
100
AcDbBlockReference
  2
ARRO
 10
0.9609118825233171
 20
3.874828065315101
 30
0.0
 50
180.0
  0
INSERT
  5
71A
330
67F
100
AcDbEntity
  8
4
100
AcDbBlockReference
  2
ARRO
 10
0.9609118825233171
 20
3.734483801611808
 30
0.0
 50
180.0
  0
LINE
  5
71B
330
67F
100
AcDbEntity
  8
4
100
AcDbLine
 10
1.192234055463451
 20
2.385467157252412
 30
0.0
 11
1.192234055463451
 21
2.432467157252411
 31
0.0
  0
LINE
  5
71C
330
67F
100
AcDbEntity
  8
4
100
AcDbLine
 10
1.222234055463451
 20
2.385467157252412
 30
0.0
 11
1.192234055463451
 21
2.385467157252412
 31
0.0
  0
LINE
  5
71D
330
67F
100
AcDbEntity
  8
4
100
AcDbLine
 10
1.222234055463451
 20
2.432467157252411
 30
0.0
 11
1.222234055463451
 21
2.385467157252412
 31
0.0
  0
LINE
  5
71E
330
67F
100
AcDbEntity
  8
4
100
AcDbLine
 10
1.129904527520149
 20
2.432467157252411
 30
0.0
 11
1.284563583406752
 21
2.432467157252411
 31
0.0
  0
LINE
  5
71F
330
67F
100
AcDbEntity
  8
4
100
AcDbLine
 10
1.284563583406752
 20
2.432467157252411
 30
0.0
 11
1.255737137125761
 21
2.159967157252412
 31
0.0
  0
LINE
  5
720
330
67F
100
AcDbEntity
  8
4
100
AcDbLine
 10
1.158730973801141
 20
2.159967157252411
 30
0.0
 11
1.255737137125761
 21
2.159967157252412
 31
0.0
  0
LINE
  5
721
330
67F
100
AcDbEntity
  8
4
100
AcDbLine
 10
1.129904527520149
 20
2.432467157252411
 30
0.0
 11
1.158730973801141
 21
2.159967157252412
 31
0.0
  0
LINE
  5
722
330
67F
100
AcDbEntity
  8
4
100
AcDbLine
 10
1.145234055463451
 20
2.144967157252412
 30
0.0
 11
1.269234055463451
 21
2.144967157252412
 31
0.0
  0
LINE
  5
723
330
67F
100
AcDbEntity
  8
4
100
AcDbLine
 10
1.113234055463451
 20
2.447467157252412
 30
0.0
 11
1.145234055463451
 21
2.144967157252412
 31
0.0
  0
LINE
  5
724
330
67F
100
AcDbEntity
  8
4
100
AcDbLine
 10
1.301234055463451
 20
2.447467157252412
 30
0.0
 11
1.269234055463451
 21
2.144967157252412
 31
0.0
  0
LINE
  5
725
330
67F
100
AcDbEntity
  8
4
100
AcDbLine
 10
1.113234055463451
 20
2.447467157252412
 30
0.0
 11
1.301234055463451
 21
2.447467157252412
 31
0.0
  0
ENDBLK
  5
727
330
67F
100
AcDbEntity
  8
0
100
AcDbBlockEnd
  0
BLOCK
  5
7AD
330
761
100
AcDbEntity
  8
0
100
AcDbBlockBegin
  2
A$C1F7806BA
 70
     0
 10
0.0
 20
0.0
 30
0.0
  3
A$C1F7806BA
  1

  0
LINE
  5
762
330
761
100
AcDbEntity
  8
4
100
AcDbLine
 10
1.187799999999999
 20
3.437461724666486
 30
0.0
 11
1.437799999999999
 21
3.437461724666486
 31
0.0
  0
LINE
  5
763
330
761
100
AcDbEntity
  8
4
100
AcDbLine
 10
1.437799999999999
 20
3.437461724666486
 30
0.0
 11
1.417799999999999
 21
3.457461724666486
 31
0.0
  0
LINE
  5
764
330
761
100
AcDbEntity
  8
4
100
AcDbLine
 10
1.187799999999999
 20
3.437461724666486
 30
0.0
 11
1.207799999999999
 21
3.457461724666486
 31
0.0
  0
LINE
  5
765
330
761
100
AcDbEntity
  8
4
100
AcDbLine
 10
1.187799999999999
 20
3.387461724666486
 30
0.0
 11
1.207799999999999
 21
3.407461724666486
 31
0.0
  0
LINE
  5
766
330
761
100
AcDbEntity
  8
4
100
AcDbLine
 10
1.437799999999999
 20
3.387461724666486
 30
0.0
 11
1.417799999999999
 21
3.407461724666486
 31
0.0
  0
LINE
  5
767
330
761
100
AcDbEntity
  8
4
100
AcDbLine
 10
1.187799999999999
 20
3.387461724666486
 30
0.0
 11
1.437799999999999
 21
3.387461724666486
 31
0.0
  0
LINE
  5
768
330
761
100
AcDbEntity
  8
4
100
AcDbLine
 10
1.187799999999999
 20
3.337461724666487
 30
0.0
 11
1.207799999999999
 21
3.357461724666486
 31
0.0
  0
LINE
  5
769
330
761
100
AcDbEntity
  8
4
100
AcDbLine
 10
1.437799999999999
 20
3.337461724666487
 30
0.0
 11
1.417799999999999
 21
3.357461724666486
 31
0.0
  0
LINE
  5
76A
330
761
100
AcDbEntity
  8
4
100
AcDbLine
 10
1.187799999999999
 20
3.337461724666487
 30
0.0
 11
1.437799999999999
 21
3.337461724666487
 31
0.0
  0
LINE
  5
76B
330
761
100
AcDbEntity
  8
4
100
AcDbLine
 10
1.187799999999999
 20
3.287461724666486
 30
0.0
 11
1.207799999999999
 21
3.307461724666485
 31
0.0
  0
LINE
  5
76C
330
761
100
AcDbEntity
  8
4
100
AcDbLine
 10
1.437799999999999
 20
3.287461724666486
 30
0.0
 11
1.417799999999999
 21
3.307461724666485
 31
0.0
  0
LINE
  5
76D
330
761
100
AcDbEntity
  8
4
100
AcDbLine
 10
1.187799999999999
 20
3.287461724666486
 30
0.0
 11
1.437799999999999
 21
3.287461724666486
 31
0.0
  0
LINE
  5
76E
330
761
100
AcDbEntity
  8
4
100
AcDbLine
 10
1.187799999999999
 20
3.237461724666486
 30
0.0
 11
1.207799999999999
 21
3.257461724666486
 31
0.0
  0
LINE
  5
76F
330
761
100
AcDbEntity
  8
4
100
AcDbLine
 10
1.437799999999999
 20
3.237461724666486
 30
0.0
 11
1.417799999999999
 21
3.257461724666486
 31
0.0
  0
LINE
  5
770
330
761
100
AcDbEntity
  8
4
100
AcDbLine
 10
1.187799999999999
 20
3.237461724666486
 30
0.0
 11
1.437799999999999
 21
3.237461724666486
 31
0.0
  0
LINE
  5
771
330
761
100
AcDbEntity
  8
4
100
AcDbLine
 10
1.187799999999999
 20
3.187461724666486
 30
0.0
 11
1.207799999999999
 21
3.207461724666486
 31
0.0
  0
LINE
  5
772
330
761
100
AcDbEntity
  8
4
100
AcDbLine
 10
1.437799999999999
 20
3.187461724666486
 30
0.0
 11
1.417799999999999
 21
3.207461724666486
 31
0.0
  0
LINE
  5
773
330
761
100
AcDbEntity
  8
4
100
AcDbLine
 10
1.187799999999999
 20
3.187461724666486
 30
0.0
 11
1.437799999999999
 21
3.187461724666486
 31
0.0
  0
LINE
  5
774
330
761
100
AcDbEntity
  8
4
100
AcDbLine
 10
1.1878
 20
4.03100587855713
 30
0.0
 11
1.4378
 21
4.03100587855713
 31
0.0
  0
LINE
  5
775
330
761
100
AcDbEntity
  8
4
100
AcDbLine
 10
1.4378
 20
4.03100587855713
 30
0.0
 11
1.417799999999999
 21
4.05100587855713
 31
0.0
  0
LINE
  5
776
330
761
100
AcDbEntity
  8
4
100
AcDbLine
 10
1.1878
 20
4.03100587855713
 30
0.0
 11
1.2078
 21
4.05100587855713
 31
0.0
  0
LINE
  5
777
330
761
100
AcDbEntity
  8
4
100
AcDbLine
 10
1.1878
 20
4.08100587855713
 30
0.0
 11
1.4378
 21
4.08100587855713
 31
0.0
  0
LINE
  5
778
330
761
100
AcDbEntity
  8
4
100
AcDbLine
 10
1.4378
 20
4.08100587855713
 30
0.0
 11
1.417799999999999
 21
4.101005878557129
 31
0.0
  0
LINE
  5
779
330
761
100
AcDbEntity
  8
4
100
AcDbLine
 10
1.1878
 20
4.08100587855713
 30
0.0
 11
1.2078
 21
4.101005878557129
 31
0.0
  0
LINE
  5
77A
330
761
100
AcDbEntity
  8
4
100
AcDbLine
 10
1.1878
 20
4.13100587855713
 30
0.0
 11
1.4378
 21
4.13100587855713
 31
0.0
  0
LINE
  5
77B
330
761
100
AcDbEntity
  8
4
100
AcDbLine
 10
1.4378
 20
4.13100587855713
 30
0.0
 11
1.417799999999999
 21
4.151005878557129
 31
0.0
  0
LINE
  5
77C
330
761
100
AcDbEntity
  8
4
100
AcDbLine
 10
1.1878
 20
4.13100587855713
 30
0.0
 11
1.2078
 21
4.151005878557129
 31
0.0
  0
LINE
  5
77D
330
761
100
AcDbEntity
  8
4
100
AcDbLine
 10
1.1878
 20
4.18100587855713
 30
0.0
 11
1.4378
 21
4.18100587855713
 31
0.0
  0
LINE
  5
77E
330
761
100
AcDbEntity
  8
4
100
AcDbLine
 10
1.4378
 20
4.18100587855713
 30
0.0
 11
1.417799999999999
 21
4.20100587855713
 31
0.0
  0
LINE
  5
77F
330
761
100
AcDbEntity
  8
4
100
AcDbLine
 10
1.1878
 20
4.18100587855713
 30
0.0
 11
1.2078
 21
4.20100587855713
 31
0.0
  0
LINE
  5
780
330
761
100
AcDbEntity
  8
4
100
AcDbLine
 10
1.1878
 20
4.23100587855713
 30
0.0
 11
1.4378
 21
4.23100587855713
 31
0.0
  0
LINE
  5
781
330
761
100
AcDbEntity
  8
4
100
AcDbLine
 10
1.4378
 20
4.23100587855713
 30
0.0
 11
1.417799999999999
 21
4.25100587855713
 31
0.0
  0
LINE
  5
782
330
761
100
AcDbEntity
  8
4
100
AcDbLine
 10
1.1878
 20
4.23100587855713
 30
0.0
 11
1.2078
 21
4.25100587855713
 31
0.0
  0
LINE
  5
783
330
761
100
AcDbEntity
  8
4
100
AcDbLine
 10
1.1878
 20
4.28100587855713
 30
0.0
 11
1.2078
 21
4.30100587855713
 31
0.0
  0
LINE
  5
784
330
761
100
AcDbEntity
  8
4
100
AcDbLine
 10
1.4378
 20
4.28100587855713
 30
0.0
 11
1.417799999999999
 21
4.30100587855713
 31
0.0
  0
LINE
  5
785
330
761
100
AcDbEntity
  8
4
100
AcDbLine
 10
1.1878
 20
4.28100587855713
 30
0.0
 11
1.4378
 21
4.28100587855713
 31
0.0
  0
LINE
  5
786
330
761
100
AcDbEntity
  8
4
100
AcDbLine
 10
1.1878
 20
2.81200587855713
 30
0.0
 11
1.4378
 21
2.81200587855713
 31
0.0
  0
LINE
  5
787
330
761
100
AcDbEntity
  8
4
100
AcDbLine
 10
1.4378
 20
2.81200587855713
 30
0.0
 11
1.417799999999999
 21
2.832005878557129
 31
0.0
  0
LINE
  5
788
330
761
100
AcDbEntity
  8
4
100
AcDbLine
 10
1.1878
 20
2.81200587855713
 30
0.0
 11
1.207799999999999
 21
2.832005878557129
 31
0.0
  0
LINE
  5
789
330
761
100
AcDbEntity
  8
4
100
AcDbLine
 10
1.1878
 20
2.762005878557131
 30
0.0
 11
1.207799999999999
 21
2.78200587855713
 31
0.0
  0
LINE
  5
78A
330
761
100
AcDbEntity
  8
4
100
AcDbLine
 10
1.4378
 20
2.762005878557131
 30
0.0
 11
1.417799999999999
 21
2.78200587855713
 31
0.0
  0
LINE
  5
78B
330
761
100
AcDbEntity
  8
4
100
AcDbLine
 10
1.1878
 20
2.762005878557131
 30
0.0
 11
1.4378
 21
2.762005878557131
 31
0.0
  0
LINE
  5
78C
330
761
100
AcDbEntity
  8
4
100
AcDbLine
 10
1.1878
 20
2.71200587855713
 30
0.0
 11
1.207799999999999
 21
2.73200587855713
 31
0.0
  0
LINE
  5
78D
330
761
100
AcDbEntity
  8
4
100
AcDbLine
 10
1.4378
 20
2.71200587855713
 30
0.0
 11
1.417799999999999
 21
2.73200587855713
 31
0.0
  0
LINE
  5
78E
330
761
100
AcDbEntity
  8
4
100
AcDbLine
 10
1.1878
 20
2.71200587855713
 30
0.0
 11
1.4378
 21
2.71200587855713
 31
0.0
  0
LINE
  5
78F
330
761
100
AcDbEntity
  8
4
100
AcDbLine
 10
1.1878
 20
2.662005878557129
 30
0.0
 11
1.207799999999999
 21
2.682005878557129
 31
0.0
  0
LINE
  5
790
330
761
100
AcDbEntity
  8
4
100
AcDbLine
 10
1.4378
 20
2.662005878557129
 30
0.0
 11
1.417799999999999
 21
2.682005878557129
 31
0.0
  0
LINE
  5
791
330
761
100
AcDbEntity
  8
4
100
AcDbLine
 10
1.1878
 20
2.662005878557129
 30
0.0
 11
1.4378
 21
2.662005878557129
 31
0.0
  0
LINE
  5
792
330
761
100
AcDbEntity
  8
4
100
AcDbLine
 10
1.1878
 20
2.61200587855713
 30
0.0
 11
1.207799999999999
 21
2.63200587855713
 31
0.0
  0
LINE
  5
793
330
761
100
AcDbEntity
  8
4
100
AcDbLine
 10
1.4378
 20
2.61200587855713
 30
0.0
 11
1.417799999999999
 21
2.63200587855713
 31
0.0
  0
LINE
  5
794
330
761
100
AcDbEntity
  8
4
100
AcDbLine
 10
1.1878
 20
2.61200587855713
 30
0.0
 11
1.4378
 21
2.61200587855713
 31
0.0
  0
LINE
  5
795
330
761
100
AcDbEntity
  8
4
100
AcDbLine
 10
1.1878
 20
2.56200587855713
 30
0.0
 11
1.207799999999999
 21
2.582005878557129
 31
0.0
  0
LINE
  5
796
330
761
100
AcDbEntity
  8
4
100
AcDbLine
 10
1.4378
 20
2.56200587855713
 30
0.0
 11
1.417799999999999
 21
2.582005878557129
 31
0.0
  0
LINE
  5
797
330
761
100
AcDbEntity
  8
4
100
AcDbLine
 10
1.1878
 20
2.56200587855713
 30
0.0
 11
1.4378
 21
2.56200587855713
 31
0.0
  0
LINE
  5
798
330
761
100
AcDbEntity
  8
4
100
AcDbLine
 10
1.187799999999999
 20
1.718461724666486
 30
0.0
 11
1.437799999999999
 21
1.718461724666486
 31
0.0
  0
LINE
  5
799
330
761
100
AcDbEntity
  8
4
100
AcDbLine
 10
1.437799999999999
 20
1.718461724666486
 30
0.0
 11
1.417799999999999
 21
1.738461724666486
 31
0.0
  0
LINE
  5
79A
330
761
100
AcDbEntity
  8
4
100
AcDbLine
 10
1.187799999999999
 20
1.718461724666486
 30
0.0
 11
1.207799999999999
 21
1.738461724666486
 31
0.0
  0
LINE
  5
79B
330
761
100
AcDbEntity
  8
4
100
AcDbLine
 10
1.187799999999999
 20
1.768461724666486
 30
0.0
 11
1.437799999999999
 21
1.768461724666486
 31
0.0
  0
LINE
  5
79C
330
761
100
AcDbEntity
  8
4
100
AcDbLine
 10
1.437799999999999
 20
1.768461724666486
 30
0.0
 11
1.417799999999999
 21
1.788461724666486
 31
0.0
  0
LINE
  5
79D
330
761
100
AcDbEntity
  8
4
100
AcDbLine
 10
1.187799999999999
 20
1.768461724666486
 30
0.0
 11
1.207799999999999
 21
1.788461724666486
 31
0.0
  0
LINE
  5
79E
330
761
100
AcDbEntity
  8
4
100
AcDbLine
 10
1.187799999999999
 20
1.818461724666486
 30
0.0
 11
1.437799999999999
 21
1.818461724666486
 31
0.0
  0
LINE
  5
79F
330
761
100
AcDbEntity
  8
4
100
AcDbLine
 10
1.437799999999999
 20
1.818461724666486
 30
0.0
 11
1.417799999999999
 21
1.838461724666485
 31
0.0
  0
LINE
  5
7A0
330
761
100
AcDbEntity
  8
4
100
AcDbLine
 10
1.187799999999999
 20
1.818461724666486
 30
0.0
 11
1.207799999999999
 21
1.838461724666485
 31
0.0
  0
LINE
  5
7A1
330
761
100
AcDbEntity
  8
4
100
AcDbLine
 10
1.187799999999999
 20
1.868461724666486
 30
0.0
 11
1.437799999999999
 21
1.868461724666486
 31
0.0
  0
LINE
  5
7A2
330
761
100
AcDbEntity
  8
4
100
AcDbLine
 10
1.437799999999999
 20
1.868461724666486
 30
0.0
 11
1.417799999999999
 21
1.888461724666486
 31
0.0
  0
LINE
  5
7A3
330
761
100
AcDbEntity
  8
4
100
AcDbLine
 10
1.187799999999999
 20
1.868461724666486
 30
0.0
 11
1.207799999999999
 21
1.888461724666486
 31
0.0
  0
LINE
  5
7A4
330
761
100
AcDbEntity
  8
4
100
AcDbLine
 10
1.187799999999999
 20
1.918461724666487
 30
0.0
 11
1.437799999999999
 21
1.918461724666487
 31
0.0
  0
LINE
  5
7A5
330
761
100
AcDbEntity
  8
4
100
AcDbLine
 10
1.437799999999999
 20
1.918461724666487
 30
0.0
 11
1.417799999999999
 21
1.938461724666487
 31
0.0
  0
LINE
  5
7A6
330
761
100
AcDbEntity
  8
4
100
AcDbLine
 10
1.187799999999999
 20
1.918461724666487
 30
0.0
 11
1.207799999999999
 21
1.938461724666487
 31
0.0
  0
LINE
  5
7A7
330
761
100
AcDbEntity
  8
4
100
AcDbLine
 10
1.187799999999999
 20
1.968461724666486
 30
0.0
 11
1.207799999999999
 21
1.988461724666485
 31
0.0
  0
LINE
  5
7A8
330
761
100
AcDbEntity
  8
4
100
AcDbLine
 10
1.437799999999999
 20
1.968461724666486
 30
0.0
 11
1.417799999999999
 21
1.988461724666485
 31
0.0
  0
LINE
  5
7A9
330
761
100
AcDbEntity
  8
4
100
AcDbLine
 10
1.187799999999999
 20
1.968461724666486
 30
0.0
 11
1.437799999999999
 21
1.968461724666486
 31
0.0
  0
POINT
  5
7AA
330
761
100
AcDbEntity
  8
0
100
AcDbPoint
 10
0.0
 20
0.0
 30
0.0
  0
ENDBLK
  5
7AE
330
761
100
AcDbEntity
  8
0
100
AcDbBlockEnd
  0
ENDSEC
  0
SECTION
  2
ENTITIES
  0
INSERT
  5
7AF
330
1F
100
AcDbEntity
  8
4
100
AcDbBlockReference
  2
A$C1F7806BA
 10
3.629721489888218
 20
1.650000001676371
 30
0.0
  0
CIRCLE
  5
7C4
330
1F
100
AcDbEntity
  8
4
100
AcDbCircle
 10
4.83695554535167
 20
3.91548380328818
 30
0.0
 40
0.023
  0
LWPOLYLINE
  5
7C5
330
1F
100
AcDbEntity
  8
4
100
AcDbPolyline
 90
        2
 70
     1
 43
0.01
 10
4.83195554535167
 20
3.96798380328818
 42
1.0
 10
4.84195554535167
 20
3.96798380328818
 42
1.0
  0
LWPOLYLINE
  5
7C6
330
1F
100
AcDbEntity
  8
4
100
AcDbPolyline
 90
        2
 70
     1
 43
0.01
 10
4.83195554535167
 20
3.86298380328818
 42
1.0
 10
4.84195554535167
 20
3.86298380328818
 42
1.0
  0
CIRCLE
  5
7C7
330
1F
100
AcDbEntity
  8
4
100
AcDbCircle
 10
4.83695554535167
 20
5.38448380328818
 30
0.0
 40
0.023
  0
LWPOLYLINE
  5
7C8
330
1F
100
AcDbEntity
  8
4
100
AcDbPolyline
 90
        2
 70
     1
 43
0.01
 10
4.83195554535167
 20
5.43698380328818
 42
1.0
 10
4.84195554535167
 20
5.43698380328818
 42
1.0
  0
LWPOLYLINE
  5
7C9
330
1F
100
AcDbEntity
  8
4
100
AcDbPolyline
 90
        2
 70
     1
 43
0.01
 10
4.83195554535167
 20
5.33198380328818
 42
1.0
 10
4.84195554535167
 20
5.33198380328818
 42
1.0
  0
LINE
  5
7CA
330
1F
100
AcDbEntity
  8
8
100
AcDbLine
 10
8.888697603092042
 20
1.716707817142709
 30
0.0
 11
9.378697603092044
 21
1.716707817142709
 31
0.0
  0
INSERT
  5
7CB
330
1F
100
AcDbEntity
  8
8
100
AcDbBlockReference
  2
TEMP2
 10
8.442221489888218
 20
3.212000001676371
 30
0.0
  0
INSERT
  5
7CC
330
1F
100
AcDbEntity
  8
8
100
AcDbBlockReference
  2
TEMP3
 10
4.215633372411535
 20
5.586828066991472
 30
0.0
  0
TEXT
  5
7CD
330
1F
100
AcDbEntity
  8
8
100
AcDbText
 10
4.668411966078695
 20
1.744000001676371
 30
0.0
 40
0.125
  1
STANDARD LOCKER WITH REC. HANDLE  -     " DOUBLE TIER
  7
ROMANS
 72
     1
 11
7.754721489888218
 21
1.744000001676371
 31
0.0
100
AcDbText
  0
LINE
  5
7CE
330
1F
100
AcDbEntity
  8
4
100
AcDbLine
 10
8.442221489888218
 20
3.150000001676371
 30
0.0
 11
8.442221489888218
 21
3.025000001676371
 31
0.0
  0
LINE
  5
7CF
330
1F
100
AcDbEntity
  8
4
100
AcDbLine
 10
8.63222148988822
 20
3.212000001676371
 30
0.0
 11
8.442221489888218
 21
3.212000001676371
 31
0.0
  0
LINE
  5
7D0
330
1F
100
AcDbEntity
  8
4
100
AcDbLine
 10
8.442221489888218
 20
3.212000001676371
 30
0.0
 11
8.380221489888217
 21
3.212000001676371
 31
0.0
  0
INSERT
  5
7D1
330
1F
100
AcDbEntity
  8
4
100
AcDbBlockReference
  2
ARRO
 10
8.442221489888218
 20
3.212000001676371
 30
0.0
 50
90.0
  0
INSERT
  5
7D2
330
1F
100
AcDbEntity
  8
4
100
AcDbBlockReference
  2
ARRO
 10
8.442221489888218
 20
3.150000001676371
 30
0.0
 50
270.0
  0
LINE
  5
7D3
330
1F
100
AcDbEntity
  8
4
100
AcDbLine
 10
8.695221489888218
 20
3.244000001676372
 30
0.0
 11
8.75722148988822
 21
3.244000001676372
 31
0.0
  0
LINE
  5
7D4
330
1F
100
AcDbEntity
  8
4
100
AcDbLine
 10
10.00522148988822
 20
3.244000001676372
 30
0.0
 11
10.06722148988822
 21
3.244000001676372
 31
0.0
  0
LINE
  5
7D5
330
1F
100
AcDbEntity
  8
4
100
AcDbLine
 10
11.28622148988822
 20
3.244000001676372
 30
0.0
 11
11.22422148988822
 21
3.244000001676372
 31
0.0
  0
LINE
  5
7D6
330
1F
100
AcDbEntity
  8
4
100
AcDbLine
 10
11.28622148988822
 20
4.587005880233501
 30
0.0
 11
11.28622148988822
 21
3.244000001676372
 31
0.0
  0
LINE
  5
7D7
330
1F
100
AcDbEntity
  8
4
100
AcDbLine
 10
10.00522148988822
 20
4.587005880233501
 30
0.0
 11
10.00522148988822
 21
3.244000001676372
 31
0.0
  0
LINE
  5
7D8
330
1F
100
AcDbEntity
  8
4
100
AcDbLine
 10
8.695221489888218
 20
4.587005880233501
 30
0.0
 11
8.695221489888218
 21
3.244000001676372
 31
0.0
  0
LINE
  5
7D9
330
1F
100
AcDbEntity
  8
4
100
AcDbLine
 10
8.442221489888218
 20
6.150000001676371
 30
0.0
 11
8.442221489888218
 21
3.212000001676371
 31
0.0
  0
LINE
  5
7DA
330
1F
100
AcDbEntity
  8
4
100
AcDbLine
 10
10.96324159978573
 20
4.561046185666151
 30
0.0
 11
10.96324159978573
 21
4.499046185666151
 31
0.0
  0
LINE
  5
7DB
330
1F
100
AcDbEntity
  8
4
100
AcDbLine
 10
10.99424159978573
 20
4.561046185666151
 30
0.0
 11
10.93224159978573
 21
4.561046185666151
 31
0.0
  0
LINE
  5
7DC
330
1F
100
AcDbEntity
  8
4
100
AcDbLine
 10
10.68122148988822
 20
4.524046185666152
 30
0.0
 11
10.68122148988822
 21
4.574046185666151
 31
0.0
  0
ARC
  5
7DD
330
1F
100
AcDbEntity
  8
4
100
AcDbCircle
 10
10.70622148988822
 20
4.524046185666152
 30
0.0
 40
0.025
100
AcDbArc
 50
180.0
 51
0.0
  0
ARC
  5
7DE
330
1F
100
AcDbEntity
  8
4
100
AcDbCircle
 10
10.58522148988822
 20
4.524046185666152
 30
0.0
 40
0.025
100
AcDbArc
 50
180.0
 51
0.0
  0
LINE
  5
7DF
330
1F
100
AcDbEntity
  8
4
100
AcDbLine
 10
10.61022148988822
 20
4.524046185666152
 30
0.0
 11
10.61022148988822
 21
4.574046185666151
 31
0.0
  0
LINE
  5
7E0
330
1F
100
AcDbEntity
  8
4
100
AcDbLine
 10
10.2972013799907
 20
4.561046185666151
 30
0.0
 11
10.3592013799907
 21
4.561046185666151
 31
0.0
  0
LINE
  5
7E1
330
1F
100
AcDbEntity
  8
4
100
AcDbLine
 10
10.3282013799907
 20
4.561046185666151
 30
0.0
 11
10.3282013799907
 21
4.499046185666151
 31
0.0
  0
LINE
  5
7E2
330
1F
100
AcDbEntity
  8
4
100
AcDbLine
 10
9.018201379990703
 20
4.561046185666151
 30
0.0
 11
9.018201379990703
 21
4.499046185666151
 31
0.0
  0
LINE
  5
7E3
330
1F
100
AcDbEntity
  8
4
100
AcDbLine
 10
8.987201379990704
 20
4.561046185666151
 30
0.0
 11
9.049201379990703
 21
4.561046185666151
 31
0.0
  0
LINE
  5
7E4
330
1F
100
AcDbEntity
  8
4
100
AcDbLine
 10
9.300221489888219
 20
4.524046185666152
 30
0.0
 11
9.300221489888219
 21
4.574046185666151
 31
0.0
  0
ARC
  5
7E5
330
1F
100
AcDbEntity
  8
4
100
AcDbCircle
 10
9.27522148988822
 20
4.524046185666152
 30
0.0
 40
0.025
100
AcDbArc
 50
180.0
 51
0.0
  0
LINE
  5
7E6
330
1F
100
AcDbEntity
  8
4
100
AcDbLine
 10
10.00522148988822
 20
4.587005880233501
 30
0.0
 11
10.06722148988822
 21
4.587005880233501
 31
0.0
  0
LINE
  5
7E7
330
1F
100
AcDbEntity
  8
4
100
AcDbLine
 10
11.22422148988822
 20
4.587005880233501
 30
0.0
 11
11.28622148988822
 21
4.587005880233501
 31
0.0
  0
LINE
  5
7E8
330
1F
100
AcDbEntity
  8
4
100
AcDbLine
 10
11.22422148988822
 20
4.712961726342857
 30
0.0
 11
11.28622148988822
 21
4.712961726342857
 31
0.0
  0
LINE
  5
7E9
330
1F
100
AcDbEntity
  8
4
100
AcDbLine
 10
10.00522148988822
 20
4.712961726342857
 30
0.0
 11
10.06722148988822
 21
4.712961726342857
 31
0.0
  0
LINE
  5
7EA
330
1F
100
AcDbEntity
  8
4
100
AcDbLine
 10
8.695221489888218
 20
4.587005880233501
 30
0.0
 11
8.75722148988822
 21
4.587005880233501
 31
0.0
  0
LINE
  5
7EB
330
1F
100
AcDbEntity
  8
4
100
AcDbLine
 10
8.695221489888218
 20
4.712961726342858
 30
0.0
 11
8.757221489888218
 21
4.712961726342858
 31
0.0
  0
LINE
  5
7EC
330
1F
100
AcDbEntity
  8
4
100
AcDbLine
 10
11.14822148988822
 20
4.681005880233501
 30
0.0
 11
10.68122148988822
 21
4.681005880233501
 31
0.0
  0
LINE
  5
7ED
330
1F
100
AcDbEntity
  8
4
100
AcDbLine
 10
11.22422148988822
 20
4.619005880233501
 30
0.0
 11
11.28622148988822
 21
4.619005880233501
 31
0.0
  0
LINE
  5
7EE
330
1F
100
AcDbEntity
  8
4
100
AcDbLine
 10
11.28622148988822
 20
4.619005880233501
 30
0.0
 11
11.28622148988822
 21
4.681005880233501
 31
0.0
  0
LINE
  5
7EF
330
1F
100
AcDbEntity
  8
4
100
AcDbLine
 10
11.28622148988822
 20
4.681005880233501
 30
0.0
 11
11.17822148988822
 21
4.681005880233501
 31
0.0
  0
LINE
  5
7F0
330
1F
100
AcDbEntity
  8
4
100
AcDbLine
 10
10.68122148988822
 20
4.681005880233501
 30
0.0
 11
10.68122148988822
 21
4.619005880233501
 31
0.0
  0
LINE
  5
7F1
330
1F
100
AcDbEntity
  8
4
100
AcDbLine
 10
10.72122148988822
 20
4.681005880233501
 30
0.0
 11
10.72122148988822
 21
4.619005880233501
 31
0.0
  0
LINE
  5
7F2
330
1F
100
AcDbEntity
  8
4
100
AcDbLine
 10
10.72122148988822
 20
4.619005880233501
 30
0.0
 11
11.08622148988822
 21
4.619005880233501
 31
0.0
  0
LINE
  5
7F3
330
1F
100
AcDbEntity
  8
4
100
AcDbLine
 10
11.08622148988822
 20
4.619005880233501
 30
0.0
 11
11.14822148988822
 21
4.681005880233501
 31
0.0
  0
LINE
  5
7F4
330
1F
100
AcDbEntity
  8
4
100
AcDbLine
 10
11.26122148988822
 20
4.666005880233501
 30
0.0
 11
11.26122148988822
 21
4.637759737795941
 31
0.0
  0
LINE
  5
7F5
330
1F
100
AcDbEntity
  8
4
100
AcDbLine
 10
11.16322148988822
 20
4.666005880233501
 30
0.0
 11
11.26122148988822
 21
4.666005880233501
 31
0.0
  0
LINE
  5
7F6
330
1F
100
AcDbEntity
  8
4
100
AcDbLine
 10
11.14822148988822
 20
4.681005880233501
 30
0.0
 11
11.16322148988822
 21
4.666005880233501
 31
0.0
  0
LINE
  5
7F7
330
1F
100
AcDbEntity
  8
4
100
AcDbLine
 10
10.14322148988822
 20
4.681005880233501
 30
0.0
 11
10.12822148988822
 21
4.666005880233501
 31
0.0
  0
LINE
  5
7F8
330
1F
100
AcDbEntity
  8
4
100
AcDbLine
 10
10.12822148988822
 20
4.666005880233501
 30
0.0
 11
10.03022148988822
 21
4.666005880233501
 31
0.0
  0
LINE
  5
7F9
330
1F
100
AcDbEntity
  8
4
100
AcDbLine
 10
10.03022148988822
 20
4.666005880233501
 30
0.0
 11
10.03022148988822
 21
4.637759737795941
 31
0.0
  0
LINE
  5
7FA
330
1F
100
AcDbEntity
  8
4
100
AcDbLine
 10
10.20522148988821
 20
4.619005880233501
 30
0.0
 11
10.14322148988822
 21
4.681005880233501
 31
0.0
  0
LINE
  5
7FB
330
1F
100
AcDbEntity
  8
4
100
AcDbLine
 10
10.57022148988822
 20
4.619005880233501
 30
0.0
 11
10.20522148988821
 21
4.619005880233501
 31
0.0
  0
LINE
  5
7FC
330
1F
100
AcDbEntity
  8
4
100
AcDbLine
 10
10.57022148988822
 20
4.681005880233501
 30
0.0
 11
10.57022148988822
 21
4.619005880233501
 31
0.0
  0
LINE
  5
7FD
330
1F
100
AcDbEntity
  8
4
100
AcDbLine
 10
10.61022148988822
 20
4.681005880233501
 30
0.0
 11
10.61022148988822
 21
4.619005880233501
 31
0.0
  0
LINE
  5
7FE
330
1F
100
AcDbEntity
  8
4
100
AcDbLine
 10
10.00522148988822
 20
4.681005880233501
 30
0.0
 11
10.11322148988822
 21
4.681005880233501
 31
0.0
  0
LINE
  5
7FF
330
1F
100
AcDbEntity
  8
4
100
AcDbLine
 10
10.00522148988822
 20
4.619005880233501
 30
0.0
 11
10.00522148988822
 21
4.681005880233501
 31
0.0
  0
LINE
  5
800
330
1F
100
AcDbEntity
  8
4
100
AcDbLine
 10
10.06722148988822
 20
4.619005880233501
 30
0.0
 11
10.00522148988822
 21
4.619005880233501
 31
0.0
  0
LINE
  5
801
330
1F
100
AcDbEntity
  8
4
100
AcDbLine
 10
10.14322148988822
 20
4.681005880233501
 30
0.0
 11
10.61022148988822
 21
4.681005880233501
 31
0.0
  0
LINE
  5
802
330
1F
100
AcDbEntity
  8
4
100
AcDbLine
 10
8.833221489888217
 20
4.681005880233501
 30
0.0
 11
9.300221489888219
 21
4.681005880233501
 31
0.0
  0
LINE
  5
803
330
1F
100
AcDbEntity
  8
4
100
AcDbLine
 10
8.757221489888218
 20
4.619005880233501
 30
0.0
 11
8.695221489888218
 21
4.619005880233501
 31
0.0
  0
LINE
  5
804
330
1F
100
AcDbEntity
  8
4
100
AcDbLine
 10
8.695221489888218
 20
4.619005880233501
 30
0.0
 11
8.695221489888218
 21
4.681005880233501
 31
0.0
  0
LINE
  5
805
330
1F
100
AcDbEntity
  8
4
100
AcDbLine
 10
8.695221489888218
 20
4.681005880233501
 30
0.0
 11
8.803221489888217
 21
4.681005880233501
 31
0.0
  0
LINE
  5
806
330
1F
100
AcDbEntity
  8
4
100
AcDbLine
 10
9.300221489888219
 20
4.681005880233501
 30
0.0
 11
9.300221489888219
 21
4.619005880233501
 31
0.0
  0
LINE
  5
807
330
1F
100
AcDbEntity
  8
4
100
AcDbLine
 10
9.260221489888218
 20
4.681005880233501
 30
0.0
 11
9.260221489888218
 21
4.619005880233501
 31
0.0
  0
LINE
  5
808
330
1F
100
AcDbEntity
  8
4
100
AcDbLine
 10
9.260221489888218
 20
4.619005880233501
 30
0.0
 11
8.895221489888218
 21
4.619005880233501
 31
0.0
  0
LINE
  5
809
330
1F
100
AcDbEntity
  8
4
100
AcDbLine
 10
8.895221489888218
 20
4.619005880233501
 30
0.0
 11
8.833221489888217
 21
4.681005880233501
 31
0.0
  0
LINE
  5
80A
330
1F
100
AcDbEntity
  8
4
100
AcDbLine
 10
8.720221489888217
 20
4.666005880233501
 30
0.0
 11
8.720221489888217
 21
4.637759737795941
 31
0.0
  0
LINE
  5
80B
330
1F
100
AcDbEntity
  8
4
100
AcDbLine
 10
8.818221489888218
 20
4.666005880233501
 30
0.0
 11
8.720221489888217
 21
4.666005880233501
 31
0.0
  0
LINE
  5
80C
330
1F
100
AcDbEntity
  8
4
100
AcDbLine
 10
8.833221489888217
 20
4.681005880233501
 30
0.0
 11
8.818221489888218
 21
4.666005880233501
 31
0.0
  0
INSERT
  5
80D
330
1F
100
AcDbEntity
  8
4
100
AcDbBlockReference
  2
ARRO
 10
8.442221489888218
 20
6.150000001676371
 30
0.0
 50
270.0
  0
ARC
  5
80E
330
1F
100
AcDbEntity
  8
4
100
AcDbCircle
 10
9.27522148988822
 20
5.993000001676373
 30
0.0
 40
0.025
100
AcDbArc
 50
180.0
 51
0.0
  0
LINE
  5
80F
330
1F
100
AcDbEntity
  8
4
100
AcDbLine
 10
9.300221489888219
 20
5.993000001676373
 30
0.0
 11
9.300221489888219
 21
6.043000001676372
 31
0.0
  0
LINE
  5
810
330
1F
100
AcDbEntity
  8
4
100
AcDbLine
 10
8.987201379990704
 20
6.030000001676371
 30
0.0
 11
9.049201379990703
 21
6.030000001676371
 31
0.0
  0
LINE
  5
811
330
1F
100
AcDbEntity
  8
4
100
AcDbLine
 10
9.018201379990703
 20
6.030000001676371
 30
0.0
 11
9.018201379990703
 21
5.968000001676371
 31
0.0
  0
LINE
  5
812
330
1F
100
AcDbEntity
  8
4
100
AcDbLine
 10
10.3282013799907
 20
6.030000001676371
 30
0.0
 11
10.3282013799907
 21
5.968000001676371
 31
0.0
  0
LINE
  5
813
330
1F
100
AcDbEntity
  8
4
100
AcDbLine
 10
10.2972013799907
 20
6.030000001676371
 30
0.0
 11
10.3592013799907
 21
6.030000001676371
 31
0.0
  0
LINE
  5
814
330
1F
100
AcDbEntity
  8
4
100
AcDbLine
 10
10.61022148988822
 20
5.993000001676373
 30
0.0
 11
10.61022148988822
 21
6.043000001676372
 31
0.0
  0
ARC
  5
815
330
1F
100
AcDbEntity
  8
4
100
AcDbCircle
 10
10.58522148988822
 20
5.993000001676373
 30
0.0
 40
0.025
100
AcDbArc
 50
180.0
 51
0.0
  0
ARC
  5
816
330
1F
100
AcDbEntity
  8
4
100
AcDbCircle
 10
10.70622148988822
 20
5.993000001676373
 30
0.0
 40
0.025
100
AcDbArc
 50
180.0
 51
0.0
  0
LINE
  5
817
330
1F
100
AcDbEntity
  8
4
100
AcDbLine
 10
10.68122148988822
 20
5.993000001676373
 30
0.0
 11
10.68122148988822
 21
6.043000001676372
 31
0.0
  0
LINE
  5
818
330
1F
100
AcDbEntity
  8
4
100
AcDbLine
 10
10.99424159978573
 20
6.030000001676371
 30
0.0
 11
10.93224159978573
 21
6.030000001676371
 31
0.0
  0
LINE
  5
819
330
1F
100
AcDbEntity
  8
4
100
AcDbLine
 10
10.96324159978573
 20
6.030000001676371
 30
0.0
 11
10.96324159978573
 21
5.968000001676371
 31
0.0
  0
LINE
  5
81A
330
1F
100
AcDbEntity
  8
4
100
AcDbLine
 10
8.63222148988822
 20
4.681005880233501
 30
0.0
 11
8.442221489888218
 21
4.681005880233501
 31
0.0
  0
LINE
  5
81B
330
1F
100
AcDbEntity
  8
4
100
AcDbLine
 10
8.442221489888218
 20
4.681005880233501
 30
0.0
 11
8.380221489888217
 21
4.681005880233501
 31
0.0
  0
INSERT
  5
81C
330
1F
100
AcDbEntity
  8
4
100
AcDbBlockReference
  2
ARRO2
 10
8.442221489888218
 20
4.681005880233501
 30
0.0
 50
90.0
  0
LINE
  5
81D
330
1F
100
AcDbEntity
  8
4
100
AcDbLine
 10
8.695221489888218
 20
6.056000001676371
 30
0.0
 11
8.757221489888218
 21
6.056000001676371
 31
0.0
  0
LINE
  5
81E
330
1F
100
AcDbEntity
  8
4
100
AcDbLine
 10
10.00522148988822
 20
6.056000001676371
 30
0.0
 11
10.06722148988822
 21
6.056000001676371
 31
0.0
  0
LINE
  5
81F
330
1F
100
AcDbEntity
  8
4
100
AcDbLine
 10
11.28622148988822
 20
6.056000001676371
 30
0.0
 11
11.22422148988822
 21
6.056000001676371
 31
0.0
  0
LINE
  5
820
330
1F
100
AcDbEntity
  8
4
100
AcDbLine
 10
11.28622148988822
 20
6.056000001676371
 30
0.0
 11
11.28622148988822
 21
4.712961726342857
 31
0.0
  0
LINE
  5
821
330
1F
100
AcDbEntity
  8
4
100
AcDbLine
 10
10.00522148988822
 20
6.056000001676371
 30
0.0
 11
10.00522148988822
 21
4.712961726342857
 31
0.0
  0
LINE
  5
822
330
1F
100
AcDbEntity
  8
4
100
AcDbLine
 10
8.695221489888218
 20
6.056000001676371
 30
0.0
 11
8.695221489888218
 21
4.712961726342857
 31
0.0
  0
LINE
  5
823
330
1F
100
AcDbEntity
  8
4
100
AcDbLine
 10
4.742955545351669
 20
5.566467158928784
 30
0.0
 11
4.93095554535167
 21
5.566467158928784
 31
0.0
  0
LINE
  5
824
330
1F
100
AcDbEntity
  8
4
100
AcDbLine
 10
4.93095554535167
 20
5.566467158928784
 30
0.0
 11
4.89895554535167
 21
5.263967158928783
 31
0.0
  0
LINE
  5
825
330
1F
100
AcDbEntity
  8
4
100
AcDbLine
 10
4.742955545351669
 20
5.566467158928784
 30
0.0
 11
4.774955545351669
 21
5.263967158928783
 31
0.0
  0
LINE
  5
826
330
1F
100
AcDbEntity
  8
4
100
AcDbLine
 10
4.774955545351669
 20
5.263967158928783
 30
0.0
 11
4.89895554535167
 21
5.263967158928783
 31
0.0
  0
LINE
  5
827
330
1F
100
AcDbEntity
  8
4
100
AcDbLine
 10
4.759626017408368
 20
5.551467158928783
 30
0.0
 11
4.78845246368936
 21
5.278967158928784
 31
0.0
  0
LINE
  5
828
330
1F
100
AcDbEntity
  8
4
100
AcDbLine
 10
4.78845246368936
 20
5.278967158928782
 30
0.0
 11
4.88545862701398
 21
5.278967158928784
 31
0.0
  0
LINE
  5
829
330
1F
100
AcDbEntity
  8
4
100
AcDbLine
 10
4.914285073294971
 20
5.551467158928783
 30
0.0
 11
4.88545862701398
 21
5.278967158928784
 31
0.0
  0
LINE
  5
82A
330
1F
100
AcDbEntity
  8
4
100
AcDbLine
 10
4.759626017408368
 20
5.551467158928783
 30
0.0
 11
4.914285073294971
 21
5.551467158928783
 31
0.0
  0
LINE
  5
82B
330
1F
100
AcDbEntity
  8
4
100
AcDbLine
 10
4.851955545351669
 20
5.551467158928783
 30
0.0
 11
4.851955545351669
 21
5.504467158928783
 31
0.0
  0
LINE
  5
82C
330
1F
100
AcDbEntity
  8
4
100
AcDbLine
 10
4.851955545351669
 20
5.504467158928783
 30
0.0
 11
4.82195554535167
 21
5.504467158928783
 31
0.0
  0
LINE
  5
82D
330
1F
100
AcDbEntity
  8
4
100
AcDbLine
 10
4.82195554535167
 20
5.504467158928783
 30
0.0
 11
4.82195554535167
 21
5.551467158928783
 31
0.0
  0
ARC
  5
82E
330
1F
100
AcDbEntity
  8
4
100
AcDbCircle
 10
7.042721489888219
 20
4.524046185666152
 30
0.0
 40
0.025
100
AcDbArc
 50
180.0
 51
0.0
  0
ARC
  5
82F
330
1F
100
AcDbEntity
  8
4
100
AcDbCircle
 10
6.591721489888218
 20
4.524046185666152
 30
0.0
 40
0.025
100
AcDbArc
 50
180.0
 51
0.0
  0
ARC
  5
830
330
1F
100
AcDbEntity
  8
4
100
AcDbCircle
 10
6.417721489888219
 20
4.524046185666152
 30
0.0
 40
0.025
100
AcDbArc
 50
180.0
 51
0.0
  0
ARC
  5
831
330
1F
100
AcDbEntity
  8
4
100
AcDbCircle
 10
5.966721489888218
 20
4.524046185666152
 30
0.0
 40
0.025
100
AcDbArc
 50
180.0
 51
0.0
  0
ARC
  5
832
330
1F
100
AcDbEntity
  8
4
100
AcDbCircle
 10
5.792721489888219
 20
4.524046185666152
 30
0.0
 40
0.025
100
AcDbArc
 50
180.0
 51
0.0
  0
ARC
  5
833
330
1F
100
AcDbEntity
  8
4
100
AcDbCircle
 10
5.341721489888219
 20
4.524046185666152
 30
0.0
 40
0.025
100
AcDbArc
 50
180.0
 51
0.0
  0
LINE
  5
834
330
1F
100
AcDbEntity
  8
4
100
AcDbLine
 10
6.784721489888219
 20
4.561046185666151
 30
0.0
 11
6.846721489888219
 21
4.561046185666151
 31
0.0
  0
LINE
  5
835
330
1F
100
AcDbEntity
  8
4
100
AcDbLine
 10
6.846721489888219
 20
4.561046185666151
 30
0.0
 11
6.846721489888219
 21
4.499046185666151
 31
0.0
  0
LINE
  5
836
330
1F
100
AcDbEntity
  8
4
100
AcDbLine
 10
6.784721489888219
 20
4.561046185666151
 30
0.0
 11
6.784721489888219
 21
4.499046185666151
 31
0.0
  0
LINE
  5
837
330
1F
100
AcDbEntity
  8
4
100
AcDbLine
 10
5.534721489888219
 20
4.561046185666151
 30
0.0
 11
5.534721489888219
 21
4.499046185666151
 31
0.0
  0
LINE
  5
838
330
1F
100
AcDbEntity
  8
4
100
AcDbLine
 10
5.596721489888219
 20
4.561046185666151
 30
0.0
 11
5.596721489888219
 21
4.499046185666151
 31
0.0
  0
LINE
  5
839
330
1F
100
AcDbEntity
  8
4
100
AcDbLine
 10
5.534721489888219
 20
4.561046185666151
 30
0.0
 11
5.596721489888219
 21
4.561046185666151
 31
0.0
  0
LINE
  5
83A
330
1F
100
AcDbEntity
  8
4
100
AcDbLine
 10
6.784721489888219
 20
6.030000001676371
 30
0.0
 11
6.784721489888219
 21
5.968000001676371
 31
0.0
  0
LINE
  5
83B
330
1F
100
AcDbEntity
  8
4
100
AcDbLine
 10
6.846721489888219
 20
6.030000001676371
 30
0.0
 11
6.846721489888219
 21
5.968000001676371
 31
0.0
  0
LINE
  5
83C
330
1F
100
AcDbEntity
  8
4
100
AcDbLine
 10
6.784721489888219
 20
6.030000001676371
 30
0.0
 11
6.846721489888219
 21
6.030000001676371
 31
0.0
  0
ARC
  5
83D
330
1F
100
AcDbEntity
  8
4
100
AcDbCircle
 10
5.341721489888219
 20
5.993000001676372
 30
0.0
 40
0.025
100
AcDbArc
 50
180.0
 51
0.0
  0
ARC
  5
83E
330
1F
100
AcDbEntity
  8
4
100
AcDbCircle
 10
5.792721489888219
 20
5.993000001676372
 30
0.0
 40
0.025
100
AcDbArc
 50
180.0
 51
0.0
  0
ARC
  5
83F
330
1F
100
AcDbEntity
  8
4
100
AcDbCircle
 10
5.966721489888218
 20
5.993000001676372
 30
0.0
 40
0.025
100
AcDbArc
 50
180.0
 51
0.0
  0
ARC
  5
840
330
1F
100
AcDbEntity
  8
4
100
AcDbCircle
 10
6.417721489888219
 20
5.993000001676372
 30
0.0
 40
0.025
100
AcDbArc
 50
180.0
 51
0.0
  0
ARC
  5
841
330
1F
100
AcDbEntity
  8
4
100
AcDbCircle
 10
6.591721489888218
 20
5.993000001676372
 30
0.0
 40
0.025
100
AcDbArc
 50
180.0
 51
0.0
  0
ARC
  5
842
330
1F
100
AcDbEntity
  8
4
100
AcDbCircle
 10
7.042721489888219
 20
5.993000001676372
 30
0.0
 40
0.025
100
AcDbArc
 50
180.0
 51
0.0
  0
LINE
  5
843
330
1F
100
AcDbEntity
  8
4
100
AcDbLine
 10
6.254721489888218
 20
4.619005880233501
 30
0.0
 11
6.442721489888218
 21
4.619005880233501
 31
0.0
  0
LINE
  5
844
330
1F
100
AcDbEntity
  8
4
100
AcDbLine
 10
6.254721489888218
 20
4.681005880233501
 30
0.0
 11
6.442721489888218
 21
4.681005880233501
 31
0.0
  0
LINE
  5
845
330
1F
100
AcDbEntity
  8
4
100
AcDbLine
 10
6.566721489888219
 20
4.681005880233501
 30
0.0
 11
7.067721489888218
 21
4.681005880233501
 31
0.0
  0
LINE
  5
846
330
1F
100
AcDbEntity
  8
4
100
AcDbLine
 10
6.566721489888219
 20
4.619005880233501
 30
0.0
 11
7.067721489888218
 21
4.619005880233501
 31
0.0
  0
LINE
  5
847
330
1F
100
AcDbEntity
  8
4
100
AcDbLine
 10
5.941721489888219
 20
4.681005880233501
 30
0.0
 11
6.103689790642667
 21
4.681005880233501
 31
0.0
  0
LINE
  5
848
330
1F
100
AcDbEntity
  8
4
100
AcDbLine
 10
5.941721489888219
 20
4.619005880233501
 30
0.0
 11
6.129721489888218
 21
4.619005880233501
 31
0.0
  0
LINE
  5
849
330
1F
100
AcDbEntity
  8
4
100
AcDbLine
 10
5.316721489888219
 20
4.681005880233501
 30
0.0
 11
5.817721489888218
 21
4.681005880233501
 31
0.0
  0
LINE
  5
84A
330
1F
100
AcDbEntity
  8
4
100
AcDbLine
 10
5.316721489888219
 20
4.619005880233501
 30
0.0
 11
5.817721489888218
 21
4.619005880233501
 31
0.0
  0
LINE
  5
84B
330
1F
100
AcDbEntity
  8
4
100
AcDbLine
 10
4.691721489888219
 20
4.681005880233501
 30
0.0
 11
5.192721489888218
 21
4.681005880233501
 31
0.0
  0
LINE
  5
84C
330
1F
100
AcDbEntity
  8
4
100
AcDbLine
 10
4.691721489888219
 20
4.619005880233501
 30
0.0
 11
5.192721489888218
 21
4.619005880233501
 31
0.0
  0
LINE
  5
84D
330
1F
100
AcDbEntity
  8
4
100
AcDbLine
 10
5.170721489888218
 20
3.617961726342858
 30
0.0
 11
5.170721489888218
 21
3.492961726342858
 31
0.0
  0
LINE
  5
84E
330
1F
100
AcDbEntity
  8
4
100
AcDbLine
 10
5.170721489888219
 20
4.337005880233501
 30
0.0
 11
5.170721489888219
 21
4.212005880233501
 31
0.0
  0
LINE
  5
84F
330
1F
100
AcDbEntity
  8
4
100
AcDbLine
 10
5.160721489888218
 20
3.243961726342858
 30
0.0
 11
4.723721489888218
 21
3.243961726342857
 31
0.0
  0
LINE
  5
850
330
1F
100
AcDbEntity
  8
4
100
AcDbLine
 10
5.160721489888219
 20
4.587005880233501
 30
0.0
 11
5.160721489888218
 21
3.243961726342858
 31
0.0
  0
LINE
  5
851
330
1F
100
AcDbEntity
  8
4
100
AcDbLine
 10
4.723721489888219
 20
4.587005880233501
 30
0.0
 11
5.160721489888219
 21
4.587005880233501
 31
0.0
  0
LINE
  5
852
330
1F
100
AcDbEntity
  8
4
100
AcDbLine
 10
4.723721489888218
 20
3.243961726342857
 30
0.0
 11
4.723721489888219
 21
4.587005880233501
 31
0.0
  0
LINE
  5
853
330
1F
100
AcDbEntity
  8
4
100
AcDbLine
 10
4.723721489888219
 20
4.712961726342857
 30
0.0
 11
4.723721489888219
 21
6.056005880233501
 31
0.0
  0
LINE
  5
854
330
1F
100
AcDbEntity
  8
4
100
AcDbLine
 10
4.723721489888219
 20
6.056005880233501
 30
0.0
 11
5.160721489888219
 21
6.056005880233501
 31
0.0
  0
LINE
  5
855
330
1F
100
AcDbEntity
  8
4
100
AcDbLine
 10
5.160721489888219
 20
6.056005880233501
 30
0.0
 11
5.160721489888218
 21
4.712961726342858
 31
0.0
  0
LINE
  5
856
330
1F
100
AcDbEntity
  8
4
100
AcDbLine
 10
5.160721489888218
 20
4.712961726342858
 30
0.0
 11
4.723721489888219
 21
4.712961726342857
 31
0.0
  0
LINE
  5
857
330
1F
100
AcDbEntity
  8
4
100
AcDbLine
 10
5.170721489888219
 20
5.806005880233501
 30
0.0
 11
5.170721489888219
 21
5.681005880233501
 31
0.0
  0
LINE
  5
858
330
1F
100
AcDbEntity
  8
4
100
AcDbLine
 10
5.170721489888219
 20
5.086961726342858
 30
0.0
 11
5.170721489888219
 21
4.961961726342858
 31
0.0
  0
LINE
  5
859
330
1F
100
AcDbEntity
  8
4
100
AcDbLine
 10
4.590633372411535
 20
5.524828066991473
 30
0.0
 11
4.215633372411535
 21
5.524828066991473
 31
0.0
  0
LINE
  5
85A
330
1F
100
AcDbEntity
  8
4
100
AcDbLine
 10
4.215633372411535
 20
5.524828066991473
 30
0.0
 11
4.215633372411535
 21
5.586828066991472
 31
0.0
  0
LINE
  5
85B
330
1F
100
AcDbEntity
  8
4
100
AcDbLine
 10
4.590633372411535
 20
5.38448380328818
 30
0.0
 11
4.215633372411535
 21
5.38448380328818
 31
0.0
  0
LINE
  5
85C
330
1F
100
AcDbEntity
  8
4
100
AcDbLine
 10
4.215633372411535
 20
5.38448380328818
 30
0.0
 11
4.215633372411535
 21
5.32248380328818
 31
0.0
  0
INSERT
  5
85D
330
1F
100
AcDbEntity
  8
4
100
AcDbBlockReference
  2
ARRO
 10
4.590633372411535
 20
5.524828066991473
 30
0.0
 50
180.0
  0
INSERT
  5
85E
330
1F
100
AcDbEntity
  8
4
100
AcDbBlockReference
  2
ARRO
 10
4.590633372411535
 20
5.38448380328818
 30
0.0
 50
180.0
  0
LINE
  5
85F
330
1F
100
AcDbEntity
  8
4
100
AcDbLine
 10
4.82195554535167
 20
4.035467158928783
 30
0.0
 11
4.82195554535167
 21
4.082467158928783
 31
0.0
  0
LINE
  5
860
330
1F
100
AcDbEntity
  8
4
100
AcDbLine
 10
4.851955545351669
 20
4.035467158928783
 30
0.0
 11
4.82195554535167
 21
4.035467158928783
 31
0.0
  0
LINE
  5
861
330
1F
100
AcDbEntity
  8
4
100
AcDbLine
 10
4.851955545351669
 20
4.082467158928783
 30
0.0
 11
4.851955545351669
 21
4.035467158928783
 31
0.0
  0
LINE
  5
862
330
1F
100
AcDbEntity
  8
4
100
AcDbLine
 10
4.759626017408368
 20
4.082467158928783
 30
0.0
 11
4.914285073294971
 21
4.082467158928783
 31
0.0
  0
LINE
  5
863
330
1F
100
AcDbEntity
  8
4
100
AcDbLine
 10
4.914285073294971
 20
4.082467158928783
 30
0.0
 11
4.88545862701398
 21
3.809967158928784
 31
0.0
  0
LINE
  5
864
330
1F
100
AcDbEntity
  8
4
100
AcDbLine
 10
4.78845246368936
 20
3.809967158928783
 30
0.0
 11
4.88545862701398
 21
3.809967158928784
 31
0.0
  0
LINE
  5
865
330
1F
100
AcDbEntity
  8
4
100
AcDbLine
 10
4.759626017408368
 20
4.082467158928783
 30
0.0
 11
4.78845246368936
 21
3.809967158928784
 31
0.0
  0
LINE
  5
866
330
1F
100
AcDbEntity
  8
4
100
AcDbLine
 10
4.774955545351669
 20
3.794967158928783
 30
0.0
 11
4.89895554535167
 21
3.794967158928783
 31
0.0
  0
LINE
  5
867
330
1F
100
AcDbEntity
  8
4
100
AcDbLine
 10
4.742955545351669
 20
4.097467158928783
 30
0.0
 11
4.774955545351669
 21
3.794967158928783
 31
0.0
  0
LINE
  5
868
330
1F
100
AcDbEntity
  8
4
100
AcDbLine
 10
4.93095554535167
 20
4.097467158928783
 30
0.0
 11
4.89895554535167
 21
3.794967158928783
 31
0.0
  0
LINE
  5
869
330
1F
100
AcDbEntity
  8
4
100
AcDbLine
 10
4.742955545351669
 20
4.097467158928783
 30
0.0
 11
4.93095554535167
 21
4.097467158928783
 31
0.0
  0
TEXT
  5
8DD
330
1F
100
AcDbEntity
  8
8
100
AcDbText
 10
8.84222148988822
 20
3.358979333573164
 30
0.0
 40
0.07
  1
DEPTH
  7
ROMANS
 72
     1
 11
9.00722148988822
 21
3.358979333573164
 31
0.0
100
AcDbText
  0
TEXT
  5
8DE
330
1F
100
AcDbEntity
  8
8
100
AcDbText
 10
10.46472148988822
 20
3.358979333573164
 30
0.0
 40
0.07
  1
DEPTH
  7
ROMANS
 72
     1
 11
10.62972148988822
 21
3.358979333573164
 31
0.0
100
AcDbText
  0
TEXT
  5
8E0
330
1F
100
AcDbEntity
  8
8
100
AcDbText
 10
9.424110814446597
 20
2.212000001676371
 30
0.0
 40
0.1
  1
SECTIONS
  7
ROMANS
 72
     1
 11
9.77649176682755
 21
2.212000001676371
 31
0.0
100
AcDbText
  0
TEXT
  5
8E1
330
1F
100
AcDbEntity
  8
8
100
AcDbText
 10
8.931774653015175
 20
2.396601008501681
 30
0.0
 40
0.1
  1
SR
  7
ROMANS
 72
     1
 11
9.029393700634223
 21
2.396601008501681
 31
0.0
100
AcDbText
  0
LINE
  5
8E2
330
1F
100
AcDbEntity
  8
4
100
AcDbLine
 10
9.257721489888218
 20
5.900000001676371
 30
0.0
 11
9.521453092553622
 21
5.900000001676371
 31
0.0
  0
LINE
  5
8E3
330
1F
100
AcDbEntity
  8
4
100
AcDbLine
 10
9.561880302226049
 20
5.900000001676371
 30
0.0
 11
9.742344099049992
 21
5.900000001676371
 31
0.0
  0
INSERT
  5
8E4
330
1F
100
AcDbEntity
  8
4
100
AcDbBlockReference
  2
ARRO
 10
9.561880302226049
 20
5.900000001676371
 30
0.0
  0
LINE
  5
8E5
330
1F
100
AcDbEntity
  8
4
100
AcDbLine
 10
9.742344099049992
 20
5.900000001676371
 30
0.0
 11
9.742344099049992
 21
5.697012331885859
 31
0.0
  0
TEXT
  5
8E6
330
1F
100
AcDbEntity
  8
8
100
AcDbText
 10
9.777344099049992
 20
4.321678998552525
 30
0.0
 40
0.07
  1
ANCHORING BY ERECTOR
 50
90.0
  7
ROMANS
 72
     2
 11
9.777344099049992
 21
5.635012331885858
 31
0.0
100
AcDbText
  0
TEXT
  5
8E7
330
1F
100
AcDbEntity
  8
8
100
AcDbText
 10
8.130221489888217
 20
4.228333335009704
 30
0.0
 40
0.07
  1
LOCKER HEIGHT
 50
90.0
  7
ROMANS
 72
     1
 11
8.130221489888217
 21
4.650000001676371
 31
0.0
100
AcDbText
  0
TEXT
  5
8E8
330
1F
100
AcDbEntity
  8
8
100
AcDbText
 10
4.974721489888217
 20
2.712000001676371
 30
0.0
 40
0.07
  1
LOCKER WIDTH - SEE SCHEDULE
  7
ROMANS
 72
     1
 11
5.879721489888218
 21
2.712000001676371
 31
0.0
100
AcDbText
  0
TEXT
  5
8E9
330
1F
100
AcDbEntity
  8
8
100
AcDbText
 10
5.215435775602505
 20
2.212000001676371
 30
0.0
 40
0.1
  1
FRONT ELEVATION
  7
ROMANS
 72
     1
 11
5.879721489888218
 21
2.212000001676371
 31
0.0
100
AcDbText
  0
LINE
  5
8EA
330
1F
100
AcDbEntity
  8
1
100
AcDbLine
 10
3.629721489888218
 20
1.650000001676371
 30
0.0
 11
11.87972148988822
 21
1.650000001676371
 31
0.0
  0
LINE
  5
8EB
330
1F
100
AcDbEntity
  8
1
100
AcDbLine
 10
11.87972148988822
 20
1.650000001676371
 30
0.0
 11
11.87972148988822
 21
6.900000001676371
 31
0.0
  0
LINE
  5
8EC
330
1F
100
AcDbEntity
  8
1
100
AcDbLine
 10
11.87972148988822
 20
6.900000001676371
 30
0.0
 11
3.629721489888218
 21
6.900000001676371
 31
0.0
  0
LINE
  5
8ED
330
1F
100
AcDbEntity
  8
1
100
AcDbLine
 10
3.629721489888218
 20
6.900000001676371
 30
0.0
 11
3.629721489888218
 21
1.650000001676371
 31
0.0
  0
LINE
  5
8EE
330
1F
100
AcDbEntity
  8
1
100
AcDbLine
 10
4.629721489888218
 20
3.150000001676371
 30
0.0
 11
6.129721489888218
 21
3.150000001676371
 31
0.0
  0
LINE
  5
8EF
330
1F
100
AcDbEntity
  8
1
100
AcDbLine
 10
4.629721489888218
 20
3.150000001676371
 30
0.0
 11
4.629721489888218
 21
6.150000001676371
 31
0.0
  0
LINE
  5
8F0
330
1F
100
AcDbEntity
  8
1
100
AcDbLine
 10
4.629721489888218
 20
6.150000001676371
 30
0.0
 11
6.129721489888218
 21
6.150000001676371
 31
0.0
  0
LINE
  5
8F1
330
1F
100
AcDbEntity
  8
1
100
AcDbLine
 10
6.254721489888218
 20
6.150000001676371
 30
0.0
 11
7.129721489888218
 21
6.150000001676371
 31
0.0
  0
LINE
  5
8F2
330
1F
100
AcDbEntity
  8
1
100
AcDbLine
 10
7.129721489888218
 20
6.150000001676371
 30
0.0
 11
7.129721489888218
 21
3.150000001676371
 31
0.0
  0
LINE
  5
8F3
330
1F
100
AcDbEntity
  8
1
100
AcDbLine
 10
7.129721489888218
 20
3.150000001676371
 30
0.0
 11
6.254721489888218
 21
3.150000001676371
 31
0.0
  0
LINE
  5
8F4
330
1F
100
AcDbEntity
  8
1
100
AcDbLine
 10
10.62972148988822
 20
3.150000001676371
 30
0.0
 11
10.62972148988822
 21
6.150000001676371
 31
0.0
  0
LINE
  5
8F5
330
1F
100
AcDbEntity
  8
1
100
AcDbLine
 10
9.379721489888218
 20
3.150000001676371
 30
0.0
 11
9.379721489888218
 21
6.525000001676371
 31
0.0
  0
CIRCLE
  5
8F6
330
1F
100
AcDbEntity
  8
1
100
AcDbCircle
 10
7.754721489888218
 20
2.150000001676371
 30
0.0
 40
0.1875
  0
LINE
  5
8F7
330
1F
100
AcDbEntity
  8
1
100
AcDbLine
 10
6.254721489888218
 20
6.275000001676371
 30
0.0
 11
6.254721489888218
 21
5.359974180987951
 31
0.0
  0
LINE
  5
8F8
330
1F
100
AcDbEntity
  8
1
100
AcDbLine
 10
6.129721489888218
 20
6.275000001676371
 30
0.0
 11
6.129721489888218
 21
5.99497418098795
 31
0.0
  0
LINE
  5
8F9
330
1F
100
AcDbEntity
  8
1
100
AcDbLine
 10
6.084721489888218
 20
6.03997418098795
 30
0.0
 11
6.174721489888218
 21
5.94997418098795
 31
0.0
  0
LINE
  5
8FA
330
1F
100
AcDbEntity
  8
1
100
AcDbLine
 10
6.174721489888218
 20
5.94997418098795
 30
0.0
 11
6.084721489888218
 21
5.94997418098795
 31
0.0
  0
LINE
  5
8FB
330
1F
100
AcDbEntity
  8
1
100
AcDbLine
 10
6.084721489888218
 20
5.94997418098795
 30
0.0
 11
6.174721489888218
 21
5.859974180987951
 31
0.0
  0
LINE
  5
8FC
330
1F
100
AcDbEntity
  8
1
100
AcDbLine
 10
6.141917520715201
 20
5.892778150160968
 30
0.0
 11
6.141917520715201
 21
4.72567853082404
 31
0.0
  0
LINE
  5
8FD
330
1F
100
AcDbEntity
  8
1
100
AcDbLine
 10
6.084721489888218
 20
4.69997418098795
 30
0.0
 11
6.174721489888218
 21
4.609974180987951
 31
0.0
  0
LINE
  5
8FE
330
1F
100
AcDbEntity
  8
1
100
AcDbLine
 10
6.174721489888218
 20
4.69997418098795
 30
0.0
 11
6.084721489888218
 21
4.69997418098795
 31
0.0
  0
LINE
  5
8FF
330
1F
100
AcDbEntity
  8
1
100
AcDbLine
 10
6.084721489888218
 20
4.78997418098795
 30
0.0
 11
6.174721489888218
 21
4.69997418098795
 31
0.0
  0
LINE
  5
900
330
1F
100
AcDbEntity
  8
1
100
AcDbLine
 10
6.084721489888218
 20
3.44997418098795
 30
0.0
 11
6.174721489888218
 21
3.359974180987951
 31
0.0
  0
LINE
  5
901
330
1F
100
AcDbEntity
  8
1
100
AcDbLine
 10
6.174721489888218
 20
3.44997418098795
 30
0.0
 11
6.084721489888218
 21
3.44997418098795
 31
0.0
  0
LINE
  5
902
330
1F
100
AcDbEntity
  8
1
100
AcDbLine
 10
6.084721489888218
 20
3.53997418098795
 30
0.0
 11
6.174721489888218
 21
3.44997418098795
 31
0.0
  0
LINE
  5
903
330
1F
100
AcDbEntity
  8
1
100
AcDbLine
 10
6.129721489888218
 20
4.654974180987951
 30
0.0
 11
6.129721489888218
 21
4.11997418098795
 31
0.0
  0
LINE
  5
904
330
1F
100
AcDbEntity
  8
1
100
AcDbLine
 10
6.129721489888218
 20
4.11997418098795
 30
0.0
 11
6.129721489888218
 21
3.49497418098795
 31
0.0
  0
LINE
  5
905
330
1F
100
AcDbEntity
  8
1
100
AcDbLine
 10
6.129721489888218
 20
3.404974180987951
 30
0.0
 11
6.129721489888218
 21
3.025000001676371
 31
0.0
  0
LINE
  5
906
330
1F
100
AcDbEntity
  8
1
100
AcDbLine
 10
6.209721489888218
 20
4.16497418098795
 30
0.0
 11
6.299721489888218
 21
4.07497418098795
 31
0.0
  0
LINE
  5
907
330
1F
100
AcDbEntity
  8
1
100
AcDbLine
 10
6.299721489888218
 20
4.07497418098795
 30
0.0
 11
6.209721489888218
 21
4.07497418098795
 31
0.0
  0
LINE
  5
908
330
1F
100
AcDbEntity
  8
1
100
AcDbLine
 10
6.209721489888218
 20
4.07497418098795
 30
0.0
 11
6.299721489888218
 21
3.984974180987951
 31
0.0
  0
LINE
  5
909
330
1F
100
AcDbEntity
  8
1
100
AcDbLine
 10
6.209721489888218
 20
5.404974180987951
 30
0.0
 11
6.299721489888218
 21
5.314974180987951
 31
0.0
  0
LINE
  5
90A
330
1F
100
AcDbEntity
  8
1
100
AcDbLine
 10
6.299721489888218
 20
5.314974180987951
 30
0.0
 11
6.209721489888218
 21
5.314974180987951
 31
0.0
  0
LINE
  5
90B
330
1F
100
AcDbEntity
  8
1
100
AcDbLine
 10
6.209721489888218
 20
5.314974180987951
 30
0.0
 11
6.299721489888218
 21
5.224974180987951
 31
0.0
  0
LINE
  5
90C
330
1F
100
AcDbEntity
  8
1
100
AcDbLine
 10
6.254721489888218
 20
5.275967705828237
 30
0.0
 11
6.254721489888218
 21
4.43247418098795
 31
0.0
  0
LINE
  5
90D
330
1F
100
AcDbEntity
  8
1
100
AcDbLine
 10
6.254721489888218
 20
4.43247418098795
 30
0.0
 11
6.254721489888218
 21
4.11997418098795
 31
0.0
  0
LINE
  5
90E
330
1F
100
AcDbEntity
  8
1
100
AcDbLine
 10
6.254721489888218
 20
4.029974180987951
 30
0.0
 11
6.254721489888218
 21
3.025000001676371
 31
0.0
  0
LINE
  5
90F
330
1F
100
AcDbEntity
  8
1
100
AcDbLine
 10
9.379721489888218
 20
3.150000001676371
 30
0.0
 11
9.567721489888217
 21
3.338000001676371
 31
0.0
  0
LINE
  5
910
330
1F
100
AcDbEntity
  8
1
100
AcDbLine
 10
9.379721489888218
 20
3.275000001676371
 30
0.0
 11
9.567721489888217
 21
3.463000001676371
 31
0.0
  0
LINE
  5
911
330
1F
100
AcDbEntity
  8
1
100
AcDbLine
 10
9.379721489888218
 20
3.650000001676371
 30
0.0
 11
9.567721489888217
 21
3.838000001676371
 31
0.0
  0
LINE
  5
912
330
1F
100
AcDbEntity
  8
1
100
AcDbLine
 10
9.379721489888218
 20
3.775000001676371
 30
0.0
 11
9.567721489888217
 21
3.963000001676371
 31
0.0
  0
LINE
  5
913
330
1F
100
AcDbEntity
  8
1
100
AcDbLine
 10
9.379721489888218
 20
3.900000001676371
 30
0.0
 11
9.567721489888217
 21
4.088000001676371
 31
0.0
  0
LINE
  5
914
330
1F
100
AcDbEntity
  8
1
100
AcDbLine
 10
9.379721489888218
 20
4.025000001676371
 30
0.0
 11
9.567721489888217
 21
4.213000001676371
 31
0.0
  0
LINE
  5
915
330
1F
100
AcDbEntity
  8
1
100
AcDbLine
 10
9.379721489888218
 20
4.150000001676371
 30
0.0
 11
9.567721489888217
 21
4.338000001676371
 31
0.0
  0
LINE
  5
916
330
1F
100
AcDbEntity
  8
1
100
AcDbLine
 10
9.379721489888218
 20
4.275000001676371
 30
0.0
 11
9.567721489888217
 21
4.463000001676371
 31
0.0
  0
LINE
  5
917
330
1F
100
AcDbEntity
  8
1
100
AcDbLine
 10
9.379721489888218
 20
4.400000001676371
 30
0.0
 11
9.567721489888217
 21
4.588000001676371
 31
0.0
  0
LINE
  5
918
330
1F
100
AcDbEntity
  8
1
100
AcDbLine
 10
9.379721489888218
 20
4.525000001676371
 30
0.0
 11
9.567721489888217
 21
4.713000001676371
 31
0.0
  0
LINE
  5
919
330
1F
100
AcDbEntity
  8
1
100
AcDbLine
 10
9.379721489888218
 20
4.650000001676371
 30
0.0
 11
9.567721489888217
 21
4.838000001676371
 31
0.0
  0
LINE
  5
91A
330
1F
100
AcDbEntity
  8
1
100
AcDbLine
 10
9.379721489888218
 20
4.775000001676371
 30
0.0
 11
9.567721489888217
 21
4.963000001676371
 31
0.0
  0
LINE
  5
91B
330
1F
100
AcDbEntity
  8
1
100
AcDbLine
 10
9.379721489888218
 20
4.900000001676371
 30
0.0
 11
9.567721489888217
 21
5.088000001676371
 31
0.0
  0
LINE
  5
91C
330
1F
100
AcDbEntity
  8
1
100
AcDbLine
 10
9.379721489888218
 20
5.025000001676371
 30
0.0
 11
9.567721489888217
 21
5.213000001676371
 31
0.0
  0
LINE
  5
91D
330
1F
100
AcDbEntity
  8
1
100
AcDbLine
 10
9.379721489888218
 20
5.150000001676371
 30
0.0
 11
9.567721489888217
 21
5.338000001676371
 31
0.0
  0
LINE
  5
91E
330
1F
100
AcDbEntity
  8
1
100
AcDbLine
 10
9.379721489888218
 20
5.275000001676371
 30
0.0
 11
9.567721489888217
 21
5.463000001676371
 31
0.0
  0
LINE
  5
91F
330
1F
100
AcDbEntity
  8
1
100
AcDbLine
 10
9.379721489888218
 20
5.400000001676371
 30
0.0
 11
9.567721489888217
 21
5.588000001676371
 31
0.0
  0
LINE
  5
920
330
1F
100
AcDbEntity
  8
1
100
AcDbLine
 10
9.379721489888218
 20
5.525000001676371
 30
0.0
 11
9.567721489888217
 21
5.713000001676371
 31
0.0
  0
LINE
  5
921
330
1F
100
AcDbEntity
  8
1
100
AcDbLine
 10
9.379721489888218
 20
5.650000001676371
 30
0.0
 11
9.567721489888217
 21
5.838000001676371
 31
0.0
  0
LINE
  5
922
330
1F
100
AcDbEntity
  8
1
100
AcDbLine
 10
9.379721489888218
 20
5.775000001676371
 30
0.0
 11
9.567721489888217
 21
5.963000001676371
 31
0.0
  0
LINE
  5
923
330
1F
100
AcDbEntity
  8
1
100
AcDbLine
 10
9.379721489888218
 20
5.900000001676371
 30
0.0
 11
9.567721489888217
 21
6.088000001676371
 31
0.0
  0
LINE
  5
924
330
1F
100
AcDbEntity
  8
1
100
AcDbLine
 10
9.379721489888218
 20
6.025000001676371
 30
0.0
 11
9.567721489888217
 21
6.213000001676371
 31
0.0
  0
LINE
  5
925
330
1F
100
AcDbEntity
  8
1
100
AcDbLine
 10
9.379721489888218
 20
6.150000001676371
 30
0.0
 11
9.567721489888217
 21
6.338000001676371
 31
0.0
  0
LINE
  5
926
330
1F
100
AcDbEntity
  8
1
100
AcDbLine
 10
9.379721489888218
 20
6.275000001676371
 30
0.0
 11
9.567721489888217
 21
6.463000001676371
 31
0.0
  0
LINE
  5
927
330
1F
100
AcDbEntity
  8
1
100
AcDbLine
 10
9.379721489888218
 20
6.400000001676371
 30
0.0
 11
9.504721489888218
 21
6.525000001676371
 31
0.0
  0
LINE
  5
928
330
1F
100
AcDbEntity
  8
1
100
AcDbLine
 10
9.31972148988822
 20
3.150000001676371
 30
0.0
 11
9.31972148988822
 21
6.150000001676371
 31
0.0
  0
LINE
  5
929
330
1F
100
AcDbEntity
  8
4
100
AcDbLine
 10
4.629721489888218
 20
3.088000001676371
 30
0.0
 11
4.629721489888218
 21
2.588000001676371
 31
0.0
  0
LINE
  5
92A
330
1F
100
AcDbEntity
  8
4
100
AcDbLine
 10
7.129721489888218
 20
3.088000001676371
 30
0.0
 11
7.129721489888218
 21
2.588000001676371
 31
0.0
  0
LINE
  5
92B
330
1F
100
AcDbEntity
  8
4
100
AcDbLine
 10
7.129721489888218
 20
2.650000001676371
 30
0.0
 11
4.629721489888218
 21
2.650000001676371
 31
0.0
  0
INSERT
  5
92C
330
1F
100
AcDbEntity
  8
4
100
AcDbBlockReference
  2
ARRO
 10
4.629721489888218
 20
2.650000001676371
 30
0.0
  0
INSERT
  5
92D
330
1F
100
AcDbEntity
  8
4
100
AcDbBlockReference
  2
ARRO
 10
7.129721489888218
 20
2.650000001676371
 30
0.0
 50
180.0
  0
LINE
  5
92E
330
1F
100
AcDbEntity
  8
4
100
AcDbLine
 10
8.63222148988822
 20
3.150000001676371
 30
0.0
 11
8.13222148988822
 21
3.150000001676371
 31
0.0
  0
LINE
  5
92F
330
1F
100
AcDbEntity
  8
4
100
AcDbLine
 10
8.192221489888218
 20
3.150000001676371
 30
0.0
 11
8.192221489888218
 21
6.150000001676371
 31
0.0
  0
LINE
  5
930
330
1F
100
AcDbEntity
  8
4
100
AcDbLine
 10
8.63222148988822
 20
6.150000001676371
 30
0.0
 11
8.13222148988822
 21
6.150000001676371
 31
0.0
  0
INSERT
  5
931
330
1F
100
AcDbEntity
  8
4
100
AcDbBlockReference
  2
ARRO
 10
8.192221489888218
 20
6.150000001676371
 30
0.0
 50
270.0
  0
INSERT
  5
932
330
1F
100
AcDbEntity
  8
4
100
AcDbBlockReference
  2
ARRO
 10
8.192221489888218
 20
3.150000001676371
 30
0.0
 50
90.0
  0
LINE
  5
933
330
1F
100
AcDbEntity
  8
4
100
AcDbLine
 10
9.31972148988822
 20
3.462500001676371
 30
0.0
 11
8.69472148988822
 21
3.462500001676371
 31
0.0
  0
LINE
  5
934
330
1F
100
AcDbEntity
  8
4
100
AcDbLine
 10
9.379721489888218
 20
3.462500001676371
 30
0.0
 11
9.629721489888218
 21
3.462500001676371
 31
0.0
  0
LINE
  5
935
330
1F
100
AcDbEntity
  8
4
100
AcDbLine
 10
10.00472148988822
 20
3.462500001676371
 30
0.0
 11
11.25472148988822
 21
3.462500001676371
 31
0.0
  0
INSERT
  5
936
330
1F
100
AcDbEntity
  8
4
100
AcDbBlockReference
  2
ARRO
 10
8.69472148988822
 20
3.462500001676371
 30
0.0
  0
INSERT
  5
937
330
1F
100
AcDbEntity
  8
4
100
AcDbBlockReference
  2
ARRO
 10
9.31972148988822
 20
3.462500001676371
 30
0.0
 50
180.0
  0
INSERT
  5
938
330
1F
100
AcDbEntity
  8
4
100
AcDbBlockReference
  2
ARRO
 10
9.379721489888218
 20
3.462500001676371
 30
0.0
  0
INSERT
  5
939
330
1F
100
AcDbEntity
  8
4
100
AcDbBlockReference
  2
ARRO
 10
10.00472148988822
 20
3.462500001676371
 30
0.0
  0
INSERT
  5
93A
330
1F
100
AcDbEntity
  8
4
100
AcDbBlockReference
  2
ARRO
 10
11.28622148988822
 20
3.462500001676371
 30
0.0
 50
180.0
  0
LINE
  5
93B
330
1F
100
AcDbEntity
  8
1
100
AcDbLine
 10
4.691721489888219
 20
3.212000001676371
 30
0.0
 11
4.691721489888219
 21
4.619005880233501
 31
0.0
  0
LINE
  5
93C
330
1F
100
AcDbEntity
  8
1
100
AcDbLine
 10
4.691721489888219
 20
6.088000001676372
 30
0.0
 11
5.192721489888219
 21
6.088000001676372
 31
0.0
  0
LINE
  5
93D
330
1F
100
AcDbEntity
  8
1
100
AcDbLine
 10
5.192721489888219
 20
6.088000001676372
 30
0.0
 11
5.192721489888218
 21
4.681005880233501
 31
0.0
  0
LINE
  5
93E
330
1F
100
AcDbEntity
  8
1
100
AcDbLine
 10
5.316721489888219
 20
3.212000001676371
 30
0.0
 11
5.316721489888219
 21
4.619005880233501
 31
0.0
  0
LINE
  5
93F
330
1F
100
AcDbEntity
  8
1
100
AcDbLine
 10
5.316721489888219
 20
6.088000001676372
 30
0.0
 11
5.817721489888219
 21
6.088000001676372
 31
0.0
  0
LINE
  5
940
330
1F
100
AcDbEntity
  8
1
100
AcDbLine
 10
5.817721489888219
 20
6.088000001676372
 30
0.0
 11
5.817721489888219
 21
4.681005880233501
 31
0.0
  0
LINE
  5
941
330
1F
100
AcDbEntity
  8
1
100
AcDbLine
 10
5.817721489888218
 20
3.212000001676371
 30
0.0
 11
5.316721489888219
 21
3.212000001676371
 31
0.0
  0
LINE
  5
942
330
1F
100
AcDbEntity
  8
1
100
AcDbLine
 10
5.941721489888219
 20
3.212000001676371
 30
0.0
 11
5.941721489888219
 21
4.619005880233501
 31
0.0
  0
LINE
  5
943
330
1F
100
AcDbEntity
  8
1
100
AcDbLine
 10
5.941721489888219
 20
6.088000001676372
 30
0.0
 11
6.129721489888218
 21
6.088000001676372
 31
0.0
  0
LINE
  5
944
330
1F
100
AcDbEntity
  8
1
100
AcDbLine
 10
6.442721489888219
 20
6.088000001676372
 30
0.0
 11
6.442721489888219
 21
4.681005880233501
 31
0.0
  0
LINE
  5
945
330
1F
100
AcDbEntity
  8
1
100
AcDbLine
 10
6.442721489888218
 20
3.212000001676371
 30
0.0
 11
6.254721489888218
 21
3.212000001676371
 31
0.0
  0
LINE
  5
946
330
1F
100
AcDbEntity
  8
1
100
AcDbLine
 10
6.566721489888219
 20
3.212000001676371
 30
0.0
 11
6.566721489888219
 21
4.619005880233501
 31
0.0
  0
LINE
  5
947
330
1F
100
AcDbEntity
  8
1
100
AcDbLine
 10
6.566721489888219
 20
6.088000001676372
 30
0.0
 11
7.067721489888219
 21
6.088000001676372
 31
0.0
  0
LINE
  5
948
330
1F
100
AcDbEntity
  8
1
100
AcDbLine
 10
7.067721489888219
 20
6.088000001676372
 30
0.0
 11
7.067721489888219
 21
4.681005880233501
 31
0.0
  0
LINE
  5
949
330
1F
100
AcDbEntity
  8
1
100
AcDbLine
 10
7.067721489888218
 20
3.212000001676371
 30
0.0
 11
6.566721489888219
 21
3.212000001676371
 31
0.0
  0
LINE
  5
94A
330
1F
100
AcDbEntity
  8
1
100
AcDbLine
 10
5.254721489888218
 20
3.150000001676371
 30
0.0
 11
5.254721489888218
 21
6.150000001676371
 31
0.0
  0
LINE
  5
94B
330
1F
100
AcDbEntity
  8
1
100
AcDbLine
 10
5.879721489888218
 20
3.150000001676371
 30
0.0
 11
5.879721489888218
 21
6.150000001676371
 31
0.0
  0
LINE
  5
94C
330
1F
100
AcDbEntity
  8
1
100
AcDbLine
 10
6.504721489888218
 20
3.150000001676371
 30
0.0
 11
6.504721489888218
 21
6.150000001676371
 31
0.0
  0
LINE
  5
94D
330
1F
100
AcDbEntity
  8
1
100
AcDbLine
 10
6.254721489888218
 20
6.088000001676372
 30
0.0
 11
6.442721489888219
 21
6.088000001676372
 31
0.0
  0
LINE
  5
94E
330
1F
100
AcDbEntity
  8
1
100
AcDbLine
 10
6.129721489888217
 20
3.212000001676371
 30
0.0
 11
5.941721489888219
 21
3.212000001676371
 31
0.0
  0
LINE
  5
94F
330
1F
100
AcDbEntity
  8
4
100
AcDbLine
 10
5.567221489888218
 20
6.056000001676371
 30
0.0
 11
5.567221489888218
 21
6.181000001676371
 31
0.0
  0
CIRCLE
  5
950
330
1F
100
AcDbEntity
  8
4
100
AcDbCircle
 10
5.567221489888218
 20
5.962000001676371
 30
0.0
 40
0.094
  0
CIRCLE
  5
951
330
1F
100
AcDbEntity
  8
4
100
AcDbCircle
 10
5.408588200196231
 20
3.024000001676371
 30
0.0
 40
0.094
  0
LINE
  5
952
330
1F
100
AcDbEntity
  8
4
100
AcDbLine
 10
5.408588200196231
 20
3.118000001676371
 30
0.0
 11
5.408588200196231
 21
3.243000001676371
 31
0.0
  0
CIRCLE
  5
953
330
1F
100
AcDbEntity
  8
4
100
AcDbCircle
 10
5.658588200196231
 20
3.024000001676371
 30
0.0
 40
0.094
  0
LINE
  5
954
330
1F
100
AcDbEntity
  8
4
100
AcDbLine
 10
5.502588200196232
 20
3.024000001676371
 30
0.0
 11
5.564588200196231
 21
3.024000001676371
 31
0.0
  0
LINE
  5
955
330
1F
100
AcDbEntity
  8
1
100
AcDbLine
 10
4.691721489888219
 20
3.212000001676371
 30
0.0
 11
5.192721489888218
 21
3.212000001676371
 31
0.0
  0
LINE
  5
956
330
1F
100
AcDbEntity
  8
1
100
AcDbLine
 10
8.833221489888217
 20
6.150000001676371
 30
0.0
 11
8.818221489888218
 21
6.13500000167637
 31
0.0
  0
LINE
  5
957
330
1F
100
AcDbEntity
  8
1
100
AcDbLine
 10
8.818221489888218
 20
6.13500000167637
 30
0.0
 11
8.720221489888217
 21
6.13500000167637
 31
0.0
  0
LINE
  5
958
330
1F
100
AcDbEntity
  8
1
100
AcDbLine
 10
8.720221489888217
 20
6.13500000167637
 30
0.0
 11
8.720221489888217
 21
6.106753859238811
 31
0.0
  0
LINE
  5
959
330
1F
100
AcDbEntity
  8
1
100
AcDbLine
 10
8.895221489888218
 20
6.088000001676371
 30
0.0
 11
8.833221489888217
 21
6.150000001676371
 31
0.0
  0
LINE
  5
95A
330
1F
100
AcDbEntity
  8
1
100
AcDbLine
 10
9.260221489888218
 20
6.088000001676371
 30
0.0
 11
8.895221489888218
 21
6.088000001676371
 31
0.0
  0
LINE
  5
95B
330
1F
100
AcDbEntity
  8
1
100
AcDbLine
 10
9.260221489888218
 20
6.150000001676371
 30
0.0
 11
9.260221489888218
 21
6.088000001676371
 31
0.0
  0
LINE
  5
95C
330
1F
100
AcDbEntity
  8
1
100
AcDbLine
 10
9.300221489888219
 20
6.150000001676371
 30
0.0
 11
9.300221489888219
 21
6.088000001676371
 31
0.0
  0
LINE
  5
95D
330
1F
100
AcDbEntity
  8
1
100
AcDbLine
 10
8.695221489888218
 20
6.150000001676371
 30
0.0
 11
8.803221489888217
 21
6.150000001676371
 31
0.0
  0
LINE
  5
95E
330
1F
100
AcDbEntity
  8
1
100
AcDbLine
 10
8.695221489888218
 20
6.088000001676371
 30
0.0
 11
8.695221489888218
 21
6.150000001676371
 31
0.0
  0
LINE
  5
95F
330
1F
100
AcDbEntity
  8
1
100
AcDbLine
 10
8.757221489888218
 20
6.088000001676371
 30
0.0
 11
8.695221489888218
 21
6.088000001676371
 31
0.0
  0
LINE
  5
960
330
1F
100
AcDbEntity
  8
1
100
AcDbLine
 10
8.833221489888217
 20
6.150000001676371
 30
0.0
 11
9.300221489888219
 21
6.150000001676371
 31
0.0
  0
LINE
  5
961
330
1F
100
AcDbEntity
  8
1
100
AcDbLine
 10
10.14322148988822
 20
6.150000001676371
 30
0.0
 11
10.61022148988822
 21
6.150000001676371
 31
0.0
  0
LINE
  5
962
330
1F
100
AcDbEntity
  8
1
100
AcDbLine
 10
10.06722148988822
 20
6.088000001676371
 30
0.0
 11
10.00522148988822
 21
6.088000001676371
 31
0.0
  0
LINE
  5
963
330
1F
100
AcDbEntity
  8
1
100
AcDbLine
 10
10.00522148988822
 20
6.088000001676371
 30
0.0
 11
10.00522148988822
 21
6.150000001676371
 31
0.0
  0
LINE
  5
964
330
1F
100
AcDbEntity
  8
1
100
AcDbLine
 10
10.00522148988822
 20
6.150000001676371
 30
0.0
 11
10.11322148988822
 21
6.150000001676371
 31
0.0
  0
LINE
  5
965
330
1F
100
AcDbEntity
  8
1
100
AcDbLine
 10
10.61022148988822
 20
6.150000001676371
 30
0.0
 11
10.61022148988822
 21
6.088000001676371
 31
0.0
  0
LINE
  5
966
330
1F
100
AcDbEntity
  8
1
100
AcDbLine
 10
10.57022148988822
 20
6.150000001676371
 30
0.0
 11
10.57022148988822
 21
6.088000001676371
 31
0.0
  0
LINE
  5
967
330
1F
100
AcDbEntity
  8
1
100
AcDbLine
 10
10.57022148988822
 20
6.088000001676371
 30
0.0
 11
10.20522148988821
 21
6.088000001676371
 31
0.0
  0
LINE
  5
968
330
1F
100
AcDbEntity
  8
1
100
AcDbLine
 10
10.20522148988821
 20
6.088000001676371
 30
0.0
 11
10.14322148988822
 21
6.150000001676371
 31
0.0
  0
LINE
  5
969
330
1F
100
AcDbEntity
  8
1
100
AcDbLine
 10
10.03022148988822
 20
6.13500000167637
 30
0.0
 11
10.03022148988822
 21
6.106753859238811
 31
0.0
  0
LINE
  5
96A
330
1F
100
AcDbEntity
  8
1
100
AcDbLine
 10
10.12822148988822
 20
6.13500000167637
 30
0.0
 11
10.03022148988822
 21
6.13500000167637
 31
0.0
  0
LINE
  5
96B
330
1F
100
AcDbEntity
  8
1
100
AcDbLine
 10
10.14322148988822
 20
6.150000001676371
 30
0.0
 11
10.12822148988822
 21
6.13500000167637
 31
0.0
  0
LINE
  5
96C
330
1F
100
AcDbEntity
  8
1
100
AcDbLine
 10
11.14822148988822
 20
6.150000001676371
 30
0.0
 11
11.16322148988822
 21
6.13500000167637
 31
0.0
  0
LINE
  5
96D
330
1F
100
AcDbEntity
  8
1
100
AcDbLine
 10
11.16322148988822
 20
6.13500000167637
 30
0.0
 11
11.26122148988822
 21
6.13500000167637
 31
0.0
  0
LINE
  5
96E
330
1F
100
AcDbEntity
  8
1
100
AcDbLine
 10
11.26122148988822
 20
6.13500000167637
 30
0.0
 11
11.26122148988822
 21
6.106753859238811
 31
0.0
  0
LINE
  5
96F
330
1F
100
AcDbEntity
  8
1
100
AcDbLine
 10
11.08622148988822
 20
6.088000001676371
 30
0.0
 11
11.14822148988822
 21
6.150000001676371
 31
0.0
  0
LINE
  5
970
330
1F
100
AcDbEntity
  8
1
100
AcDbLine
 10
10.72122148988822
 20
6.088000001676371
 30
0.0
 11
11.08622148988822
 21
6.088000001676371
 31
0.0
  0
LINE
  5
971
330
1F
100
AcDbEntity
  8
1
100
AcDbLine
 10
10.72122148988822
 20
6.150000001676371
 30
0.0
 11
10.72122148988822
 21
6.088000001676371
 31
0.0
  0
LINE
  5
972
330
1F
100
AcDbEntity
  8
1
100
AcDbLine
 10
10.68122148988822
 20
6.150000001676371
 30
0.0
 11
10.68122148988822
 21
6.088000001676371
 31
0.0
  0
LINE
  5
973
330
1F
100
AcDbEntity
  8
1
100
AcDbLine
 10
11.28622148988822
 20
6.150000001676371
 30
0.0
 11
11.17822148988822
 21
6.150000001676371
 31
0.0
  0
LINE
  5
974
330
1F
100
AcDbEntity
  8
1
100
AcDbLine
 10
11.28622148988822
 20
6.088000001676371
 30
0.0
 11
11.28622148988822
 21
6.150000001676371
 31
0.0
  0
LINE
  5
975
330
1F
100
AcDbEntity
  8
1
100
AcDbLine
 10
11.22422148988822
 20
6.088000001676371
 30
0.0
 11
11.28622148988822
 21
6.088000001676371
 31
0.0
  0
LINE
  5
976
330
1F
100
AcDbEntity
  8
1
100
AcDbLine
 10
11.14822148988822
 20
6.150000001676371
 30
0.0
 11
10.68122148988822
 21
6.150000001676371
 31
0.0
  0
LINE
  5
977
330
1F
100
AcDbEntity
  8
1
100
AcDbLine
 10
11.14717591738098
 20
3.212500001676371
 30
0.0
 11
10.68017591738098
 21
3.212500001676371
 31
0.0
  0
LINE
  5
978
330
1F
100
AcDbEntity
  8
1
100
AcDbLine
 10
11.22317591738098
 20
3.150500001676371
 30
0.0
 11
11.28517591738098
 21
3.150500001676371
 31
0.0
  0
LINE
  5
979
330
1F
100
AcDbEntity
  8
1
100
AcDbLine
 10
11.28517591738098
 20
3.150500001676371
 30
0.0
 11
11.28517591738098
 21
3.212500001676371
 31
0.0
  0
LINE
  5
97A
330
1F
100
AcDbEntity
  8
1
100
AcDbLine
 10
11.28517591738098
 20
3.212500001676371
 30
0.0
 11
11.17717591738098
 21
3.212500001676371
 31
0.0
  0
LINE
  5
97B
330
1F
100
AcDbEntity
  8
1
100
AcDbLine
 10
10.68017591738098
 20
3.212500001676371
 30
0.0
 11
10.68017591738098
 21
3.150500001676371
 31
0.0
  0
LINE
  5
97C
330
1F
100
AcDbEntity
  8
1
100
AcDbLine
 10
10.72017591738098
 20
3.212500001676371
 30
0.0
 11
10.72017591738098
 21
3.150500001676371
 31
0.0
  0
LINE
  5
97D
330
1F
100
AcDbEntity
  8
1
100
AcDbLine
 10
10.72017591738098
 20
3.150500001676371
 30
0.0
 11
11.08517591738098
 21
3.150500001676371
 31
0.0
  0
LINE
  5
97E
330
1F
100
AcDbEntity
  8
1
100
AcDbLine
 10
11.08517591738098
 20
3.150500001676371
 30
0.0
 11
11.14717591738098
 21
3.212500001676371
 31
0.0
  0
LINE
  5
97F
330
1F
100
AcDbEntity
  8
1
100
AcDbLine
 10
11.26017591738098
 20
3.19750000167637
 30
0.0
 11
11.26017591738098
 21
3.169253859238811
 31
0.0
  0
LINE
  5
980
330
1F
100
AcDbEntity
  8
1
100
AcDbLine
 10
11.16217591738098
 20
3.19750000167637
 30
0.0
 11
11.26017591738098
 21
3.19750000167637
 31
0.0
  0
LINE
  5
981
330
1F
100
AcDbEntity
  8
1
100
AcDbLine
 10
11.14717591738098
 20
3.212500001676371
 30
0.0
 11
11.16217591738098
 21
3.19750000167637
 31
0.0
  0
LINE
  5
982
330
1F
100
AcDbEntity
  8
1
100
AcDbLine
 10
10.14322148988822
 20
3.212500001676371
 30
0.0
 11
10.12822148988822
 21
3.19750000167637
 31
0.0
  0
LINE
  5
983
330
1F
100
AcDbEntity
  8
1
100
AcDbLine
 10
10.12822148988822
 20
3.19750000167637
 30
0.0
 11
10.03022148988822
 21
3.19750000167637
 31
0.0
  0
LINE
  5
984
330
1F
100
AcDbEntity
  8
1
100
AcDbLine
 10
10.03022148988822
 20
3.19750000167637
 30
0.0
 11
10.03022148988822
 21
3.169253859238811
 31
0.0
  0
LINE
  5
985
330
1F
100
AcDbEntity
  8
1
100
AcDbLine
 10
10.20522148988821
 20
3.150500001676371
 30
0.0
 11
10.14322148988822
 21
3.212500001676371
 31
0.0
  0
LINE
  5
986
330
1F
100
AcDbEntity
  8
1
100
AcDbLine
 10
10.57022148988822
 20
3.150500001676371
 30
0.0
 11
10.20522148988821
 21
3.150500001676371
 31
0.0
  0
LINE
  5
987
330
1F
100
AcDbEntity
  8
1
100
AcDbLine
 10
10.57022148988822
 20
3.212500001676371
 30
0.0
 11
10.57022148988822
 21
3.150500001676371
 31
0.0
  0
LINE
  5
988
330
1F
100
AcDbEntity
  8
1
100
AcDbLine
 10
10.61022148988822
 20
3.212500001676371
 30
0.0
 11
10.61022148988822
 21
3.150500001676371
 31
0.0
  0
LINE
  5
989
330
1F
100
AcDbEntity
  8
1
100
AcDbLine
 10
10.00522148988822
 20
3.212500001676371
 30
0.0
 11
10.11322148988822
 21
3.212500001676371
 31
0.0
  0
LINE
  5
98A
330
1F
100
AcDbEntity
  8
1
100
AcDbLine
 10
10.00522148988822
 20
3.150500001676371
 30
0.0
 11
10.00522148988822
 21
3.212500001676371
 31
0.0
  0
LINE
  5
98B
330
1F
100
AcDbEntity
  8
1
100
AcDbLine
 10
10.06722148988822
 20
3.150500001676371
 30
0.0
 11
10.00522148988822
 21
3.150500001676371
 31
0.0
  0
LINE
  5
98C
330
1F
100
AcDbEntity
  8
1
100
AcDbLine
 10
10.14322148988822
 20
3.212500001676371
 30
0.0
 11
10.61022148988822
 21
3.212500001676371
 31
0.0
  0
LINE
  5
98D
330
1F
100
AcDbEntity
  8
1
100
AcDbLine
 10
8.833221489888217
 20
3.212500001676371
 30
0.0
 11
9.300221489888219
 21
3.212500001676371
 31
0.0
  0
LINE
  5
98E
330
1F
100
AcDbEntity
  8
1
100
AcDbLine
 10
8.757221489888218
 20
3.150500001676371
 30
0.0
 11
8.695221489888218
 21
3.150500001676371
 31
0.0
  0
LINE
  5
98F
330
1F
100
AcDbEntity
  8
1
100
AcDbLine
 10
8.695221489888218
 20
3.150500001676371
 30
0.0
 11
8.695221489888218
 21
3.212500001676371
 31
0.0
  0
LINE
  5
990
330
1F
100
AcDbEntity
  8
1
100
AcDbLine
 10
8.695221489888218
 20
3.212500001676371
 30
0.0
 11
8.803221489888217
 21
3.212500001676371
 31
0.0
  0
LINE
  5
991
330
1F
100
AcDbEntity
  8
1
100
AcDbLine
 10
9.300221489888219
 20
3.212500001676371
 30
0.0
 11
9.300221489888219
 21
3.150500001676371
 31
0.0
  0
LINE
  5
992
330
1F
100
AcDbEntity
  8
1
100
AcDbLine
 10
9.260221489888218
 20
3.212500001676371
 30
0.0
 11
9.260221489888218
 21
3.150500001676371
 31
0.0
  0
LINE
  5
993
330
1F
100
AcDbEntity
  8
1
100
AcDbLine
 10
9.260221489888218
 20
3.150500001676371
 30
0.0
 11
8.895221489888218
 21
3.150500001676371
 31
0.0
  0
LINE
  5
994
330
1F
100
AcDbEntity
  8
1
100
AcDbLine
 10
8.895221489888218
 20
3.150500001676371
 30
0.0
 11
8.833221489888217
 21
3.212500001676371
 31
0.0
  0
LINE
  5
995
330
1F
100
AcDbEntity
  8
1
100
AcDbLine
 10
8.720221489888217
 20
3.19750000167637
 30
0.0
 11
8.720221489888217
 21
3.169253859238811
 31
0.0
  0
LINE
  5
996
330
1F
100
AcDbEntity
  8
1
100
AcDbLine
 10
8.818221489888218
 20
3.19750000167637
 30
0.0
 11
8.720221489888217
 21
3.19750000167637
 31
0.0
  0
LINE
  5
997
330
1F
100
AcDbEntity
  8
1
100
AcDbLine
 10
8.833221489888217
 20
3.212500001676371
 30
0.0
 11
8.818221489888218
 21
3.19750000167637
 31
0.0
  0
LINE
  5
998
330
1F
100
AcDbEntity
  8
1
100
AcDbLine
 10
4.691721489888219
 20
4.681005880233501
 30
0.0
 11
4.691721489888219
 21
6.088000001676372
 31
0.0
  0
LINE
  5
999
330
1F
100
AcDbEntity
  8
1
100
AcDbLine
 10
5.192721489888218
 20
4.619005880233501
 30
0.0
 11
5.192721489888218
 21
3.212000001676371
 31
0.0
  0
LINE
  5
99A
330
1F
100
AcDbEntity
  8
1
100
AcDbLine
 10
5.316721489888219
 20
4.681005880233501
 30
0.0
 11
5.316721489888219
 21
6.088000001676372
 31
0.0
  0
LINE
  5
99B
330
1F
100
AcDbEntity
  8
1
100
AcDbLine
 10
5.817721489888218
 20
4.619005880233501
 30
0.0
 11
5.817721489888218
 21
3.212000001676371
 31
0.0
  0
LINE
  5
99C
330
1F
100
AcDbEntity
  8
1
100
AcDbLine
 10
5.941721489888219
 20
4.681005880233502
 30
0.0
 11
5.941721489888219
 21
6.088000001676372
 31
0.0
  0
LINE
  5
99D
330
1F
100
AcDbEntity
  8
1
100
AcDbLine
 10
6.442721489888218
 20
4.619005880233501
 30
0.0
 11
6.442721489888218
 21
3.212000001676371
 31
0.0
  0
LINE
  5
99E
330
1F
100
AcDbEntity
  8
1
100
AcDbLine
 10
6.566721489888219
 20
4.681005880233501
 30
0.0
 11
6.566721489888219
 21
6.088000001676372
 31
0.0
  0
LINE
  5
99F
330
1F
100
AcDbEntity
  8
1
100
AcDbLine
 10
7.067721489888218
 20
4.619005880233501
 30
0.0
 11
7.067721489888218
 21
3.212000001676371
 31
0.0
  0
TEXT
  5
9A2
330
1F
100
AcDbEntity
  8
8
100
AcDbText
 10
9.95109278364594
 20
2.396601008501681
 30
0.0
 40
0.1
  1
SR BACK TO BACK
  7
ROMANS
 72
     1
 11
10.67490230745546
 21
2.396601008501681
 31
0.0
100
AcDbText
  0
LINE
  5
9A5
330
1F
100
AcDbEntity
  8
1
100
AcDbLine
 10
10.66172148988822
 20
3.150000001676371
 30
0.0
 11
10.66172148988822
 21
6.150000001676371
 31
0.0
  0
VIEWPORT
  5
887
102
{ACAD_XDICTIONARY
360
8CF
102
}
330
1B
100
AcDbEntity
 67
     1
  8
0
100
AcDbViewport
 10
5.211384282298207
 20
4.022670743655693
 30
0.0
 40
13.16711719708249
 41
7.872550071518793
 68
     1
 69
     1
 12
5.211384282298207
 22
4.022670743655693
 13
0.0
 23
0.0
 14
10.0
 24
10.0
 15
10.0
 25
10.0
 16
0.0
 26
0.0
 36
1.0
 17
0.0
 27
0.0
 37
0.0
 42
50.0
 43
0.0
 44
0.0
 45
7.872550071518793
 50
0.0
 51
0.0
 72
   100
 90
    32800
  1

281
     0
 71
     1
 74
     0
110
0.0
120
0.0
130
0.0
111
1.0
121
0.0
131
0.0
112
0.0
122
1.0
132
0.0
 79
     0
146
0.0
  0
VIEWPORT
  5
891
102
{ACAD_XDICTIONARY
360
8D3
102
}
330
1B
100
AcDbEntity
 67
     1
  8
VIEWPORT-1
100
AcDbViewport
 10
5.211516891104636
 20
4.022725694833997
 30
0.0
 40
11.470033560386
 41
7.790033337930275
 68
     2
 69
     2
 12
7.730919164292536
 22
4.293292488642294
 13
0.0
 23
0.0
 14
0.5
 24
0.5
 15
0.5
 25
0.5
 16
0.0
 26
0.0
 36
1.0
 17
0.0
 27
0.0
 37
0.0
 42
50.0
 43
0.0
 44
0.0
 45
6.270365514881938
 50
0.0
 51
0.0
 72
   100
 90
    32768
  1

281
     0
 71
     1
 74
     0
110
0.0
120
0.0
130
0.0
111
1.0
121
0.0
131
0.0
112
0.0
122
1.0
132
0.0
 79
     0
146
0.0
  0
ENDSEC
  0
SECTION
  2
OBJECTS
  0
DICTIONARY
  5
C
330
0
100
AcDbDictionary
281
     1
  3
ACAD_COLOR
350
747
  3
ACAD_GROUP
350
D
  3
ACAD_LAYOUT
350
1A
  3
ACAD_MATERIAL
350
732
  3
ACAD_MLINESTYLE
350
17
  3
ACAD_PLOTSETTINGS
350
19
  3
ACAD_PLOTSTYLENAME
350
E
  3
ACAD_TABLESTYLE
350
748
  3
ACAD_VISUALSTYLE
350
736
  3
ACDBHEADERROUNDTRIPXREC
350
A1B
  3
AcDbVariableDictionary
350
87E
  3
DWGPROPS
350
A1A
  0
DICTIONARY
  5
86C
330
8
100
AcDbDictionary
280
     1
281
     1
  3
ACAD_XREC_ROUNDTRIP
360
8BE
  0
DICTIONARY
  5
88B
330
2
100
AcDbDictionary
280
     1
281
     1
  3
ACAD_LAYERFILTERS
360
89D
  3
ACAD_LAYERSTATES
360
8B9
  3
ACLYDICTIONARY
360
89C
  0
DICTIONARY
  5
8BF
330
10
100
AcDbDictionary
280
     1
281
     1
  3
ACAD_XREC_ROUNDTRIP
360
8C0
  0
DICTIONARY
  5
8C1
330
33
100
AcDbDictionary
280
     1
281
     1
  3
ACAD_XREC_ROUNDTRIP
360
8C2
  0
DICTIONARY
  5
8C3
330
34
100
AcDbDictionary
280
     1
281
     1
  3
ACAD_XREC_ROUNDTRIP
360
8C4
  0
DICTIONARY
  5
8C5
330
35
100
AcDbDictionary
280
     1
281
     1
  3
ACAD_XREC_ROUNDTRIP
360
8C6
  0
DICTIONARY
  5
8D1
330
889
100
AcDbDictionary
280
     1
281
     1
  3
ACAD_XREC_ROUNDTRIP
360
8D2
  0
DICTIONARY
  5
86A
330
1F
100
AcDbDictionary
280
     1
281
     1
  3
ACAD_SORTENTS
360
86B
  0
DICTIONARY
  5
7AB
330
761
100
AcDbDictionary
280
     1
281
     1
  3
ACAD_SORTENTS
360
7AC
  0
DICTIONARY
  5
8CF
330
887
100
AcDbDictionary
280
     1
281
     1
  3
ACAD_XREC_ROUNDTRIP
360
8D0
  0
DICTIONARY
  5
8D3
330
891
100
AcDbDictionary
280
     1
281
     1
  3
ACAD_XREC_ROUNDTRIP
360
8D4
  0
DICTIONARY
  5
747
102
{ACAD_REACTORS
330
C
102
}
330
C
100
AcDbDictionary
281
     1
  0
DICTIONARY
  5
D
102
{ACAD_REACTORS
330
C
102
}
330
C
100
AcDbDictionary
281
     1
  0
DICTIONARY
  5
1A
102
{ACAD_REACTORS
330
C
102
}
330
C
100
AcDbDictionary
281
     1
  3
Layout1
350
1E
  3
Layout2
350
26
  3
Model
350
22
  0
DICTIONARY
  5
732
102
{ACAD_REACTORS
330
C
102
}
330
C
100
AcDbDictionary
281
     1
  3
ByBlock
350
734
  3
ByLayer
350
733
  3
Global
350
735
  0
DICTIONARY
  5
17
102
{ACAD_REACTORS
330
C
102
}
330
C
100
AcDbDictionary
281
     1
  3
Standard
350
18
  0
DICTIONARY
  5
19
102
{ACAD_REACTORS
330
C
102
}
330
C
100
AcDbDictionary
281
     1
  0
ACDBDICTIONARYWDFLT
  5
E
102
{ACAD_REACTORS
330
C
102
}
330
C
100
AcDbDictionary
281
     1
  3
Normal
350
F
100
AcDbDictionaryWithDefault
340
F
  0
DICTIONARY
  5
748
102
{ACAD_REACTORS
330
C
102
}
330
C
100
AcDbDictionary
281
     1
  3
Standard
350
749
  0
DICTIONARY
  5
736
102
{ACAD_REACTORS
330
C
102
}
330
C
100
AcDbDictionary
281
     1
  3
2dWireframe
350
73C
  3
3D Hidden
350
73E
  3
3dWireframe
350
73D
  3
Basic
350
73B
  3
Brighten
350
742
  3
ColorChange
350
746
  3
Conceptual
350
73F
  3
Dim
350
741
  3
Facepattern
350
745
  3
Flat
350
737
  3
FlatWithEdges
350
738
  3
Gouraud
350
739
  3
GouraudWithEdges
350
73A
  3
Linepattern
350
744
  3
Realistic
350
740
  3
Thicken
350
743
  0
DICTIONARY
  5
A1B
102
{ACAD_REACTORS
330
C
102
}
330
C
100
AcDbDictionary
281
     1
  3
COLORDICT
350
A1D
  3
MATERIALDICT
350
A1C
  0
DICTIONARY
  5
87E
102
{ACAD_REACTORS
330
C
102
}
330
C
100
AcDbDictionary
281
     1
  3
CTABLESTYLE
350
87F
  3
DIMASSOC
350
A13
  3
PROJECTNAME
350
A14
  0
XRECORD
  5
A1A
102
{ACAD_REACTORS
330
C
102
}
330
C
100
AcDbXrecord
280
     1
  1
DWGPROPS COOKIE
  2

  3

  4

  6

  7

  8
tjoseph
  9

300
=
301
=
302
=
303
=
304
=
305
=
306
=
307
=
308
=
309
=
 40
0.1017068171296296
 41
2452994.398152547
 42
2454728.648490116
  1

 90
        0
  0
XRECORD
  5
8BE
102
{ACAD_REACTORS
330
86C
102
}
330
86C
100
AcDbXrecord
280
     1
102
VTR_0.000_0.000_1.000_1.000_VISUALSTYLE
340
73C
102
VTR_0.000_0.000_1.000_1.000_GRIDDISPLAY
 70
     3
102
VTR_0.000_0.000_1.000_1.000_GRIDMAJOR
 70
     5
102
VTR_0.000_0.000_1.000_1.000_DEFAULTLIGHTING
280
     1
102
VTR_0.000_0.000_1.000_1.000_DEFAULTLIGHTINGTYPE
 70
     1
102
VTR_0.000_0.000_1.000_1.000_BRIGHTNESS
141
0.0
102
VTR_0.000_0.000_1.000_1.000_CONTRAST
142
0.0
  0
DICTIONARY
  5
89D
102
{ACAD_REACTORS
330
88B
102
}
330
88B
100
AcDbDictionary
281
     1
  0
DICTIONARY
  5
8B9
102
{ACAD_REACTORS
330
88B
102
}
330
88B
100
AcDbDictionary
281
     1
  0
DICTIONARY
  5
89C
102
{ACAD_REACTORS
330
88B
102
}
330
88B
100
AcDbDictionary
281
     1
1001
ACAD
1000
<All
  0
XRECORD
  5
8C0
102
{ACAD_REACTORS
330
8BF
102
}
330
8BF
100
AcDbXrecord
280
     1
102
MATERIAL
340
735
  0
XRECORD
  5
8C2
102
{ACAD_REACTORS
330
8C1
102
}
330
8C1
100
AcDbXrecord
280
     1
102
MATERIAL
340
735
  0
XRECORD
  5
8C4
102
{ACAD_REACTORS
330
8C3
102
}
330
8C3
100
AcDbXrecord
280
     1
102
MATERIAL
340
735
  0
XRECORD
  5
8C6
102
{ACAD_REACTORS
330
8C5
102
}
330
8C5
100
AcDbXrecord
280
     1
102
MATERIAL
340
735
  0
XRECORD
  5
8D2
102
{ACAD_REACTORS
330
8D1
102
}
330
8D1
100
AcDbXrecord
280
     1
102
MATERIAL
340
735
  0
SORTENTSTABLE
  5
86B
102
{ACAD_REACTORS
330
86A
102
}
330
86A
100
AcDbSortentsTable
330
1F
331
7F4
  5
7F3
331
833
  5
832
331
7FC
  5
7FB
331
7C5
  5
7C4
331
83B
  5
83A
331
843
  5
842
331
804
  5
803
331
7CD
  5
7CC
331
80C
  5
80B
331
84B
  5
84A
331
814
  5
813
331
7D5
  5
7D4
331
81C
  5
81B
331
7DD
  5
7DC
331
853
  5
852
331
85B
  5
85A
331
7E5
  5
7E4
331
824
  5
823
331
863
  5
862
331
7ED
  5
7EC
331
82C
  5
82B
331
834
  5
833
331
7F5
  5
7F4
331
83C
  5
83B
331
7FD
  5
7FC
331
7C6
  5
7C5
331
805
  5
804
331
7CE
  5
7CD
331
844
  5
843
331
80D
  5
80C
331
84C
  5
84B
331
7D6
  5
7D5
331
815
  5
814
331
854
  5
853
331
7DE
  5
7DD
331
81D
  5
81C
331
85C
  5
85B
331
825
  5
824
331
7E6
  5
7E5
331
864
  5
863
331
7EE
  5
7ED
331
82D
  5
82C
331
7F6
  5
7F5
331
7AF
  5
869
331
835
  5
834
331
7FE
  5
7FD
331
7C7
  5
7C6
331
83D
  5
83C
331
845
  5
844
331
806
  5
805
331
7CF
  5
7CE
331
80E
  5
80D
331
84D
  5
84C
331
816
  5
815
331
7D7
  5
7D6
331
81E
  5
81D
331
7DF
  5
7DE
331
855
  5
854
331
85D
  5
85C
331
7E7
  5
7E6
331
826
  5
825
331
865
  5
864
331
7EF
  5
7EE
331
82E
  5
82D
331
836
  5
835
331
7F7
  5
7F6
331
7FF
  5
7FE
331
7C8
  5
7C7
331
83E
  5
83D
331
807
  5
806
331
846
  5
845
331
80F
  5
80E
331
7D0
  5
7CF
331
84E
  5
84D
331
7D8
  5
7D7
331
817
  5
816
331
856
  5
855
331
81F
  5
81E
331
7E0
  5
7DF
331
85E
  5
85D
331
827
  5
826
331
7E8
  5
7E7
331
866
  5
865
331
82F
  5
82E
331
7F0
  5
7EF
331
7F8
  5
7F7
331
837
  5
836
331
800
  5
7FF
331
7C9
  5
7C8
331
83F
  5
83E
331
847
  5
846
331
808
  5
807
331
810
  5
80F
331
7D1
  5
7D0
331
818
  5
817
331
7D9
  5
7D8
331
84F
  5
84E
331
857
  5
856
331
7E1
  5
7E0
331
820
  5
81F
331
85F
  5
85E
331
7E9
  5
7E8
331
828
  5
827
331
867
  5
866
331
830
  5
82F
331
7F1
  5
7F0
331
838
  5
837
331
7F9
  5
7F8
331
7CA
  5
7C9
331
801
  5
800
331
840
  5
83F
331
809
  5
808
331
811
  5
810
331
7D2
  5
7D1
331
848
  5
847
331
850
  5
84F
331
7DA
  5
7D9
331
819
  5
818
331
858
  5
857
331
821
  5
820
331
7E2
  5
7E1
331
829
  5
828
331
7EA
  5
7E9
331
860
  5
85F
331
868
  5
867
331
7F2
  5
7F1
331
831
  5
830
331
7FA
  5
7F9
331
839
  5
838
331
841
  5
840
331
802
  5
801
331
7CB
  5
7CA
331
80A
  5
809
331
849
  5
848
331
812
  5
811
331
7D3
  5
7D2
331
81A
  5
819
331
7DB
  5
7DA
331
851
  5
850
331
859
  5
858
331
7E3
  5
7E2
331
822
  5
821
331
861
  5
860
331
7EB
  5
7EA
331
82A
  5
829
331
869
  5
868
331
832
  5
831
331
7F3
  5
7F2
331
83A
  5
839
331
7FB
  5
7FA
331
7C4
  5
7AF
331
803
  5
802
331
7CC
  5
7CB
331
842
  5
841
331
80B
  5
80A
331
84A
  5
849
331
7D4
  5
7D3
331
813
  5
812
331
852
  5
851
331
7DC
  5
7DB
331
81B
  5
81A
331
85A
  5
859
331
823
  5
822
331
7E4
  5
7E3
331
82B
  5
82A
331
7EC
  5
7EB
331
862
  5
861
  0
SORTENTSTABLE
  5
7AC
102
{ACAD_REACTORS
330
7AB
102
}
330
7AB
100
AcDbSortentsTable
330
761
  0
XRECORD
  5
8D0
102
{ACAD_REACTORS
330
8CF
102
}
330
8CF
100
AcDbXrecord
280
     1
102
VISUALSTYLE
340
73C
102
GRIDDISPLAY
 70
     3
102
GRIDMAJOR
 70
     5
102
DEFAULTLIGHTING
280
     1
102
DEFAULTLIGHTINGTYPE
 70
     1
102
BRIGHTNESS
141
0.0
102
CONTRAST
142
0.0
102
SHADEPLOT
 70
     0
  0
XRECORD
  5
8D4
102
{ACAD_REACTORS
330
8D3
102
}
330
8D3
100
AcDbXrecord
280
     1
102
VISUALSTYLE
340
73C
102
GRIDDISPLAY
 70
     3
102
GRIDMAJOR
 70
     5
102
DEFAULTLIGHTING
280
     1
102
DEFAULTLIGHTINGTYPE
 70
     1
102
BRIGHTNESS
141
0.0
102
CONTRAST
142
0.0
102
SHADEPLOT
 70
     0
  0
LAYOUT
  5
1E
102
{ACAD_XDICTIONARY
360
8BB
102
}
102
{ACAD_REACTORS
330
1A
102
}
330
1A
100
AcDbPlotSettings
  1

  2
DWG To PDF.pc3
  4
ANSI_A_(11.00_x_8.50_Inches)
  6

 40
5.793749809265136
 41
17.79375076293945
 42
5.79376220703125
 43
17.79374694824219
 44
279.3999938964844
 45
215.8999938964844
 46
14.75126040358067
 47
0.0
 48
0.0
 49
0.0
140
0.0
141
0.0
142
1.0
143
1.103830111441677
 70
   700
 72
     0
 73
     0
 74
     1
  7
monochrome.ctb
 75
     0
147
0.9059365110940229
148
-1.595252176368668
149
-2.085919724132305
100
AcDbLayout
  1
Layout1
 70
     1
 71
     1
 10
-0.8300373518286352
 20
-0.6911558332082123
 11
11.31209360878398
 21
8.691399848800211
 12
0.0
 22
0.0
 32
0.0
 14
-0.5237790456457674
 24
0.1274698821824813
 34
-0.0000000349181948
 15
10.94654761024218
 25
7.917871605128905
 35
0.0000000814935746
146
0.0
 13
0.0
 23
0.0
 33
0.0
 16
1.0
 26
0.0
 36
0.0
 17
0.0
 27
1.0
 37
0.0
 76
     0
330
1B
331
887
1001
ACAD_PSEXT
1000
DWG To PDF.pc3
1000
PDF
1000
File
1000

1070
     0
  0
LAYOUT
  5
26
102
{ACAD_XDICTIONARY
360
A21
102
}
102
{ACAD_REACTORS
330
1A
102
}
330
1A
100
AcDbPlotSettings
  1

  2
Lexmark 2050 ColorFine 2
  4

  6

 40
0.0
 41
0.0
 42
0.0
 43
0.0
 44
0.0
 45
0.0
 46
0.0
 47
0.0
 48
0.0
 49
0.0
140
0.0
141
0.0
142
1.0
143
1.0
 70
   688
 72
     0
 73
     0
 74
     5
  7
monochrome.ctb
 75
    16
147
1.0
148
0.0
149
0.0
100
AcDbLayout
  1
Layout2
 70
     1
 71
     2
 10
0.0
 20
0.0
 11
12.0
 21
9.0
 12
0.0
 22
0.0
 32
0.0
 14
0.0
 24
0.0
 34
0.0
 15
0.0
 25
0.0
 35
0.0
146
0.0
 13
0.0
 23
0.0
 33
0.0
 16
1.0
 26
0.0
 36
0.0
 17
0.0
 27
1.0
 37
0.0
 76
     0
330
23
  0
LAYOUT
  5
22
102
{ACAD_XDICTIONARY
360
A1F
102
}
102
{ACAD_REACTORS
330
1A
102
}
330
1A
100
AcDbPlotSettings
  1

  2
none_device
  4
Letter_(8.50_x_11.00_Inches)
  6

 40
6.349999904632568
 41
6.349999904632568
 42
6.350006103515625
 43
6.350006103515625
 44
215.8999938964844
 45
279.3999938964844
 46
0.0
 47
0.0
 48
0.0
 49
0.0
140
0.0
141
0.0
142
1.0
143
1.0
 70
 11952
 72
     0
 73
     1
 74
     0
  7
monochrome.ctb
 75
     0
147
1.0
148
-129.5906122294808
149
-41.20007702037348
100
AcDbLayout
  1
Model
 70
     1
 71
     0
 10
0.0
 20
0.0
 11
12.0
 21
9.0
 12
0.0
 22
0.0
 32
0.0
 14
0.0
 24
0.0
 34
0.0
 15
0.0
 25
0.0
 35
0.0
146
0.0
 13
0.0
 23
0.0
 33
0.0
 16
1.0
 26
0.0
 36
0.0
 17
0.0
 27
1.0
 37
0.0
 76
     0
330
1F
  0
MATERIAL
  5
734
102
{ACAD_XDICTIONARY
360
8C9
102
}
102
{ACAD_REACTORS
330
732
102
}
330
732
100
AcDbMaterial
  1
ByBlock
  0
MATERIAL
  5
733
102
{ACAD_XDICTIONARY
360
8C7
102
}
102
{ACAD_REACTORS
330
732
102
}
330
732
100
AcDbMaterial
  1
ByLayer
  0
MATERIAL
  5
735
102
{ACAD_XDICTIONARY
360
8CB
102
}
102
{ACAD_REACTORS
330
732
102
}
330
732
100
AcDbMaterial
  1
Global
  0
MLINESTYLE
  5
18
102
{ACAD_REACTORS
330
17
102
}
330
17
100
AcDbMlineStyle
  2
STANDARD
 70
     0
  3

 62
   256
 51
90.0
 52
90.0
 71
     2
 49
0.5
 62
   256
  6
BYLAYER
 49
-0.5
 62
   256
  6
BYLAYER
  0
ACDBPLACEHOLDER
  5
F
102
{ACAD_REACTORS
330
E
102
}
330
E
  0
ACAD_PROXY_OBJECT
  5
749
102
{ACAD_XDICTIONARY
360
8CD
102
}
102
{ACAD_REACTORS
330
748
102
}
330
748
100
AcDbProxyObject
 90
      499
 91
      505
 95
   131097
 70
     0
 93
     1849
310
4254DD185B99185C990028B81E85EB51B8AE3F2E07A17AD46E2B8FC02B5E8DC0F42B1CFD028000000C1008070000C3001FDFF8000000C1003FBFF000000182007F7FE00000030400FEFFC00000060801FDFF8000000C1003FBFF00000018200000000000000681FA0B0000001820100E000186003FBFF000000182007F7FE0
310
0000030400FEFFC00000060801FDFF8000000C1003FBFF000000182007F7FE000000304000AD7A3703D0AC73F4160000003040201C00030C007F7FE00000030400FEFFC00000060801FDFF8000000C1003FBFF000000182007F7FE00000030400FEFFC000000608000
340
11
340
11
340
11
 94
        0
1001
ACAD
1000
AcRTDxfName
1000
TABLESTYLE
1000
AcRTDxfName
1000
TABLESTYLE
  0
ACAD_PROXY_OBJECT
  5
73C
102
{ACAD_REACTORS
330
736
102
}
330
736
100
AcDbProxyObject
 90
      499
 91
      504
 95
   131097
 70
     0
 93
      598
310
430C9915DA5C99599C985B59401049028333333333333E3BF0000000000000FB023FFFFFF0802405048070000C3008000000C800405A000000320014050640A01C00030C010500920280D0
 94
        0
1001
ACAD
1000
AcDbSavedByObjectVersion
1070
     0
1000
AcRTDxfName
1000
VISUALSTYLE
1000
AcRTDxfName
1000
VISUALSTYLE
  0
ACAD_PROXY_OBJECT
  5
73E
102
{ACAD_REACTORS
330
736
102
}
330
736
100
AcDbProxyObject
 90
      499
 91
      504
 95
   131097
 70
     0
 93
      662
310
428CD108121A5919195B8010640502408333333333333E3BF0000000000000FB023FFFFFF0802409028070000C3008000000C8004080000000000004440A000000320014050640A01C00030C010300920280D0
 94
        0
1001
ACAD
1000
AcDbSavedByObjectVersion
1070
     0
1000
AcRTDxfName
1000
VISUALSTYLE
1000
AcRTDxfName
1000
VISUALSTYLE
  0
ACAD_PROXY_OBJECT
  5
73D
102
{ACAD_REACTORS
330
736
102
}
330
736
100
AcDbProxyObject
 90
      499
 91
      504
 95
   131097
 70
     0
 93
      598
310
430CD915DA5C99599C985B59401059028333333333333E3BF0000000000000FB023FFFFFF0802405048070000C3008000000C800405A000000320014050640A01C00030C010500920280D3
 94
        0
1001
ACAD
1000
AcDbSavedByObjectVersion
1070
     0
1000
AcRTDxfName
1000
VISUALSTYLE
1000
AcRTDxfName
1000
VISUALSTYLE
  0
ACAD_PROXY_OBJECT
  5
73B
102
{ACAD_REACTORS
330
736
102
}
330
736
100
AcDbProxyObject
 90
      499
 91
      504
 95
   131097
 70
     0
 93
      558
310
4190985CDA58C0107406404333333333333E3BF0000000000000FB023FFFFFF08029048070000C3008000000C80040542201C00030C014050640A01C00030C010500920280D6
 94
        0
1001
ACAD
1000
AcDbSavedByObjectVersion
1070
     0
1000
AcRTDxfName
1000
VISUALSTYLE
1000
AcRTDxfName
1000
VISUALSTYLE
  0
ACAD_PROXY_OBJECT
  5
742
102
{ACAD_REACTORS
330
736
102
}
330
736
100
AcDbProxyObject
 90
      499
 91
      504
 95
   131097
 70
     0
 93
      598
310
42509C9A59DA1D195B8010C409028333333333333E3BF0000000000000FB023FFFFFF0802405048070000C3008000000C80040542201C00030C014050640A01C00030C010500920280A657
 94
        0
1001
ACAD
1000
AcDbSavedByObjectVersion
1070
     0
1000
AcRTDxfName
1000
VISUALSTYLE
1000
AcRTDxfName
1000
VISUALSTYLE
  0
ACAD_PROXY_OBJECT
  5
746
102
{ACAD_REACTORS
330
736
102
}
330
736
100
AcDbProxyObject
 90
      499
 91
      504
 95
   131097
 70
     0
 93
      622
310
4310DBDB1BDC90DA185B99D9401104090240C333333333333E3BF0000000000000FB0220202030802405048070000C3008000000C800405422202020308014050640A01C00030C010500920280D7
 94
        0
1001
ACAD
1000
AcDbSavedByObjectVersion
1070
     0
1000
AcRTDxfName
1000
VISUALSTYLE
1000
AcRTDxfName
1000
VISUALSTYLE
  0
ACAD_PROXY_OBJECT
  5
73F
102
{ACAD_REACTORS
330
736
102
}
330
736
100
AcDbProxyObject
 90
      499
 91
      504
 95
   131097
 70
     0
 93
      670
310
42D0DBDB98D95C1D1D585B0010940D028333333333333E3BF0000000000000FB023FFFFFF0802409028070000C3008000000C800404000000000000444042201C00030C014050640A01C00030C010300920280D0
 94
        0
1001
ACAD
1000
AcDbSavedByObjectVersion
1070
     0
1000
AcRTDxfName
1000
VISUALSTYLE
1000
AcRTDxfName
1000
VISUALSTYLE
  0
ACAD_PROXY_OBJECT
  5
741
102
{ACAD_REACTORS
330
736
102
}
330
736
100
AcDbProxyObject
 90
      499
 91
      504
 95
   131097
 70
     0
 93
      582
310
41111A5B4010B409028333333333333E3BF0000000000000FB023FFFFFF0802405048070000C3008000000C80040542201C00030C014050640A01C00030C01050092028099DFFFFFF4
 94
        0
1001
ACAD
1000
AcDbSavedByObjectVersion
1070
     0
1000
AcRTDxfName
1000
VISUALSTYLE
1000
AcRTDxfName
1000
VISUALSTYLE
  0
ACAD_PROXY_OBJECT
  5
745
102
{ACAD_REACTORS
330
736
102
}
330
736
100
AcDbProxyObject
 90
      499
 91
      504
 95
   131097
 70
     0
 93
      614
310
43119858D95C185D1D195C9B8010F409028333333333333E3BF0000000000000FB023FFFFFF0802405048070000C3008000000C80040542201C00030C014050640A01C00030C010500920280D4
 94
        0
1001
ACAD
1000
AcDbSavedByObjectVersion
1070
     0
1000
AcRTDxfName
1000
VISUALSTYLE
1000
AcRTDxfName
1000
VISUALSTYLE
  0
ACAD_PROXY_OBJECT
  5
737
102
{ACAD_REACTORS
330
736
102
}
330
736
100
AcDbProxyObject
 90
      499
 91
      504
 95
   131097
 70
     0
 93
      558
310
41519B185D00240901404333333333333E3BF0000000000000F9023FFFFFF0801029048070000C3008000000C80040542201C00030C014050640A01C00030C010500920286D4
 94
        0
1001
ACAD
1000
AcDbSavedByObjectVersion
1070
     0
1000
AcRTDxfName
1000
VISUALSTYLE
1000
AcRTDxfName
1000
VISUALSTYLE
  0
ACAD_PROXY_OBJECT
  5
738
102
{ACAD_REACTORS
330
736
102
}
330
736
100
AcDbProxyObject
 90
      499
 91
      504
 95
   131097
 70
     0
 93
      638
310
43919B185D15DA5D1A115919D95CC010140901404333333333333E3BF0000000000000F9023FFFFFF080102405048070000C3008000000C800405A000000320014050640A01C00030C010500920286D4
 94
        0
1001
ACAD
1000
AcDbSavedByObjectVersion
1070
     0
1000
AcRTDxfName
1000
VISUALSTYLE
1000
AcRTDxfName
1000
VISUALSTYLE
  0
ACAD_PROXY_OBJECT
  5
739
102
{ACAD_REACTORS
330
736
102
}
330
736
100
AcDbProxyObject
 90
      499
 91
      504
 95
   131097
 70
     0
 93
      582
310
4211DBDD5C985D590010240902404333333333333E3BF0000000000000F9023FFFFFF0801029048070000C3008000000C800405A01C00030C014050640A01C00030C010500920286D4
 94
        0
1001
ACAD
1000
AcDbSavedByObjectVersion
1070
     0
1000
AcRTDxfName
1000
VISUALSTYLE
1000
AcRTDxfName
1000
VISUALSTYLE
  0
ACAD_PROXY_OBJECT
  5
73A
102
{ACAD_REACTORS
330
736
102
}
330
736
100
AcDbProxyObject
 90
      499
 91
      504
 95
   131097
 70
     0
 93
      662
310
4451DBDD5C985D5915DA5D1A115919D95CC010340902404333333333333E3BF0000000000000F9023FFFFFF080102405048070000C3008000000C800405A000000320014050640A01C00030C010500920286D4
 94
        0
1001
ACAD
1000
AcDbSavedByObjectVersion
1070
     0
1000
AcRTDxfName
1000
VISUALSTYLE
1000
AcRTDxfName
1000
VISUALSTYLE
  0
ACAD_PROXY_OBJECT
  5
744
102
{ACAD_REACTORS
330
736
102
}
330
736
100
AcDbProxyObject
 90
      499
 91
      504
 95
   131097
 70
     0
 93
      614
310
43131A5B995C185D1D195C9B8010E409028333333333333E3BF0000000000000FB023FFFFFF0802405048070000C3008000000C80041D42201C00030C014050640A01C00030C010500920E80D5
 94
        0
1001
ACAD
1000
AcDbSavedByObjectVersion
1070
     0
1000
AcRTDxfName
1000
VISUALSTYLE
1000
AcRTDxfName
1000
VISUALSTYLE
  0
ACAD_PROXY_OBJECT
  5
740
102
{ACAD_REACTORS
330
736
102
}
330
736
100
AcDbProxyObject
 90
      499
 91
      504
 95
   131097
 70
     0
 93
      590
310
429499585B1A5CDD1A58C0108409028333333333333E3BF0000000000000FB023FFFFFF08024068070000C3008000000C8004054221E1E1E308014050640A01C00030C010500920286D0
 94
        0
1001
ACAD
1000
AcDbSavedByObjectVersion
1070
     0
1000
AcRTDxfName
1000
VISUALSTYLE
1000
AcRTDxfName
1000
VISUALSTYLE
  0
ACAD_PROXY_OBJECT
  5
743
102
{ACAD_REACTORS
330
736
102
}
330
736
100
AcDbProxyObject
 90
      499
 91
      504
 95
   131097
 70
     0
 93
      582
310
42151A1A58DAD95B8010D409028333333333333E3BF0000000000000FB023FFFFFF0802405048070000C3008000000C80040543201C00030C014050640A01C00030C010500920280D4
 94
        0
1001
ACAD
1000
AcDbSavedByObjectVersion
1070
     0
1000
AcRTDxfName
1000
VISUALSTYLE
1000
AcRTDxfName
1000
VISUALSTYLE
  0
XRECORD
  5
A1D
102
{ACAD_REACTORS
330
A1B
102
}
330
A1B
100
AcDbXrecord
280
     1
340
747
  0
XRECORD
  5
A1C
102
{ACAD_REACTORS
330
A1B
102
}
330
A1B
100
AcDbXrecord
280
     1
340
732
  0
DICTIONARYVAR
  5
87F
102
{ACAD_REACTORS
330
87E
102
}
330
87E
100
DictionaryVariables
280
     0
  1
STANDARD
  0
DICTIONARYVAR
  5
A13
102
{ACAD_REACTORS
330
87E
102
}
330
87E
100
DictionaryVariables
280
     0
  1
1
  0
DICTIONARYVAR
  5
A14
102
{ACAD_REACTORS
330
87E
102
}
330
87E
100
DictionaryVariables
280
     0
  1

  0
DICTIONARY
  5
8BB
330
1E
100
AcDbDictionary
280
     1
281
     1
  3
ACAD_XREC_ROUNDTRIP
360
A1E
  3
ADSK_XREC_LAYOUTTHUMBNAIL
360
8BC
  0
DICTIONARY
  5
A21
330
26
100
AcDbDictionary
280
     1
281
     1
  3
ACAD_XREC_ROUNDTRIP
360
A22
  0
DICTIONARY
  5
A1F
330
22
100
AcDbDictionary
280
     1
281
     1
  3
ACAD_XREC_ROUNDTRIP
360
A20
  0
DICTIONARY
  5
8C9
330
734
100
AcDbDictionary
280
     1
281
     1
  3
ACAD_XREC_ROUNDTRIP
360
8CA
  0
DICTIONARY
  5
8C7
330
733
100
AcDbDictionary
280
     1
281
     1
  3
ACAD_XREC_ROUNDTRIP
360
8C8
  0
DICTIONARY
  5
8CB
330
735
100
AcDbDictionary
280
     1
281
     1
  3
ACAD_XREC_ROUNDTRIP
360
8CC
  0
DICTIONARY
  5
8CD
330
749
100
AcDbDictionary
280
     1
281
     1
  3
ACAD_XREC_ROUNDTRIP
360
8CE
  0
XRECORD
  5
A1E
102
{ACAD_REACTORS
330
8BB
102
}
330
8BB
100
AcDbXrecord
280
     1
102
SHADEPLOT
 70
     2
102
SHADEPLOTRESLEVEL
 70
     2
102
SHADEPLOTCUSTOMDPI
 70
   300
  0
XRECORD
  5
8BC
102
{ACAD_REACTORS
330
8BB
102
}
330
8BB
100
AcDbXrecord
280
     1
310
28000000B40000008B0000000100080000000000BC610000000000000000000000010000000000000000000000000000FFFFFF000000000000000000000000000000000000000000000000000000000000000000330000006600000099000000CC000000FF00000000330000333300006633000099330000CC330000FF3300
310
0000660000336600006666000099660000CC660000FF66000000990000339900006699000099990000CC990000FF99000000CC000033CC000066CC000099CC0000CCCC0000FFCC000000FF000033FF000066FF000099FF0000CCFF0000FFFF000000003300330033006600330099003300CC003300FF003300003333003333
310
33006633330099333300CC333300FF33330000663300336633006666330099663300CC663300FF66330000993300339933006699330099993300CC993300FF99330000CC330033CC330066CC330099CC3300CCCC3300FFCC330000FF330033FF330066FF330099FF3300CCFF3300FFFF330000006600330066006600660099
310
006600CC006600FF00660000336600333366006633660099336600CC336600FF33660000666600336666006666660099666600CC666600FF66660000996600339966006699660099996600CC996600FF99660000CC660033CC660066CC660099CC6600CCCC6600FFCC660000FF660033FF660066FF660099FF6600CCFF6600
310
FFFF660000009900330099006600990099009900CC009900FF00990000339900333399006633990099339900CC339900FF33990000669900336699006666990099669900CC669900FF66990000999900339999006699990099999900CC999900FF99990000CC990033CC990066CC990099CC9900CCCC9900FFCC990000FF99
310
0033FF990066FF990099FF9900CCFF9900FFFF99000000CC003300CC006600CC009900CC00CC00CC00FF00CC000033CC003333CC006633CC009933CC00CC33CC00FF33CC000066CC003366CC006666CC009966CC00CC66CC00FF66CC000099CC003399CC006699CC009999CC00CC99CC00FF99CC0000CCCC0033CCCC0066CC
310
CC0099CCCC00CCCCCC00FFCCCC0000FFCC0033FFCC0066FFCC0099FFCC00CCFFCC00FFFFCC000000FF003300FF006600FF009900FF00CC00FF00FF00FF000033FF003333FF006633FF009933FF00CC33FF00FF33FF000066FF003366FF006666FF009966FF00CC66FF00FF66FF000099FF003399FF006699FF009999FF00CC
310
99FF00FF99FF0000CCFF0033CCFF0066CCFF0099CCFF00CCCCFF00FFCCFF0000FFFF0033FFFF0066FFFF0099FFFF00CCFFFF00FFFFFF00000000000D0D0D001A1A1A00282828003535350043434300505050005D5D5D006B6B6B00787878008686860093939300A1A1A100AEAEAE00BBBBBB00C9C9C900D6D6D600E4E4E400
310
F1F1F100FFFFFF0000000000000000000000000000000000000000000000000000000000000000000000000000000000F5F5F5F5F5F5F5F5F5F5F5F5F5F5F5F5F5F5F5F5F5F5F5F5F5F5F5F5F5F5F5F5F5F5F5F5F5F5F5F5F5F5F5F5F5F5F5F5F5F5F5F5F5F5F5F5F5F5F5F5F5F5F5F5F5F5F5F5F5F5F5F5F5F5F5F5F5F5F5
310
F5F5F5F5F5F5F5F5F5F5F5F5F5F5F5F5F5F5F5F5F5F5F5F5F5F5F5F5F5F5F5F5F5F5F5F5F5F5F5F5F5F5F5F5F5F5F5F5F5F5F5F5F5F5F5F5F5F5F5F5F5F5F5F5F5F5F5F5F5F5F5F5F5F5F5F5F5F5F5F5F5F5F5F5F5F5F5F5F5F5F5F5F5F5F5F5F5F5F5F5EFE2E2E2E2E2E2E2E2E2E2E2E2E2E2E2E2E2E2E2E2E2E2E2E2E2E2
310
E2E2E2E2E2E2E2E2E2E2E2E2E2E2E2E2E2E2E2E2E2E2E2E2E2E2E2E2E2E2E2E2E2E2E2E2E2E2E2E2E2E2E2E2E2E2E2E2E2E2E2E2E2E2E2E2E2E2E2E2E2E2E2E2E2E2E2E2E2E2E2E2E2E2E2E2E2E2E2E2E2E2E2E2E2E2E2E2E2E2E2E2E2E2E2E2E2E2E2E2E2E2E2E2E2E2E2E2E2E2E2E2E2E2E2E2E2E2E2E2E2E2E2E2E2E2E2
310
E2E2E2E2E2E2E2E2E2E2E2E2E2E2E2E2E2E2E2E2E2E2E2E2F5F5EFE2E2E2E2E2E2E2E2E2E2E2E2E2E2E2E2E2E2E2E2E2E2E2E2E2E2E2E2E2E2E2E2E2E2E2E2E2E2E2E2E2E2E2E2E2E2E2E2E2E2E2E2E2E2E2E2E2E2E2E2E2E2E2E2E2E2E2E2E2E2E2E2E2E2E2E2E2E2E2E2E2E2E2E2E2E2E2E2E2E2E2E2E2E2E2E2E2E2E2E2
310
E2E2E2E2E2E2E2E2E2E2E2E2E2E2E2E2E2E2E2E2E2E2E2E2E2E2E2E2E2E2E2E2E2E2E2E2E2E2E2E2E2E2E2E2E2E2E2E2E2E2E2E2E2E2E2E2E2E2E2E2E2E2E2E2E2E2E2E2E2E2E2E2E2E2E2E2E2F5F5EFE2E2E2E2E2E2E2E2E2E2E2E2E2E2E2E2E2E2E2E2E2E2E2E2E2E2E2E2E2E2E2E2E2E2E2E2E2E2E2E2E2E2E2E2E2E2E2
310
E2E2E2E2E2E2E2E2E2E2E2E2E2E2E2E2E2E2E2E2E2E2E2E2E2E2E2E2E2E2E2E2E2E2E2E2E2E2E2E2E2E2E2E2E2E2E2E2E2E2E2E2E2E2E2E2E2E2E2E2E2E2E2E2E2E2E2E2E2E2E2E2E2E2E2E2E2E2E2E2E2E2E2E2E2E2E2E2E2E2E2E2E2E2E2E2E2E2E2E2E2E2E2E2E2E2E2E2E2E2E2E2E2E2E2E2E2E2E2E2E2E2E2E2E2E2E2
310
E2E2E2F5F5EFE2E2E2E2E2E2E2E2E2E2E2E2E2E2E2E2E2E2E2E2E2E2E2E2E2E2E2E2E2E2E2E2E2E2E2E2E2E2E2E2E2E2E2E2E2E2E2E2E2E2E2E2E2E2E2E2E2E2E2E2E2E2E2E2E2E2E2E2E2E2E2E2E2E2E2E2E2E2E2E2E2E2E2E2E2E2E2E2E2E2E2E2E2E2E2E2E2E2E2E2E2E2E2E2E2E2E2E2E2E2E2E2E2E2E2E2E2E2E2E2E2
310
E2E2E2E2E2E2E2E2E2E2E2E2E2E2E2E2E2E2E2E2E2E2E2E2E2E2E2E2E2E2E2E2E2E2E2E2E2E2E2E2E2E2E2E2E2E2E2E2E2E2E2E2E2E2E2E2F5F5EFE2E2E2E2E2E2E2E2E2E2E2E2E2E2E2E2E2E2E2E2E2E2E2E2E2E2E2E2E2E2E2E2E2E2E2E2E2E2E2E2E2E2E2E2E2E2E2E2E2E2E2E2E2E2E2E2E2E2E2E2E2E2E2E2E2E2E2E2
310
E2E2E2E2E2E2E2E2E2E2E2E2E2E2E2E2E2E2E2E2E2E2E2E2E2E2E2E2E2E2E2E2E2E2E2E2E2E2E2E2E2E2E2E2E2E2E2E2E2E2E2E2E2E2E2E2E2E2E2E2E2E2E2E2E2E2E2E2E2E2E2E2E2E2E2E2E2E2E2E2E2E2E2E2E2E2E2E2E2E2E2E2E2E2E2E2E2E2E2E2E2E2E2E2E2E2E2E2E2F5F5EFE2E2E2E2E2E2E2E2E2E2E2E2E2E2E2
310
E2E2E2E2E2E2E2E2E2E2E2E2E2E2E2E2E2E2E2E2E2E2E2E2E2E2E2E2E2E2E2E2E2E2E2E2E2E2E2E2E2E2E2E2E2E2E2E2E2E2E2E2E2E2E2E2E2E2E2E2E2E2E2E2E2E2E2E2E2E2E2E2E2E2E2E2E2E2E2E2E2E2E2E2E2E2E2E2E2E2E2E2E2E2E2E2E2E2E2E2E2E2E2E2E2E2E2E2E2E2E2E2E2E2E2E2E2E2E2E2E2E2E2E2E2E2E2
310
E2E2E2E2E2E2E2E2E2E2E2E2E2E2E2E2E2E2E2E2E2E2E2E2E2E2E2E2E2E2E2E2E2E2E2F5F5EFE2E2E2E2E2E2E2E2E2E2E2E2E2E2E2E2E2E2E2E2E2E2E2E2E2E2E2E2E2E2E2E2E2E2E2E2E2E2E2E2E2E2E2E2E2E2E2E2E2E2E2E2E2E2E2E2E2E2E2E2E2E2E2E2E2E2E2E2E2E2E2E2E2E2E2E2E2E2E2E2E2E2E2E2E2E2E2E2E2
310
E2E2E2E2E2E2E2E2E2E2E2E2E2E2E2E2E2E2E2E2E2E2E2E2E2E2E2E2E2E2E2E2E2E2E2E2E2E2E2E2E2E2E2E2E2E2E2E2E2E2E2E2E2E2E2E2E2E2E2E2E2E2E2E2E2E2E2E2E2E2E2E2E2E2E2E2E2E2E2E2E2E2E2E2E2E2E2E2F5F5EFE2E2E2E2E2E2E2E2E2E2E2E2E2E2E2E2E2E2E2E2E2E2E2E2E2E2E2E2E2E2E2E2E2E2E2E2
310
E2E2E2E2E2E2E2E2E2E2E2E2E2E2E2E2E2E2E2E2E2E2E2E2E2E2E2E2E2E2E2E2E2E2E2E2E2E2E2E2E2E2E2E2E2E2E2E2E2E2E2E2E2E2E2E2E2E2E2E2E2E2E2E2E2E2E2E2E2E2E2E2E2E2E2E2E2E2E2E2E2E2E2E2E2E2E2E2E2E2E2E2E2E2E2E2E2E2E2E2E2E2E2E2E2E2E2E2E2E2E2E2E2E2E2E2E2E2E2E2E2E2E2E2E2E2E2
310
E2E2E2E2E2E2E2E2E2E2E2E2E2E2F5F5EFE2E2E2E2E2E2E2E2E2E2E2E2E2E2E2E2E2E2E2E2E2E2E2E2E2E2E2E2E2E2E2E2E2E2E2E2E2E2E2E2E2E2E2E2E2E2E2E2E2E2E2E2E2E2E2E2E2E2E2E2E2E2E2E2E2E2E2E2E2E2E2E2E2E2E2E2E2E2E2E2E2E2E2E2E2E2E2E2E2E2E2E2E2E2E2E2E2E2E2E2E2E2E2E2E2E2E2E2E2E2
310
E2E2E2E2E2E2E2E2E2E2E2E2E2E2E2E2E2E2E2E2E2E2E2E2E2E2E2E2E2E2E2E2E2E2E2E2E2E2E2E2E2E2E2E2E2E2E2E2E2E2E2E2E2E2E2E2E2E2E2E2E2E2E2E2E2E2E2F5F5EFE2E2E2E2E2E2E2E2E2E2E2E2E2E2E2E2E2E2E2E2E2E2E2E2E2E2E2E2E2E2E2E2E2E2E2E2E2E2E2E2E2E2E2E2E2E2E2E2E2E2E2E2E2E2E2E2E2
310
E2E2E2E2E2E2E2E2E2E2E2E2E2E2E2E2E2E2E2E2E2E2E2E2E2E2E2E2E2E2E2E2E2E2E2E2E2E2E2E2E2E2E2E2E2E2E2E2E2E2E2E2E2E2E2E2E2E2E2E2E2E2E2E2E2E2E2E2E2E2E2E2E2E2E2E2E2E2E2E2E2E2E2E2E2E2E2E2E2E2E2E2E2E2E2E2E2E2E2E2E2E2E2E2E2E2E2E2E2E2E2E2E2E2E2E2E2E2E2E2F5F5EFE2E2E2E2
310
E2E2E2E2E2E2E2E2E2E2E2E2E2E2E2E2E2E2E2E2E2E2E2E2E2E2E2E2E2E2E2E2E2E2E2E2E2E2E2E2E2E2E2E2E2E2E2E2E2E2E2E2E2E2E2E2E2E2E2E2E2E2E2E2E2E2E2E2E2E2E2E2E2E2E2E2E2E2E2E2E2E2E2E2E2E2E2E2E2E2E2E2E2E2E2E2E2E2E2E2E2E2E2E2E2E2E2E2E2E2E2E2E2E2E2E2E2E2E2E2E2E2E2E2E2E2E2
310
E2E2E2E2E2E2E2E2E2E2E2E2E2E2E2E2E2E2E2E2E2E2E2E2E2E2E2E2E2E2E2E2E2E2E2E2E2E2E2E2E2E2E2E2E2E2F5F5EFE2E2E2F5C3C3C3C3C3C3C3C3C3C3C3C3C3C3C3C3C3C3C3C3C3C3C3C3C3C3C3C3C3C3C3C3C3C3C3C3C3C3C3C3C3C3C3C3C3C3C3C3C3C3C3C3C3C3C3C3C3C3C3C3C3C3C3C3C3C3C3C3C3C3C3C3C3C3
310
C3C3C3C3C3C3C3C3C3C3C3C3C3C3C3C3C3C3C3C3C3C3C3C3C3C3C3C3C3C3C3C3C3C3C3C3C3C3C3C3C3C3C3C3C3C3C3C3C3C3C3C3C3C3C3C3C3C3C3C3C3C3C3C3C3C3C3C3C3C3C3C3C3C3C3C3C3C3C3C3C3C3C3C3C3C3C3C3C3C3C3C3C3C3F5F5E2E2E2F5F5EFE2E2E2F5C3E2E2E2E2E2E2E2E2E2E2E2E2E2E2E2E2E2E2E2E2
310
E2E2E2E2E2E2E2E2E2E2E2E2E2E2E2E2E2E2E2E2E2E2E2E2E2E2E2E2E2E2E2E2E2E2E2E2E2E2E2E2E2E2E2E2E2E2E2E2E2E2E2E2E2E2E2E2E2E2E2E2E2E2E2E2E2E2E2E2E2E2E2E2E2E2E2E2E2E2E2E2E2E2E2E2E2E2E2E2E2E2E2E2E2E2E2E2E2E2E2E2E2E2E2E2E2E2E2E2E2E2E2E2E2E2E2E2E2E2E2E2E2E2E2E2E2E2E2
310
E2E2E2E2E2E2E2E2E2E2E2E2E2E2E2E2E2E2E2C3E2F5E2E2E2F5F5EFE2E2E2F5C3E2E2E2E2E2E2E2E2E2E2E2E2E2E2E2E2E2E2E2E2E2E2E2E2E2E2E2E2E2E2E2E2E2E2E2E2E2E2E2E2E2E2E2E2E2E2E2E2E2E2E2E2E2E2E2E2E2E2E2E2E2E2E2E2E2E2E2E2E2E2E2E2E2E2E2E2E2E2E2E2E2E2E2E2E2E2E2E2E2E2E2E2E2E2
310
E2E2E2E2E2E2E2E2E2E2E2E2E2E2E2E2E2E2E2E2E2E2E2E2E2E2E2E2E2E2E2E2E2E2E2E2E2E2E2E2E2E2E2E2E2E2E2E2E2E2E2E2E2E2E2E2E2E2E2E2E2E2E2E2E2E2E2E2E2E2E2E2C3E2F5E2E2E2F5F5EFE2E2E2F5C3E2E2E2E2E2E2E2E2E2E2E2E2E2E2E2E2E2E2E2E2E2E2E2E2E2E2E2E2E2E2E2E2E2E2E2E2E2E2E2E2E2
310
E2E2E2E2E2E2E2E2E2E2E2E2E2E2E2E2E2E2E2E2E2E2E2E2E2E2E2E2E2E2E2E2E2E2E2E2E2E2E2E2E2E2E2E2E2E2E2E2E2E2E2E2E2E2E2E2E2E2E2E2E2E2E2E2E2E2E2E2E2E2E2E2E2E2E2E2E2E2E2E2E2E2E2E2E2E2E2E2E2E2E2E2E2E2E2E2E2E2E2E2E2E2E2E2E2E2E2E2E2E2E2E2E2E2E2E2E2E2E2E2E2E2E2E2E2C3E2
310
F5E2E2E2F5F5EFE2E2E2F5C3E2E2E2E2E2E2E2E2E2E2E2E2E2E2E2E2E2E2E2E2E2E2E2E2E2E2E2E2E2E2E2E2E2E2E2E2E2E2E2E2E2E2E2E2E2E2E2E2E2E2E2E2E2E2E2E2E2E2E2E2E2E2E2E2E2E2E2E2E2E2E2E2E2E2E2E2E2E2E2E2E2E2E2E2E2E2E2E2E2E2E2E2E2E2E2E2E2E2E2E2E2E2E2E2E2E2E2E2E2E2E2E2E2E2E2
310
E2E2E2E2E2E2E2E2E2E2E2E2E2E2E2E2E2E2E2E2E2E2E2E2E2E2E2E2E2E2E2E2E2E2E2E2E2E2E2E2E2E2E2E2E2E2E2E2E2E2E2C3E2F5E2E2E2F5F5EFE2E2E2F5C3E2E2E2E2E2E2E2E2E2E2E2E2E2E2E2E2E2E2E2E2E2E2E2E2E2E2E2E2E2E2E2E2E2E2E2E2E2E2E2E2E2E2E2E2E2E2E2E2E2E2E2E2E2E2E2E2E2E2E2E2E2E2
310
E2E2E2E2E2E2E2E2E2E2E2E2E2E2E2E2E2E2E2E2E2E2E2E2E2E2E2E2E2E2E2E2E2E2E2E2E2E2E2E2E2E2E2E2E2E2E2E2E2E2E2E2E2E2E2E2E2E2E2E2E2E2E2E2E2E2E2E2E2E2E2E2E2E2E2E2E2E2E2E2E2E2E2E2E2E2E2E2E2E2E2E2E2E2E2E2E2E2E2E2E2E2E2E2C3E2F5E2E2E2F5F5EFE2E2E2F5C3E2E2E2E2E2E2E2E2E2
310
E2E2E2E2E2E2E2E2E2E2E2E2E2E2E2E2E2E2E2E2E2E2E2E2E2E2E2E2E2E2E2E2E2E2E2E2E2E2E2E2E2E2E2E2E2E2E2E2E2E2E2E2E2E2E2E2E2E2E2E2E2E2E2E2E2E2E2E2E2E2E2E2E2E2E2E2E2E2E2E2E2E2E2E2E2E2E2E2E2E2E2E2E2E2E2E2E2E2E2E2E2E2E2E2E2E2E2E2E2E2E2E2E2E2E2E2E2E2E2E2E2E2E2E2E2E2E2
310
E2E2E2E2E2E2E2E2E2E2E2E2E2E2E2E2E2E2E2E2E2E2E2E2E2E2E2E2E2E2C3E2F5E2E2E2F5F5EFE2E2E2F5C3E2E2E2E2E2E2E2E2E2E2E2E2E2E2E2E2E2E2E2E2E2E2E2E2E2E2E2E2E2E2E2E2E2E2E2E2E2E2E2E2E2E2E2E2E2E2E2E2E2E2E2E2E2E2E2E2E2E2E2E2E2E2E2E2E2E2E2E2E2E2E2E2E2E2E2E2E2E2E2E2E2E2E2
310
E2E2E2E2E2E2E2E2E2E2E2E2E2E2E2E2E2E2E2E2E2E2E2E2E2E2E2E2E2E2E2E2E2E2E2E2E2E2E2E2E2E2E2E2E2E2E2E2E2E2E2E2E2E2E2E2E2E2E2E2E2E2E2E2E2E2E2E2E2E2E2E2E2E2E2E2E2E2E2E2E2E2E2C3E2F5E2E2E2F5F5EFE2E2E2E2C3E2E2E2E2E2E2E2E2E2E2E2E2E2E2E2E2E2E2E2E2E2E2E2E2E2E2E2E2E2E2
310
E2E2E2E2E2E2E2E2E2E2E2E2E2E2E2E2E2E2E2E2E2E2E2E2E2E2E2E2E2E2E2E2E2E2E2E2E2E2E2E2E2E2E2E2E2E2E2E2E2E2E2E2E2E2E2E2E2E2E2E2E2E2E2E2E2E2E2E2E2E2E2E2E2E2E2E2E2E2E2E2E2E2E2E2E2E2E2E2E2E2E2E2E2E2E2E2E2E2E2E2E2E2E2E2E2E2E2E2E2E2E2E2E2E2E2E2E2E2E2E2E2E2E2E2E2E2E2
310
E2E2E2E2E2E2E2E2E2C3E2E2E2E2E2F5F5EFE2E2E2E2C3E2E2E2E2E2E2E2E2E2E2E2E2E2E2E2E2E2E2E2E2E2E2E2E2E2E2E2E2E2E2E2E2E2E2E2E2E2E2E2E2E2E2E2E2E2E2E2E2E2E2E2E2E2E2E2E2E2E2E2E2E2E2E2E2E2E2E2E2E2E2E2E2E2E2E2E2E2E2E2E2E2E2E2E2E2E2E2E2E2E2E2E2E2E2E2E2E2E2E2E2E2E2E2E2
310
E2E2E2E2E2E2E2E2E2E2E2E2E2E2E2E2E2E2E2E2E2E2E2E2E2E2E2E2E2E2E2E2E2E2E2E2E2E2E2E2E2E2E2E2E2E2E2E2E2E2E2E2E2E2E2E2E2E2E2E2E2E2C3E2E2E2E2E2F5F5EFE2E2E2E2C3E2E2E2E2E2E2E2E22DBEBEBEBEBEBEBEBEBEBEBEBEBEBEBEBEBEBEBEBEBEBEBEBEBEBEBEBEBEBEBEBEBEBEBEBEBEBEBEBEBEBE
310
BEBEBEBEBEBEBEBEBEBEBEBEBEBEBEBEBEBEBEBEBEBEBEBEBEBEBEBEBEBEBEBEBEBEBEBEBEBEBEBEBEBEBEBEBEBEBEBEBEBEBEBEBEBEBEBEBEBEBEBEBEBEBEBEBEBEBEBEBEBEBEBEBEBEBEBEBEBEBEBEBEBEBEBEBEBEBEBEBEBEBEBEBEBEBEBEBEBEBEBEBEBEBEBEBEBEBEBEE2E2E2E2E2E2E2C3E2E2E2E2E2F5F5EFE2E2E2
310
E2C3E2E2E2E2E2E2E2E2BEE2E2E2E2E2E2E2E2DCDCE2DCDCE2DCE2DCDCDCE2DCDCDCDCDCE2E2E2DCDCDCDCDCDCDCE2DCDCDCE2DCE2E2DCDCDCE2DCDCE2DCE2E2DCDCDCDCDCDCDCDCE2E2DCDCDCDCDCDCDCDCE2DCDCDCDCE2E2DCDCDCE2E2DCDCDCDCDCDCE2DCDCDCDCE2DCDCDCE2E2E2E2E2E2DCDCDCDCDCDCDCDCDCDCE2E2
310
E2E2DCDCE2DCDCDCDCDCDCDCDCDCDCDCE2E2DCDCDCDCDCE2DCE2E2E2E2E2E2E2E2BEE2E2E2E2E2E2E2C3E2E2E2E2E2F5F5EFE2E2E2E2C3E2E2E2E2E2E2E2E2BEE2E2E2E2E2E2E2E2DCDCDCDCDCDCDCDCDCDCDCDCDCDCDCDCDCDCE2E2DCDCE2DCDCDCDCE2DCE2DCE2DCE2E2DCDCDCE2DCDCE2DCE2E2DCDCDCE2DCDCDCE2E2E2
310
DCDCDCDCDCDCDCE2DCDCDCE2E2E2E2DCDCDCE2E2DCE2DCDCDCDCDCDCDCE2DCE2DCDCDCE2E2DCDCDCE2E2E2E2E2E2E2E2E2E2E2E2E2E2E2DCDCDCE2DCDCDCDCDCDCE2DCE2E2E2E2DCDCDCE2DCE2DCE2E2E2E2E2E2E2E2BEE2E2E2E2E2E2E2C3E2E2E2E2E2F5F5EFE2E2E2E2C3E2E2E2E2E2E2E2E2BEE2E2E2E2E2E2E2E2DCDC
310
DCDCE2DCDCDCDCDCDCDCE2DCDCDCDCDCE2E2DCDCDCDCDCDCDCDCDCDCDCDCDCE2E2DCDCDCE2DCDCDCDCE2E2DCDCDCDCDCDCDCE2E2E2DCDCE2DCDCDCDCDCDCDCDCDCE2E2E2DCDCDCE2E2DCE2DCDCDCE2DCE2DCDCDCDCDCDCDCE2E2E2E2E2E2E2E2E2E2E2E2E2E2E2E2DCDCE2E2DCDCDCDCDCDCDCDCDCDCE2DCDCE2E2E2DCDCDC
310
DCDCDCDCE2E2E2E2E2E2E2E2BEE2E2E2E2E2E2E2C3E2E2E2E2E2F5F5EFE2E2E2E2C3E2E2E2E2E2E2E2E2BEE2E2E2E2E2E2E2E2E2DCDCDCDCDCDCE2DCDCE2DCE2DCDCDCDCE2E2E2DCE2DCE2DCDCDCE2DCDCDCDCE2E2E2DCDCDCDCDCDCE2DCE2E2DCDCDCDCE2DCE2E2E2E2DCDCE2DCDCDCDCDCE2DCDCDCDCE2E2E2DCE2E2E2DC
310
E2DCDCDCE2DCE2DCDCDCDCE2DCDCE2E2E2E2E2E2E2E2E2E2E2E2E2E2E2E2DCDCE2E2DCDCE2DCE2DCDCDCDCDCE2DCDCDCE2DCDCDCDCDCDCDCE2E2E2E2E2E2E2E2E2BEE2E2E2E2E2E2E2C3E2E2E2E2E2F5F5EFE2E2E2E2C3E2E2E2E2E2E2E2E2BEE2E2E2E2E2E2E2E2E2E2E2E2E2E2E2E2E2E2E2E2E2E2E2E2E2E2E2E2E2E2E2
310
E2E2E2E2E2E2E2E2E2E2E2E2E2E2E2E2E2E2E2E2E2E2E2E2E2E2E2E2E2E2E2E2E2E2E2E2E2E2E2E2E2E2E2BEE2E2E2E2E2E2E2E2E2E2E2E2E2E2E2E2E2E2E2E2E2E2E2E2E2E2E2E2E2E2E2E2E2E2E2E2E2E2E2E2E2E2E2E2E2E2E2E2E2E2E2E2E2E2E2E2E2E2E2E2E2E2E2E2E2E2E2E2E2E2E2E2E2E2BEE2E2E2E2E2E2E2C3
310
E2E2E2E2E2F5F5EFE2E2E2F5C3E2E2E2E2E2E2E2E2BEE2E2E2E2E2E2E2E2E2E2E2E2E2E2E2E2E2E2E2E2E2E2E2E2E2E2E2E2E2E2E2E2E2E2E2E2E2E2E2E2E2E2E2E2E2E2E2E2E2E2E2E2E2E2E2E2E2E2E2E2E2E2E2E2E2E2E2E2E2E2E2E2BEBEE2BEBEE2E2E2E2E2E2E2E2E2E2E2E2E2E2E2E2E2E2E2E2E2E2E2E2E2E2E2E2
310
E2E2E2E2E2E2E2E2E2E2E2E2E2E2E2E2E2E2E2E2E2E2E2E2E2E2E2E2E2E2E2E2E2E2E2E2E2E2E2E2E2E2E2E2BEE2E2E2E2E2E2E2C3E2F5E2E2E2F5F5EFE2E2E2F5C3E2E2E2E2E2E2E2E2BEE2E2E2E2E2E2E2E2E2E2E2E2E2E2E2E2E2E2E2E2E2E2E2E2E2E2E2E2E2E2E2E2E2E2E2E2E2E2E2E2E2E2E2E2E2E2E2E2E2E2E2E2
310
E2E2E2E2E2E2E2E2E2E2E2E2E2E2E2E2E2E2E2BEE2E2E2E2E2BEE2E2E2E2E2E2E2E2E2E2E2E2E2E2E2E2E2E2E2E2E2E2E2E2E2E2E2E2E2E2E2E2E2E2E2E2E2E2E2E2E2E2E2E2E2E2E2E2E2E2E2E2E2E2E2E2E2E2E2E2E2E2E2E2E2E2E2E2E2E2E2BEE2E2E2E2E2E2E2C3E2F5E2E2E2F5F5EFE2E2E2F5C3E2E2E2E2E2E2E2E2
310
BEE2E2E2E2E2E2E2E2E2E2E2E2E2E2E2E2E2E2E2E2E2E2E2E2E2E2E2E2E2E2E2E2E2E2E2E2E2E2E2E2E2E2E2E2E2E2E2E2E2E2E2E2E2E2E2E2E2E2E2E2E2E2E2E2E2E2E2E2E2E2E2BEE2E2E2E2E2BEE2E2E2E2E2E2E2E2E2E2E2E2E2E2E2E2E2E2E2E2E2E2E2E2E2E2E2E2E2E2E2E2E2E2E2E2E2E2E2E2E2E2E2E2E2E2E2E2
310
E2E2E2E2E2E2E2E2E2E2E2E2E2E2E2E2E2E2E2E2E2E2E2BEE2E2E2E2E2E2E2C3E2F5E2E2E2F5F5EFE2E2E2F5C3E2E2E2E2E2E2E2E2BEE2E2E2E2E2E2E2E2E2E2E2E2E2E2E2E2E2E2E2E2E2E2E2E2E2E2E2E2E2E2E2E2E2E2E2E2E2E2E2E2E2E2E2E2E2E2E2E2E2E2E2E2E2E2E2E2E2E2E2E2E2E2E2E2E2E2E2E2E2E2E2BEE2
310
E2E2E2E2BEE2E2E2E2E2E2E2E2E2E2E2E2E2E2E2E2E2E2E2E2E2E2E2E2E2E2E2E2E2E2E2E2E2E2E2E2E2E2E2E2E2E2E2E2E2E2E2E2E2E2E2E2E2E2E2E2E2E2E2E2E2E2E2E2E2E2E2E2E2E2E2BEE2E2E2E2E2E2E2C3E2F5E2E2E2F5F5EFE2E2E2F5C3E2E2E2E2E2E2E2E2BEE2E2E2E2E2E2E2E2E2E2E2E2E2E2E2E2E2E2E2E2
310
E2E2E2E2E2E2E2E2DCE2DCDCDCDCE2DCDCE2E2DCDCDCDCDCDCDCDCDCDCDCDCE2DCE2E2E2E2E2E2E2E2E2E2E2E2E2E2E2E2E2E2BEE2E2E2E2E2BEE2E2E2E2E2E2E2E2E2E2E2E2E2E2E2E2E2E2E2E2E2E2E2E2E2E2DCDCDCDCDCDCDCDCDCDCDCDCDCDCE2E2E2E2E2E2E2E2E2E2E2E2E2E2E2E2E2E2E2E2E2E2E2E2E2E2E2E2E2
310
E2E2BEE2E2E2E2E2E2E2C3E2F5E2E2E2F5F5EFE2E2E2F5C3E2E2E2E2E2E2E2E2BEE2E2E2E2E2E2E2E2E2E2E2E2E2E2E2E2E2E2E2E2E2E2E2E2E2E2E2E2DCDCDCDCDCDCDCDCDCE2E2DCDCE2DCE2DCDCDCDCDCDCDCDCDCE2E2E2E2E2E2E2E2E2E2E2E2E2E2E2E2E2E2E2BEE2E2E2E2BEE2E2E2E2E2E2E2E2E2E2E2E2E2E2E2E2
310
E2E2E2E2E2E2E2E2E2E2DCDCDCDCDCDCDCDCDCDCDCDCDCDCE2E2E2E2E2E2E2E2E2E2E2E2E2E2E2E2E2E2E2E2E2E2E2E2E2E2E2E2E2E2E2BEE2E2E2E2E2E2E2C3E2F5E2E2E2F5F5EFE2E2E2F5C3E2E2E2E2E2E2E2E2BEE2E2E2E2E2E2E2E2E2E2E2E2E2E2E2E2E2E2E2E2E2E2E2E2E2E2E2E2DCDCDCDCDCDCE2DCDCE2E2DCDC
310
E2DCDCDCDCDCDCDCDCDCE2DCE2E2E2E2E2E2E2E2E2E2E2E2E2E2E2E2E2E2E2BEBEBEBEBEE2E2E2E2E2E2E2E2E2E2E2E2E2E2E2E2E2E2E2E2E2E2E2E2E2E2E2E2DCDCDCDCDCDCDCDCDCDCDCDCDCE2E2E2E2E2E2E2E2E2E2E2E2E2E2E2E2E2E2E2E2E2E2E2E2E2E2E2E2E2E2E2BEE2E2E2E2E2E2E2C3E2F5E2E2E2F5F5EFE2E2
310
E2F5C3E2E2E2E2E2E2E2E2BEE2E2E2E2E2E2E2E2E2E2E2E2E2E2E2E2E2E2E2E2E2E2E2E2E2E2E2E2E2E2E2E2E2E2E2E2E2E2E2E2E2E2E2E2E2E2E2E2E2E2E2E2E2E2E2E2E2E2E2E2E2E2E2E2E2E2E2E2E2E2E2E2E2E2E2E2E2E2E2E2E2E2E2E2E2E2E2E2E2E2E2E2E2E2E2E2DCDCE2DCE2E2E2E2E2E2E2E2E2E2E2E2E2E2E2
310
E2E2E2E2E2E2E2E2E2E2DCDCE2DCE2E2E2E2E2E2E2E2E2E2E2E2E2E2E2E2E2E2E2E2BEE2E2E2E2E2E2E2C3E2F5E2E2E2F5F5EFE2E2E2F5C3E2E2E2E2E2E2E2E2BEE2E2E2E2E2E2E2E2E2E2E2E2E2E2E2E2E2E2E2E2E2E2E2E2E2E2E2E2E2E2E2E2E2E2E2E2E2E2E2E2E2E2E2E2E2E2E2E2E2E2E2E2E2E2E2E2E2E2E2E2E2E2
310
E2E2E2E2E2E2E2E2E2E2E2E2E2E2E2E2E2E2E2E2E2E2E2E2E2E2E2E2E2E2E2E2E2E2DCDCDCDCE2E2E2E2E2E2E2E2E2E2E2E2E2E2E2E2E2E2E2E2E2E2E2E2E2DCDCDCDCE2E2E2E2E2E2E2E2E2E2E2E2E2E2E2E2E2E2E2E2BEE2E2E2E2E2E2E2C3E2F5E2E2E2F5F5EFE2E2E2F5C3E2E2E2E2E2E2E2E2BEE2E2E2E2E2E2E2E2E2
310
E2E2E2E2E2E2E2E2E2E2E2E2E2E2E2E2E2E2E2E2E2E2E2E2E2E2E2E2E2E2E2E2E2E2E2E2E2E2E2E2E2E2E2E2E2E2E2E2E2E2E2E2E2E2E2E2E2E2E2E2E2E2E2E2E2E2E2E2E2E2E2E2E2E2E2E2E2E2E2E2E2E2E2E2E2E2E2DCDCDCDCE2E2E2E2E2E2E2E2E2E2E2E2E2E2E2E2E2E2E2E2E2E2E2E2E2DCDCDCDCE2E2E2E2E2E2E2
310
E2E2E2E2E2E2E2E2E2E2E2E2E2BEE2E2E2E2E2E2E2C3E2F5E2E2E2F5F5EFE2E2E2F5C3E2E2E2E2E2E2E2E2BEE2E2E2E2E2E2E2E2E2E2E2E2E2E2E2E2E2E2E2E2E2E2E2E2E2E2E2E2E2E2E2E2E2E2E2E2E2E2E2E2E2E2E2E2E2E2E2E2E2E2E2E2E2E2E2E2E2E2E2E2E2E2E2E2E2E2E2E2E2E2E2E2E2E2E2E2E2E2E2E2E2E2E2
310
E2E2E2E2E2E2E2E2E2E2E2E2E2E2E2E2E2E2E2E2E2E2E2E2E2E2E2E2E2E2E2E2E2E2E2E2E2E2E2E2E2E2E2E2E2E2E2E2E2E2E2E2E2E2E2E2E2E2E2E2E2E2E2E2E2E2BEE2E2E2E2E2E2E2C3E2F5E2E2E2F5F5EFE2E2E2F5C3E2E2E2E2E2E2E2E2BEE2E2E2E2E2E2E2E2E2E2E2E2E2E2E2E2E22DE22DE2E2E2E2E2E2E2E2E2E2
310
E2E2E2E2E2E2E2E2E2E2E2E2E2E2E2E2E2E2E2E2E2E2E2E2E2E2E2E2E2E22D2DE22DE2E2E2E2E2E2E2E2E2E2E2E2E2E2E2E2E2E2E2E2E2E2E2E2E2E2E2E2E2E2E2E2E2E2E2E2E2E2E2E2E2E2E2E2E2E2E2E2E2E2E2E2E2E2E2E2E2E2E2E2E2E2E2E2E2E2E2E2E2E2E2E2E2E2E2E2E2E2E2E2E2E2E2E2E2BEE2E2E2E2E2E2E2
310
C3E2F5E2E2E2F5F5EFE2E2E2F5C3E2E2E2E2E2E2E2E2BEE2E2E2E2E2E2E2E2E2E2E2E2E2E2E2E2E22D2D2D2D2D2D2D2D2D2D2D2D2D2D2D2D2D2D2D2D2D2D2D2D2D2D2D2D2D2D2D2D2D2D2D2D2D2D2D2D2D2D2D2D2D2D2DE2E2E2E2E2E2E2E2E2E2E2E2E2E2E2E2E2E2E2E2E2E2E2E2E2E2E2E2E2E2E2E2E2E2E2E2E2E2E2E2
310
E2E2E2E2E2E2E2E2E2E2E2E2E2E2E2E2E2E2E2E2E2E2E2E2E2E2E2E2E2E2E2E2E2E2E2E2E2E2E2E2E2E2E2E2E2BEE2E2E2E2E2E2E2C3E2F5E2E2E2F5F5EFE2E2E2F5C3E2E2E2E2E2E2E2E2BEE2E2E2E2E2E2E2E2E2E2E2E2E2E2E2E2E22DE2E2E2E2E2E2DCDCDCDCDCDCDCDCDCDCDCDCDCDCE2DCDCE2DCDCDCDCE2DCDCDCDC
310
DCDCDCDCDCDCE2E2E2E2E2E22DE2E2E2E2E2E2E2E2E2E2E2E2E2E2E2E2E2E2E2E2E2E2E2E2E2E2E2E2E2E2E2E2E2E2E2E2E2E2E2E2E2E2E2E2E2E2E2E2E2E2E2E2E2E2E2E2E2E2E2E2E2E2E2E2E2E2E2E2E2E2E2E2E2E2E2E2E2E2E2E2E2E2E2E2E2BEE2E2E2E2E2E2E2C3E2F5E2E2E2F5F5EFE2E2E2F5C3E2E2E2E2E2E2E2
310
E2BEE2E2E2E2E2E2E2E2E2E2E2E2E2E2E2E2E22DE2E2E2E2E2E2DCDCDCDCDCDCDCDCDCDCDCDCDCDCE2E2E2E2DCDCDCDCE2DCDCDCDCDCDCDCDCDCDCE2E2E2E2E2E22DE2E2E2E2E2E2E2E2E2E2E2E2E2E2E2E2E2E2E2E2E2E2E2E2E2E2E2E2E2E2E2E2E2E2E2E2E2E2E2E2E2E2E2E2E2E2E2E2E2E2E2E2E2E2E2E2E2E2E2E2E2
310
E2E2E2E2E2E2E2E2E2E2E2E2E2E2E2E2E2E2E2E2E2E2E2E2BEE2E2E2E2E2E2E2C3E2F5E2E2E2F5F5EFE2E2E2E2C3E2E2E2E2E2E2E2E2BEE2E2E2E2E2E2E2E2E2E2E2E2E2E2E2E2E22DE2E2E2E2E2E2E2E2E2E2E2E2E2E2E2E2E2E2E2E2E2E2E2E2E2E2E2E2E2E2E2E2E2E2E2E2E2E2E2E2E2E2E2E2E22DE2E2E2E2E2E2E2E2
310
E2E2E2E2E2E2E2E2E2E2E2E2E2E2E2E2E2E2E2E2E2E2E2E2E2E2E2E2E2E2E2E2E2E2E2E2E2E2E2E2E2E2E2E2E2E2E2E2E2E2E2E2E2E2E2E2E2E2E2E2E2E2E2E2E2E2E2E2E2E2E2E2E2E2E2E2E2BEE2E2E2E2E2E2E2C3E2E2E2E2E2F5F5EFE2E2E2E2C3E2E2E2E2E2E2E2E2BEE2E2E2E2E2E2E2E2E2E2E2E2E2E2E2E2E22DE2
310
E2E2E2E2E2E2E2E2E2E2E2E2E2E2E2E2E2E2E2E2E2E2E2E2E2E2E2E2E2E2E2E2E2E2E2E2E2E2E2E2E2E2E2E22DE2E2E2E2E2E2E2E2E2E2E2E2E2E2E2E2E2E2E2E2E2E2E2E2E2E2E2E2E2E2E2E2E2E2E2E2E2E2E2E2E2E2E2E2E2E2E2E2E2E2E2E2E2E2E2E2E2E2E2E2E2E2E2E2E2E2E2E2E2E2E2E2E2E2E2E2E2E2E2E2E2E2
310
E2E2E2BEE2E2E2E2E2E2E2C3E2E2E2E2E2F5F5EFE2E2E2E2C3E2E2E2E2E2E2E2E2BEE2E2E2E2E2E2E2E2E2E2E2E2E2E2E2E2E22DE2E2E2E2E2E2E2E2E2E2E2E22D2D2D2DE22D2D2DE2E2E2E2E2E2E2E2E2E2E2E2E2E2E2E2E2E2E2E2E2E2E2E2E22DE2E2E2E2E2E2E2E2E2E2E2E2E2E2E2E2E2E2E2E2E2E2E2E2E2E2E2E2E2
310
E2E2E2E2E2E2E2E2E2E2E2E2E2E2E2E2E2E2E2E2E2E2E2E2E2E2E2E2E2E2E2E2E2E2E2E2E2E2E2E2E2E2E2E2E2E2E2E2E2E2E2E2E2E2E2E2BEE2E2E2E2E2E2E2C3E2E2E2E2E2F5F5EFE2E2E2E2C3E2E2E2E2E2E2E2E2BEE2E2E2E2E2E2E2E2E2E2E2E2E2E2E2E2E22DE2E2E2E2E2E2E2E2E2E2E2E22DE2E22DE22DE2E22DE2
310
E2E2E2E2E2E2E2E2E2E2E2E2E2E2E2E2E2E2E2E2E2E2E22DE2E2E2E2E2E2E2E2E2E2E2E2E2E2E2E2E2E2E2E2E2E2E2E2E2E2E2E2E2E2E2E2E2E2E2E2E2E2E2E2E2E2E2E2E2E2E2E2E2E2E2E2E2E2E2E2E2E2E2E2E2E2E2E2E2E2E2E2E2E2E2E2E2E2E2E2E2E2E2E2E2E2E2E2E2BEE2E2E2E2E2E2E2C3E2E2E2E2E2F5F5EFE2
310
E2E2E2C3E2E2E2E2E2E2E2E2BEE2E2E2E2E2E2E2E2E2E2E2E2E2E2E2E2E22DE2E2E2E2E2E2E2E2E2E2E2E22DE2E22D2DE2E2E22DE2E2E2E2E2BEE2E2BEE2E2E2E2E2E2E2E2E2E2E2E2E2E2E22DE2E2E2E2E2E2E2E2E2E2E2E2E2E2E2E2E2E2E2E2E2E22D2DE2E2E2E2E2E2E2E2E2E2E2E2E2E2E2E2E2E2E2E2E2E2E2E2E2E2
310
E2E2E2E2E2E2E2E2E2E2E2E2E2E2E2E2E2E2E2E2E2E2E2E2E2E2E2E2E2E2E2E2E2E2E2BEE2E2E2E2E2E2E2C3E2E2E2E2E2F5F5EFE2E2E2E2C3E2E2E2E2E2E2E2E2BEE2E2E2E2E2E2E2E2E2E2E2E2E2E2E2E2E22DE2E2E2E2E2E2E2E2E2E2E2E22D2D2D2DE22D2D2DE2E2E2E2E2E2BEE2E2BEE2E2E2E2E2E2E2E2E2E2E2E2E2
310
E2E22DE2E2E2E2E2E2E2E2E2E2E2E2E2E2E2E2E2E2E2E2E2E22D2DE2E2E2E2E2E2E2E2E2E2E2E2E2E2E2E2E2E2E2E2E2E2E2E2E2E2E2E2E2E2E2E2E2E2E2E2E2E2E2E2E2E2E2E2E2E2E2E2E2E2E2E2E2E2E2E2E2E2E2E2E2BEE2E2E2E2E2E2E2C3E2E2E2E2E2F5F5EFE2E2E2E2C3E2E2E2E2E2E2E2E2BEE2E2E2E2E2E2E2E2
310
E2E2E2E2E2E2E2E2E2BEBEBEBEBEBEBEBEBEBEBEBEBEBE2DBEBEBEBEBEBEBEBEBEBEBEBEBEE2E2BEBEBEBEBEBEBEBEBEBEBEBEBEBEBEBEBEE2E2E2E2E2E2E2E2E2E2E2E2E2E2E2E2E22D2D2D2D2D2D2D2D2D2DBEBEE2E2BEBEBEBEBEBEBEBEBEE2E2E2E2E2E2E2E2E2E2E2BEBEE2BEBEBEBEBEBEBEBEBEBEBEBEBEBEBEBEBE
310
E2BEBEE2E2E2E2E2E2E2E2E2E2E2BEE2E2E2E2E2E2E2C3E2E2E2E2E2F5F5EFE2E2E2E2C3E2E2E2E2E2E2E2E2BEE2E2E2E2E2E2E2E2E2E2E2E2E2E2E2E2E2BEBE2D2D2D2D2D2D2D2D2DE2BEBE2DBEBEBEBEBEBEBEBEBEBEBEBEBEE2E2BEBEBEBEBEBEBEBEBEBEBEBEBEBEBEE2BEE2E2E2E2E2E2E2E2E2E2E2E2E2E2E2E2E2E2
310
2DE2E22D2D2D2D2D2D2D2DBEBEBEBEBEBEBEBEBEBEBEBEE2E2E2E2E2E2E2E2E2E22D2DBEBEBEBEBEBEBEBEBEBEBEBEBEBEBEBEBEBEBE2D2DE2E2E2E2E2E2E2E2E2E2E2BEE2E2E2E2E2E2E2C3E2E2E2E2E2F5F5EFE2E2E2F5C3E2E2E2E2E2E2E2E2BEE2E2E2E2E2E2E2E2E2E2E2E2E2E2E2E2E2BEBE2DE2E2E2E2E2E2E22DE2
310
BEBEE2E2E2E2E2E2E2E2BEBEBEE2E2BEE2E2BEE2E2BEBEBEE2E2E2E2E2E2E2E2BEE2BEE2E2E2E2E2E2E2E2E2E2E2E2E2E2E2E2E2E22DE2E2E22D2DE2E2E22DE2E2E2E2E2E2E2E2E2E2BEBEE2BEBEE2E2E2E2E2E2E2E22DE2E2E2E2E2E2E2E2E2E2BEE2E2E2E2E2E2E2E2E2E22DE2E2E2E2E2E2E2E2E2E2E2BEE2E2E2E2E2E2
310
E2C3E2F5E2E2E2F5F5EFE2E2E2F5C3E2E2E2E2E2E2E2E2BEE2E2E2E2E2E2E2E2E2E2E2E2E2E2E2E2E2BEBE2DE2E2E2E2E2E2E22DE2BEBEE2E2E2E2E2E2E2E2BEBEBEE2E2BEE2E2BEE2E2BEBEBEE2E2E2E2E2E2E2E2BEE2BEE2E2E2E2E2E2E2E2E2E2E2E2E2E2E2E2E2E22DE2E2E22D2DE2E2E22DE2E2E2E2E2E2E2E2E2E2BE
310
BEBEE2E2BEE2E2E2E2E2E2E22DE2E2E2E2E2E2E2E2E2E2BEE2E2E2E2E2E2E2E2E2E22DE2E2E2E2E2E2E2E2E2E2E2BEE2E2E2E2E2E2E2C3E2F5E2E2E2F5F5EFE2E2E2F5C3E2E2E2E2E2E2E2E2BEE2E2E2E2E2E2E2E2E2E2E2E2E2E2E2E2E2BEBE2DE22D2D2D2D2DE22DE2BEBEE2E2E2E2E2E2E2E2BEBEBEE2E2BEBEE2BEE2E2
310
BEBEBEE2E2E2E2E2E2E2E2BEE2BEE2E2E2E2E2E2E2E2E2E2E2E2E2E2E2E2E2E22DE2DCDC2DE2E2E2E22DE2E2DCDCDCDCDCDCE2E2BEBEE2BEBEE2E2E2E2E2E2E2E22DE2E2E2E2E2E2E2DCDCDCBEDCDCDCE2E2E2E2E2E2E22DE2E2E2E2E2E2E2E2E2E2E2BEE2E2E2E2E2E2E2C3E2F5E2E2E2F5F5EFE2E2E2F5C3E2E2E2E2E2E2
310
E2E2BEE2E2E2E2E2E2E2E2E2E2E2E2E2E2E2E2E2BEBE2DE22D2D2D2D2DE22DE2BEBEE2E2E2E2E2E2E2E2BEBEBEE2E2BEBEE2BEE2E2BEBEBEE2E2E2E2E2E2E2E2BEE2BEE2E2E2E2E2E2E2E2E2E2E2E2E2E2E2E2E2E22DE2E2DC2DE2E2E2E22D2D2D2D2D2D2D2D2D2D2D2D2D2D2D2D2D2DE2E2E2E2E2E22D2D2D2D2D2D2D2D2D
310
2D2D2D2D2D2D2D2D2D2D2D2D2D2DE2E2E2E2E2E2E2E2E2E2E2BEE2E2E2E2E2E2E2C3E2F5E2E2E2F5F5EFE2E2E2F5C3E2E2E2E2E2E2E2E2BEE2E2E2E2E2E2E2E2E2E2E2E2E2E2E2E2E2BEBE2DE22D2D2D2D2DE22DE2BEBEE2E2E2E2E2E2E2E2BEBEBEE2E2BEBEE2BEE2E2BEBEBEE2E2E2E2E2E2E2E2BEE2BEE2E2E2E2E2E2E2
310
E2E2E2E2E2E2E2E2E2E2E22DE2E2E22DE2E2E2E22D2D2DE2E2E2E2E2E22D2DBEBEE22D2DE2E2E2E2E2E2E2E22D2D2DE2E2E2E2E2E2E2E2BEE2E2E2E2E2E2E2E22D2D2DE2E2E2E2E2E2E2E2E2E2E2BEE2E2E2E2E2E2E2C3E2F5E2E2E2F5F5EFE2E2E2F5C3E2E2E2E2E2E2E2E2BEE2E2E2E2E2E2E2E2E2E2E2E2E2E2E2E2E2BE
310
BE2DE22D2D2D2D2DE22DE2BEBEE2E2E2E2E2E2E2E2BEBEBEE2E2BEE2E2BEE2E2BEBEBEE2E2E2E2E2E2E2E2BEE2BEE2E2E2E2E2E2E2E2E2E2E2E2E2E2E2E2E2E22DE2E2E22DE2E2E2E22DE2E2E2E2E2E2E2E2E2E2BEBEE2E2E2E2E2E2E2E2E2E2E22DE2E2E2E2E2E2E2E2E2E2BEE2E2E2E2E2E2E2E2E2E22DE2E2E2E2E2E2E2
310
E2E2E2E2BEE2E2E2E2E2E2E2C3E2F5E2E2E2F5F5EFE2E2E2F5C3E2E2E2E2E2E2E2E2BEE2E2E2E2E2E2E2E2E2E2E2E2E2E2E2E2E2BEBE2DE22D2D2D2D2DE22DE2BEBEE2E2E2E2E2E2E2E2BEBEBEE2E2BEE2E2BEE2E2BEBEBEE2E2E2E2E2E2E2E2BEE2BEE2E2E2E2E2E2E2E2E2E2E2E2E2E2E2E2E2E22DE2E2E22DE2E2E2E22D
310
E2E2E2E2E2E2E2E2E2E2BEBEE2E2E2E2E2E2E2E2E2E2E22DE2E2E2E2E2E2E2E2E2E2BEE2E2E2E2E2E2E2E2E2E22DE2E2E2E2E2E2E2E2E2E2E2BEE2E2E2E2E2E2E2C3E2F5E2E2E2F5F5EFE2E2E2F5C3E2E2E2E2E2E2E2E2BEE2E2E2E2E2E2E2E2E2E2E2E2E2E2E2E2E2BEBE2DE22DE2E2E22DE22DE2BEBEE2E2E2E2E2E2E2E2
310
BEBEBEE2E2BEE2E2BEE2E2BEBEBEE2E2E2E2E2E2E2E2BEE2BEE2E2E2E2E2E2E2E2E2E2E2E2E2E2E2E2E2E22DE2E2E22DE2E2E2E22DE2E2E2E2E2E2E2E2E2E2BEBEE2E2E2E2E2E2E2E2E2E2E22DE2E2E2E2E2E2E2E2E2E2BEE2E2E2E2E2E2E2E2E2E22DE2E2E2E2E2E2E2E2E2E2E2BEE2E2E2E2E2E2E2C3E2F5E2E2E2F5F5EF
310
E2E2E2F5C3E2E2E2E2E2E2E2E2BEE2E2E2E2E2E2E2E2E2E2E2E2E2E2E2E2E2BEBE2DE2E2E2E2E2E2E22DE2BEBEE2E2E2E2E2E2E2E2BEBEBEE2E2BEE2E2BEE2E2BEBEBEE2E2E2E2E2E2E2E2BEE2BEE2E2E2E2E2E2E2E2E2E2E2E2E2E2E2E2E2E22DE2E2E22DE2E2E2E22DE2E2E2E2E2E2E2E2E2E2BEBEBEE2E2E2E2E2E2E2E2
310
E2E22DE2E2E2E2E2E2E2E2E2E2BEE2E2E2E2E2E2E2E2E2E22DE2E2E2E2E2E2E2E2E2E2E2BEE2E2E2E2E2E2E2C3E2F5E2E2E2F5F5EFE2E2E2F5C3E2E2E2E2E2E2E2E2BEE2E2E2E2E2E2E2E2E2E2E2E2E2E2E2E2E2BEBE2D2D2D2DE2E2E2E22DE2BEBEE2E2E2E2E2E2E2E2BEBEBEE2E2BEE2E2BEE2E2BEBEBEE2E2E2E2E2E2E2
310
E2BEE2BEE2E2E2E2E2E2E2E2E2E2E2E2E2E2E2E2E2E22DE2E2E22DE2E2E2E22DE2E2E2E2E2E2E2E2E2E2BEBEE2BEBEE2E2E2E2E2E2E2E22DE2E2E2E2E2E2E2E2E2E2BEE2E2E2E2E2E2E2E2E2E22DE2E2E2E2E2E2E2E2E2E2E2BEE2E2E2E2E2E2E2C3E2F5E2E2E2F5F5EFE2E2E2F5C3E2E2E2E2E2E2E2E2BEE2E2E2E2E2E2E2
310
E2E2E2E2E2E2E2E2E2E2BEBE2D2D2D2DE2E2E2E22DE2BEBEE2E2E2E2E2E2E2E2BEBEBEE2E2BEE2E2BEE2E2BEBEBEE2E2E2E2E2E2E2E2BEE2BEE2E2E2E2E2E2E2E2E2E2E2E2E2E2E2E2E2E22DE2E2E22DE2E2E2E22DE2E2E2E2E2E2E2E2E2E2BEBEBEE2E2BEE2E2E2E2E2E2E22DE2E2E2E2E2E2E2E2E2E2BEE2E2E2E2E2E2E2
310
E2E2E22DE2E2E2E2E2E2E2E2E2E2E2BEE2E2E2E2E2E2E2C3E2F5E2E2E2F5F5EFE2E2E2F5C3E2E2E2E2E2E2E2E2BEE2E2E2E2E2E2E2E2E2E2E2E2E2E2E2E2E2BEBE2D2D2D2DE2E2E2E22DE2BEBEE2E2E2E2E2E2E2E2BEBEBEE2E2BEE2E2BEE2E2BEBEBEE2E2E2E2E2E2E2E2BEE2BEE2E2E2E2E2E2E2E2E2E2E2E2E2E2E2E2E2
310
E22DE2E2E22DE2E2E2E22DE2E2E2E2E2E2E2E2E2E2BEBEE2BEE2E2E2E2E2E2E2E2E22DE2E2E2E2E2E2E2E2E2E2BEE2E2E2E2E2E2E2E2E2E22DE2E2E2E2E2E2E2E2E2E2E2BEE2E2E2E2E2E2E2C3E2F5E2E2E2F5F5EFE2E2E2F5C3E2E2E2E2E2E2E2E2BEE2E2E2E2E2E2E2E2E2E2E2E2E2E2E2E2E2BEBE2D2D2D2DE2E2E2E22D
310
E2BEBEE2E2E2E2E2E2E2E2BEBEBEE2E2BEE2E2BEE2E2BEBEBEE2E2E2E2E2E2E2E2BEE2BEE2E2E2E2E2E2E2E2E2E2E2E2E2E2E2E2E2E22DE2E2E22DE2E2E2E22DE2E2E2E2E2E2E2E2E2E2BEBEBEE2BEE2E2E2E2E2E2E2E22DE2E2E2E2E2E2E2E2E2E2BEE2E2E2E2E2E2E2E2E2E22DE2E2E2E2E2E2E2E2E2E2E2BEE2E2E2E2E2
310
E2E2C3E2F5E2E2E2F5F5EFE2E2E2F5C3E2E2E2E2E2E2E2E2BEE2E2E2E2E2E2E2E2E2E2E2E2E2E2E2E2E2BEBE2D2D2D2D2DE2E2E22DE2BEBEE2E2E2E2E2E2E2E2BEBEBEE2E2BEE2E2BEBEE2BEBEBEE2E2E2E2E2E2E2E2BEE2BEE2E2E2E2E2E2E2E2E2E2E2E2E2E2E2E2E2E22DE2E2E22DE2E2E2E22DE2E2E2E2E2E2E2E2E2E2
310
BEBEE2BEE2BEE2E2E2E2E2E2E22DE2E2E2E2E2E2E2E2E2E2BEE2E2E2E2E2E2E2E2E2E22DE2E2E2E2E2E2E2E2E2E2E2BEE2E2E2E2E2E2E2C3E2F5E2E2E2F5F5EFE2E2E2E2C3E2E2E2E2E2E2E2E2BEE2E2E2E2E2E2E2E2E2E2E2E2E2E2E2E2E2BEBE2D2D2D2D2DE2E2E22DE2BEBEE2E2E2E2E2E2E2E2BEBEBEE2E2BEE2E2BEE2
310
E2BEBEBEE2E2E2E2E2E2E2E2BEE2BEE2E2E2E2E2E2E2E2E2E2E2E2E2E2E2E2E2E22DE2E2E22DE2E2E2E22DE2E2E2E2E2E2E2E2E2E2BEBEE2E2BEE2E2E2E2E2E2E2E22DE2E2E2E2E2E2E2E2E2E2BEE2E2E2E2E2E2E2E2E2E22DE2E2E2E2E2E2E2E2E2E2E2BEE2E2E2E2E2E2E2C3E2E2E2E2E2F5F5EFE2E2E2E2C3E2E2E2E2E2
310
E2E2E2BEE2E2E2E2E2E2E2E2E2E2E2E2E2E2E2E2E2BEBE2D2D2D2D2DE2E2E22DE2BEBEE2E2E2E2E2E2E2E2BEBEBEE2E2BEE2BEBEBEE2BEBEBEE2E2E2E2E2E2E2E2BEE2BEE2E2E2E2E2E2E2E2E2E2E2E2E2E2E2E2E2E22DE2E2E22DE2E2E2E22DE2E2E2E2E2E2E2E2E2E2BEBEBEE2E2BEE2E2E2E2E2E2E22DE2E2E2E2E2E2E2
310
E2E2E2BEE2E2E2E2E2E2E2E2E2E22DE2E2E2E2E2E2E2E2E2E2E2BEE2E2E2E2E2E2E2C3E2E2E2E2E2F5F5EFE2E2E2E2C3E2E2E2E2E2E2E2E2BEE2E2E2E2E2E2E2E2E2E2E2E2E2E2E2E2E2BEBE2DE2E2E2E2E2E2E22DE2BEBEE2E2E2E2E2E2E2E2BEBEBEE2E2BEE2BEBEE2E2BEBEBEE2E2E2E2E2E2E2E2BEE2BEE2E2E2E2E2E2
310
E2E2E2E2E2E2E2E2E2E2E2E22DE2E2E22DE2E2E2E22DE2E2E2E2E2E2E2E2E2E2BEBEE2BEBEE2E2E2E2E2E2E2E22DE2E2E2E2E2E2E2E2E2E2BEE2E2E2E2E2E2E2E2E2E22DE2E2E2E2E2E2E2E2E2E2E2BEE2E2E2E2E2E2E2C3E2E2E2E2E2F5F5EFE2E2E2E2C3E2E2E2E2E2E2E2E2BEE2E2E2E2E2E2E2E2E2E2E2E2E2E2E2E2E2
310
BEBE2DE22D2D2D2D2DE22DE2BEBEE2E2E2E2E2E2E2E2BEBEBEE2E2BEE2E2BEE2E2BEBEBEE2E2E2E2E2E2E2E2BEE2BEE2E2E2E2E2E2E2E2E2E2E2E2E2E2E2E2E2E22DE2E2E22DE2E2E2E22DE2E2E2E2E2E2E2E2E2E2BEBEBEE2E2BEE2E2E2E2E2E2E22DE2E2E2E2E2E2E2E2E2E2BEE2E2E2E2E2E2E2E2E2E22DE2E2E2E2E2E2
310
E2E2E2E2E2BEE2E2E2E2E2E2E2C3E2E2E2E2E2F5F5EFE2E2E2E2C3E2E2E2E2E2E2E2E2BEE2E2E2E2E2E2E2E2E2DCDCE2E2E2E2E2E2BEBE2DE22D2D2D2D2DE22DE2BEBEE2E2E2E2E2E2E2E2BEBEBEE2E2BEE2E2BEE2E2BEBEBEE2E2E2E2E2E2E2E2BEE2BEE2E2E2E2E2E2E2E2E2E2E2E2E2E2E2DCDCDC2DE2E2E22DE2E2E2E2
310
2DE2E2E2E2E2E2E2E2E2E2BEBEE2BEBEE2E2E2E2E2E2E2E22DE2E2E2E2E2E2E2E2E2E2BEE2E2E2E2E2E2E2E2E2E22DE2E2E2E2E2E2E2E2E2E2E2BEE2E2E2E2E2E2E2C3E2E2E2E2E2F5F5EFE2E2E2E2C3E2E2E2E2E2E2E2E2BEE2E2E2E2E2E2E2E2E2DCDCE2E2E2E2E2E2BEBE2DE22D2D2D2D2DE22DE2BEBEE2E2E2E2E2E2E2
310
E2BEBEBEE2E2BEE2E2BEE2E2BEBEBEE2E2E2E2E2E2E2E2BEE2BEE2E2E2E2E2E2E2E2E2E2E2E2E2E2E2DCDCDC2DE2E2E22DE2E2E2E22DE2E2E2E2E2E2E2E2E2E2BEBEBEE2E2BEE2E2DCDCE2E2E22DE2E2E2E2E2E2E2E2E2E2BEE2E2E2E2E2E2E2E2E2E22DE2E2E2E2E2E2E2E2E2E2E2BEE2E2E2E2E2E2E2C3E2E2E2E2E2F5F5
310
EFE2E2E2E2C3E2E2E2E2E2E2E2E2BEE2E2E2E2E2E2E2E2E2DCDCE2E2E2E2E2E2BEBE2DE22D2D2D2D2DE22DE2BEBEE2E2E2E2E2E2E2E2BEBEBEE2E2BEE2E2BEE2E2BEBEBEE2E2E2E2E2E2E2E2BEE2BEE2E2E2E2E2E2E2E2E2E2E2E2E2E2E2DCDCDC2DE2E2E22DE2E2E2E22DE2E2E2E2E2E2E2E2E2E2BEBEE2BEE2E2E2DCDCDC
310
E2E2E22DE2E2E2E2E2E2E2E2E2E2BEE2E2E2E2E2E2E2E2E2E22DE2E2E2E2E2E2E2E2E2E2E2BEE2E2E2E2E2E2E2C3E2E2E2E2E2F5F5EFE2E2E2E2C3E2E2E2E2E2E2E2E2BEE2E2E2E2E2E2E2E2E2DCDCE2E2E2E2E2E2BEBE2DE22D2D2D2D2DE22DE2BEBEE2E2E2E2E2E2E2E2BEBEBEE2E2BEE2E2BEE2E2BEBEBEE2E2E2E2E2E2
310
E2E2BEE2BEE2E2E2E2E2E2E2E2E2E2E2E2E2E2E2DCDCDC2DE2E2E22DE2E2E2E22DE2E2E2E2E2E2E2E2E2E2BEBEBEE2BEE2E2DCDCDCE2E2E22DE2E2E2E2E2E2E2E2E2E2BEE2E2E2E2E2E2E2E2E2E22DE2E2E2E2E2E2E2E2E2E2E2BEE2E2E2E2E2E2E2C3E2E2E2E2E2F5F5EFE2E2E2E2C3E2E2E2E2E2E2E2E2BEE2E2E2E2E2E2
310
E2E2E2DCDCE2E2E2E2E2E2BEBE2DE22D2D2D2D2DE22DE2BE2DE2E2E22D2DE2E22D2DBE2D2DE2BEE2E2BEE22D2DBEBE2DE2E22D2DE2E2E22DE2BEE2E2E2E2E2E2E2E2E2E2E2E2E2E2E2DCDCDC2DE2E2E22DE2E2E2E22DE2E2E2E2E22DE2E2E22D2DBEE2BEE2BEE2DCDCDCE2E2E22DE2E2E2E2E22DE2E2E22D2D2DE2E2E2E22D
310
E2E2E2E22DE2E2E2E2E2E2E2E2E2E2E2BEE2E2E2E2E2E2E2C3E2E2E2E2E2F5F5EFE2E2E2F5C3E2E2E2E2E2E2E2E2BEE2E2E2E2E2E2E2E2E2E2E2E2E2E2E2E2E2BEBE2DE2E2E2E2E2E2E22DE2BE2D2DE2E22D2DE2E22D2DBE2D2DE2BEE2E2BEE22D2DBE2D2DE2E22D2DE2E2E22DE2BEE2E2E2E2E2E2E2E2E2E2E2E2E2E2E2DC
310
DCDC2DE2E2E22D2DE2E2E22DE2E2E2E22D2DE2E2E22D2DBEE2E2BEE2E2DCDCDCE2E2E22DE2E2E2E22D2DE2E2E22D2D2DE2E2E22D2DE2E2E2E22DE2E2E2E2E2E2E2E2E2E2E2BEE2E2E2E2E2E2E2C3E2F5E2E2E2F5F5EFE2E2E2F5C3E2E2E2E2E2E2E2E2BEE2E2E2E2E2E2E2E2E2DCDCE2E2E2E2E2E2BE2D2D2D2D2D2D2D2D2D
310
2DE2BE2D2D2D2D2D2D2D2D2D2DBE2D2D2D2DBEE22D2D2D2DBE2D2D2D2D2D2D2D2D2D2DE2BEE2E2E2E2E2E2E2E2E2E2E2E2E2E2E2DCDCDC2DE2E2E22D2DE2E2E22D2DE2E22D2D2D2D2D2D2D2DBEBEE2E2BEE2DCDCDCE2E2E22D2DE22D2D2D2D2D2D2D2D2D2D2D2D2D2D2D2D2DE22D2DE2E2E2E2E2E2E2E2E2E2E2BEE2E2E2E2
310
E2E2E2C3E2F5E2E2E2F5F5EFE2E2E2F5C3E2E2E2E2E2E2E2E2BEE2E2E2E2E2E2E2E2E2DCDCE2E2E2E2E2E2BEE2E2E2E2E2E2E2E2E2E2E2BEE2E2E2E2E2E2E2E2E2E2BEE2E2E2BEBEE2BEE2E2E2BEE2E2E2E2E2E2E2E2E2E2E2BEE2E2E2E2E2E2E2E2E2E2E2E2E2E2E2E2E2E22DE2E2E22DE2E2E2E22D2D2DE22DE2E2E2E2E2
310
2D2DBEE2BEBEE2E2DCDCDCE2E2E22D2D2D2DE2E2E2E2E2E22D2D2DE2E2E2E2E2E2E22D2D2DE2E2E2E2E2E2E2E2E2E2E2BEE2E2E2E2E2E2E2C3E2F5E2E2E2F5F5EFE2E2E2F5C3E2E2E2E2E2E2E2E2BEE2E2E2E2E2E2E2E2E2DCDCE2E2E2E2E2E2BE2D2D2D2D2D2D2D2D2D2DE2BE2D2D2D2D2D2D2D2D2D2DBE2D2D2D2DBEE22D
310
2D2D2DBE2D2D2D2D2D2D2D2D2D2DE2BEE2E2E2E2E2E2E2E2E2E2E2E2E2E2E2DCDCDC2DE2E22D2D2D2D2D2D2D2D2D2D2D2D2D2D2D2D2D2DBEBEE2E2BEE2DCDCDCE2E2E22D2D2D2D2D2D2D2D2D2D2D2D2D2D2D2D2D2D2D2D2D2D2DE2E2E2E2E2E2E2E2E2E2E2BEE2E2E2E2E2E2E2C3E2F5E2E2E2F5F5EFE2E2E2F5C3E2E2E2E2
310
E2E2E2E2BEE2E2E2E2E2E2E2E2E2DCDCE2E2E2E2E2E2BEBE2DE2E2E2E2E2E2E22DE2BEBEE2E2E2E2E2E2E2E2BEBEBEE2E2BEBEE2BEE2E2BEBEBEE2E2E2E2E2E2E2E2BEE2BEE2E2E2E2E2E2E2E2E2E2E2E2E2E2E2DCDCDC2DE2E2E22D2DE2E2E22DE2E2E2E2E2E2E2E2E2E2BEBEE2BEBEE2E2DCDCDCE2E2E22DE2E2E2E2E2E2
310
E2E2E2E2BEE2E2E2E2E2E2E2E2E2E22DE2E2E2E2E2E2E2E2E2E2E2BEE2E2E2E2E2E2E2C3E2F5E2E2E2F5F5EFE2E2E2F5C3E2E2E2E2E2E2E2E2BEE2E2E2E2E2E2E2E2E2DCDCE2E2E2E2E2E2BEBE2DE22D2D2D2D2DE22DE2BEBEE2E2E2E2E2E2E2E2BEBEBEE2E2E2BEE2BEE2E2BEBEBEE2E2E2E2E2E2E2E2BEE2BEE2E2E2E2E2
310
E2E2E2E2E2E2E2E2E2E2DCDCDC2DE2E2E22D2DE2E2E22DE2E2E2E2E2E2E2E2E2E2BEBEBEE2E2BEE2DCDCDCE2E2E22DE2E2E2E2E2E2E2E2E2E2BEE2E2E2E2E2E2E2E2E2E22DE2E2E2E2E2E2E2E2E2E2E2BEE2E2E2E2E2E2E2C3E2F5E2E2E2F5F5EFE2E2E2F5C3E2E2E2E2E2E2E2E2BEE2E2E2E2E2E2E2E2E2DCDCE2E2E2E2E2
310
E2BEBE2DE22D2D2D2D2DE22DE2BEBEE2E2E2E2E2E2E2E2BEBEBEE2E2E2BEE2BEE2E2BEBEBEE2E2E2E2E2E2E2E2BEE2BEE2E2E2E2E2E2E2E2E2E2E2E2E2E2E2DCDCDC2DE2E2E22DE2E2E2E22DE2E2E2E2E2E2E2E2E2E2BEBEE2BEE2E2E2DCDCDCE2E2E22DE2E2E2E2E2E2E2E2E2E2BEE2E2E2E2E2E2E2E2E2E22DE2E2E2E2E2
310
E2E2E2E2E2E2BEE2E2E2E2E2E2E2C3E2F5E2E2E2F5F5EFE2E2E2F5C3E2E2E2E2E2E2E2E2BEE2E2E2E2E2E2E2E2E2DCDCE2E2E2E2E2E2BEBE2DE22D2D2D2D2DE22DE2BEBEE2E2E2E2E2E2E2E2BEBEBEE2E2E2BEE2BEE2E2BEBEBEE2E2E2E2E2E2E2E2BEE2BEE2E2E2E2E2E2E2E2E2E2E2E2E2E2E2DCDCDC2DE2E2E22DE2E2E2
310
E22DE2E2E2E2E2E2E2E2E2E2BEBEBEE2BEE2E2E2DCE2E2E2E22DE2E2E2E2E2E2E2E2E2E2BEE2E2E2E2E2E2E2E2E2E22DE2E2E2E2E2E2E2E2E2E2E2BEE2E2E2E2E2E2E2C3E2F5E2E2E2F5F5EFE2E2E2F5C3E2E2E2E2E2E2E2E2BEE2E2E2E2E2E2E2E2E2DCDCE2E2E2E2E2E2BEBE2DE22D2D2D2D2DE22DE2BEBEE2E2E2E2E2E2
310
E2E2BEBEBEE2E2E2BEE2BEE2E2BEBEBEE2E2E2E2E2E2E2E2BEE2BEE2E2E2E2E2E2E2E2E2E2E2E2E2E2E2DCDCDC2DE2E2E22DE2E2E2E22DE2E2E2E2E2E2E2E2E2E2BEBEE2BEE2BEE2DCDCDCE2E2E22DE2E2E2E2E2E2E2E2E2E2BEE2E2E2E2E2E2E2E2E2E22DE2E2E2E2E2E2E2E2E2E2E2BEE2E2E2E2E2E2E2C3E2F5E2E2E2F5
310
F5EFE2E2E2F5C3E2E2E2E2E2E2E2E2BEE2E2E2E2E2E2E2E2E2DCDCE2E2E2E2E2E2BEBE2DE22D2D2D2D2DE22DE2BEBEE2E2E2E2E2E2E2E2BEBEBEE2E2E2BEE2BEE2E2BEBEBEE2E2E2E2E2E2E2E2BEE2BEE2E2E2E2E2E2E2E2E2E2E2E2E2E2E2DCDCDC2DE2E2E22DE2E2E2E22DE2E2E2E2E2E2E2E2E2E2BEBEE2E2BEE2E2DCDC
310
DCE2E2E22DE2E2E2E2E2E2E2E2E2E2BEE2E2E2E2E2E2E2E2E2E22DE2E2E2E2E2E2E2E2E2E2E2BEE2E2E2E2E2E2E2C3E2F5E2E2E2F5F5EFE2E2E2F5C3E2E2E2E2E2E2E2E2BEE2E2E2E2E2E2E2E2E2DCDCE2E2E2E2E2E2BEBE2DE22D2D2D2D2DE22DE2BEBEE2E2E2E2E2E2E2E2BEBEBEE2E2E2BEE2BEE2E2BEBEBEE2E2E2E2E2
310
E2E2E2BEE2BEE2E2E2E2E2E2E2E2E2E2E2E2E2E2E2E2E2E22DE2E2E22DE2E2E2E22DE2E2E2E2E2E2E2E2E2E2BEBEBEE2E2BEE2DCDCDCE2E2E22DE2E2E2E2E2E2E2E2E2E2BEE2E2E2E2E2E2E2E2E2E22DE2E2E2E2E2E2E2E2E2E2E2BEE2E2E2E2E2E2E2C3E2F5E2E2E2F5F5EFE2E2E2F5C3E2E2E2E2E2E2E2E2BEE2E2E2E2E2
310
E2E2E2E2DCDCE2E2E2E2E2E2BEBE2DE2E2E2E2E2E2E22DE2BEBEE2E2E2E2E2E2E2E2BEBEBEE2E2E2BEE2BEE2E2BEBEBEE2E2E2E2E2E2E2E2BEE2BEE2E2E2E2E2E2E2E2E2E2E2E2E2E2E2E2E2E22DE2E2E22DE2E2E2E22DE2E2E2E2E2E2E2E2E2E2BEBEE2BEBEE2E2E2E2E2E2E2E22DE2E2E2E2E2E2E2E2E2E2BEE2E2E2E2E2
310
E2E2E2E2E22DE2E2E2E2E2E2E2E2E2E2E2BEE2E2E2E2E2E2E2C3E2F5E2E2E2F5F5EFE2E2E2F5C3E2E2E2E2E2E2E2E2BEE2E2E2E2E2E2E2E2E2DCDCE2E2E2E2E2E2BEBE2DE2E2E2E2E2E2E22DE2BEBEE2E2E2E2E2E2E2E2BEBEBEE2E2E2BEE2BEBEE2BEBEBEE2E2E2E2E2E2E2E2BEE2BEE2E2E2E2E2E2E2E2E2E2E2E2E2E2E2
310
E2E2E22DE2E2E22DE2E2E2E22DE2E2E2E2E2E2E2E2E2E2BEBEBEE2E2BEE2DCDCDCE2E2E22DE2E2E2E2E2E2E2E2E2E2BEE2E2E2E2E2E2E2E2E2E22DE2E2E2E2E2E2E2E2E2E2E2BEE2E2E2E2E2E2E2C3E2F5E2E2E2F5F5EFE2E2E2F5C3E2E2E2E2E2E2E2E2BEE2E2E2E2E2E2E2E2E2DCDCE2E2E2E2E2E2BEBE2D2D2D2DE2E2E2
310
E22DE2BEBEE2E2E2E2E2E2E2E2BEBEBEE2E2E2BEE2BEE2E2BEBEBEE2E2E2E2E2E2E2E2BEE2BEE2E2E2E2E2E2E2E2E2E2E2E2E2E2E2E2E2E22DE2E2E22DE2E2E2E22DE2E2E2E2E2E2E2E2E2E2BEBEE2BEBEE2E2DCDCDCE2E2E22DE2E2E2E2E2E2E2E2E2E2BEE2E2E2E2E2E2E2E2E2E22DE2E2E2E2E2E2E2E2E2E2E2BEE2E2E2
310
E2E2E2E2C3E2F5E2E2E2F5F5EFE2E2E2E2C3E2E2E2E2E2E2E2E2BEE2E2E2E2E2E2E2E2E2E22DE2E2E2E2E2E2BEBE2D2D2D2DE2E2E2E22DE2BEBEE2E2E2E2E2E2E2E2BEBEBEE2E2E2BEBEBEBEE2BEBEBEE2E2E2E2E2E2E2E2BEE2BEE2E2E2E2E2E2E2E2E2E2E2E2E2E2E2E2E2E22DE2E2E22DE2E2E2E22DE2E2E2E2E2E2E2E2
310
E2E2BEBEBEE2E2BEE2DCDCDCE2E2E22DE2E2E2E2E2E2E2E2E2E2BEE2E2E2E2E2E2E2E2E2E22DE2E2E2E2E2E2E2E2E2E2E2BEE2E2E2E2E2E2E2C3E2E2E2E2E2F5F5EFE2E2E2E2C3E2E2E2E2E2E2E2E2BEE2E2E2E2E2E2E2E2E2E22D2D2D2D2D2D2D2DBE2D2D2D2DE2E2E2E22DE2BEBEE2E2E2E2E2E2E2E2BEBEBEE2E2E2BEE2
310
BEE2E2BEBEBEE2E2E2E2E2E2E2E2BEE2BEE2E2E2E2E2E2E2E2E2E2E2E2E2E2E2E2E2E22DE2E2E22DE2E2E2E22DE2E2E2E2E2E2E2E2E2E2BEBEE2BEE2E2E2DCDCDCE2E2E22DE2E2E2E2E2E2E2E2E2E2BEE2E2E2E2E2E2E2E2E2E22DE2E2E2E2E2E2E2E2E2E2E2BEE2E2E2E2E2E2E2C3E2E2E2E2E2F5F5EFE2E2E2E2C3E2E2E2
310
E2E2E2E2E2BEE2E2E2E2E2E2E2E2E2E2E2E2E2E22D2DE2BEBE2D2D2D2DE2E2E2E22DE2BEBEE2E2E2E2E2E2E2E2BEBEBEE2E2E2BEBEBEE2E2BEBEBEE2E2E2E2E2E2E2E2BEE2BEE2E2E2E2E2E2E2E2E2E2E2E2E2E2E2E2E2E22DE2E2E22DE2E2E2E22DE2E2E2E2E2E2E2E2E2E2BEBEE2E2BEE2E2DCDCDCE2E2E22DE2E2E2E2E2
310
E2E2E2E2E2BEE2E2E2E2E2E2E2E2E2E22DE2E2E2E2E2E2E2E2E2E2E2BEE2E2E2E2E2E2E2C3E2E2E2E2E2F5F5EFE2E2E2E2C3E2E2E2E2E2E2E2E2BEE2E2E2E2E2E2E2E2E2E2E2E2E2E22D2DE2BEBE2D2D2D2D2DE2E2E22DE2BEBEE2E2E2E2E2E2E2E2BEBEBEE2E2E2BEE2BEE2E2BEBEBEE2E2E2E2E2E2E2E2BEE2BEE2E2E2E2
310
E2E2E2E2E2E2E2E2E2E2E2E2E2E22DE2E2E22DE2E2E2E22DE2E2E2E2E2E2E2E2E2E2BEBEBEE2E2BEE2DCDCDCE2E2E22DE2E2E2E2E2E2E2E2E2E2BEE2E2E2E2E2E2E2E2E2E22DE2E2E2E2E2E2E2E2E2E2E2BEE2E2E2E2E2E2E2C3E2E2E2E2E2F5F5EFE2E2E2E2C3E2E2E2E2E2E2E2E2BEE2E2E2E2E2E2E2E2E2E22D2D2D2D2D
310
2D2D2DBE2D2D2D2D2DE2E2E22DE2BEBEE2E2E2E2E2E2E2E2BEBEBEE2E2E2BEE2BEE2E2BEBEBEE2E2E2E2E2E2E2E2BEE2BEE2E2E2E2E2E2E2E2E2E2E2E2E2E2E2E2E2E22DE2E2E22DE2E2E2E22DE2E2E2E2E2E2E2E2E2E2BEBEE2BEBEE2E2DCDCDCE2E2E22DE2E2E2E2E2E2E2E2E2E2BEE2E2E2E2E2E2E2E2E2E22DE2E2E2E2
310
E2E2E2E2E2E2E2BEE2E2E2E2E2E2E2C3E2E2E2E2E2F5F5EFE2E2E2E2C3E2E2E2E2E2E2E2E2BEE2E2E2E2E2E2E2E2E2E22DE2E2E2E2E2E2BEBE2D2D2D2D2DE2E2E22DE2BEBEE2E2E2E2E2E2E2E2BEBEBEE2E2E2BEE2BEE2E2BEBEBEE2E2E2E2E2E2E2E2BEE2BEE2E2E2E2E2E2E2E2E2E2E2E2E2E2E2E2E2E22DE2E2E22DE2E2
310
E2E22DE2E2E2E2E2E2E2E2E2E2BEBEBEE2E2BEE2DCDCDCE2E2E22DE2E2E2E2E2E2E2E2E2E2BEE2E2E2E2E2E2E2E2E2E22DE2E2E2E2E2E2E2E2E2E2E2BEE2E2E2E2E2E2E2C3E2E2E2E2E2F5F5EFE2E2E2E2C3E2E2E2E2E2E2E2E2BEE2E2E2E2E2E2E2E2E2DCDCE2E2E2E2E2E2BEBE2DE2E2E2E2E2E2E22DE2BEBEE2E2E2E2E2
310
E2E2E2BEBEBEE2E2E2BEE2BEE2E2BEBEBEE2E2E2E2E2E2E2E2BEE2BEE2E2E2E2E2E2E2E2E2E2E2E2E2E2E2E2E2E22DE2E2E22DE2E2E2E22DE2E2E2E2E2E2E2E2E2E2BEBEE2BEBEE2E2DCDCDCE2E2E22DE2E2E2E2E2E2E2E2E2E2BEE2E2E2E2E2E2E2E2E2E22DE2E2E2E2E2E2E2E2E2E2E2BEE2E2E2E2E2E2E2C3E2E2E2E2E2
310
F5F5EFE2E2E2E2C3E2E2E2E2E2E2E2E2BEE2E2E2E2E2E2E2E2E2DCDCE2E2E2E2E2E2BEBE2DE22D2D2D2D2DE22DE2BEBEE2E2E2E2E2E2E2E2BEBEBEE2E2E2BEE2BEE2E2BEBEBEE2E2E2E2E2E2E2E2BEE2BEE2E2E2E2E2E2E2E2E2E2E2E2E2E2E2E2E2E22DE2E2E22DE2E2E2E22DE2E2E2E2E2E2E2E2E2E2BEBEBEE2E2BEE2E2
310
2DE2E2E2E22DE2E2E2E2E2E2E2E2E2E2BEE2E2E2E2E2E2E2E2E2E22DE2E2E2E2E2E2E2E2E2E2E2BEE2E2E2E2E2E2E2C3E2E2E2E2E2F5F5EFE2E2E2F5C3E2E2E2E2E2E2E2E2BEE2E2E2E2E2E2E2E2E2DCDCE2E2E2E2E2E2BEBE2DE22D2D2D2D2DE22DE2BEBEE2E2E2E2E2E2E2E2BEBEBEE2E2E2BEE2BEE2E2BEBEBEE2E2E2E2
310
E2E2E2E2BEE2BEE2E2E2E2E2E2E2E2E2E2E2E2E2E2E2E2E2E22DE2E2E22DE2E2E2E22DE2E2E2E2E2E2E2E2E2E2BEBEE2BEBEE2E2E22DE2E2E2E22DE2E2E2E2E2E2E2E2E2E2BEE2E2E2E2E2E2E2E2E2E22DE2E2E2E2E2E2E2E2E2E2E2BEE2E2E2E2E2E2E2C3E2F5E2E2E2F5F5EFE2E2E2F5C3E2E2E2E2E2E2E2E2BEE2E2E2E2
310
E2E2E2E2E2DCDCE2E2E2E2E2E2BEBE2DE22D2D2D2D2DE22DE2BEBEE2E2E2E2E2E2E2E2BEBEBEE2E2E2BEE2BEE2E2BEBEBEE2E2E2E2E2E2E2E2BEE2BEE2E2E2E2E2E2E2E2E2E2E2E2E2E2E2E2E2E22DE2E2E22DE2E2E2E22DE2E2E2E2E2E2E2E2E2E2BEBEBEE2E2BEE2E22DE2E2E2E22DE2E2E2E2E2E2E2E2E2E2BEE2E2E2E2
310
E2E2E2E2E2E22DE2E2E2E2E2E2E2E2E2E2E2BEE2E2E2E2E2E2E2C3E2F5E2E2E2F5F5EFE2E2E2F5C3E2E2E2E2E2E2E2E2BEE2E2E2E2E2E2E2E2E2DCDCE2E2E2E2E2E2BEBE2DE22D2D2D2D2DE22DE2BEBEE2E2E22DE2E2E2E2BEBEBEE2E2E2BEE2BEE2E2BEBEBEE2E2E2E2E2E2E2E2BEE2BEE2E2E2E2E2E2E2E2E2E2E2E2E2E2
310
E2E2E2E22DE2E2E22DE2E2E2E22DE2E2E2E2E2E2E2E2E2E2BEBEE2BEE2E2E22D2DE2E2E2E22DE2E2E2E2E2E2E2E2E2E2BEE2E2E2E2E2E2E2E2E2E22DE2E2E2E2E2E2E2E2E2E2E2BEE2E2E2E2E2E2E2C3E2F5E2E2E2F5F5EFE2E2E2F5C3E2E2E2E2E2E2E2E2BEE2E2E2E2E2E2E2E2E2DCDCE2E2E2E2E2E2BEBE2DE22D2D2D2D
310
2DE22DE2BEBEE2E22DE22DE2E2E2BEBEBEE2E2E2BEE2BEE2E2BEBEBEE2E2E2E2E2E2E2E2BEE2BEE2E2E2E2E2E2E2E2E2E2E2E2E2E2E2E2E2E22DE2E2E22DE2E2E2E22DE2E2E2E2E2E2E2E2E22DBEBE2D2DBE2D2D2D2DE2E2E2E22DE2E2E2E2E2E2E2E2E2E2BEE2E2E2E2E2E2E2E2E2E22DE2E2E2E2E2E2E2E2E2E2E2BEE2E2
310
E2E2E2E2E2C3E2F5E2E2E2F5F5EFE2E2E2F5C3E2E2E2E2E2E2E2E2BEE2E2E2E2E2E2E2E2E2DCDCE2E2E2E2E2E2BEBE2DE22DE2E2E22DE22DE2BE2D2DE22DE2E22DE22D2DBE2D2DE2BEBEE2BEE22D2DBE2D2DE2E22D2DE2E2E22DE2BEE2E2E2E2E2E2E2E2E2E2E2E2E2E2E2E2E2E22DE2E2E22DE2E2E2E22DE2E2E2E2E22DE2
310
E2E22D2DBEBEE2E2BEE2E2E2E2E2E2E22DE2E2E2E2E22DE2E2E22D2D2DE2E2E2E22DE2E2E2E22DE2E2E2E2E2E2E2E2E2E2E2BEE2E2E2E2E2E2E2C3E2F5E2E2E2F5F5EFE2E2E2F5C3E2E2E2E2E2E2E2E2BEE2E2E2E2E2E2E2E2E2DCDCE2E2E2E2E2E2BEBE2D2D2D2D2D2D2D2D2DE2BEBEE2E22D2D2DE2E2E2BEBEBEE2E2BEE2
310
E2BEE2E2BEBEBEE2E2E22D2DE2E2E2BEE2BEE2E2E2E2E2E2E2E2E2E2E2E2E2E2E2E2E2E22DE2E2E22D2DE2E2E22D2DE2E2E22D2DE2E2E2E22DBEE2BEBEE2E2E2E2E2E2E2E22D2DE2E2E22D2DE2E2E2E22DE2E2E2E22D2DE2E2E22D2DE2E2E2E2E2E2E2E2E2E2E2BEE2E2E2E2E2E2E2C3E2F5E2E2E2F5F5EFE2E2E2F5C3E2E2
310
E2E2E2E2E2E2BEE2E2E2E2E2E2E2E2E2E2E2E2E2E2E2E2E2BEBEBEBEBEBEBEBEBEBEBEE2BEBEBEBEBE2DBEBEBEBEBEBEBEBEBEBEE2E2BEBEBEBEBEBEBEBEBEBEBEBEBEBEBEE2BEE2E2E2E2E2E2E2E2E2E2E2E2E2E2E2E2E2E22DE2E2E22D2DE2E2E2BEBEE2E2BEBEBEBEBEBEBEBEBEBEE2E2BEE2E2E2E2E2E2E2BEBEE2BEBE
310
BEBEBEBEBEBEBEBEBEBEBEBEBEBEBEE2BEBEE2E2E2E2E2E2E2E2E2E2E2BEE2E2E2E2E2E2E2C3E2F5E2E2E2F5F5EFE2E2E2F5C3E2E2E2E2E2E2E2E2BEE2E2E2E2E2E2E2E2E2DCDCE2E2E2E2E2E2BEBEBEBEBEBEBEBEBEBEBEBEBEBEBEBEBE2DBEBEBEBEBEBEBEBEBEBEE2E2BEBEBEBEBEBEBEBEBEBEBEBEBEBEBEBEBEE2E2E2
310
E2E2E2E2E2E2E2E2E2E2E2E2E2E22D2D2D2D2D2D2D2D2D2DBEBEBEBEBEBEBEBEBEBEBEBEBEE2BEBEE2E2E2E2E2E2E2E2BEBEBEBEBEBEBEBEBEBEBEBEBEBEBEBEBEBEBEBEBEBEBEE2E2E2E2E2E2E2E2E2E2E2BEE2E2E2E2E2E2E2C3E2F5E2E2E2F5F5EFE2E2E2F5C3E2E2E2E2E2E2E2E2BEE2E2E2E2E2E2E2E2E2DCDCE2E2E2
310
E2E2E2E2E2E2E2E2E2E2E2E2E2E2E2E2E2E2E2E22DE2E2E2E2E2E2E2E2E2BEE2E2BEE2E2E2E2E2E2E2E2E2E2E2E2E2E2E2E2E2E2E2E2E2E2E2E2E2E2E2E2E2E2E2E2E2E2E2E2E2E2E2E2E2E2E2E2E2E2E2E2E2E2E2E2E2E2E2BEBEE2E2BEE2E2E2E2E2E2E2E2E2E2E2E2E2E2E2E2E2E2E2E2E2E2E2E2E2E2E2E2E2E2E2E2E2
310
E2E2E2E2E2E2E2E2BEE2E2E2E2E2E2E2C3E2F5E2E2E2F5F5EFE2E2E2F5C3E2E2E2E2E2E2E2E2BEE2E2E2E2E2E2E2E2E2E2E2E2E2E2E2E2E2E2E2E2E2E2E2E2E2E2E2E2E2E2E2E2E2E2E2E2E2E2E2E2E2E2E2E2BEE2E2BEE2E2E2E2E2E2E2E2E2E2E2E2E2E2E2E2E2E2E2E2E2E2E2E2E2E2E2E2E2E2E2E2E2E2E2E2E2E2E2E2
310
E2E2E2E2E2E2E2E2E2E2E2E2E2E2E2BEE2BEE2E2E2E2E2E2E2E2E2E2E2E2E2E2E2E2E2E2E2E2E2E2E2E2E2E2E2E2E2E2E2E2E2E2E2E2E2E2E2E2E2E2E2BEE2E2E2E2E2E2E2C3E2F5E2E2E2F5F5EFE2E2E2F5C3E2E2E2E2E2E2E2E2BEE2E2E2E2E2E2E2E2E2DCDCE2E2E2E2E2E2E2E2E2E2E2E2E2E2E2E2E2E2E2E2E2E2E2E2
310
E2E2E2E2E2E2E2E2E2E2E2E2E2E2E2E2E2E2E2E2E2E2E2E2E2E2E2E2E2E2E2E2E2E2E2E2E2E2E2E2E2E2E2E2E2E2E2E2E2E2E2E2E2E2E2E2E2E2E2E2E2E2E2E2E2E2E2E2BEBEE2BEE2E2E2E2E2E2E2E2E2E2E2E2E2E2E2E2E2E2E2E2E2E2E2E2E2E2E2E2E2E2E2E2E2E2E2E2E2E2E2E2E2E2BEE2E2E2E2E2E2E2C3E2F5E2E2
310
E2F5F5EFE2E2E2F5C3E2E2E2E2E2E2E2E2BEE2E2E2E2E2E2E2E2E2E2E2DCE2E2E2E2E2E2E2E2E2E2E2E2E2E2E2E2E2E2E2E2E2E2E2E2E2E2E2E2E2E2E2E2E2E2E2E2E2E2E2E2E2E2E2E2E2E2E2E2E2E2E2E2E2E2E2E2E2E2E2E2E2E2E2E2E2E2E2E2E2E2E2E2E2E2E2E2E2E2E2E2E2E2E2E2E2E2E2E2E2E2E2BEE2BEE2BEE2
310
E2E2E2E2E2E2E2E2E2E2E2E2E2E2E2E2E2E2E2E2E2E2E2E2E2E2E2E2E2E2E2E2E2E2E2E2E2E2E2E2BEE2E2E2E2E2E2E2C3E2F5E2E2E2F5F5EFE2E2E2F5C3E2E2E2E2E2E2E2E2BEE2E2E2E2E2E2E2E2E2DCDCE2E2E2E2E2E2E2E2E2E2E2E2E2E2E2E2E2E2E2E2E2E2E2E2E2E2E2E2E2E2E2E2E2E2E2E2E2E2E2E2E2E2E2E2E2
310
E2E2E2E2E2E2E2E2E2E2E2E2E2E2E2E2E2E2E2E2E2E2E2E2E2E2E2E2E2E2E2E2E2E2E2E2E2E2E2E2E2E2E2E2E2E2E2BEE2E2BEE2E2E2E2E2E2E2E2E2E2E2E2E2E2E2E2E2E2E2E2E2E2E2E2E2E2E2E2E2E2E2E2E2E2E2E2E2E2E2E2E2E2BEE2E2E2E2E2E2E2C3E2F5E2E2E2F5F5EFE2E2E2F5C3E2E2E2E2E2E2E2E2BEE2E2E2
310
E2E2E2E2E2E2E2DCE2E2E2E2E2E2E2E2E2E2E2E2E2E2E2E2E2E2E2E2E2E2E2E2E2E2E2E2E2E2E2E2E2E2E2E2E2E2E2E2E2E2E2E2E2E2E2E2E2E2E2E2E2E2E2E2E2E2E2E2E2E2E2E2E2E2E2E2E2E2E2E2E2E2E2E2E2E2E2E2E2E2E2E2E2E2E2E2E2E2E2E2BEBEBEE2BEE2E2E2E2E2E2E2E2E2E2E2E2E2E2E2E2E2E2E2E2E2E2
310
E2E2E2E2E2E2E2E2E2E2E2E2E2E2E2E2E2E2E2BEE2E2E2E2E2E2E2C3E2F5E2E2E2F5F5EFE2E2E2F5C3E2E2E2E2E2E2E2E2BEE2E2E2E2E2E2E2E2E2E2E2E2E2E2E2E2E2E2E2E2E2E2E2E2E2E2E2E2E2E2E2E2E2E2E2E2E2E2E2E2E2E2E2E2E2E2E2E2E2E2E2E2E2E2E2E2E2E2E2E2E2E2E2E2E2E2E2E2E2E2E2E2E2E2E2E2E2
310
E2E2E2E2E2E2E2E2E2E2E2E2E2E2E2E2E2E2E2E2E2E2E2E2E2E2BEE2E2BEE2E2E2E2E2E2E2E2E2E2E2E2E2E2E2E2E2E2E2E2E2E2E2E2E2E2E2E2E2E2E2E2E2E2E2E2E2E2E2E2E2E2BEE2E2E2E2E2E2E2C3E2F5E2E2E2F5F5EFE2E2E2E2C3E2E2E2E2E2E2E2E2BEE2E2E2E2E2E2E2E2E2E2E2E2E2E2E2E2E2E2E2E2E2E2E2E2
310
E2E2E2E2E2E2E2E2E2E2E2E2E2E2E2E2E2E2E2E2E2E2E2E2E2E2E2E2E2E2E2E2E2E2E2E2E2E2E2E2E2E2E2E2E2E2E2E2E2E2E2E2E2E2E2E2E2E2E2E2E2E2E2E2E2E2E2E2E2E2E2E2E2E2E2E2E2E2E2E2E2E2E2E2E2E2E2E2E2E2E2E2E2E2E2E2E2E2E2E2E2E2E2E2E2E2E2E2E2E2E2E2E2E2E2E2E2E2E2E2E2E2E2E2E2BEE2
310
E2E2E2E2E2E2C3E2E2E2E2E2F5F5EFE2E2E2E2C3E2E2E2E2E2E2E2E2BEE2E2E2E2E2E2E2E2E2E2E2E2E2E2E2E2E2E2E2E2E2E2E2E2E2E2E2E2E2E2E2E2E2E2E2E2E2E2E2E2E2E2E2E2E2E2E2E2E2E2E2E2E2E2E2E2E2E2E2E2E2E2E2E2E2E2E2E2E2E2E2E2E2E2E2E2E2E2E2E2E2E2E2E2E2E2E2E2E2E2E2E2E2E2E2E2E2E2
310
E2E2E2E2E2E2E2E2E2E2E2E2E2E2E2E2E2E2E2E2E2E2E2E2E2E2E2E2E2E2E2E2E2E2E2E2E2E2E2E2E2E2E2E2E2E2E2E2E2E2E2BEE2E2E2E2E2E2E2C3E2E2E2E2E2F5F5EFE2E2E2E2C3E2E2E2E2E2E2E2E2BEE2E2E2E2E2E2E2E2E2E2E2E2E2E2E2E2E2E2E2E2E2E2E2E2E2E2E2E2E2E2E2E2E2E2E2E2E2E2E2E2E2E2E2E2E2
310
E2E2E2E2E2E2E2E2E2E2E2E2E2E2E2E2E2E2E2E2E2E2E2E2E2E2E2E2E2E2E2E2E2E2E2E2E2E2E2E2E2E2E2E2E2E2E2E2E2E2E2E2E2E2E2E2E2E2E2E2E2E2E2E2E2E2E2E2E2E2E2E2E2E2E2E2E2E2E2E2E2E2E2E2E2E2E2E2E2E2E2E2E2E2E2E2E2E2E2E2E2E2E2E2BEE2E2E2E2E2E2E2C3E2E2E2E2E2F5F5EFE2E2E2E2C3E2
310
E2E2E2E2E2E2E2BEE2E2E2E2E2E2E2E2E2E2E2E2E2E2E2E2E2E2E2E2E2E2E2E2E2E2E2E2E2E2E2E2E2E2E2E2E2E2E2E2E2E2E2E2E2E2E2E2E2E2E2E2E2E2E2E2E2E2E2E2E2E2E2E2E2E2E2E2E2E2E2E2E2E2E2E2E2E2E2E2E2E2E2E2E2E2E2E2E2E2E2E2E2E2E2E2E2E2E2E2E2E2E2E2E2E2E2E2E2E2E2E2E2E2E2E2E2E2E2
310
E2E2E2E2E2E2E2E2E2E2E2E2E2E2E2E2E2E2E2E2E2E2E2E2E2E2E2E2E2E2BEE2E2E2E2E2E2E2C3E2E2E2E2E2F5F5EFE2E2E2E2C3E2E2E2E2E2E2E2E2BEE2E2E2E2E2E2E2E2E2E2E2E2E2E2E2E2E2E2E2E2E2E2E2E2E2E2E2E2E2E2E2E2E2E2E2E2E2E2E2E2E2E2E2E2E2E2E2E2E2E2E2E2E2E2E2E2E2E2E2E2E2E2E2E2E2E2
310
E2E2E2E2E2E2E2E2E2E2E2E2E2E2E2E2E2E2E2E2E2E2E2E2E2E2E2E2E2E2E2E2E2E2E2E2E2E2E2E2E2E2E2E2E2E2E2E2E2E2E2E2E2E2E2E2E2E2E2E2E2E2E2E2E2E2E2E2E2E2E2E2E2E2E2E2E2E2E2E2E2E2E2BEE2E2E2E2E2E2E2C3E2E2E2E2E2F5F5EFE2E2E2E2C3E2E2E2E2E2E2E2E2BEE2E2E2E2E2E2E2E2E2E2E2E2E2
310
E2E2E2E2E2E2E2E2E2E2E2E2E2E2E2E2E2E2E2E2E2E2E2E2E2E2E2E2E2E2E2E2E2E2E2E2E2E2E2E2E2E2E2E2E2E2E2E2E2E2E2E2E2E2E2E2E2E2E2E2E2E2E2E2E2E2E2E2E2E2E2E2E2E2E2E2E2E2E2E2E2E2E2E2E2E2E2E2E2E2E2E2E2E2E2E2E2E2E2E2E2E2E2E2E2E2E2E2E2E2E2E2E2E2E2E2E2E2E2E2E2E2E2E2E2E2E2
310
E2E2E2E2E2E2E2E2E2BEE2E2E2E2E2E2E2C3E2E2E2E2E2F5F5EFE2E2E2E2C3E2E2E2E2E2E2E2E2BEBEBEBEBEBEBEBEBEBEBEBEBEBEBEBEBEBEBEBEBEBEBEBEBEBEBEBEBEBEBEBEBEBEBEBEBEBEBEBEBEBEBEBEBEBEBEBEBEBEBEBEBEBEBEBEBEBEBEBEBEBEBEBEBEBEBEBEBEBEBEBEBEBEBEBEBEBEBEBEBEBEBEBEBEBEBEBE
310
BEBEBEBEBEBEBEBEBEBEBEBEBEBEBEBEBEBEBEBEBEBEBEBEBEBEBEBEBEBEBEBEBEBEBEBEBEBEBEBEBEBEBEBEBEBEBEBEBEBEBEBEBEBEBEBEBEBEBEBEBEBEBEE2E2E2E2E2E2E2C3E2E2E2E2E2F5F5EFE2E2E2E2C3E2E2E2E2E2E2E2E2E2E2E2E2E2E2E2E2E2E2E2E2E2E2E2E2E2E2E2E2E2E2E2E2E2E2E2E2E2E2E2E2E2E2E2
310
E2E2E2E2E2E2E2E2E2E2E2E2E2E2E2E2E2E2E2E2E2E2E2E2E2E2E2E2E2E2E2E2E2E2E2E2E2E2E2E2E2E2E2E2E2E2E2E2E2E2E2E2E2E2E2E2E2E2E2E2E2E2E2E2E2E2E2E2E2E2E2E2E2E2E2E2E2E2E2E2E2E2E2E2E2E2E2E2E2E2E2E2E2E2E2E2E2E2E2E2E2E2E2E2E2E2E2E2E2E2E2E2E2E2E2E2E2E2E2E2E2E2E2C3E2E2E2
310
E2E2F5F5EFE2E2E2F5C3E2E2E2E2E2E2E2E2E2E2E2E2E2E2E2E2E2E2E2E2E2E2E2E2E2E2E2E2E2E2E2E2E2E2E2E2E2E2E2E2E2E2E2E2E2E2E2E2E2E2E2E2E2E2E2E2E2E2E2E2E2E2E2E2E2E2E2E2E2E2E2E2E2E2E2E2E2E2E2E2E2E2E2E2E2E2E2E2E2E2E2E2E2E2E2E2E2E2E2E2E2E2E2E2E2E2E2E2E2E2E2E2E2E2E2E2E2
310
E2E2E2E2E2E2E2E2E2E2E2E2E2E2E2E2E2E2E2E2E2E2E2E2E2E2E2E2E2E2E2E2E2E2E2E2E2E2E2E2E2E2E2E2E2E2E2E2E2C3E2F5E2E2E2F5F5EFE2E2E2F5C3E2E2E2E2E2E2E2E2E2E2E2E2E2E2E2E2E2E2E2E2E2E2E2E2E2E2E2E2E2E2E2E2E2E2E2E2E2E2E2E2E2E2E2E2E2E2E2E2E2E2E2E2E2E2E2E2E2E2E2E2E2E2E2E2
310
E2E2E2E2E2E2E2E2E2E2E2E2E2E2E2E2E2E2E2E2E2E2E2E2E2E2E2E2E2E2E2E2E2E2E2E2E2E2E2E2E2E2E2E2E2E2E2E2E2E2E2E2E2E2E2E2E2E2E2E2E2E2E2E2E2E2E2E2E2E2E2E2E2E2E2E2E2E2E2E2E2E2E2E2E2E2E2E2E2E2E2E2E2E2E2E2E2E2E2E2E2E2C3E2F5E2E2E2F5F5EFE2E2E2F5C3E2E2E2E2E2E2E2E2E2E2E2
310
E2E2E2E2E2E2E2E2E2E2E2E2E2E2E2E2E2E2E2E2E2E2E2E2E2E2E2E2E2E2E2E2E2E2E2E2E2E2E2E2E2E2E2E2E2E2E2E2E2E2E2E2E2E2E2E2E2E2E2E2E2E2E2E2E2E2E2E2E2E2E2E2E2E2E2E2E2E2E2E2E2E2E2E2E2E2E2E2E2E2E2E2E2E2E2E2E2E2E2E2E2E2E2E2E2E2E2E2E2E2E2E2E2E2E2E2E2E2E2E2E2E2E2E2E2E2E2
310
E2E2E2E2E2E2E2E2E2E2E2E2E2E2E2E2E2E2E2E2E2E2E2E2E2E2E2E2C3E2F5E2E2E2F5F5EFE2E2E2F5C3E2E2E2E2E2E2E2E2E2E2E2E2E2E2E2E2E2E2E2E2E2E2E2E2E2E2E2E2E2E2E2E2E2E2E2E2E2E2E2E2E2E2E2E2E2E2E2E2E2E2E2E2E2E2E2E2E2E2E2E2E2E2E2E2E2E2E2E2E2E2E2E2E2E2E2E2E2E2E2E2E2E2E2E2E2
310
E2E2E2E2E2E2E2E2E2E2E2E2E2E2E2E2E2E2E2E2E2E2E2E2E2E2E2E2E2E2E2E2E2E2E2E2E2E2E2E2E2E2E2E2E2E2E2E2E2E2E2E2E2E2E2E2E2E2E2E2E2E2E2E2E2E2E2E2E2E2E2E2E2E2E2E2E2E2E2E2E2C3E2F5E2E2E2F5F5EFE2E2E2F5C3E2E2E2E2E2E2E2E2E2E2E2E2E2E2E2E2E2E2E2E2E2E2E2E2E2E2E2E2E2E2E2E2
310
E2E2E2E2E2E2E2E2E2E2E2E2E2E2E2E2E2E2E2E2E2E2E2E2E2E2E2E2E2E2E2E2E2E2E2E2E2E2E2E2E2E2E2E2E2E2E2E2E2E2E2E2E2E2E2E2E2E2E2E2E2E2E2E2E2E2E2E2E2E2E2E2E2E2E2E2E2E2E2E2E2E2E2E2E2E2E2E2E2E2E2E2E2E2E2E2E2E2E2E2E2E2E2E2E2E2E2E2E2E2E2E2E2E2E2E2E2E2E2E2E2E2E2E2E2E2E2
310
E2E2E2E2E2E2E2C3E2F5E2E2E2F5F5EFE2E2E2F5C3E2E2E2E2E2E2E2E2E2E2E2E2E2E2E2E2E2E2E2E2E2E2E2E2E2E2E2E2E2E2E2E2E2E2E2E2E2E2E2E2E2E2E2E2E2E2E2E2E2E2E2E2E2E2E2E2E2E2E2E2E2E2E2E2E2E2E2E2E2E2E2E2E2E2E2E2E2E2E2E2E2E2E2E2E2E2E2E2E2E2E2E2E2E2E2E2E2E2E2E2E2E2E2E2E2E2
310
E2E2E2E2E2E2E2E2E2E2E2E2E2E2E2E2E2E2E2E2E2E2E2E2E2E2E2E2E2E2E2E2E2E2E2E2E2E2E2E2E2E2E2E2E2E2E2E2E2E2E2E2E2E2E2E2E2E2E2E2C3E2F5E2E2E2F5F5EFE2E2E2F5C3E2E2E2E2E2E2E2E2E2E2E2E2E2E2E2E2E2E2E2E2E2E2E2E2E2E2E2E2E2E2E2E2E2E2E2E2E2E2E2E2E2E2E2E2E2E2E2E2E2E2E2E2E2
310
E2E2E2E2E2E2E2E2E2E2E2E2E2E2E2E2E2E2E2E2E2E2E2E2E2E2E2E2E2E2E2E2E2E2E2E2E2E2E2E2E2E2E2E2E2E2E2E2E2E2E2E2E2E2E2E2E2E2E2E2E2E2E2E2E2E2E2E2E2E2E2E2E2E2E2E2E2E2E2E2E2E2E2E2E2E2E2E2E2E2E2E2E2E2E2E2E2E2E2E2E2E2E2E2E2E2E2E2E2E2E2E2E2C3E2F5E2E2E2F5F5EFE2E2E2F5C3
310
C3C3C3C3C3C3C3C3C3C3C3C3C3C3C3C3C3C3C3C3C3C3C3C3C3C3C3C3C3C3C3C3C3C3C3C3C3C3C3C3C3C3C3C3C3C3C3C3C3C3C3C3C3C3C3C3C3C3C3C3C3C3C3C3C3C3C3C3C3C3C3C3C3C3C3C3C3C3C3C3C3C3C3C3C3C3C3C3C3C3C3C3C3C3C3C3C3C3C3C3C3C3C3C3C3C3C3C3C3C3C3C3C3C3C3C3C3C3C3C3C3C3C3C3C3C3C3
310
C3C3C3C3C3C3C3C3C3C3C3C3C3C3C3C3C3C3C3C3C3C3C3C3C3C3C3C3C3C3C3C3C3C3C3C3C3C3C3C3F5F5E2E2E2F5F5EFE2E2E2E2E2E2E2E2E2E2E2E2E2E2E2E2E2E2E2E2E2E2E2E2E2E2E2E2E2E2E2E2E2E2E2E2E2E2E2E2E2E2E2E2E2E2E2E2E2E2E2E2E2E2E2E2E2E2E2E2E2E2E2E2E2E2E2E2E2E2E2E2E2E2E2E2E2E2E2
310
E2E2E2E2E2E2E2E2E2E2E2E2E2E2E2E2E2E2E2E2E2E2E2E2E2E2E2E2E2E2E2E2E2E2E2E2E2E2E2E2E2E2E2E2E2E2E2E2E2E2E2E2E2E2E2E2E2E2E2E2E2E2E2E2E2E2E2E2E2E2E2E2E2E2E2E2E2E2E2E2E2E2E2E2E2E2E2E2E2E2E2E2E2E2E2E2E2E2F5F5EFE2E2E2E2E2E2E2E2E2E2E2E2E2E2E2E2E2E2E2E2E2E2E2E2E2E2
310
E2E2E2E2E2E2E2E2E2E2E2E2E2E2E2E2E2E2E2E2E2E2E2E2E2E2E2E2E2E2E2E2E2E2E2E2E2E2E2E2E2E2E2E2E2E2E2E2E2E2E2E2E2E2E2E2E2E2E2E2E2E2E2E2E2E2E2E2E2E2E2E2E2E2E2E2E2E2E2E2E2E2E2E2E2E2E2E2E2E2E2E2E2E2E2E2E2E2E2E2E2E2E2E2E2E2E2E2E2E2E2E2E2E2E2E2E2E2E2E2E2E2E2E2E2E2E2
310
E2E2E2E2E2E2E2E2E2E2E2E2E2E2E2E2E2E2E2E2E2E2E2E2F5F5EFE2E2E2E2E2E2E2E2E2E2E2E2E2E2E2E2E2E2E2E2E2E2E2E2E2E2E2E2E2E2E2E2E2E2E2E2E2E2E2E2E2E2E2E2E2E2E2E2E2E2E2E2E2E2E2E2E2E2E2E2E2E2E2E2E2E2E2E2E2E2E2E2E2E2E2E2E2E2E2E2E2E2E2E2E2E2E2E2E2E2E2E2E2E2E2E2E2E2E2E2
310
E2E2E2E2E2E2E2E2E2E2E2E2E2E2E2E2E2E2E2E2E2E2E2E2E2E2E2E2E2E2E2E2E2E2E2E2E2E2E2E2E2E2E2E2E2E2E2E2E2E2E2E2E2E2E2E2E2E2E2E2E2E2E2E2E2E2E2E2E2E2E2E2E2E2E2E2E2F5F5EFE2E2E2E2E2E2E2E2E2E2E2E2E2E2E2E2E2E2E2E2E2E2E2E2E2E2E2E2E2E2E2E2E2E2E2E2E2E2E2E2E2E2E2E2E2E2E2
310
E2E2E2E2E2E2E2E2E2E2E2E2E2E2E2E2E2E2E2E2E2E2E2E2E2E2E2E2E2E2E2E2E2E2E2E2E2E2E2E2E2E2E2E2E2E2E2E2E2E2E2E2E2E2E2E2E2E2E2E2E2E2E2E2E2E2E2E2E2E2E2E2E2E2E2E2E2E2E2E2E2E2E2E2E2E2E2E2E2E2E2E2E2E2E2E2E2E2E2E2E2E2E2E2E2E2E2E2E2E2E2E2E2E2E2E2E2E2E2E2E2E2E2E2E2E2E2
310
E2E2E2F5F5EFE2E2E2E2E2E2E2E2E2E2E2E2E2E2E2E2E2E2E2E2E2E2E2E2E2E2E2E2E2E2E2E2E2E2E2E2E2E2E2E2E2E2E2E2E2E2E2E2E2E2E2E2E2E2E2E2E2E2E2E2E2E2E2E2E2E2E2E2E2E2E2E2E2E2E2E2E2E2E2E2E2E2E2E2E2E2E2E2E2E2E2E2E2E2E2E2E2E2E2E2E2E2E2E2E2E2E2E2E2E2E2E2E2E2E2E2E2E2E2E2E2
310
E2E2E2E2E2E2E2E2E2E2E2E2E2E2E2E2E2E2E2E2E2E2E2E2E2E2E2E2E2E2E2E2E2E2E2E2E2E2E2E2E2E2E2E2E2E2E2E2E2E2E2E2E2E2E2E2F5F5EFE2E2E2E2E2E2E2E2E2E2E2E2E2E2E2E2E2E2E2E2E2E2E2E2E2E2E2E2E2E2E2E2E2E2E2E2E2E2E2E2E2E2E2E2E2E2E2E2E2E2E2E2E2E2E2E2E2E2E2E2E2E2E2E2E2E2E2E2
310
E2E2E2E2E2E2E2E2E2E2E2E2E2E2E2E2E2E2E2E2E2E2E2E2E2E2E2E2E2E2E2E2E2E2E2E2E2E2E2E2E2E2E2E2E2E2E2E2E2E2E2E2E2E2E2E2E2E2E2E2E2E2E2E2E2E2E2E2E2E2E2E2E2E2E2E2E2E2E2E2E2E2E2E2E2E2E2E2E2E2E2E2E2E2E2E2E2E2E2E2E2E2E2E2E2E2E2E2E2F5F5EFE2E2E2E2E2E2E2E2E2E2E2E2E2E2E2
310
E2E2E2E2E2E2E2E2E2E2E2E2E2E2E2E2E2E2E2E2E2E2E2E2E2E2E2E2E2E2E2E2E2E2E2E2E2E2E2E2E2E2E2E2E2E2E2E2E2E2E2E2E2E2E2E2E2E2E2E2E2E2E2E2E2E2E2E2E2E2E2E2E2E2E2E2E2E2E2E2E2E2E2E2E2E2E2E2E2E2E2E2E2E2E2E2E2E2E2E2E2E2E2E2E2E2E2E2E2E2E2E2E2E2E2E2E2E2E2E2E2E2E2E2E2E2E2
310
E2E2E2E2E2E2E2E2E2E2E2E2E2E2E2E2E2E2E2E2E2E2E2E2E2E2E2E2E2E2E2E2E2E2E2F5F5EFE2E2E2E2E2E2E2E2E2E2E2E2E2E2E2E2E2E2E2E2E2E2E2E2E2E2E2E2E2E2E2E2E2E2E2E2E2E2E2E2E2E2E2E2E2E2E2E2E2E2E2E2E2E2E2E2E2E2E2E2E2E2E2E2E2E2E2E2E2E2E2E2E2E2E2E2E2E2E2E2E2E2E2E2E2E2E2E2E2
310
E2E2E2E2E2E2E2E2E2E2E2E2E2E2E2E2E2E2E2E2E2E2E2E2E2E2E2E2E2E2E2E2E2E2E2E2E2E2E2E2E2E2E2E2E2E2E2E2E2E2E2E2E2E2E2E2E2E2E2E2E2E2E2E2E2E2E2E2E2E2E2E2E2E2E2E2E2E2E2E2E2E2E2E2E2E2E2E2F5F5EFE2E2E2E2E2E2E2E2E2E2E2E2E2E2E2E2E2E2E2E2E2E2E2E2E2E2E2E2E2E2E2E2E2E2E2E2
310
E2E2E2E2E2E2E2E2E2E2E2E2E2E2E2E2E2E2E2E2E2E2E2E2E2E2E2E2E2E2E2E2E2E2E2E2E2E2E2E2E2E2E2E2E2E2E2E2E2E2E2E2E2E2E2E2E2E2E2E2E2E2E2E2E2E2E2E2E2E2E2E2E2E2E2E2E2E2E2E2E2E2E2E2E2E2E2E2E2E2E2E2E2E2E2E2E2E2E2E2E2E2E2E2E2E2E2E2E2E2E2E2E2E2E2E2E2E2E2E2E2E2E2E2E2E2E2
310
E2E2E2E2E2E2E2E2E2E2E2E2E2E2F5F5EFE2E2E2E2E2E2E2E2E2E2E2E2E2E2E2E2E2E2E2E2E2E2E2E2E2E2E2E2E2E2E2E2E2E2E2E2E2E2E2E2E2E2E2E2E2E2E2E2E2E2E2E2E2E2E2E2E2E2E2E2E2E2E2E2E2E2E2E2E2E2E2E2E2E2E2E2E2E2E2E2E2E2E2E2E2E2E2E2E2E2E2E2E2E2E2E2E2E2E2E2E2E2E2E2E2E2E2E2E2E2
310
E2E2E2E2E2E2E2E2E2E2E2E2E2E2E2E2E2E2E2E2E2E2E2E2E2E2E2E2E2E2E2E2E2E2E2E2E2E2E2E2E2E2E2E2E2E2E2E2E2E2E2E2E2E2E2E2E2E2E2E2E2E2E2E2E2E2E2F5EFEFE2E2E2E2E2E2E2E2E2E2E2E2E2E2E2E2E2E2E2E2E2E2E2E2E2E2E2E2E2E2E2E2E2E2E2E2E2E2E2E2E2E2E2E2E2E2E2E2E2E2E2E2E2E2E2E2E2
310
E2E2E2E2E2E2E2E2E2E2E2E2E2E2E2E2E2E2E2E2E2E2E2E2E2E2E2E2E2E2E2E2E2E2E2E2E2E2E2E2E2E2E2E2E2E2E2E2E2E2E2E2E2E2E2E2E2E2E2E2E2E2E2E2E2E2E2E2E2E2E2E2E2E2E2E2E2E2E2E2E2E2E2E2E2E2E2E2E2E2E2E2E2E2E2E2E2E2E2E2E2E2E2E2E2E2E2E2E2E2E2E2E2E2E2E2E2E2E2E2F5EFEFF5F5F5F5
310
F5F5F5F5F5F5F5F5F5F5F5F5F5F5F5F5F5F5F5F5F5F5F5F5F5F5F5F5F5F5F5F5F5F5F5F5F5F5F5F5F5F5F5F5F5F5F5F5F5F5F5F5F5F5F5F5F5F5F5F5F5F5F5F5F5F5F5F5F5F5F5F5F5F5F5F5F5F5F5F5F5F5F5F5F5F5F5F5F5F5F5F5F5F5F5F5F5F5F5F5F5F5F5F5F5F5F5F5F5F5F5F5F5F5F5F5F5F5F5F5F5F5F5F5F5F5F5
310
F5F5F5F5F5F5F5F5F5F5F5F5F5F5F5F5F5F5F5F5F5F5F5F5F5F5F5F5F5F5F5F5F5F5F5F5F5F5F5F5F5F5F5F5F5F5F5EFEF
  0
XRECORD
  5
A22
102
{ACAD_REACTORS
330
A21
102
}
330
A21
100
AcDbXrecord
280
     1
102
SHADEPLOT
 70
     0
102
SHADEPLOTRESLEVEL
 70
     2
102
SHADEPLOTCUSTOMDPI
 70
   300
  0
XRECORD
  5
A20
102
{ACAD_REACTORS
330
A1F
102
}
330
A1F
100
AcDbXrecord
280
     1
102
SHADEPLOT
 70
     0
102
SHADEPLOTRESLEVEL
 70
     2
102
SHADEPLOTCUSTOMDPI
 70
   300
  0
XRECORD
  5
8CA
102
{ACAD_REACTORS
330
8C9
102
}
330
8C9
100
AcDbXrecord
280
     1
102
MATERIAL
148
0.0
149
0.0
149
0.0
 93
        0
 94
       63
282
     0
 72
     1
 77
     1
171
     1
175
     1
179
     1
273
     0
  0
XRECORD
  5
8C8
102
{ACAD_REACTORS
330
8C7
102
}
330
8C7
100
AcDbXrecord
280
     1
102
MATERIAL
148
0.0
149
0.0
149
0.0
 93
        0
 94
       63
282
     0
 72
     1
 77
     1
171
     1
175
     1
179
     1
273
     0
  0
XRECORD
  5
8CC
102
{ACAD_REACTORS
330
8CB
102
}
330
8CB
100
AcDbXrecord
280
     1
102
MATERIAL
148
0.0
149
0.0
149
0.0
 93
        0
 94
       63
282
     0
 72
     1
 77
     1
171
     1
175
     1
179
     1
273
     0
  0
XRECORD
  5
8CE
102
{ACAD_REACTORS
330
8CD
102
}
330
8CD
100
AcDbXrecord
280
     1
102
ACAD_ROUNDTRIP_PRE2007_TABLESTYLE
 90
      512
 91
        0
  1

 92
      512
 93
        0
  2

 94
      512
 95
        0
  3

  0
ENDSEC
  0
EOF
