  0
SECTION
  2
HEADER
  9
$ACADVER
  1
AC1015
  9
$ACADMAINTVER
 70
    20
  9
$DWGCODEPAGE
  3
ANSI_1252
  9
$INSBASE
 10
0.0
 20
0.0
 30
0.0
  9
$EXTMIN
 10
1.726318389324376
 20
1.759597801323511
 30
-0.0000000000000058
  9
$EXTMAX
 10
9.977050806834654
 20
7.01037599520103
 30
0.0000000000000104
  9
$LIMMIN
 10
0.0
 20
0.0
  9
$LIMMAX
 10
12.0
 20
9.0
  9
$ORTHOMODE
 70
     1
  9
$REGENMODE
 70
     1
  9
$FILLMODE
 70
     1
  9
$QTEXTMODE
 70
     0
  9
$MIRRTEXT
 70
     1
  9
$LTSCALE
 40
1.0
  9
$ATTMODE
 70
     1
  9
$TEXTSIZE
 40
0.2
  9
$TRACEWID
 40
0.05
  9
$TEXTSTYLE
  7
Standard
  9
$CLAYER
  8
0
  9
$CELTYPE
  6
ByLayer
  9
$CECOLOR
 62
   256
  9
$CELTSCALE
 40
1.0
  9
$DISPSILH
 70
     0
  9
$DIMSCALE
 40
1.0
  9
$DIMASZ
 40
0.18
  9
$DIMEXO
 40
0.0625
  9
$DIMDLI
 40
0.38
  9
$DIMRND
 40
0.0
  9
$DIMDLE
 40
0.0
  9
$DIMEXE
 40
0.18
  9
$DIMTP
 40
0.0
  9
$DIMTM
 40
0.0
  9
$DIMTXT
 40
0.18
  9
$DIMCEN
 40
0.09
  9
$DIMTSZ
 40
0.0
  9
$DIMTOL
 70
     0
  9
$DIMLIM
 70
     0
  9
$DIMTIH
 70
     1
  9
$DIMTOH
 70
     1
  9
$DIMSE1
 70
     0
  9
$DIMSE2
 70
     0
  9
$DIMTAD
 70
     0
  9
$DIMZIN
 70
     0
  9
$DIMBLK
  1

  9
$DIMASO
 70
     1
  9
$DIMSHO
 70
     1
  9
$DIMPOST
  1

  9
$DIMAPOST
  1

  9
$DIMALT
 70
     0
  9
$DIMALTD
 70
     2
  9
$DIMALTF
 40
25.4
  9
$DIMLFAC
 40
1.0
  9
$DIMTOFL
 70
     0
  9
$DIMTVP
 40
0.0
  9
$DIMTIX
 70
     0
  9
$DIMSOXD
 70
     0
  9
$DIMSAH
 70
     0
  9
$DIMBLK1
  1

  9
$DIMBLK2
  1

  9
$DIMSTYLE
  2
Standard
  9
$DIMCLRD
 70
     0
  9
$DIMCLRE
 70
     0
  9
$DIMCLRT
 70
     0
  9
$DIMTFAC
 40
1.0
  9
$DIMGAP
 40
0.09
  9
$DIMJUST
 70
     0
  9
$DIMSD1
 70
     0
  9
$DIMSD2
 70
     0
  9
$DIMTOLJ
 70
     1
  9
$DIMTZIN
 70
     0
  9
$DIMALTZ
 70
     0
  9
$DIMALTTZ
 70
     0
  9
$DIMUPT
 70
     0
  9
$DIMDEC
 70
     4
  9
$DIMTDEC
 70
     4
  9
$DIMALTU
 70
     2
  9
$DIMALTTD
 70
     2
  9
$DIMTXSTY
  7
Standard
  9
$DIMAUNIT
 70
     0
  9
$DIMADEC
 70
     0
  9
$DIMALTRND
 40
0.0
  9
$DIMAZIN
 70
     0
  9
$DIMDSEP
 70
    46
  9
$DIMATFIT
 70
     3
  9
$DIMFRAC
 70
     0
  9
$DIMLDRBLK
  1

  9
$DIMLUNIT
 70
     2
  9
$DIMLWD
 70
    -2
  9
$DIMLWE
 70
    -2
  9
$DIMTMOVE
 70
     0
  9
$LUNITS
 70
     2
  9
$LUPREC
 70
     4
  9
$SKETCHINC
 40
0.1
  9
$FILLETRAD
 40
0.5
  9
$AUNITS
 70
     0
  9
$AUPREC
 70
     0
  9
$MENU
  1
.
  9
$ELEVATION
 40
0.0
  9
$PELEVATION
 40
0.0
  9
$THICKNESS
 40
0.0
  9
$LIMCHECK
 70
     0
  9
$CHAMFERA
 40
0.5
  9
$CHAMFERB
 40
0.5
  9
$CHAMFERC
 40
1.0
  9
$CHAMFERD
 40
0.0
  9
$SKPOLY
 70
     0
  9
$TDCREATE
 40
2452633.698138542
  9
$TDUCREATE
 40
2452633.906471875
  9
$TDUPDATE
 40
2454728.628324468
  9
$TDUUPDATE
 40
2454728.836657801
  9
$TDINDWG
 40
0.5690012384
  9
$TDUSRTIMER
 40
0.5690012384
  9
$USRTIMER
 70
     1
  9
$ANGBASE
 50
0.0
  9
$ANGDIR
 70
     0
  9
$PDMODE
 70
     0
  9
$PDSIZE
 40
0.0
  9
$PLINEWID
 40
0.0
  9
$SPLFRAME
 70
     0
  9
$SPLINETYPE
 70
     6
  9
$SPLINESEGS
 70
     8
  9
$HANDSEED
  5
5EA
  9
$SURFTAB1
 70
     6
  9
$SURFTAB2
 70
     6
  9
$SURFTYPE
 70
     6
  9
$SURFU
 70
     6
  9
$SURFV
 70
     6
  9
$UCSBASE
  2

  9
$UCSNAME
  2

  9
$UCSORG
 10
0.0
 20
0.0
 30
0.0
  9
$UCSXDIR
 10
1.0
 20
0.0
 30
0.0
  9
$UCSYDIR
 10
0.0
 20
1.0
 30
0.0
  9
$UCSORTHOREF
  2

  9
$UCSORTHOVIEW
 70
     0
  9
$UCSORGTOP
 10
0.0
 20
0.0
 30
0.0
  9
$UCSORGBOTTOM
 10
0.0
 20
0.0
 30
0.0
  9
$UCSORGLEFT
 10
0.0
 20
0.0
 30
0.0
  9
$UCSORGRIGHT
 10
0.0
 20
0.0
 30
0.0
  9
$UCSORGFRONT
 10
0.0
 20
0.0
 30
0.0
  9
$UCSORGBACK
 10
0.0
 20
0.0
 30
0.0
  9
$PUCSBASE
  2

  9
$PUCSNAME
  2

  9
$PUCSORG
 10
0.0
 20
0.0
 30
0.0
  9
$PUCSXDIR
 10
1.0
 20
0.0
 30
0.0
  9
$PUCSYDIR
 10
0.0
 20
1.0
 30
0.0
  9
$PUCSORTHOREF
  2

  9
$PUCSORTHOVIEW
 70
     0
  9
$PUCSORGTOP
 10
0.0
 20
0.0
 30
0.0
  9
$PUCSORGBOTTOM
 10
0.0
 20
0.0
 30
0.0
  9
$PUCSORGLEFT
 10
0.0
 20
0.0
 30
0.0
  9
$PUCSORGRIGHT
 10
0.0
 20
0.0
 30
0.0
  9
$PUCSORGFRONT
 10
0.0
 20
0.0
 30
0.0
  9
$PUCSORGBACK
 10
0.0
 20
0.0
 30
0.0
  9
$USERI1
 70
     0
  9
$USERI2
 70
     0
  9
$USERI3
 70
     0
  9
$USERI4
 70
     0
  9
$USERI5
 70
     0
  9
$USERR1
 40
0.0
  9
$USERR2
 40
0.0
  9
$USERR3
 40
0.0
  9
$USERR4
 40
0.0
  9
$USERR5
 40
0.0
  9
$WORLDVIEW
 70
     1
  9
$SHADEDGE
 70
     3
  9
$SHADEDIF
 70
    70
  9
$TILEMODE
 70
     1
  9
$MAXACTVP
 70
    64
  9
$PINSBASE
 10
0.0
 20
0.0
 30
0.0
  9
$PLIMCHECK
 70
     0
  9
$PEXTMIN
 10
1.000000000000000E+20
 20
1.000000000000000E+20
 30
1.000000000000000E+20
  9
$PEXTMAX
 10
-1.000000000000000E+20
 20
-1.000000000000000E+20
 30
-1.000000000000000E+20
  9
$PLIMMIN
 10
0.0
 20
0.0
  9
$PLIMMAX
 10
12.0
 20
9.0
  9
$UNITMODE
 70
     0
  9
$VISRETAIN
 70
     1
  9
$PLINEGEN
 70
     0
  9
$PSLTSCALE
 70
     1
  9
$TREEDEPTH
 70
  3020
  9
$CMLSTYLE
  2
Standard
  9
$CMLJUST
 70
     0
  9
$CMLSCALE
 40
1.0
  9
$PROXYGRAPHICS
 70
     1
  9
$MEASUREMENT
 70
     0
  9
$CELWEIGHT
370
    -1
  9
$ENDCAPS
280
     0
  9
$JOINSTYLE
280
     0
  9
$LWDISPLAY
290
     0
  9
$INSUNITS
 70
     1
  9
$HYPERLINKBASE
  1

  9
$STYLESHEET
  1

  9
$XEDIT
290
     1
  9
$CEPSNTYPE
380
     0
  9
$PSTYLEMODE
290
     1
  9
$FINGERPRINTGUID
  2
{855133EC-1751-11D7-8CE2-BBD0884F8F23}
  9
$VERSIONGUID
  2
{9079F2A6-388A-4099-9172-C500C5D06116}
  9
$EXTNAMES
290
     1
  9
$PSVPSCALE
 40
0.0
  9
$OLESTARTUP
290
     0
  0
ENDSEC
  0
SECTION
  2
CLASSES
  0
CLASS
  1
ACDBDICTIONARYWDFLT
  2
AcDbDictionaryWithDefault
  3
ObjectDBX Classes
 90
        0
280
     0
281
     0
  0
CLASS
  1
ACDBPLACEHOLDER
  2
AcDbPlaceHolder
  3
ObjectDBX Classes
 90
        0
280
     0
281
     0
  0
CLASS
  1
LAYOUT
  2
AcDbLayout
  3
ObjectDBX Classes
 90
        0
280
     0
281
     0
  0
CLASS
  1
DICTIONARYVAR
  2
AcDbDictionaryVar
  3
ObjectDBX Classes
 90
        0
280
     0
281
     0
  0
ENDSEC
  0
SECTION
  2
TABLES
  0
TABLE
  2
VPORT
  5
8
330
0
100
AcDbSymbolTable
 70
     2
  0
VPORT
  5
5DF
330
8
100
AcDbSymbolTableRecord
100
AcDbViewportTableRecord
  2
*Active
 70
     0
 10
0.0
 20
0.0
 11
1.0
 21
1.0
 12
5.851684598079515
 22
4.384986898262271
 13
0.0
 23
0.0
 14
0.5
 24
0.5
 15
0.5
 25
0.5
 16
0.0
 26
0.0
 36
1.0
 17
0.0
 27
0.0
 37
0.0
 40
5.545189497268501
 41
1.495145631067961
 42
50.0
 43
0.0
 44
0.0
 50
0.0
 51
0.0
 71
     0
 72
   100
 73
     1
 74
     3
 75
     0
 76
     0
 77
     0
 78
     0
281
     0
 65
     1
110
0.0
120
0.0
130
0.0
111
1.0
121
0.0
131
0.0
112
0.0
122
1.0
132
0.0
 79
     0
146
0.0
  0
ENDTAB
  0
TABLE
  2
LTYPE
  5
5
330
0
100
AcDbSymbolTable
 70
     2
  0
LTYPE
  5
14
330
5
100
AcDbSymbolTableRecord
100
AcDbLinetypeTableRecord
  2
ByBlock
 70
     0
  3

 72
    65
 73
     0
 40
0.0
  0
LTYPE
  5
15
330
5
100
AcDbSymbolTableRecord
100
AcDbLinetypeTableRecord
  2
ByLayer
 70
     0
  3

 72
    65
 73
     0
 40
0.0
  0
LTYPE
  5
16
330
5
100
AcDbSymbolTableRecord
100
AcDbLinetypeTableRecord
  2
Continuous
 70
     0
  3
Solid line
 72
    65
 73
     0
 40
0.0
  0
LTYPE
  5
35B
330
5
100
AcDbSymbolTableRecord
100
AcDbLinetypeTableRecord
  2
HIDDEN
 70
     0
  3
_ _ _ _ _ _ _ _ _ _ _ _ _ _ _ _ _ _ _ _ _ _ _
 72
    65
 73
     2
 40
0.375
 49
0.25
 74
     0
 49
-0.125
 74
     0
  0
ENDTAB
  0
TABLE
  2
LAYER
  5
2
330
0
100
AcDbSymbolTable
 70
     4
  0
LAYER
  5
10
330
2
100
AcDbSymbolTableRecord
100
AcDbLayerTableRecord
  2
0
 70
     0
 62
     7
  6
Continuous
370
    -3
390
F
  0
LAYER
  5
34
330
2
100
AcDbSymbolTableRecord
100
AcDbLayerTableRecord
  2
1
 70
     0
 62
     1
  6
Continuous
370
    -3
390
F
  0
LAYER
  5
35
330
2
100
AcDbSymbolTableRecord
100
AcDbLayerTableRecord
  2
4
 70
     0
 62
     4
  6
Continuous
370
    -3
390
F
  0
LAYER
  5
36
330
2
100
AcDbSymbolTableRecord
100
AcDbLayerTableRecord
  2
8
 70
     0
 62
     2
  6
Continuous
370
    -3
390
F
  0
ENDTAB
  0
TABLE
  2
STYLE
  5
3
330
0
100
AcDbSymbolTable
 70
     2
  0
STYLE
  5
11
330
3
100
AcDbSymbolTableRecord
100
AcDbTextStyleTableRecord
  2
Standard
 70
     0
 40
0.0
 41
1.0
 50
0.0
 71
     0
 42
0.2
  3
txt
  4

  0
STYLE
  5
37
330
3
100
AcDbSymbolTableRecord
100
AcDbTextStyleTableRecord
  2
ROMANS
 70
     0
 40
0.0
 41
1.0
 50
0.0
 71
     0
 42
0.07
  3
ROMANS
  4

  0
ENDTAB
  0
TABLE
  2
VIEW
  5
6
330
0
100
AcDbSymbolTable
 70
     0
  0
ENDTAB
  0
TABLE
  2
UCS
  5
7
330
0
100
AcDbSymbolTable
 70
     0
  0
ENDTAB
  0
TABLE
  2
APPID
  5
9
330
0
100
AcDbSymbolTable
 70
     1
  0
APPID
  5
12
330
9
100
AcDbSymbolTableRecord
100
AcDbRegAppTableRecord
  2
ACAD
 70
     0
  0
ENDTAB
  0
TABLE
  2
DIMSTYLE
  5
A
330
0
100
AcDbSymbolTable
 70
     1
100
AcDbDimStyleTable
 71
     0
  0
DIMSTYLE
105
27
330
A
100
AcDbSymbolTableRecord
100
AcDbDimStyleTableRecord
  2
Standard
 70
     0
340
11
  0
ENDTAB
  0
TABLE
  2
BLOCK_RECORD
  5
1
330
0
100
AcDbSymbolTable
 70
     8
  0
BLOCK_RECORD
  5
1F
330
1
100
AcDbSymbolTableRecord
100
AcDbBlockTableRecord
  2
*Model_Space
340
22
  0
BLOCK_RECORD
  5
1B
330
1
100
AcDbSymbolTableRecord
100
AcDbBlockTableRecord
  2
*Paper_Space
340
1E
  0
BLOCK_RECORD
  5
23
330
1
100
AcDbSymbolTableRecord
100
AcDbBlockTableRecord
  2
*Paper_Space0
340
26
  0
BLOCK_RECORD
  5
2C
330
1
100
AcDbSymbolTableRecord
100
AcDbBlockTableRecord
  2
ARRO
340
0
102
{BLKREFS
331
101
331
164
331
165
331
166
331
167
331
168
331
16C
331
16D
331
171
331
172
331
222
331
246
331
2C8
331
2CB
331
308
331
3BD
331
3E1
331
463
331
466
331
4A3
331
500
331
563
331
564
331
565
331
566
331
567
331
56B
331
56C
331
570
331
571
102
}
  0
BLOCK_RECORD
  5
38
330
1
100
AcDbSymbolTableRecord
100
AcDbBlockTableRecord
  2
LE1001
340
0
  0
BLOCK_RECORD
  5
1B6
330
1
100
AcDbSymbolTableRecord
100
AcDbBlockTableRecord
  2
ARRO2
340
0
102
{BLKREFS
331
2E8
331
2EC
331
483
331
487
102
}
  0
BLOCK_RECORD
  5
1C3
330
1
100
AcDbSymbolTableRecord
100
AcDbBlockTableRecord
  2
TEMP3
340
0
102
{BLKREFS
331
1D4
331
36F
102
}
  0
BLOCK_RECORD
  5
1C8
330
1
100
AcDbSymbolTableRecord
100
AcDbBlockTableRecord
  2
FRACTION
340
0
102
{BLKREFS
331
2CC
331
2E2
331
303
331
467
331
47D
331
49E
331
4F4
102
}
  0
BLOCK_RECORD
  5
1CE
330
1
100
AcDbSymbolTableRecord
100
AcDbBlockTableRecord
  2
SPL2CORRIDORTT60
340
0
310
28000000200000002000000001000800000000000004000000000000000000000000000000000000000000004000000080000000FF000000002000004020000080200000FF200000004000004040000080400000FF400000006000004060000080600000FF600000008000004080000080800000FF80000000A0000040A000
310
0080A00000FFA0000000C0000040C0000080C00000FFC0000000FF000040FF000080FF0000FFFF0000000020004000200080002000FF002000002020004020200080202000FF202000004020004040200080402000FF402000006020004060200080602000FF602000008020004080200080802000FF80200000A0200040A0
310
200080A02000FFA0200000C0200040C0200080C02000FFC0200000FF200040FF200080FF2000FFFF2000000040004000400080004000FF004000002040004020400080204000FF204000004040004040400080404000FF404000006040004060400080604000FF604000008040004080400080804000FF80400000A0400040
310
A0400080A04000FFA0400000C0400040C0400080C04000FFC0400000FF400040FF400080FF4000FFFF4000000060004000600080006000FF006000002060004020600080206000FF206000004060004040600080406000FF406000006060004060600080606000FF606000008060004080600080806000FF80600000A06000
310
40A0600080A06000FFA0600000C0600040C0600080C06000FFC0600000FF600040FF600080FF6000FFFF6000000080004000800080008000FF008000002080004020800080208000FF208000004080004040800080408000FF408000006080004060800080608000FF608000008080004080800080808000FF80800000A080
310
0040A0800080A08000FFA0800000C0800040C0800080C08000FFC0800000FF800040FF800080FF8000FFFF80000000A0004000A0008000A000FF00A0000020A0004020A0008020A000FF20A0000040A0004040A0008040A000FF40A0000060A0004060A0008060A000FF60A0000080A0004080A0008080A000FF80A00000A0
310
A00040A0A00080A0A000FFA0A00000C0A00040C0A00080C0A000FFC0A00000FFA00040FFA00080FFA000FFFFA0000000C0004000C0008000C000FF00C0000020C0004020C0008020C000FF20C0000040C0004040C0008040C000FF40C0000060C0004060C0008060C000FF60C0000080C0004080C0008080C000FF80C00000
310
A0C00040A0C00080A0C000FFA0C00000C0C00040C0C00080C0C000FFC0C00000FFC00040FFC00080FFC000FFFFC0000000FF004000FF008000FF00FF00FF000020FF004020FF008020FF00FF20FF000040FF004040FF008040FF00FF40FF000060FF004060FF008060FF00FF60FF000080FF004080FF008080FF00FF80FF00
310
00A0FF0040A0FF0080A0FF00FFA0FF0000C0FF0040C0FF0080C0FF00FFC0FF0000FFFF0040FFFF0080FFFF00FFFFFF0000000000000000000000000000000000000000000000000000000000000000000000000000000000000000000000000000000000000000000000000000000000000000000000000000000000000000
310
00000000000000000000000000000000000000000000000000000000000000000000000000000000000000000000000000000000000000000000000000000000000000000000000000000000000000000000000000000000000000000000000000000000000000000000000000000000000000000000000000000000000000
310
000000000000000000000000000000000000001F000000000000000000000000000000000000000000000000000000000000000000000000FCFCFCFCFCFCFCFCFCFCFCFCFCFCFCFCFCFCFCFCFCFC00000000000000000000000000000000000000000000000000000000000000000000000000000000000000000000000000
310
000000000000000000000000000000000000000000000000000000000000000000000000000000000000000000000000000000000000000000000000000000000000000000001F00000000000000000000000000000000001F1F1F00000000000000000000001F1F000000001F0000001F1F00000000FCFC1F1F1F00000000
310
00000000000000FC1F000000001F000000001F00000000FCFC1F1F1F00000000000000000000FCFC1F000000001F000000001F00000000FCFC1F1F1F1F1F1F1F1F1F1F000000001F1F1F1F00001F1F1F1F1F1F00000000FCFC1F1F1F1F1F1F1F1F1F1F000000001F1F1F1F00001F1F1F1F1F1F00000000FC1F1F1F1F000000
310
00000000000000FCFC1F000000001F000000001F00000000FC1F1F1F1F00000000000000000000FCFC1F000000001F000000001F00000000FCFC1F1F1F1F1F1F1F1F1F1F000000001F1F1F1F00001F1F1F1F1F1F00000000FCFC1F001F00000000000000000000001F1F000000001F000000001F00000000FCFC1F1F1F0000
310
0000000000000000FCFC1F000000001F000000001F0000000000001F1F1F1F1F1F001F1F1F000000001F1F1F1F00001F1F1F1F1F1F00000000000000000000000000000000000000001F0000000000000000000000000000000000000000000000000000000000000000000000000000000000000000000000000000000000
310
00000000000000000000000000000000000000000000000000000000000000000000000000000000000000000000000000000000000000000000000000000000000000000000000000000000000000000000000000000000000000000000000000000000000000000000000000000000000000000000000000000000000000
310
0000000000000000000000000000000000000000000000000000000000000000000000000000000000000000000000000000000000000000
102
{BLKREFS
331
35D
102
}
1001
ACAD
1000
DesignCenter Data
1002
{
1070
     1
1070
     1
1002
}
  0
BLOCK_RECORD
  5
35C
330
1
100
AcDbSymbolTableRecord
100
AcDbBlockTableRecord
  2
LE1217
340
0
1001
ACAD
1000
DesignCenter Data
1002
{
1070
     1
1070
     1
1002
}
  0
ENDTAB
  0
ENDSEC
  0
SECTION
  2
BLOCKS
  0
BLOCK
  5
20
330
1F
100
AcDbEntity
  8
0
100
AcDbBlockBegin
  2
*Model_Space
 70
     0
 10
0.0
 20
0.0
 30
0.0
  3
*Model_Space
  1

  0
ENDBLK
  5
21
330
1F
100
AcDbEntity
  8
0
100
AcDbBlockEnd
  0
BLOCK
  5
1C
330
1B
100
AcDbEntity
 67
     1
  8
0
100
AcDbBlockBegin
  2
*Paper_Space
 70
     0
 10
0.0
 20
0.0
 30
0.0
  3
*Paper_Space
  1

  0
ENDBLK
  5
1D
330
1B
100
AcDbEntity
 67
     1
  8
0
100
AcDbBlockEnd
  0
BLOCK
  5
24
330
23
100
AcDbEntity
  8
0
100
AcDbBlockBegin
  2
*Paper_Space0
 70
     0
 10
0.0
 20
0.0
 30
0.0
  3
*Paper_Space0
  1

  0
ENDBLK
  5
25
330
23
100
AcDbEntity
  8
0
100
AcDbBlockEnd
  0
BLOCK
  5
32
330
2C
100
AcDbEntity
  8
4
100
AcDbBlockBegin
  2
ARRO
 70
     0
 10
0.0
 20
0.0
 30
0.0
  3
ARRO
  1

  0
LINE
  5
2D
330
2C
100
AcDbEntity
  8
4
100
AcDbLine
 10
0.1250000000000018
 20
0.0199999999999996
 30
0.0
 11
0.1250000000000018
 21
-0.0200000000000005
 31
0.0
  0
LINE
  5
2E
330
2C
100
AcDbEntity
  8
4
100
AcDbLine
 10
0.1250000000000018
 20
-0.0100000000000007
 30
0.0
 11
0.0000000000000009
 21
0.0
 31
0.0
  0
LINE
  5
2F
330
2C
100
AcDbEntity
  8
4
100
AcDbLine
 10
0.1250000000000018
 20
0.0099999999999989
 30
0.0
 11
0.0000000000000018
 21
0.0
 31
0.0
  0
LINE
  5
30
330
2C
100
AcDbEntity
  8
4
100
AcDbLine
 10
0.0000000000000018
 20
0.0
 30
0.0
 11
0.1250000000000018
 21
-0.0200000000000005
 31
0.0
  0
LINE
  5
31
330
2C
100
AcDbEntity
  8
4
100
AcDbLine
 10
0.1250000000000018
 20
0.0199999999999996
 30
0.0
 11
0.0000000000000018
 21
0.0
 31
0.0
  0
ENDBLK
  5
33
330
2C
100
AcDbEntity
  8
4
100
AcDbBlockEnd
  0
BLOCK
  5
F4
330
38
100
AcDbEntity
  8
0
100
AcDbBlockBegin
  2
LE1001
 70
     0
 10
0.0
 20
0.0
 30
0.0
  3
LE1001
  1

  0
TEXT
  5
FA
330
38
100
AcDbEntity
  8
8
100
AcDbText
 10
5.2125
 20
1.691660711643185
 30
0.0
 40
0.07
  1
DEPTH
  7
ROMANS
 72
     1
 11
5.3775
 21
1.691660711643185
 31
0.0
100
AcDbText
  0
TEXT
  5
FB
330
38
100
AcDbEntity
  8
8
100
AcDbText
 10
6.834999999999999
 20
1.691660711643185
 30
0.0
 40
0.07
  1
DEPTH
  7
ROMANS
 72
     1
 11
7.0
 21
1.691660711643185
 31
0.0
100
AcDbText
  0
TEXT
  5
FC
330
38
100
AcDbEntity
  8
8
100
AcDbText
 10
6.899267058502116
 20
0.7466010068253098
 30
0.0
 40
0.1
  1
DR
  7
ROMANS
 72
     1
 11
7.001648010883068
 21
0.7466010068253098
 31
0.0
100
AcDbText
  0
TEXT
  5
FD
330
38
100
AcDbEntity
  8
8
100
AcDbText
 10
5.794389324558379
 20
0.5620000000000003
 30
0.0
 40
0.1
  1
SECTIONS
  7
ROMANS
 72
     1
 11
6.146770276939331
 21
0.5620000000000003
 31
0.0
100
AcDbText
  0
TEXT
  5
FE
330
38
100
AcDbEntity
  8
8
100
AcDbText
 10
5.302053163126957
 20
0.7466010068253098
 30
0.0
 40
0.1
  1
SR
  7
ROMANS
 72
     1
 11
5.399672210746004
 21
0.7466010068253098
 31
0.0
100
AcDbText
  0
LINE
  5
FF
330
38
100
AcDbEntity
  8
4
100
AcDbLine
 10
5.628
 20
4.25
 30
0.0
 11
5.891731602665403
 21
4.25
 31
0.0
  0
LINE
  5
100
330
38
100
AcDbEntity
  8
4
100
AcDbLine
 10
5.93215881233783
 20
4.25
 30
0.0
 11
6.112622609161773
 21
4.25
 31
0.0
  0
INSERT
  5
101
330
38
100
AcDbEntity
  8
4
100
AcDbBlockReference
  2
ARRO
 10
5.93215881233783
 20
4.25
 30
0.0
  0
LINE
  5
102
330
38
100
AcDbEntity
  8
4
100
AcDbLine
 10
6.112622609161773
 20
4.25
 30
0.0
 11
6.112622609161773
 21
4.047012330209487
 31
0.0
  0
TEXT
  5
103
330
38
100
AcDbEntity
  8
8
100
AcDbText
 10
6.147622609161773
 20
2.671678996876154
 30
0.0
 40
0.07
  1
ANCHORING BY ERECTOR
 50
90.0
  7
ROMANS
 72
     2
 11
6.147622609161773
 21
3.985012330209487
 31
0.0
100
AcDbText
  0
TEXT
  5
104
330
38
100
AcDbEntity
  8
8
100
AcDbText
 10
4.500499999999999
 20
2.578333333333333
 30
0.0
 40
0.07
  1
LOCKER HEIGHT
 50
90.0
  7
ROMANS
 72
     1
 11
4.500499999999999
 21
3.0
 31
0.0
100
AcDbText
  0
TEXT
  5
105
330
38
100
AcDbEntity
  8
8
100
AcDbText
 10
1.344999999999998
 20
1.062
 30
0.0
 40
0.07
  1
LOCKER WIDTH - SEE SCHEDULE
  7
ROMANS
 72
     1
 11
2.249999999999999
 21
1.062
 31
0.0
100
AcDbText
  0
TEXT
  5
106
330
38
100
AcDbEntity
  8
8
100
AcDbText
 10
1.585714285714285
 20
0.5620000000000003
 30
0.0
 40
0.1
  1
FRONT ELEVATION
  7
ROMANS
 72
     1
 11
2.249999999999999
 21
0.5620000000000003
 31
0.0
100
AcDbText
  0
LINE
  5
107
330
38
100
AcDbEntity
  8
1
100
AcDbLine
 10
5.203499999999999
 20
1.5625
 30
0.0
 11
5.188499999999999
 21
1.547499999999999
 31
0.0
  0
LINE
  5
108
330
38
100
AcDbEntity
  8
1
100
AcDbLine
 10
5.188499999999999
 20
1.547499999999999
 30
0.0
 11
5.090499999999999
 21
1.547499999999999
 31
0.0
  0
LINE
  5
109
330
38
100
AcDbEntity
  8
1
100
AcDbLine
 10
5.090499999999999
 20
1.547499999999999
 30
0.0
 11
5.090499999999999
 21
1.519253857562439
 31
0.0
  0
LINE
  5
10A
330
38
100
AcDbEntity
  8
1
100
AcDbLine
 10
5.265499999999999
 20
1.500499999999999
 30
0.0
 11
5.203499999999999
 21
1.5625
 31
0.0
  0
LINE
  5
10B
330
38
100
AcDbEntity
  8
1
100
AcDbLine
 10
5.630499999999999
 20
1.500499999999999
 30
0.0
 11
5.265499999999999
 21
1.500499999999999
 31
0.0
  0
LINE
  5
10C
330
38
100
AcDbEntity
  8
1
100
AcDbLine
 10
5.630499999999999
 20
1.5625
 30
0.0
 11
5.630499999999999
 21
1.500499999999999
 31
0.0
  0
LINE
  5
10D
330
38
100
AcDbEntity
  8
1
100
AcDbLine
 10
5.670499999999999
 20
1.5625
 30
0.0
 11
5.670499999999999
 21
1.500499999999999
 31
0.0
  0
LINE
  5
10E
330
38
100
AcDbEntity
  8
1
100
AcDbLine
 10
5.065499999999999
 20
1.5625
 30
0.0
 11
5.173499999999998
 21
1.5625
 31
0.0
  0
LINE
  5
10F
330
38
100
AcDbEntity
  8
1
100
AcDbLine
 10
5.065499999999999
 20
1.500499999999999
 30
0.0
 11
5.065499999999999
 21
1.5625
 31
0.0
  0
LINE
  5
110
330
38
100
AcDbEntity
  8
1
100
AcDbLine
 10
5.127499999999999
 20
1.500499999999999
 30
0.0
 11
5.065499999999999
 21
1.500499999999999
 31
0.0
  0
LINE
  5
111
330
38
100
AcDbEntity
  8
1
100
AcDbLine
 10
5.203499999999999
 20
1.5625
 30
0.0
 11
5.670499999999999
 21
1.5625
 31
0.0
  0
LINE
  5
112
330
38
100
AcDbEntity
  8
1
100
AcDbLine
 10
6.513499999999998
 20
1.5625
 30
0.0
 11
6.980499999999999
 21
1.5625
 31
0.0
  0
LINE
  5
113
330
38
100
AcDbEntity
  8
1
100
AcDbLine
 10
6.437499999999999
 20
1.500499999999999
 30
0.0
 11
6.375499999999998
 21
1.500499999999999
 31
0.0
  0
LINE
  5
114
330
38
100
AcDbEntity
  8
1
100
AcDbLine
 10
6.375499999999998
 20
1.500499999999999
 30
0.0
 11
6.375499999999998
 21
1.5625
 31
0.0
  0
LINE
  5
115
330
38
100
AcDbEntity
  8
1
100
AcDbLine
 10
6.375499999999998
 20
1.5625
 30
0.0
 11
6.483499999999998
 21
1.5625
 31
0.0
  0
LINE
  5
116
330
38
100
AcDbEntity
  8
1
100
AcDbLine
 10
6.980499999999999
 20
1.5625
 30
0.0
 11
6.980499999999999
 21
1.500499999999999
 31
0.0
  0
LINE
  5
117
330
38
100
AcDbEntity
  8
1
100
AcDbLine
 10
6.940499999999999
 20
1.5625
 30
0.0
 11
6.940499999999999
 21
1.500499999999999
 31
0.0
  0
LINE
  5
118
330
38
100
AcDbEntity
  8
1
100
AcDbLine
 10
6.940499999999999
 20
1.500499999999999
 30
0.0
 11
6.575499999999999
 21
1.500499999999999
 31
0.0
  0
LINE
  5
119
330
38
100
AcDbEntity
  8
1
100
AcDbLine
 10
6.575499999999999
 20
1.500499999999999
 30
0.0
 11
6.513499999999998
 21
1.5625
 31
0.0
  0
LINE
  5
11A
330
38
100
AcDbEntity
  8
1
100
AcDbLine
 10
6.400499999999999
 20
1.547499999999999
 30
0.0
 11
6.400499999999999
 21
1.519253857562439
 31
0.0
  0
LINE
  5
11B
330
38
100
AcDbEntity
  8
1
100
AcDbLine
 10
6.498499999999999
 20
1.547499999999999
 30
0.0
 11
6.400499999999999
 21
1.547499999999999
 31
0.0
  0
LINE
  5
11C
330
38
100
AcDbEntity
  8
1
100
AcDbLine
 10
6.513499999999998
 20
1.5625
 30
0.0
 11
6.498499999999999
 21
1.547499999999999
 31
0.0
  0
LINE
  5
11D
330
38
100
AcDbEntity
  8
1
100
AcDbLine
 10
7.486500000000001
 20
1.5625
 30
0.0
 11
7.5015
 21
1.547499999999999
 31
0.0
  0
LINE
  5
11E
330
38
100
AcDbEntity
  8
1
100
AcDbLine
 10
7.5015
 20
1.547499999999999
 30
0.0
 11
7.5995
 21
1.547499999999999
 31
0.0
  0
LINE
  5
11F
330
38
100
AcDbEntity
  8
1
100
AcDbLine
 10
7.5995
 20
1.547499999999999
 30
0.0
 11
7.5995
 21
1.519253857562439
 31
0.0
  0
LINE
  5
120
330
38
100
AcDbEntity
  8
1
100
AcDbLine
 10
7.4245
 20
1.500499999999999
 30
0.0
 11
7.486500000000001
 21
1.5625
 31
0.0
  0
LINE
  5
121
330
38
100
AcDbEntity
  8
1
100
AcDbLine
 10
7.0595
 20
1.500499999999999
 30
0.0
 11
7.4245
 21
1.500499999999999
 31
0.0
  0
LINE
  5
122
330
38
100
AcDbEntity
  8
1
100
AcDbLine
 10
7.0595
 20
1.5625
 30
0.0
 11
7.0595
 21
1.500499999999999
 31
0.0
  0
LINE
  5
123
330
38
100
AcDbEntity
  8
1
100
AcDbLine
 10
7.0195
 20
1.5625
 30
0.0
 11
7.0195
 21
1.500499999999999
 31
0.0
  0
LINE
  5
124
330
38
100
AcDbEntity
  8
1
100
AcDbLine
 10
7.624500000000001
 20
1.5625
 30
0.0
 11
7.516500000000001
 21
1.5625
 31
0.0
  0
LINE
  5
125
330
38
100
AcDbEntity
  8
1
100
AcDbLine
 10
7.624500000000001
 20
1.500499999999999
 30
0.0
 11
7.624500000000001
 21
1.5625
 31
0.0
  0
LINE
  5
126
330
38
100
AcDbEntity
  8
1
100
AcDbLine
 10
7.5625
 20
1.500499999999999
 30
0.0
 11
7.624500000000001
 21
1.500499999999999
 31
0.0
  0
LINE
  5
127
330
38
100
AcDbEntity
  8
1
100
AcDbLine
 10
7.486500000000001
 20
1.5625
 30
0.0
 11
7.0195
 21
1.5625
 31
0.0
  0
LINE
  5
128
330
38
100
AcDbEntity
  8
1
100
AcDbLine
 10
7.486500000000001
 20
4.5
 30
0.0
 11
7.0195
 21
4.5
 31
0.0
  0
LINE
  5
129
330
38
100
AcDbEntity
  8
1
100
AcDbLine
 10
7.5625
 20
4.437999999999999
 30
0.0
 11
7.624500000000001
 21
4.437999999999999
 31
0.0
  0
LINE
  5
12A
330
38
100
AcDbEntity
  8
1
100
AcDbLine
 10
7.624500000000001
 20
4.437999999999999
 30
0.0
 11
7.624500000000001
 21
4.5
 31
0.0
  0
LINE
  5
12B
330
38
100
AcDbEntity
  8
1
100
AcDbLine
 10
7.624500000000001
 20
4.5
 30
0.0
 11
7.516500000000001
 21
4.5
 31
0.0
  0
LINE
  5
12C
330
38
100
AcDbEntity
  8
1
100
AcDbLine
 10
7.0195
 20
4.5
 30
0.0
 11
7.0195
 21
4.437999999999999
 31
0.0
  0
LINE
  5
12D
330
38
100
AcDbEntity
  8
1
100
AcDbLine
 10
7.0595
 20
4.5
 30
0.0
 11
7.0595
 21
4.437999999999999
 31
0.0
  0
LINE
  5
12E
330
38
100
AcDbEntity
  8
1
100
AcDbLine
 10
7.0595
 20
4.437999999999999
 30
0.0
 11
7.4245
 21
4.437999999999999
 31
0.0
  0
LINE
  5
12F
330
38
100
AcDbEntity
  8
1
100
AcDbLine
 10
7.4245
 20
4.437999999999999
 30
0.0
 11
7.486500000000001
 21
4.5
 31
0.0
  0
LINE
  5
130
330
38
100
AcDbEntity
  8
1
100
AcDbLine
 10
7.5995
 20
4.484999999999999
 30
0.0
 11
7.5995
 21
4.456753857562439
 31
0.0
  0
LINE
  5
131
330
38
100
AcDbEntity
  8
1
100
AcDbLine
 10
7.5015
 20
4.484999999999999
 30
0.0
 11
7.5995
 21
4.484999999999999
 31
0.0
  0
LINE
  5
132
330
38
100
AcDbEntity
  8
1
100
AcDbLine
 10
7.486500000000001
 20
4.5
 30
0.0
 11
7.5015
 21
4.484999999999999
 31
0.0
  0
LINE
  5
133
330
38
100
AcDbEntity
  8
1
100
AcDbLine
 10
6.513499999999998
 20
4.5
 30
0.0
 11
6.498499999999999
 21
4.484999999999999
 31
0.0
  0
LINE
  5
134
330
38
100
AcDbEntity
  8
1
100
AcDbLine
 10
6.498499999999999
 20
4.484999999999999
 30
0.0
 11
6.400499999999999
 21
4.484999999999999
 31
0.0
  0
LINE
  5
135
330
38
100
AcDbEntity
  8
1
100
AcDbLine
 10
6.400499999999999
 20
4.484999999999999
 30
0.0
 11
6.400499999999999
 21
4.456753857562439
 31
0.0
  0
LINE
  5
136
330
38
100
AcDbEntity
  8
1
100
AcDbLine
 10
6.575499999999999
 20
4.437999999999999
 30
0.0
 11
6.513499999999998
 21
4.5
 31
0.0
  0
LINE
  5
137
330
38
100
AcDbEntity
  8
1
100
AcDbLine
 10
6.940499999999999
 20
4.437999999999999
 30
0.0
 11
6.575499999999999
 21
4.437999999999999
 31
0.0
  0
LINE
  5
138
330
38
100
AcDbEntity
  8
1
100
AcDbLine
 10
6.940499999999999
 20
4.5
 30
0.0
 11
6.940499999999999
 21
4.437999999999999
 31
0.0
  0
LINE
  5
139
330
38
100
AcDbEntity
  8
1
100
AcDbLine
 10
6.980499999999999
 20
4.5
 30
0.0
 11
6.980499999999999
 21
4.437999999999999
 31
0.0
  0
LINE
  5
13A
330
38
100
AcDbEntity
  8
1
100
AcDbLine
 10
6.375499999999998
 20
4.5
 30
0.0
 11
6.483499999999998
 21
4.5
 31
0.0
  0
LINE
  5
13B
330
38
100
AcDbEntity
  8
1
100
AcDbLine
 10
6.375499999999998
 20
4.437999999999999
 30
0.0
 11
6.375499999999998
 21
4.5
 31
0.0
  0
LINE
  5
13C
330
38
100
AcDbEntity
  8
1
100
AcDbLine
 10
6.437499999999999
 20
4.437999999999999
 30
0.0
 11
6.375499999999998
 21
4.437999999999999
 31
0.0
  0
LINE
  5
13D
330
38
100
AcDbEntity
  8
1
100
AcDbLine
 10
6.513499999999998
 20
4.5
 30
0.0
 11
6.980499999999999
 21
4.5
 31
0.0
  0
LINE
  5
13E
330
38
100
AcDbEntity
  8
1
100
AcDbLine
 10
5.203499999999999
 20
4.5
 30
0.0
 11
5.670499999999999
 21
4.5
 31
0.0
  0
LINE
  5
13F
330
38
100
AcDbEntity
  8
1
100
AcDbLine
 10
5.127499999999999
 20
4.437999999999999
 30
0.0
 11
5.065499999999999
 21
4.437999999999999
 31
0.0
  0
LINE
  5
140
330
38
100
AcDbEntity
  8
1
100
AcDbLine
 10
5.065499999999999
 20
4.437999999999999
 30
0.0
 11
5.065499999999999
 21
4.5
 31
0.0
  0
LINE
  5
141
330
38
100
AcDbEntity
  8
1
100
AcDbLine
 10
5.065499999999999
 20
4.5
 30
0.0
 11
5.173499999999998
 21
4.5
 31
0.0
  0
LINE
  5
142
330
38
100
AcDbEntity
  8
1
100
AcDbLine
 10
5.670499999999999
 20
4.5
 30
0.0
 11
5.670499999999999
 21
4.437999999999999
 31
0.0
  0
LINE
  5
143
330
38
100
AcDbEntity
  8
1
100
AcDbLine
 10
5.630499999999999
 20
4.5
 30
0.0
 11
5.630499999999999
 21
4.437999999999999
 31
0.0
  0
LINE
  5
144
330
38
100
AcDbEntity
  8
1
100
AcDbLine
 10
5.630499999999999
 20
4.437999999999999
 30
0.0
 11
5.265499999999999
 21
4.437999999999999
 31
0.0
  0
LINE
  5
145
330
38
100
AcDbEntity
  8
1
100
AcDbLine
 10
5.265499999999999
 20
4.437999999999999
 30
0.0
 11
5.203499999999999
 21
4.5
 31
0.0
  0
LINE
  5
146
330
38
100
AcDbEntity
  8
1
100
AcDbLine
 10
5.090499999999999
 20
4.484999999999999
 30
0.0
 11
5.090499999999999
 21
4.456753857562439
 31
0.0
  0
LINE
  5
147
330
38
100
AcDbEntity
  8
1
100
AcDbLine
 10
5.188499999999999
 20
4.484999999999999
 30
0.0
 11
5.090499999999999
 21
4.484999999999999
 31
0.0
  0
LINE
  5
148
330
38
100
AcDbEntity
  8
1
100
AcDbLine
 10
5.203499999999999
 20
4.5
 30
0.0
 11
5.188499999999999
 21
4.484999999999999
 31
0.0
  0
LINE
  5
149
330
38
100
AcDbEntity
  8
1
100
AcDbLine
 10
1.062
 20
1.562
 30
0.0
 11
1.562999999999999
 21
1.562
 31
0.0
  0
LINE
  5
14A
330
38
100
AcDbEntity
  8
4
100
AcDbLine
 10
1.872866710308013
 20
1.373999999999999
 30
0.0
 11
1.934866710308013
 21
1.373999999999999
 31
0.0
  0
CIRCLE
  5
14B
330
38
100
AcDbEntity
  8
4
100
AcDbCircle
 10
2.028866710308013
 20
1.373999999999999
 30
0.0
 40
0.094
  0
LINE
  5
14C
330
38
100
AcDbEntity
  8
4
100
AcDbLine
 10
1.778866710308013
 20
1.467999999999999
 30
0.0
 11
1.778866710308013
 21
1.592999999999999
 31
0.0
  0
CIRCLE
  5
14D
330
38
100
AcDbEntity
  8
4
100
AcDbCircle
 10
1.778866710308013
 20
1.373999999999999
 30
0.0
 40
0.094
  0
CIRCLE
  5
14E
330
38
100
AcDbEntity
  8
4
100
AcDbCircle
 10
1.9375
 20
4.312
 30
0.0
 40
0.094
  0
LINE
  5
14F
330
38
100
AcDbEntity
  8
4
100
AcDbLine
 10
1.9375
 20
4.406
 30
0.0
 11
1.9375
 21
4.531
 31
0.0
  0
LINE
  5
150
330
38
100
AcDbEntity
  8
1
100
AcDbLine
 10
2.499999999999999
 20
1.562
 30
0.0
 11
2.312
 21
1.562
 31
0.0
  0
LINE
  5
151
330
38
100
AcDbEntity
  8
1
100
AcDbLine
 10
2.625
 20
4.438
 30
0.0
 11
2.813
 21
4.438
 31
0.0
  0
LINE
  5
152
330
38
100
AcDbEntity
  8
1
100
AcDbLine
 10
2.875
 20
1.5
 30
0.0
 11
2.875
 21
4.5
 31
0.0
  0
LINE
  5
153
330
38
100
AcDbEntity
  8
1
100
AcDbLine
 10
2.25
 20
1.5
 30
0.0
 11
2.25
 21
4.5
 31
0.0
  0
LINE
  5
154
330
38
100
AcDbEntity
  8
1
100
AcDbLine
 10
1.625
 20
1.5
 30
0.0
 11
1.625
 21
4.5
 31
0.0
  0
LINE
  5
155
330
38
100
AcDbEntity
  8
1
100
AcDbLine
 10
3.437999999999999
 20
1.562
 30
0.0
 11
2.937
 21
1.562
 31
0.0
  0
LINE
  5
156
330
38
100
AcDbEntity
  8
1
100
AcDbLine
 10
3.438
 20
4.438
 30
0.0
 11
3.437999999999999
 21
1.562
 31
0.0
  0
LINE
  5
157
330
38
100
AcDbEntity
  8
1
100
AcDbLine
 10
2.937
 20
4.438
 30
0.0
 11
3.438
 21
4.438
 31
0.0
  0
LINE
  5
158
330
38
100
AcDbEntity
  8
1
100
AcDbLine
 10
2.937
 20
1.562
 30
0.0
 11
2.937
 21
4.438
 31
0.0
  0
LINE
  5
159
330
38
100
AcDbEntity
  8
1
100
AcDbLine
 10
2.812999999999999
 20
1.562
 30
0.0
 11
2.625
 21
1.562
 31
0.0
  0
LINE
  5
15A
330
38
100
AcDbEntity
  8
1
100
AcDbLine
 10
2.813
 20
4.438
 30
0.0
 11
2.812999999999999
 21
1.562
 31
0.0
  0
LINE
  5
15B
330
38
100
AcDbEntity
  8
1
100
AcDbLine
 10
2.312
 20
4.438
 30
0.0
 11
2.5
 21
4.438
 31
0.0
  0
LINE
  5
15C
330
38
100
AcDbEntity
  8
1
100
AcDbLine
 10
2.312
 20
1.562
 30
0.0
 11
2.312
 21
4.438
 31
0.0
  0
LINE
  5
15D
330
38
100
AcDbEntity
  8
1
100
AcDbLine
 10
2.187999999999999
 20
1.562
 30
0.0
 11
1.687
 21
1.562
 31
0.0
  0
LINE
  5
15E
330
38
100
AcDbEntity
  8
1
100
AcDbLine
 10
2.188
 20
4.438
 30
0.0
 11
2.187999999999999
 21
1.562
 31
0.0
  0
LINE
  5
15F
330
38
100
AcDbEntity
  8
1
100
AcDbLine
 10
1.687
 20
4.438
 30
0.0
 11
2.188
 21
4.438
 31
0.0
  0
LINE
  5
160
330
38
100
AcDbEntity
  8
1
100
AcDbLine
 10
1.687
 20
1.562
 30
0.0
 11
1.687
 21
4.438
 31
0.0
  0
LINE
  5
161
330
38
100
AcDbEntity
  8
1
100
AcDbLine
 10
1.563
 20
4.438
 30
0.0
 11
1.562999999999999
 21
1.562
 31
0.0
  0
LINE
  5
162
330
38
100
AcDbEntity
  8
1
100
AcDbLine
 10
1.062
 20
4.438
 30
0.0
 11
1.563
 21
4.438
 31
0.0
  0
LINE
  5
163
330
38
100
AcDbEntity
  8
1
100
AcDbLine
 10
1.062
 20
1.562
 30
0.0
 11
1.062
 21
4.438
 31
0.0
  0
INSERT
  5
164
330
38
100
AcDbEntity
  8
4
100
AcDbBlockReference
  2
ARRO
 10
7.625
 20
1.8125
 30
0.0
 50
180.0
  0
INSERT
  5
165
330
38
100
AcDbEntity
  8
4
100
AcDbBlockReference
  2
ARRO
 10
6.375
 20
1.8125
 30
0.0
  0
INSERT
  5
166
330
38
100
AcDbEntity
  8
4
100
AcDbBlockReference
  2
ARRO
 10
5.75
 20
1.8125
 30
0.0
  0
INSERT
  5
167
330
38
100
AcDbEntity
  8
4
100
AcDbBlockReference
  2
ARRO
 10
5.69
 20
1.8125
 30
0.0
 50
180.0
  0
INSERT
  5
168
330
38
100
AcDbEntity
  8
4
100
AcDbBlockReference
  2
ARRO
 10
5.065
 20
1.8125
 30
0.0
  0
LINE
  5
169
330
38
100
AcDbEntity
  8
4
100
AcDbLine
 10
6.375
 20
1.8125
 30
0.0
 11
7.625
 21
1.8125
 31
0.0
  0
LINE
  5
16A
330
38
100
AcDbEntity
  8
4
100
AcDbLine
 10
5.75
 20
1.8125
 30
0.0
 11
6.0
 21
1.8125
 31
0.0
  0
LINE
  5
16B
330
38
100
AcDbEntity
  8
4
100
AcDbLine
 10
5.69
 20
1.8125
 30
0.0
 11
5.065
 21
1.8125
 31
0.0
  0
INSERT
  5
16C
330
38
100
AcDbEntity
  8
4
100
AcDbBlockReference
  2
ARRO
 10
4.5625
 20
1.5
 30
0.0
 50
90.0
  0
INSERT
  5
16D
330
38
100
AcDbEntity
  8
4
100
AcDbBlockReference
  2
ARRO
 10
4.5625
 20
4.5
 30
0.0
 50
270.0
  0
LINE
  5
16E
330
38
100
AcDbEntity
  8
4
100
AcDbLine
 10
5.0025
 20
4.5
 30
0.0
 11
4.5025
 21
4.5
 31
0.0
  0
LINE
  5
16F
330
38
100
AcDbEntity
  8
4
100
AcDbLine
 10
4.5625
 20
1.5
 30
0.0
 11
4.5625
 21
4.5
 31
0.0
  0
LINE
  5
170
330
38
100
AcDbEntity
  8
4
100
AcDbLine
 10
5.0025
 20
1.5
 30
0.0
 11
4.5025
 21
1.5
 31
0.0
  0
INSERT
  5
171
330
38
100
AcDbEntity
  8
4
100
AcDbBlockReference
  2
ARRO
 10
3.499999999999999
 20
0.9999999999999998
 30
0.0
 50
180.0
  0
INSERT
  5
172
330
38
100
AcDbEntity
  8
4
100
AcDbBlockReference
  2
ARRO
 10
0.9999999999999998
 20
1.0
 30
0.0
  0
LINE
  5
173
330
38
100
AcDbEntity
  8
4
100
AcDbLine
 10
3.499999999999999
 20
1.0
 30
0.0
 11
0.9999999999999998
 21
1.0
 31
0.0
  0
LINE
  5
174
330
38
100
AcDbEntity
  8
4
100
AcDbLine
 10
3.499999999999999
 20
1.437999999999999
 30
0.0
 11
3.499999999999999
 21
0.9379999999999999
 31
0.0
  0
LINE
  5
175
330
38
100
AcDbEntity
  8
4
100
AcDbLine
 10
1.0
 20
1.437999999999999
 30
0.0
 11
0.9999999999999998
 21
0.9379999999999999
 31
0.0
  0
LINE
  5
176
330
38
100
AcDbEntity
  8
1
100
AcDbLine
 10
5.69
 20
1.5
 30
0.0
 11
5.69
 21
4.5
 31
0.0
  0
LINE
  5
177
330
38
100
AcDbEntity
  8
1
100
AcDbLine
 10
5.75
 20
4.75
 30
0.0
 11
5.875
 21
4.875
 31
0.0
  0
LINE
  5
178
330
38
100
AcDbEntity
  8
1
100
AcDbLine
 10
5.75
 20
4.625
 30
0.0
 11
5.937999999999999
 21
4.812999999999999
 31
0.0
  0
LINE
  5
179
330
38
100
AcDbEntity
  8
1
100
AcDbLine
 10
5.75
 20
4.5
 30
0.0
 11
5.937999999999999
 21
4.687999999999999
 31
0.0
  0
LINE
  5
17A
330
38
100
AcDbEntity
  8
1
100
AcDbLine
 10
5.75
 20
4.375
 30
0.0
 11
5.937999999999999
 21
4.562999999999999
 31
0.0
  0
LINE
  5
17B
330
38
100
AcDbEntity
  8
1
100
AcDbLine
 10
5.75
 20
4.25
 30
0.0
 11
5.937999999999999
 21
4.437999999999999
 31
0.0
  0
LINE
  5
17C
330
38
100
AcDbEntity
  8
1
100
AcDbLine
 10
5.75
 20
4.125
 30
0.0
 11
5.937999999999999
 21
4.312999999999999
 31
0.0
  0
LINE
  5
17D
330
38
100
AcDbEntity
  8
1
100
AcDbLine
 10
5.75
 20
4.0
 30
0.0
 11
5.937999999999999
 21
4.187999999999999
 31
0.0
  0
LINE
  5
17E
330
38
100
AcDbEntity
  8
1
100
AcDbLine
 10
5.75
 20
3.875
 30
0.0
 11
5.937999999999999
 21
4.062999999999999
 31
0.0
  0
LINE
  5
17F
330
38
100
AcDbEntity
  8
1
100
AcDbLine
 10
5.75
 20
3.75
 30
0.0
 11
5.937999999999999
 21
3.937999999999999
 31
0.0
  0
LINE
  5
180
330
38
100
AcDbEntity
  8
1
100
AcDbLine
 10
5.75
 20
3.625
 30
0.0
 11
5.937999999999999
 21
3.812999999999999
 31
0.0
  0
LINE
  5
181
330
38
100
AcDbEntity
  8
1
100
AcDbLine
 10
5.75
 20
3.5
 30
0.0
 11
5.937999999999999
 21
3.687999999999999
 31
0.0
  0
LINE
  5
182
330
38
100
AcDbEntity
  8
1
100
AcDbLine
 10
5.75
 20
3.375
 30
0.0
 11
5.937999999999999
 21
3.562999999999999
 31
0.0
  0
LINE
  5
183
330
38
100
AcDbEntity
  8
1
100
AcDbLine
 10
5.75
 20
3.25
 30
0.0
 11
5.937999999999999
 21
3.437999999999999
 31
0.0
  0
LINE
  5
184
330
38
100
AcDbEntity
  8
1
100
AcDbLine
 10
5.75
 20
3.125
 30
0.0
 11
5.937999999999999
 21
3.312999999999999
 31
0.0
  0
LINE
  5
185
330
38
100
AcDbEntity
  8
1
100
AcDbLine
 10
5.75
 20
3.0
 30
0.0
 11
5.937999999999999
 21
3.187999999999999
 31
0.0
  0
LINE
  5
186
330
38
100
AcDbEntity
  8
1
100
AcDbLine
 10
5.75
 20
2.875
 30
0.0
 11
5.937999999999999
 21
3.062999999999999
 31
0.0
  0
LINE
  5
187
330
38
100
AcDbEntity
  8
1
100
AcDbLine
 10
5.75
 20
2.75
 30
0.0
 11
5.937999999999999
 21
2.937999999999999
 31
0.0
  0
LINE
  5
188
330
38
100
AcDbEntity
  8
1
100
AcDbLine
 10
5.75
 20
2.625
 30
0.0
 11
5.937999999999999
 21
2.812999999999999
 31
0.0
  0
LINE
  5
189
330
38
100
AcDbEntity
  8
1
100
AcDbLine
 10
5.75
 20
2.5
 30
0.0
 11
5.937999999999999
 21
2.687999999999999
 31
0.0
  0
LINE
  5
18A
330
38
100
AcDbEntity
  8
1
100
AcDbLine
 10
5.75
 20
2.375
 30
0.0
 11
5.937999999999999
 21
2.562999999999999
 31
0.0
  0
LINE
  5
18B
330
38
100
AcDbEntity
  8
1
100
AcDbLine
 10
5.75
 20
2.25
 30
0.0
 11
5.937999999999999
 21
2.437999999999999
 31
0.0
  0
LINE
  5
18C
330
38
100
AcDbEntity
  8
1
100
AcDbLine
 10
5.75
 20
2.125
 30
0.0
 11
5.937999999999999
 21
2.312999999999999
 31
0.0
  0
LINE
  5
18D
330
38
100
AcDbEntity
  8
1
100
AcDbLine
 10
5.75
 20
2.0
 30
0.0
 11
5.937999999999999
 21
2.187999999999999
 31
0.0
  0
LINE
  5
18E
330
38
100
AcDbEntity
  8
1
100
AcDbLine
 10
5.75
 20
1.625
 30
0.0
 11
5.937999999999999
 21
1.812999999999999
 31
0.0
  0
LINE
  5
18F
330
38
100
AcDbEntity
  8
1
100
AcDbLine
 10
5.75
 20
1.5
 30
0.0
 11
5.937999999999999
 21
1.687999999999999
 31
0.0
  0
LINE
  5
190
330
38
100
AcDbEntity
  8
1
100
AcDbLine
 10
2.625
 20
2.379974179311579
 30
0.0
 11
2.624999999999999
 21
1.375
 31
0.0
  0
LINE
  5
191
330
38
100
AcDbEntity
  8
1
100
AcDbLine
 10
2.625
 20
2.782474179311579
 30
0.0
 11
2.625
 21
2.469974179311579
 31
0.0
  0
LINE
  5
192
330
38
100
AcDbEntity
  8
1
100
AcDbLine
 10
2.625
 20
3.625967704151865
 30
0.0
 11
2.625
 21
2.782474179311579
 31
0.0
  0
LINE
  5
193
330
38
100
AcDbEntity
  8
1
100
AcDbLine
 10
2.58
 20
3.664974179311579
 30
0.0
 11
2.669999999999999
 21
3.574974179311579
 31
0.0
  0
LINE
  5
194
330
38
100
AcDbEntity
  8
1
100
AcDbLine
 10
2.669999999999999
 20
3.664974179311579
 30
0.0
 11
2.58
 21
3.664974179311579
 31
0.0
  0
LINE
  5
195
330
38
100
AcDbEntity
  8
1
100
AcDbLine
 10
2.58
 20
3.754974179311579
 30
0.0
 11
2.669999999999999
 21
3.664974179311579
 31
0.0
  0
LINE
  5
196
330
38
100
AcDbEntity
  8
1
100
AcDbLine
 10
2.579999999999999
 20
2.424974179311579
 30
0.0
 11
2.669999999999999
 21
2.334974179311579
 31
0.0
  0
LINE
  5
197
330
38
100
AcDbEntity
  8
1
100
AcDbLine
 10
2.669999999999999
 20
2.424974179311579
 30
0.0
 11
2.579999999999999
 21
2.424974179311579
 31
0.0
  0
LINE
  5
198
330
38
100
AcDbEntity
  8
1
100
AcDbLine
 10
2.579999999999999
 20
2.514974179311579
 30
0.0
 11
2.669999999999999
 21
2.424974179311579
 31
0.0
  0
LINE
  5
199
330
38
100
AcDbEntity
  8
1
100
AcDbLine
 10
2.499999999999999
 20
1.754974179311579
 30
0.0
 11
2.499999999999999
 21
1.375
 31
0.0
  0
LINE
  5
19A
330
38
100
AcDbEntity
  8
1
100
AcDbLine
 10
2.5
 20
2.469974179311579
 30
0.0
 11
2.499999999999999
 21
1.844974179311579
 31
0.0
  0
LINE
  5
19B
330
38
100
AcDbEntity
  8
1
100
AcDbLine
 10
2.5
 20
3.004974179311579
 30
0.0
 11
2.5
 21
2.469974179311579
 31
0.0
  0
LINE
  5
19C
330
38
100
AcDbEntity
  8
1
100
AcDbLine
 10
2.454999999999999
 20
1.889974179311579
 30
0.0
 11
2.544999999999999
 21
1.799974179311579
 31
0.0
  0
LINE
  5
19D
330
38
100
AcDbEntity
  8
1
100
AcDbLine
 10
2.544999999999999
 20
1.799974179311579
 30
0.0
 11
2.454999999999999
 21
1.799974179311579
 31
0.0
  0
LINE
  5
19E
330
38
100
AcDbEntity
  8
1
100
AcDbLine
 10
2.454999999999999
 20
1.799974179311579
 30
0.0
 11
2.544999999999999
 21
1.709974179311579
 31
0.0
  0
LINE
  5
19F
330
38
100
AcDbEntity
  8
1
100
AcDbLine
 10
2.454999999999999
 20
3.139974179311579
 30
0.0
 11
2.544999999999999
 21
3.049974179311579
 31
0.0
  0
LINE
  5
1A0
330
38
100
AcDbEntity
  8
1
100
AcDbLine
 10
2.544999999999999
 20
3.049974179311579
 30
0.0
 11
2.454999999999999
 21
3.049974179311579
 31
0.0
  0
LINE
  5
1A1
330
38
100
AcDbEntity
  8
1
100
AcDbLine
 10
2.454999999999999
 20
3.049974179311579
 30
0.0
 11
2.544999999999999
 21
2.959974179311579
 31
0.0
  0
LINE
  5
1A2
330
38
100
AcDbEntity
  8
1
100
AcDbLine
 10
2.512196030826982
 20
4.242778148484597
 30
0.0
 11
2.512196030826982
 21
3.07567852914767
 31
0.0
  0
LINE
  5
1A3
330
38
100
AcDbEntity
  8
1
100
AcDbLine
 10
2.455
 20
4.299974179311579
 30
0.0
 11
2.544999999999999
 21
4.209974179311579
 31
0.0
  0
LINE
  5
1A4
330
38
100
AcDbEntity
  8
1
100
AcDbLine
 10
2.544999999999999
 20
4.299974179311579
 30
0.0
 11
2.455
 21
4.299974179311579
 31
0.0
  0
LINE
  5
1A5
330
38
100
AcDbEntity
  8
1
100
AcDbLine
 10
2.455
 20
4.389974179311579
 30
0.0
 11
2.544999999999999
 21
4.299974179311579
 31
0.0
  0
LINE
  5
1A6
330
38
100
AcDbEntity
  8
1
100
AcDbLine
 10
2.5
 20
4.625
 30
0.0
 11
2.5
 21
4.344974179311579
 31
0.0
  0
LINE
  5
1A7
330
38
100
AcDbEntity
  8
1
100
AcDbLine
 10
2.625
 20
4.625
 30
0.0
 11
2.625
 21
3.709974179311579
 31
0.0
  0
CIRCLE
  5
1A8
330
38
100
AcDbEntity
  8
1
100
AcDbCircle
 10
4.125
 20
0.5
 30
0.0
 40
0.1875
  0
LINE
  5
1A9
330
38
100
AcDbEntity
  8
1
100
AcDbLine
 10
5.75
 20
1.5
 30
0.0
 11
5.75
 21
4.875
 31
0.0
  0
LINE
  5
1AA
330
38
100
AcDbEntity
  8
1
100
AcDbLine
 10
7.0
 20
1.5
 30
0.0
 11
7.0
 21
4.5
 31
0.0
  0
LINE
  5
1AB
330
38
100
AcDbEntity
  8
1
100
AcDbLine
 10
3.499999999999999
 20
1.5
 30
0.0
 11
2.624999999999999
 21
1.5
 31
0.0
  0
LINE
  5
1AC
330
38
100
AcDbEntity
  8
1
100
AcDbLine
 10
3.5
 20
4.5
 30
0.0
 11
3.499999999999999
 21
1.5
 31
0.0
  0
LINE
  5
1AD
330
38
100
AcDbEntity
  8
1
100
AcDbLine
 10
2.625
 20
4.5
 30
0.0
 11
3.5
 21
4.5
 31
0.0
  0
LINE
  5
1AE
330
38
100
AcDbEntity
  8
1
100
AcDbLine
 10
1.0
 20
4.5
 30
0.0
 11
2.5
 21
4.5
 31
0.0
  0
LINE
  5
1AF
330
38
100
AcDbEntity
  8
1
100
AcDbLine
 10
1.0
 20
1.5
 30
0.0
 11
1.0
 21
4.5
 31
0.0
  0
LINE
  5
1B0
330
38
100
AcDbEntity
  8
1
100
AcDbLine
 10
1.0
 20
1.5
 30
0.0
 11
2.5
 21
1.5
 31
0.0
  0
LINE
  5
1B1
330
38
100
AcDbEntity
  8
1
100
AcDbLine
 10
0.0
 20
5.25
 30
0.0
 11
0.0
 21
0.0
 31
0.0
  0
LINE
  5
1B2
330
38
100
AcDbEntity
  8
1
100
AcDbLine
 10
8.25
 20
5.25
 30
0.0
 11
0.0
 21
5.25
 31
0.0
  0
LINE
  5
1B3
330
38
100
AcDbEntity
  8
1
100
AcDbLine
 10
8.25
 20
0.0
 30
0.0
 11
8.25
 21
5.25
 31
0.0
  0
LINE
  5
1B4
330
38
100
AcDbEntity
  8
1
100
AcDbLine
 10
0.0
 20
0.0
 30
0.0
 11
8.25
 21
0.0
 31
0.0
  0
ENDBLK
  5
F5
330
38
100
AcDbEntity
  8
0
100
AcDbBlockEnd
  0
BLOCK
  5
1C1
330
1B6
100
AcDbEntity
  8
4
100
AcDbBlockBegin
  2
ARRO2
 70
     0
 10
0.0
 20
0.0
 30
0.0
  3
ARRO2
  1

  0
LINE
  5
1B7
330
1B6
100
AcDbEntity
  8
4
100
AcDbLine
 10
-0.124999999999992
 20
-0.0200000000000005
 30
0.0
 11
0.000000000000008
 21
-0.0000000000000009
 31
0.0
  0
LINE
  5
1B8
330
1B6
100
AcDbEntity
  8
4
100
AcDbLine
 10
0.000000000000008
 20
-0.0000000000000009
 30
0.0
 11
-0.124999999999992
 21
0.0199999999999996
 31
0.0
  0
LINE
  5
1B9
330
1B6
100
AcDbEntity
  8
4
100
AcDbLine
 10
-0.124999999999992
 20
-0.0099999999999998
 30
0.0
 11
0.000000000000008
 21
-0.0000000000000009
 31
0.0
  0
LINE
  5
1BA
330
1B6
100
AcDbEntity
  8
4
100
AcDbLine
 10
-0.124999999999992
 20
0.0099999999999998
 30
0.0
 11
0.0000000000000089
 21
-0.0000000000000009
 31
0.0
  0
LINE
  5
1BB
330
1B6
100
AcDbEntity
  8
4
100
AcDbLine
 10
-0.124999999999992
 20
-0.0200000000000005
 30
0.0
 11
-0.124999999999992
 21
0.0199999999999996
 31
0.0
  0
LINE
  5
1BC
330
1B6
100
AcDbEntity
  8
4
100
AcDbLine
 10
0.1250000000000124
 20
0.0199999999999987
 30
0.0
 11
0.1250000000000124
 21
-0.0200000000000014
 31
0.0
  0
LINE
  5
1BD
330
1B6
100
AcDbEntity
  8
4
100
AcDbLine
 10
0.1250000000000124
 20
-0.0100000000000016
 30
0.0
 11
0.0000000000000115
 21
-0.0000000000000009
 31
0.0
  0
LINE
  5
1BE
330
1B6
100
AcDbEntity
  8
4
100
AcDbLine
 10
0.1250000000000124
 20
0.009999999999998
 30
0.0
 11
0.0000000000000124
 21
-0.0000000000000009
 31
0.0
  0
LINE
  5
1BF
330
1B6
100
AcDbEntity
  8
4
100
AcDbLine
 10
0.0000000000000124
 20
-0.0000000000000009
 30
0.0
 11
0.1250000000000124
 21
-0.0200000000000014
 31
0.0
  0
LINE
  5
1C0
330
1B6
100
AcDbEntity
  8
4
100
AcDbLine
 10
0.1250000000000124
 20
0.0199999999999987
 30
0.0
 11
0.0000000000000124
 21
-0.0000000000000009
 31
0.0
  0
ENDBLK
  5
1C2
330
1B6
100
AcDbEntity
  8
4
100
AcDbBlockEnd
  0
BLOCK
  5
1C6
330
1C3
100
AcDbEntity
  8
4
100
AcDbBlockBegin
  2
TEMP3
 70
     0
 10
0.0
 20
0.0
 30
0.0
  3
TEMP3
  1

  0
TEXT
  5
1C4
330
1C3
100
AcDbEntity
  8
8
100
AcDbText
 10
0.03
 20
0.0619999999999998
 30
0.0
 40
0.07
  1
HANDLE & P/A
 50
90.0
  7
ROMANS
100
AcDbText
  0
TEXT
  5
1C5
330
1C3
100
AcDbEntity
  8
8
100
AcDbText
 10
0.03
 20
-1.33310960351371
 30
0.0
 40
0.07
  1
LOCK ESCUTCHEON
 50
90.0
  7
ROMANS
 72
     2
 11
0.03
 21
-0.3264429368470441
 31
0.0
100
AcDbText
  0
ENDBLK
  5
1C7
330
1C3
100
AcDbEntity
  8
4
100
AcDbBlockEnd
  0
BLOCK
  5
1CC
330
1C8
100
AcDbEntity
  8
4
100
AcDbBlockBegin
  2
FRACTION
 70
     2
 10
0.0
 20
0.0
 30
0.0
  3
FRACTION
  1

  0
ATTDEF
  5
1C9
330
1C8
100
AcDbEntity
  8
8
100
AcDbText
 10
-0.0729108846144104
 20
0.0974999999999966
 30
0.0
 40
0.125
  1

 72
     2
 11
-0.0729108846144104
 21
0.0974999999999966
 31
0.0
100
AcDbAttributeDefinition
  3
ENTER WHOLE NUMBER
  2
A
 70
     0
  0
ATTDEF
  5
1CA
330
1C8
100
AcDbEntity
  8
8
100
AcDbText
 10
0.0719999999999992
 20
0.1799999999999962
 30
0.0
 40
0.1
  1

 72
     1
 11
0.0719999999999992
 21
0.1799999999999962
 31
0.0
100
AcDbAttributeDefinition
  3
ENTER NUMERATOR
  2
B
 70
     0
  0
ATTDEF
  5
1CB
330
1C8
100
AcDbEntity
  8
8
100
AcDbText
 10
0.0719999999999992
 20
0.0399999999999992
 30
0.0
 40
0.1
  1

 72
     1
 11
0.0719999999999992
 21
0.0399999999999992
 31
0.0
100
AcDbAttributeDefinition
  3
ENTER DENOMINATOR
  2
C
 70
     0
  0
ENDBLK
  5
1CD
330
1C8
100
AcDbEntity
  8
4
100
AcDbBlockEnd
  0
BLOCK
  5
359
330
1CE
100
AcDbEntity
  8
0
100
AcDbBlockBegin
  2
SPL2CORRIDORTT60
 70
     0
 10
0.0
 20
0.0
 30
0.0
  3
SPL2CORRIDORTT60
  1

  4
SPL2 CORRIDOR TT 60 INCH
  0
TEXT
  5
1CF
330
1CE
100
AcDbEntity
  8
8
100
AcDbText
 10
1.297619047619051
 20
0.0929986686303655
 30
0.0
 40
0.125
  1
SINGLE POINT 2 CORRIDOR LOCKER  -  60" TRIPLE TIER
  7
ROMANS
 72
     1
 11
4.125
 21
0.0929986686303655
 31
0.0
100
AcDbText
  0
LINE
  5
1D0
330
1CE
100
AcDbEntity
  8
4
  6
HIDDEN
100
AcDbLine
 10
1.416346691243003
 20
1.602167975199576
 30
0.0
 11
1.416346691243003
 21
2.443159629355648
 31
0.0
  0
LINE
  5
1D1
330
1CE
100
AcDbEntity
  8
4
  6
HIDDEN
100
AcDbLine
 10
1.437431396543001
 20
1.60216797519958
 30
0.0
 11
1.437431396543001
 21
2.443159629355648
 31
0.0
  0
LINE
  5
1D2
330
1CE
100
AcDbEntity
  8
4
  6
HIDDEN
100
AcDbLine
 10
1.506574033742998
 20
1.60216797519958
 30
0.0
 11
1.506574033742998
 21
2.443159629355656
 31
0.0
  0
LINE
  5
1D3
330
1CE
100
AcDbEntity
  8
4
  6
HIDDEN
100
AcDbLine
 10
1.485489328443
 20
1.60216797519958
 30
0.0
 11
1.485489328443
 21
2.443159629355651
 31
0.0
  0
INSERT
  5
1D4
330
1CE
100
AcDbEntity
  8
4
100
AcDbBlockReference
  2
TEMP3
 10
0.5859118825233177
 20
3.207667550437406
 30
0.0
  0
LINE
  5
1D5
330
1CE
100
AcDbEntity
  8
4
100
AcDbLine
 10
3.217000000000001
 20
2.421044852620145
 30
0.0
 11
3.217000000000001
 21
2.359044852620145
 31
0.0
  0
LINE
  5
1D6
330
1CE
100
AcDbEntity
  8
4
100
AcDbLine
 10
3.155000000000001
 20
2.421044852620145
 30
0.0
 11
3.155000000000001
 21
2.359044852620145
 31
0.0
  0
LINE
  5
1D7
330
1CE
100
AcDbEntity
  8
4
100
AcDbLine
 10
1.905
 20
2.421044852620145
 30
0.0
 11
1.905
 21
2.359044852620145
 31
0.0
  0
LINE
  5
1D8
330
1CE
100
AcDbEntity
  8
4
100
AcDbLine
 10
1.967000000000001
 20
2.421044852620145
 30
0.0
 11
1.967000000000001
 21
2.359044852620145
 31
0.0
  0
LINE
  5
1D9
330
1CE
100
AcDbEntity
  8
4
100
AcDbLine
 10
1.094
 20
2.447004547187495
 30
0.0
 11
1.094
 21
1.594
 31
0.0
  0
LINE
  5
1DA
330
1CE
100
AcDbEntity
  8
4
100
AcDbLine
 10
1.530999999999999
 20
1.594039606703148
 30
0.0
 11
1.531000000000001
 21
2.447044153890644
 31
0.0
  0
ARC
  5
1DB
330
1CE
100
AcDbEntity
  8
4
100
AcDbCircle
 10
1.316006750625
 20
2.404265279687495
 30
0.0
 40
0.077168121875
100
AcDbArc
 50
167.5762104955836
 51
192.4237895044163
  0
ARC
  5
1DC
330
1CE
100
AcDbEntity
  8
4
100
AcDbCircle
 10
1.244774638125001
 20
2.404265279687495
 30
0.0
 40
0.077168121875
100
AcDbArc
 50
347.5762104955836
 51
12.42378950441639
  0
POINT
  5
1DD
330
1CE
100
AcDbEntity
  8
4
100
AcDbPoint
 10
0.0
 20
0.0
 30
0.0
  0
LINE
  5
1DE
330
1CE
100
AcDbEntity
  8
4
100
AcDbLine
 10
1.530999999999999
 20
1.594039606703148
 30
0.0
 11
1.094
 21
1.594
 31
0.0
  0
LINE
  5
1DF
330
1CE
100
AcDbEntity
  8
4
100
AcDbLine
 10
1.26249938074657
 20
2.101235469067461
 30
0.0
 11
1.25264465058906
 21
1.943559786547312
 31
0.0
  0
LINE
  5
1E0
330
1CE
100
AcDbEntity
  8
4
100
AcDbLine
 10
1.103580900503431
 20
2.101235469067461
 30
0.0
 11
1.11343563066094
 21
1.943559786547312
 31
0.0
  0
LINE
  5
1E1
330
1CE
100
AcDbEntity
  8
4
100
AcDbLine
 10
1.118411694055784
 20
2.092330299013724
 30
0.0
 11
1.126435922236969
 21
1.963942648114737
 31
0.0
  0
LINE
  5
1E2
330
1CE
100
AcDbEntity
  8
4
100
AcDbLine
 10
1.247668587194218
 20
2.092330299013724
 30
0.0
 11
1.239644359013031
 21
1.963960534673724
 31
0.0
  0
ARC
  5
1E3
330
1CE
100
AcDbEntity
  8
4
100
AcDbCircle
 10
1.138318318403933
 20
1.945114954531246
 30
0.0
 40
0.024931239375
100
AcDbArc
 50
183.5763343749981
 51
270.0
  0
ARC
  5
1E4
330
1CE
100
AcDbEntity
  8
4
100
AcDbCircle
 10
1.220686120732655
 20
1.965145424566249
 30
0.0
 40
0.01899523
100
AcDbArc
 50
270.0
 51
356.4236656250018
  0
ARC
  5
1E5
330
1CE
100
AcDbEntity
  8
4
100
AcDbCircle
 10
1.227761962846067
 20
1.945114954531246
 30
0.0
 40
0.024931239375
100
AcDbArc
 50
270.0
 51
356.4236656250018
  0
ARC
  5
1E6
330
1CE
100
AcDbEntity
  8
4
100
AcDbCircle
 10
1.145394160517345
 20
1.965145424566249
 30
0.0
 40
0.01899523
100
AcDbArc
 50
183.5763343749981
 51
270.0
  0
LINE
  5
1E7
330
1CE
100
AcDbEntity
  8
4
100
AcDbLine
 10
1.183040140625
 20
1.920183715156245
 30
0.0
 11
1.138318318403933
 21
1.920183715156245
 31
0.0
  0
CIRCLE
  5
1E8
330
1CE
100
AcDbEntity
  8
4
100
AcDbCircle
 10
1.183040140625
 20
1.93086853203125
 30
0.0
 40
0.006834483754
  0
LINE
  5
1E9
330
1CE
100
AcDbEntity
  8
4
100
AcDbLine
 10
1.183040140625
 20
1.946150194566245
 30
0.0
 11
1.145394160517345
 21
1.946150194566249
 31
0.0
  0
LINE
  5
1EA
330
1CE
100
AcDbEntity
  8
4
100
AcDbLine
 10
1.183040140625
 20
1.920183715156245
 30
0.0
 11
1.227761962846067
 21
1.920183715156245
 31
0.0
  0
LINE
  5
1EB
330
1CE
100
AcDbEntity
  8
4
100
AcDbLine
 10
1.183040140625
 20
1.946150194566245
 30
0.0
 11
1.220686120732655
 21
1.946150194566249
 31
0.0
  0
CIRCLE
  5
1EC
330
1CE
100
AcDbEntity
  8
4
100
AcDbCircle
 10
1.183040140625
 20
2.020502273593746
 30
0.0
 40
0.0124656196875
  0
CIRCLE
  5
1ED
330
1CE
100
AcDbEntity
  8
4
100
AcDbCircle
 10
1.183040140625
 20
1.978978700813747
 30
0.0
 40
0.00414096014
  0
ARC
  5
1EE
330
1CE
100
AcDbEntity
  8
4
100
AcDbCircle
 10
1.132018257923994
 20
2.103012803906246
 30
0.0
 40
0.028492845
100
AcDbArc
 50
90.0
 51
183.5763343749981
  0
ARC
  5
1EF
330
1CE
100
AcDbEntity
  8
4
100
AcDbCircle
 10
1.137369932336158
 20
2.093515188906246
 30
0.0
 40
0.01899523
100
AcDbArc
 50
90.0
 51
183.5763343749981
  0
ARC
  5
1F0
330
1CE
100
AcDbEntity
  8
4
100
AcDbCircle
 10
1.234062023326006
 20
2.103012803906246
 30
0.0
 40
0.028492845
100
AcDbArc
 50
356.4236656250018
 51
90.0
  0
ARC
  5
1F1
330
1CE
100
AcDbEntity
  8
4
100
AcDbCircle
 10
1.228710348913842
 20
2.093515188906246
 30
0.0
 40
0.01899523
100
AcDbArc
 50
356.4236656250018
 51
90.0
  0
LINE
  5
1F2
330
1CE
100
AcDbEntity
  8
4
 62
   130
100
AcDbLine
 10
1.142586957395175
 20
2.098170396443792
 30
0.0
 11
1.162759891655176
 21
2.077997462183794
 31
0.0
  0
LINE
  5
1F3
330
1CE
100
AcDbEntity
  8
4
100
AcDbLine
 10
1.144319612336581
 20
2.091442521107674
 30
0.0
 11
1.140961698350781
 21
2.088084607121874
 31
0.0
  0
LINE
  5
1F4
330
1CE
100
AcDbEntity
  8
4
 62
   130
100
AcDbLine
 10
1.134205604086619
 20
2.089789043135239
 30
0.0
 11
1.154378538346618
 21
2.069616108875238
 31
0.0
  0
LINE
  5
1F5
330
1CE
100
AcDbEntity
  8
4
100
AcDbLine
 10
1.183040140625
 20
2.112510418906246
 30
0.0
 11
1.137369932336158
 21
2.112510418906246
 31
0.0
  0
LINE
  5
1F6
330
1CE
100
AcDbEntity
  8
4
100
AcDbLine
 10
1.135911395716137
 20
2.093134909756513
 30
0.0
 11
1.157724404967892
 21
2.07132190050476
 31
0.0
  0
LINE
  5
1F7
330
1CE
100
AcDbEntity
  8
4
100
AcDbLine
 10
1.139269309701938
 20
2.096492823742313
 30
0.0
 11
1.161082318953692
 21
2.07467981449056
 31
0.0
  0
LINE
  5
1F8
330
1CE
100
AcDbEntity
  8
4
100
AcDbLine
 10
1.139269309701938
 20
2.096492823742313
 30
0.0
 11
1.135911395716137
 21
2.093134909756513
 31
0.0
  0
ARC
  5
1F9
330
1CE
100
AcDbEntity
  8
4
 62
   130
100
AcDbCircle
 10
1.138396280740898
 20
2.093979719789516
 30
0.0
 40
0.00592651176
100
AcDbArc
 50
44.99999999999997
 51
225.0
  0
LINE
  5
1FA
330
1CE
100
AcDbEntity
  8
4
100
AcDbLine
 10
1.183040140625
 20
2.112510418906246
 30
0.0
 11
1.228710348913842
 21
2.112510418906246
 31
0.0
  0
ARC
  5
1FB
330
1CE
100
AcDbEntity
  8
4
 62
   130
100
AcDbCircle
 10
1.158569215000897
 20
2.073806785529518
 30
0.0
 40
0.00592651176
100
AcDbArc
 50
225.0
 51
44.99999999999997
  0
CIRCLE
  5
1FC
330
1CE
100
AcDbEntity
  8
4
100
AcDbCircle
 10
1.183040140625
 20
2.062025846373749
 30
0.0
 40
0.00414096014
  0
LINE
  5
1FD
330
1CE
100
AcDbEntity
  8
4
100
AcDbLine
 10
1.157724404967892
 20
2.07132190050476
 30
0.0
 11
1.161082318953692
 21
2.07467981449056
 31
0.0
  0
LINE
  5
1FE
330
1CE
100
AcDbEntity
  8
4
100
AcDbLine
 10
1.156032016319049
 20
2.079730117125204
 30
0.0
 11
1.152674102333251
 21
2.076372203139404
 31
0.0
  0
LINE
  5
1FF
330
1CE
100
AcDbEntity
  8
4
100
AcDbLine
 10
1.183040140625
 20
2.131505648906245
 30
0.0
 11
1.132018257923994
 21
2.131505648906245
 31
0.0
  0
LINE
  5
200
330
1CE
100
AcDbEntity
  8
4
100
AcDbLine
 10
1.183040140625
 20
2.131505648906245
 30
0.0
 11
1.234062023326006
 21
2.131505648906245
 31
0.0
  0
ARC
  5
201
330
1CE
100
AcDbEntity
  8
4
100
AcDbCircle
 10
1.280390694375001
 20
2.650609668749996
 30
0.0
 40
0.26593322
100
AcDbArc
 50
261.40466153832
 51
278.5953384616799
  0
LINE
  5
202
330
1CE
100
AcDbEntity
  8
4
100
AcDbLine
 10
1.524470389687501
 20
1.748966602106146
 30
0.0
 11
1.524470389687499
 21
1.672392081168647
 31
0.0
  0
LINE
  5
203
330
1CE
100
AcDbEntity
  8
4
100
AcDbLine
 10
1.506574033742998
 20
1.60216797519958
 30
0.0
 11
1.416346691243003
 21
1.602167975199576
 31
0.0
  0
LINE
  5
204
330
1CE
100
AcDbEntity
  8
4
100
AcDbLine
 10
1.524470389687499
 20
1.672392081168647
 30
0.0
 11
1.531000000000001
 21
1.672392081168647
 31
0.0
  0
LINE
  5
205
330
1CE
100
AcDbEntity
  8
4
100
AcDbLine
 10
1.531000000000003
 20
1.748966602106146
 30
0.0
 11
1.524470389687501
 21
1.748966602106146
 31
0.0
  0
LINE
  5
206
330
1CE
100
AcDbEntity
  8
4
100
AcDbLine
 10
1.536465572289418
 20
1.709198188578144
 30
0.0
 11
1.516532218486553
 21
1.709198188578144
 31
0.0
  0
LINE
  5
207
330
1CE
100
AcDbEntity
  8
4
100
AcDbLine
 10
1.524470389687501
 20
2.369873182731147
 30
0.0
 11
1.524470389687499
 21
2.293298661793646
 31
0.0
  0
LINE
  5
208
330
1CE
100
AcDbEntity
  8
4
100
AcDbLine
 10
1.524470389687499
 20
2.293298661793646
 30
0.0
 11
1.531000000000001
 21
2.293298661793646
 31
0.0
  0
LINE
  5
209
330
1CE
100
AcDbEntity
  8
4
100
AcDbLine
 10
1.531000000000003
 20
2.369873182731147
 30
0.0
 11
1.524470389687501
 21
2.369873182731147
 31
0.0
  0
LINE
  5
20A
330
1CE
100
AcDbEntity
  8
4
100
AcDbLine
 10
1.536465572289418
 20
2.330104769203144
 30
0.0
 11
1.516532218486553
 21
2.330104769203144
 31
0.0
  0
ARC
  5
20B
330
1CE
100
AcDbEntity
  8
4
100
AcDbCircle
 10
1.712000000000001
 20
2.384044852620146
 30
0.0
 40
0.025
100
AcDbArc
 50
180.0
 51
0.0
  0
ARC
  5
20C
330
1CE
100
AcDbEntity
  8
4
100
AcDbCircle
 10
2.163000000000001
 20
2.384044852620146
 30
0.0
 40
0.025
100
AcDbArc
 50
180.0
 51
0.0
  0
ARC
  5
20D
330
1CE
100
AcDbEntity
  8
4
100
AcDbCircle
 10
2.788
 20
2.384044852620146
 30
0.0
 40
0.025
100
AcDbArc
 50
180.0
 51
0.0
  0
ARC
  5
20E
330
1CE
100
AcDbEntity
  8
4
100
AcDbCircle
 10
2.337
 20
2.384044852620146
 30
0.0
 40
0.025
100
AcDbArc
 50
180.0
 51
0.0
  0
ARC
  5
20F
330
1CE
100
AcDbEntity
  8
4
100
AcDbCircle
 10
2.962
 20
2.384044852620146
 30
0.0
 40
0.025
100
AcDbArc
 50
180.0
 51
0.0
  0
ARC
  5
210
330
1CE
100
AcDbEntity
  8
4
100
AcDbCircle
 10
3.413
 20
2.384044852620146
 30
0.0
 40
0.025
100
AcDbArc
 50
180.0
 51
0.0
  0
LINE
  5
211
330
1CE
100
AcDbEntity
  8
4
100
AcDbLine
 10
1.094000000000001
 20
4.405004547187496
 30
0.0
 11
1.094000000000001
 21
3.552
 31
0.0
  0
LINE
  5
212
330
1CE
100
AcDbEntity
  8
4
100
AcDbLine
 10
1.530999999999999
 20
3.552039606703148
 30
0.0
 11
1.531000000000001
 21
4.405044153890644
 31
0.0
  0
LINE
  5
213
330
1CE
100
AcDbEntity
  8
4
  6
HIDDEN
100
AcDbLine
 10
1.506574033742998
 20
3.56016797519958
 30
0.0
 11
1.506574033742998
 21
4.401159629355656
 31
0.0
  0
LINE
  5
214
330
1CE
100
AcDbEntity
  8
4
  6
HIDDEN
100
AcDbLine
 10
1.485489328443
 20
3.56016797519958
 30
0.0
 11
1.485489328443
 21
4.401159629355651
 31
0.0
  0
LINE
  5
215
330
1CE
100
AcDbEntity
  8
4
  6
HIDDEN
100
AcDbLine
 10
1.416346691243003
 20
3.560167975199576
 30
0.0
 11
1.416346691243003
 21
4.401159629355648
 31
0.0
  0
LINE
  5
216
330
1CE
100
AcDbEntity
  8
4
  6
HIDDEN
100
AcDbLine
 10
1.437431396543001
 20
3.56016797519958
 30
0.0
 11
1.437431396543001
 21
4.401159629355648
 31
0.0
  0
LINE
  5
217
330
1CE
100
AcDbEntity
  8
4
100
AcDbLine
 10
1.530999999999999
 20
2.573039606703148
 30
0.0
 11
1.094000000000001
 21
2.573
 31
0.0
  0
LINE
  5
218
330
1CE
100
AcDbEntity
  8
4
100
AcDbLine
 10
1.531000000000001
 20
2.447044153890644
 30
0.0
 11
1.094
 21
2.447004547187495
 31
0.0
  0
LINE
  5
219
330
1CE
100
AcDbEntity
  8
4
100
AcDbLine
 10
1.062000000000001
 20
2.479044153890645
 30
0.0
 11
1.563000000000001
 21
2.479044153890645
 31
0.0
  0
LINE
  5
21A
330
1CE
100
AcDbEntity
  8
4
100
AcDbLine
 10
1.062000000000001
 20
2.541044153890644
 30
0.0
 11
1.563000000000001
 21
2.541044153890644
 31
0.0
  0
LINE
  5
21B
330
1CE
100
AcDbEntity
  8
4
100
AcDbLine
 10
1.531000000000001
 20
3.426044153890644
 30
0.0
 11
1.094000000000001
 21
3.426004547187496
 31
0.0
  0
LINE
  5
21C
330
1CE
100
AcDbEntity
  8
4
100
AcDbLine
 10
1.530999999999999
 20
3.552039606703148
 30
0.0
 11
1.094000000000001
 21
3.552
 31
0.0
  0
LINE
  5
21D
330
1CE
100
AcDbEntity
  8
4
100
AcDbLine
 10
1.062000000000001
 20
3.520044153890644
 30
0.0
 11
1.563000000000001
 21
3.520044153890644
 31
0.0
  0
LINE
  5
21E
330
1CE
100
AcDbEntity
  8
4
100
AcDbLine
 10
1.062000000000001
 20
3.458044153890644
 30
0.0
 11
1.563000000000001
 21
3.458044153890644
 31
0.0
  0
LINE
  5
21F
330
1CE
100
AcDbEntity
  8
4
100
AcDbLine
 10
1.094000000000001
 20
3.426004547187496
 30
0.0
 11
1.094000000000001
 21
2.573
 31
0.0
  0
ARC
  5
220
330
1CE
100
AcDbEntity
  8
4
100
AcDbCircle
 10
1.234062023326008
 20
3.082012803906246
 30
0.0
 40
0.028492845
100
AcDbArc
 50
356.4236656250018
 51
90.0
  0
ARC
  5
221
330
1CE
100
AcDbEntity
  8
4
100
AcDbCircle
 10
1.132018257923994
 20
3.082012803906246
 30
0.0
 40
0.028492845
100
AcDbArc
 50
90.0
 51
183.5763343749981
  0
INSERT
  5
222
330
1CE
100
AcDbEntity
  8
4
100
AcDbBlockReference
  2
ARRO
 10
0.9609118825233176
 20
2.996685687541026
 30
0.0
 50
180.0
  0
LINE
  5
223
330
1CE
100
AcDbEntity
  8
4
100
AcDbLine
 10
0.9609118825233176
 20
2.996685687541026
 30
0.0
 11
0.5859118825233177
 21
2.996685687541026
 31
0.0
  0
LINE
  5
224
330
1CE
100
AcDbEntity
  8
4
100
AcDbLine
 10
0.5859118825233177
 20
2.996685687541026
 30
0.0
 11
0.5859118825233177
 21
2.934685687541025
 31
0.0
  0
ARC
  5
225
330
1CE
100
AcDbEntity
  8
4
100
AcDbCircle
 10
1.280390694375001
 20
2.157920890624995
 30
0.0
 40
0.26593322
100
AcDbArc
 50
81.40466153832001
 51
98.59533846167998
  0
CIRCLE
  5
226
330
1CE
100
AcDbEntity
  8
4
100
AcDbCircle
 10
1.244774638125001
 20
2.404265279687495
 30
0.0
 40
0.00258335128
  0
CIRCLE
  5
227
330
1CE
100
AcDbEntity
  8
4
100
AcDbCircle
 10
1.316006750625
 20
2.404265279687495
 30
0.0
 40
0.00258335128
  0
ARC
  5
228
330
1CE
100
AcDbEntity
  8
4
100
AcDbCircle
 10
1.138318318403933
 20
2.924114954531246
 30
0.0
 40
0.024931239375
100
AcDbArc
 50
183.5763343749981
 51
270.0
  0
ARC
  5
229
330
1CE
100
AcDbEntity
  8
4
100
AcDbCircle
 10
1.137369932336158
 20
3.072515188906246
 30
0.0
 40
0.01899523
100
AcDbArc
 50
90.0
 51
183.5763343749981
  0
LINE
  5
22A
330
1CE
100
AcDbEntity
  8
4
100
AcDbLine
 10
1.118411694055784
 20
3.071330299013724
 30
0.0
 11
1.12643592223697
 21
2.942942648114737
 31
0.0
  0
LINE
  5
22B
330
1CE
100
AcDbEntity
  8
4
100
AcDbLine
 10
1.103580900503431
 20
3.080235469067461
 30
0.0
 11
1.11343563066094
 21
2.922559786547313
 31
0.0
  0
ARC
  5
22C
330
1CE
100
AcDbEntity
  8
4
100
AcDbCircle
 10
1.145394160517345
 20
2.94414542456625
 30
0.0
 40
0.01899523
100
AcDbArc
 50
183.5763343749981
 51
270.0
  0
ARC
  5
22D
330
1CE
100
AcDbEntity
  8
4
100
AcDbCircle
 10
1.227761962846067
 20
2.924114954531246
 30
0.0
 40
0.024931239375
100
AcDbArc
 50
270.0
 51
356.4236656250018
  0
ARC
  5
22E
330
1CE
100
AcDbEntity
  8
4
100
AcDbCircle
 10
1.220686120732655
 20
2.94414542456625
 30
0.0
 40
0.01899523
100
AcDbArc
 50
270.0
 51
356.4236656250018
  0
LINE
  5
22F
330
1CE
100
AcDbEntity
  8
4
100
AcDbLine
 10
1.183040140625
 20
2.899183715156246
 30
0.0
 11
1.138318318403933
 21
2.899183715156246
 31
0.0
  0
CIRCLE
  5
230
330
1CE
100
AcDbEntity
  8
4
100
AcDbCircle
 10
1.183040140625
 20
2.90986853203125
 30
0.0
 40
0.006834483754
  0
LINE
  5
231
330
1CE
100
AcDbEntity
  8
4
100
AcDbLine
 10
1.183040140625
 20
2.899183715156246
 30
0.0
 11
1.227761962846067
 21
2.899183715156246
 31
0.0
  0
ARC
  5
232
330
1CE
100
AcDbEntity
  8
4
100
AcDbCircle
 10
1.228710348913843
 20
3.072515188906246
 30
0.0
 40
0.01899523
100
AcDbArc
 50
356.4236656250018
 51
90.0
  0
CIRCLE
  5
233
330
1CE
100
AcDbEntity
  8
4
100
AcDbCircle
 10
1.183040140625
 20
2.999502273593745
 30
0.0
 40
0.0124656196875
  0
LINE
  5
234
330
1CE
100
AcDbEntity
  8
4
100
AcDbLine
 10
1.183040140625
 20
2.925150194566245
 30
0.0
 11
1.145394160517345
 21
2.925150194566249
 31
0.0
  0
LINE
  5
235
330
1CE
100
AcDbEntity
  8
4
100
AcDbLine
 10
1.183040140625
 20
2.925150194566245
 30
0.0
 11
1.220686120732655
 21
2.925150194566249
 31
0.0
  0
CIRCLE
  5
236
330
1CE
100
AcDbEntity
  8
4
100
AcDbCircle
 10
1.183040140625
 20
2.957978700813748
 30
0.0
 40
0.00414096014
  0
LINE
  5
237
330
1CE
100
AcDbEntity
  8
4
 62
   130
100
AcDbLine
 10
1.142586957395175
 20
3.077170396443793
 30
0.0
 11
1.162759891655176
 21
3.056997462183794
 31
0.0
  0
LINE
  5
238
330
1CE
100
AcDbEntity
  8
4
100
AcDbLine
 10
1.144319612336581
 20
3.070442521107674
 30
0.0
 11
1.140961698350781
 21
3.067084607121874
 31
0.0
  0
LINE
  5
239
330
1CE
100
AcDbEntity
  8
4
 62
   130
100
AcDbLine
 10
1.134205604086619
 20
3.06878904313524
 30
0.0
 11
1.15437853834662
 21
3.048616108875238
 31
0.0
  0
LINE
  5
23A
330
1CE
100
AcDbEntity
  8
4
100
AcDbLine
 10
1.183040140625
 20
3.091510418906246
 30
0.0
 11
1.137369932336158
 21
3.091510418906246
 31
0.0
  0
LINE
  5
23B
330
1CE
100
AcDbEntity
  8
4
100
AcDbLine
 10
1.135911395716137
 20
3.072134909756513
 30
0.0
 11
1.157724404967892
 21
3.05032190050476
 31
0.0
  0
LINE
  5
23C
330
1CE
100
AcDbEntity
  8
4
100
AcDbLine
 10
1.139269309701938
 20
3.075492823742314
 30
0.0
 11
1.161082318953692
 21
3.053679814490561
 31
0.0
  0
LINE
  5
23D
330
1CE
100
AcDbEntity
  8
4
100
AcDbLine
 10
1.139269309701938
 20
3.075492823742314
 30
0.0
 11
1.135911395716137
 21
3.072134909756513
 31
0.0
  0
ARC
  5
23E
330
1CE
100
AcDbEntity
  8
4
 62
   130
100
AcDbCircle
 10
1.138396280740898
 20
3.072979719789517
 30
0.0
 40
0.00592651176
100
AcDbArc
 50
44.99999999999997
 51
225.0
  0
LINE
  5
23F
330
1CE
100
AcDbEntity
  8
4
100
AcDbLine
 10
1.156032016319049
 20
3.058730117125204
 30
0.0
 11
1.152674102333251
 21
3.055372203139404
 31
0.0
  0
LINE
  5
240
330
1CE
100
AcDbEntity
  8
4
100
AcDbLine
 10
1.157724404967892
 20
3.05032190050476
 30
0.0
 11
1.161082318953692
 21
3.053679814490561
 31
0.0
  0
LINE
  5
241
330
1CE
100
AcDbEntity
  8
4
100
AcDbLine
 10
1.183040140625
 20
3.091510418906246
 30
0.0
 11
1.228710348913843
 21
3.091510418906246
 31
0.0
  0
CIRCLE
  5
242
330
1CE
100
AcDbEntity
  8
4
100
AcDbCircle
 10
1.183040140625
 20
3.041025846373749
 30
0.0
 40
0.00414096014
  0
ARC
  5
243
330
1CE
100
AcDbEntity
  8
4
 62
   130
100
AcDbCircle
 10
1.158569215000899
 20
3.052806785529518
 30
0.0
 40
0.00592651176
100
AcDbArc
 50
225.0
 51
44.99999999999997
  0
LINE
  5
244
330
1CE
100
AcDbEntity
  8
4
100
AcDbLine
 10
1.26249938074657
 20
3.080235469067461
 30
0.0
 11
1.25264465058906
 21
2.922559786547313
 31
0.0
  0
LINE
  5
245
330
1CE
100
AcDbEntity
  8
4
100
AcDbLine
 10
1.247668587194218
 20
3.071330299013724
 30
0.0
 11
1.239644359013031
 21
2.942960534673724
 31
0.0
  0
INSERT
  5
246
330
1CE
100
AcDbEntity
  8
4
100
AcDbBlockReference
  2
ARRO
 10
0.9609118825233176
 20
3.145667550437406
 30
0.0
 50
180.0
  0
LINE
  5
247
330
1CE
100
AcDbEntity
  8
4
100
AcDbLine
 10
0.9609118825233176
 20
3.145667550437406
 30
0.0
 11
0.5859118825233177
 21
3.145667550437406
 31
0.0
  0
LINE
  5
248
330
1CE
100
AcDbEntity
  8
4
100
AcDbLine
 10
0.5859118825233177
 20
3.145667550437406
 30
0.0
 11
0.5859118825233177
 21
3.207667550437406
 31
0.0
  0
LINE
  5
249
330
1CE
100
AcDbEntity
  8
4
100
AcDbLine
 10
1.183040140625
 20
3.110505648906245
 30
0.0
 11
1.132018257923994
 21
3.110505648906245
 31
0.0
  0
LINE
  5
24A
330
1CE
100
AcDbEntity
  8
4
100
AcDbLine
 10
1.183040140625
 20
3.110505648906245
 30
0.0
 11
1.234062023326008
 21
3.110505648906245
 31
0.0
  0
ARC
  5
24B
330
1CE
100
AcDbEntity
  8
4
100
AcDbCircle
 10
1.316006750625
 20
3.383265279687496
 30
0.0
 40
0.077168121875
100
AcDbArc
 50
167.5762104955836
 51
192.4237895044163
  0
ARC
  5
24C
330
1CE
100
AcDbEntity
  8
4
100
AcDbCircle
 10
1.280390694375001
 20
3.136920890624995
 30
0.0
 40
0.26593322
100
AcDbArc
 50
81.40466153832001
 51
98.59533846167998
  0
ARC
  5
24D
330
1CE
100
AcDbEntity
  8
4
100
AcDbCircle
 10
1.280390694375001
 20
3.629609668749996
 30
0.0
 40
0.26593322
100
AcDbArc
 50
261.40466153832
 51
278.5953384616799
  0
CIRCLE
  5
24E
330
1CE
100
AcDbEntity
  8
4
100
AcDbCircle
 10
1.244774638125001
 20
3.383265279687496
 30
0.0
 40
0.00258335128
  0
ARC
  5
24F
330
1CE
100
AcDbEntity
  8
4
100
AcDbCircle
 10
1.244774638125001
 20
3.383265279687496
 30
0.0
 40
0.077168121875
100
AcDbArc
 50
347.5762104955836
 51
12.42378950441639
  0
CIRCLE
  5
250
330
1CE
100
AcDbEntity
  8
4
100
AcDbCircle
 10
1.316006750625
 20
3.383265279687496
 30
0.0
 40
0.00258335128
  0
LINE
  5
251
330
1CE
100
AcDbEntity
  8
4
  6
HIDDEN
100
AcDbLine
 10
1.416346691243003
 20
2.581167975199576
 30
0.0
 11
1.416346691243003
 21
3.422159629355648
 31
0.0
  0
LINE
  5
252
330
1CE
100
AcDbEntity
  8
4
  6
HIDDEN
100
AcDbLine
 10
1.437431396543001
 20
2.581167975199581
 30
0.0
 11
1.437431396543001
 21
3.422159629355648
 31
0.0
  0
LINE
  5
253
330
1CE
100
AcDbEntity
  8
4
  6
HIDDEN
100
AcDbLine
 10
1.506574033742998
 20
2.581167975199581
 30
0.0
 11
1.506574033742998
 21
3.422159629355656
 31
0.0
  0
LINE
  5
254
330
1CE
100
AcDbEntity
  8
4
  6
HIDDEN
100
AcDbLine
 10
1.485489328443
 20
2.581167975199581
 30
0.0
 11
1.485489328443
 21
3.422159629355651
 31
0.0
  0
LINE
  5
255
330
1CE
100
AcDbEntity
  8
4
100
AcDbLine
 10
1.530999999999999
 20
2.573039606703148
 30
0.0
 11
1.531000000000001
 21
3.426044153890644
 31
0.0
  0
LINE
  5
256
330
1CE
100
AcDbEntity
  8
4
100
AcDbLine
 10
1.687
 20
2.541004547187496
 30
0.0
 11
2.188
 21
2.541004547187496
 31
0.0
  0
LINE
  5
257
330
1CE
100
AcDbEntity
  8
4
100
AcDbLine
 10
1.687
 20
2.479004547187496
 30
0.0
 11
2.188
 21
2.479004547187496
 31
0.0
  0
LINE
  5
258
330
1CE
100
AcDbEntity
  8
4
100
AcDbLine
 10
1.506574033742998
 20
2.443159629355656
 30
0.0
 11
1.416346691243003
 21
2.443159629355648
 31
0.0
  0
LINE
  5
259
330
1CE
100
AcDbEntity
  8
4
100
AcDbLine
 10
1.506574033742998
 20
2.581167975199581
 30
0.0
 11
1.416346691243003
 21
2.581167975199576
 31
0.0
  0
LINE
  5
25A
330
1CE
100
AcDbEntity
  8
4
100
AcDbLine
 10
1.524470389687501
 20
2.727966602106147
 30
0.0
 11
1.524470389687499
 21
2.651392081168647
 31
0.0
  0
LINE
  5
25B
330
1CE
100
AcDbEntity
  8
4
100
AcDbLine
 10
1.524470389687499
 20
2.651392081168647
 30
0.0
 11
1.531000000000001
 21
2.651392081168647
 31
0.0
  0
LINE
  5
25C
330
1CE
100
AcDbEntity
  8
4
100
AcDbLine
 10
1.531000000000003
 20
2.727966602106147
 30
0.0
 11
1.524470389687501
 21
2.727966602106147
 31
0.0
  0
LINE
  5
25D
330
1CE
100
AcDbEntity
  8
4
100
AcDbLine
 10
1.536465572289418
 20
2.688198188578144
 30
0.0
 11
1.516532218486553
 21
2.688198188578144
 31
0.0
  0
LINE
  5
25E
330
1CE
100
AcDbEntity
  8
4
100
AcDbLine
 10
1.905
 20
2.421044852620145
 30
0.0
 11
1.967000000000001
 21
2.421044852620145
 31
0.0
  0
LINE
  5
25F
330
1CE
100
AcDbEntity
  8
4
100
AcDbLine
 10
1.687
 20
3.458004547187496
 30
0.0
 11
2.188
 21
3.458004547187496
 31
0.0
  0
LINE
  5
260
330
1CE
100
AcDbEntity
  8
4
100
AcDbLine
 10
1.687
 20
3.520004547187496
 30
0.0
 11
2.188
 21
3.520004547187496
 31
0.0
  0
LINE
  5
261
330
1CE
100
AcDbEntity
  8
4
100
AcDbLine
 10
1.524470389687501
 20
3.348873182731147
 30
0.0
 11
1.524470389687499
 21
3.272298661793646
 31
0.0
  0
LINE
  5
262
330
1CE
100
AcDbEntity
  8
4
100
AcDbLine
 10
1.524470389687499
 20
3.272298661793646
 30
0.0
 11
1.531000000000001
 21
3.272298661793646
 31
0.0
  0
LINE
  5
263
330
1CE
100
AcDbEntity
  8
4
100
AcDbLine
 10
1.506574033742998
 20
3.422159629355656
 30
0.0
 11
1.416346691243003
 21
3.422159629355648
 31
0.0
  0
LINE
  5
264
330
1CE
100
AcDbEntity
  8
4
100
AcDbLine
 10
1.531000000000003
 20
3.348873182731147
 30
0.0
 11
1.524470389687501
 21
3.348873182731147
 31
0.0
  0
LINE
  5
265
330
1CE
100
AcDbEntity
  8
4
100
AcDbLine
 10
1.536465572289418
 20
3.309104769203144
 30
0.0
 11
1.516532218486553
 21
3.309104769203144
 31
0.0
  0
ARC
  5
266
330
1CE
100
AcDbEntity
  8
4
100
AcDbCircle
 10
1.712000000000001
 20
3.363044852620147
 30
0.0
 40
0.025
100
AcDbArc
 50
180.0
 51
0.0
  0
LINE
  5
267
330
1CE
100
AcDbEntity
  8
4
100
AcDbLine
 10
1.506574033742998
 20
3.56016797519958
 30
0.0
 11
1.416346691243003
 21
3.560167975199576
 31
0.0
  0
LINE
  5
268
330
1CE
100
AcDbEntity
  8
4
100
AcDbLine
 10
1.531000000000003
 20
3.706966602106146
 30
0.0
 11
1.524470389687501
 21
3.706966602106146
 31
0.0
  0
LINE
  5
269
330
1CE
100
AcDbEntity
  8
4
100
AcDbLine
 10
1.536465572289418
 20
3.667198188578145
 30
0.0
 11
1.516532218486553
 21
3.667198188578145
 31
0.0
  0
LINE
  5
26A
330
1CE
100
AcDbEntity
  8
4
100
AcDbLine
 10
1.524470389687501
 20
3.630392081168647
 30
0.0
 11
1.531000000000001
 21
3.630392081168647
 31
0.0
  0
LINE
  5
26B
330
1CE
100
AcDbEntity
  8
4
100
AcDbLine
 10
1.524470389687501
 20
3.706966602106146
 30
0.0
 11
1.524470389687501
 21
3.630392081168647
 31
0.0
  0
LINE
  5
26C
330
1CE
100
AcDbEntity
  8
4
100
AcDbLine
 10
1.905
 20
3.400044852620146
 30
0.0
 11
1.967000000000001
 21
3.400044852620146
 31
0.0
  0
LINE
  5
26D
330
1CE
100
AcDbEntity
  8
4
100
AcDbLine
 10
1.905
 20
3.400044852620146
 30
0.0
 11
1.905
 21
3.338044852620146
 31
0.0
  0
LINE
  5
26E
330
1CE
100
AcDbEntity
  8
4
100
AcDbLine
 10
1.967000000000001
 20
3.400044852620146
 30
0.0
 11
1.967000000000001
 21
3.338044852620146
 31
0.0
  0
ARC
  5
26F
330
1CE
100
AcDbEntity
  8
4
100
AcDbCircle
 10
2.163000000000001
 20
3.363044852620147
 30
0.0
 40
0.025
100
AcDbArc
 50
180.0
 51
0.0
  0
LINE
  5
270
330
1CE
100
AcDbEntity
  8
4
100
AcDbLine
 10
1.531000000000001
 20
4.405044153890644
 30
0.0
 11
1.094000000000001
 21
4.405004547187496
 31
0.0
  0
ARC
  5
271
330
1CE
100
AcDbEntity
  8
4
100
AcDbCircle
 10
1.137369932336158
 20
4.051515188906246
 30
0.0
 40
0.01899523
100
AcDbArc
 50
90.0
 51
183.5763343749981
  0
ARC
  5
272
330
1CE
100
AcDbEntity
  8
4
100
AcDbCircle
 10
1.132018257923994
 20
4.061012803906246
 30
0.0
 40
0.028492845
100
AcDbArc
 50
90.0
 51
183.5763343749981
  0
ARC
  5
273
330
1CE
100
AcDbEntity
  8
4
100
AcDbCircle
 10
1.138318318403933
 20
3.903114954531246
 30
0.0
 40
0.024931239375
100
AcDbArc
 50
183.5763343749981
 51
270.0
  0
LINE
  5
274
330
1CE
100
AcDbEntity
  8
4
100
AcDbLine
 10
1.118411694055784
 20
4.050330299013724
 30
0.0
 11
1.12643592223697
 21
3.921942648114737
 31
0.0
  0
LINE
  5
275
330
1CE
100
AcDbEntity
  8
4
100
AcDbLine
 10
1.103580900503431
 20
4.059235469067461
 30
0.0
 11
1.113435630660941
 21
3.901559786547312
 31
0.0
  0
LINE
  5
276
330
1CE
100
AcDbEntity
  8
4
100
AcDbLine
 10
1.26249938074657
 20
4.059235469067461
 30
0.0
 11
1.25264465058906
 21
3.901559786547312
 31
0.0
  0
LINE
  5
277
330
1CE
100
AcDbEntity
  8
4
100
AcDbLine
 10
1.247668587194218
 20
4.050330299013724
 30
0.0
 11
1.239644359013031
 21
3.921960534673724
 31
0.0
  0
CIRCLE
  5
278
330
1CE
100
AcDbEntity
  8
4
100
AcDbCircle
 10
1.183040140625
 20
3.978502273593746
 30
0.0
 40
0.0124656196875
  0
ARC
  5
279
330
1CE
100
AcDbEntity
  8
4
100
AcDbCircle
 10
1.227761962846069
 20
3.903114954531246
 30
0.0
 40
0.024931239375
100
AcDbArc
 50
270.0
 51
356.4236656250018
  0
ARC
  5
27A
330
1CE
100
AcDbEntity
  8
4
100
AcDbCircle
 10
1.220686120732657
 20
3.923145424566249
 30
0.0
 40
0.01899523
100
AcDbArc
 50
270.0
 51
356.4236656250018
  0
CIRCLE
  5
27B
330
1CE
100
AcDbEntity
  8
4
100
AcDbCircle
 10
1.183040140625
 20
3.88886853203125
 30
0.0
 40
0.006834483754
  0
LINE
  5
27C
330
1CE
100
AcDbEntity
  8
4
100
AcDbLine
 10
1.183040140625
 20
3.878183715156246
 30
0.0
 11
1.138318318403933
 21
3.878183715156246
 31
0.0
  0
LINE
  5
27D
330
1CE
100
AcDbEntity
  8
4
100
AcDbLine
 10
1.183040140625
 20
3.878183715156246
 30
0.0
 11
1.227761962846069
 21
3.878183715156246
 31
0.0
  0
ARC
  5
27E
330
1CE
100
AcDbEntity
  8
4
100
AcDbCircle
 10
1.145394160517345
 20
3.923145424566249
 30
0.0
 40
0.01899523
100
AcDbArc
 50
183.5763343749981
 51
270.0
  0
CIRCLE
  5
27F
330
1CE
100
AcDbEntity
  8
4
100
AcDbCircle
 10
1.183040140625
 20
3.936978700813747
 30
0.0
 40
0.00414096014
  0
LINE
  5
280
330
1CE
100
AcDbEntity
  8
4
100
AcDbLine
 10
1.183040140625
 20
3.904150194566245
 30
0.0
 11
1.145394160517345
 21
3.904150194566249
 31
0.0
  0
LINE
  5
281
330
1CE
100
AcDbEntity
  8
4
100
AcDbLine
 10
1.183040140625
 20
3.904150194566245
 30
0.0
 11
1.220686120732657
 21
3.904150194566249
 31
0.0
  0
ARC
  5
282
330
1CE
100
AcDbEntity
  8
4
100
AcDbCircle
 10
1.234062023326008
 20
4.061012803906246
 30
0.0
 40
0.028492845
100
AcDbArc
 50
356.4236656250018
 51
90.0
  0
ARC
  5
283
330
1CE
100
AcDbEntity
  8
4
100
AcDbCircle
 10
1.228710348913843
 20
4.051515188906246
 30
0.0
 40
0.01899523
100
AcDbArc
 50
356.4236656250018
 51
90.0
  0
LINE
  5
284
330
1CE
100
AcDbEntity
  8
4
 62
   130
100
AcDbLine
 10
1.142586957395176
 20
4.056170396443793
 30
0.0
 11
1.162759891655176
 21
4.035997462183794
 31
0.0
  0
LINE
  5
285
330
1CE
100
AcDbEntity
  8
4
100
AcDbLine
 10
1.139269309701938
 20
4.054492823742314
 30
0.0
 11
1.161082318953692
 21
4.032679814490561
 31
0.0
  0
LINE
  5
286
330
1CE
100
AcDbEntity
  8
4
100
AcDbLine
 10
1.135911395716137
 20
4.051134909756513
 30
0.0
 11
1.157724404967892
 21
4.02932190050476
 31
0.0
  0
LINE
  5
287
330
1CE
100
AcDbEntity
  8
4
 62
   130
100
AcDbLine
 10
1.134205604086619
 20
4.04778904313524
 30
0.0
 11
1.15437853834662
 21
4.027616108875238
 31
0.0
  0
LINE
  5
288
330
1CE
100
AcDbEntity
  8
4
100
AcDbLine
 10
1.144319612336581
 20
4.049442521107674
 30
0.0
 11
1.140961698350781
 21
4.046084607121875
 31
0.0
  0
LINE
  5
289
330
1CE
100
AcDbEntity
  8
4
100
AcDbLine
 10
1.139269309701938
 20
4.054492823742314
 30
0.0
 11
1.135911395716137
 21
4.051134909756513
 31
0.0
  0
ARC
  5
28A
330
1CE
100
AcDbEntity
  8
4
 62
   130
100
AcDbCircle
 10
1.138396280740898
 20
4.051979719789517
 30
0.0
 40
0.00592651176
100
AcDbArc
 50
44.99999999999997
 51
225.0
  0
CIRCLE
  5
28B
330
1CE
100
AcDbEntity
  8
4
100
AcDbCircle
 10
1.183040140625
 20
4.020025846373749
 30
0.0
 40
0.00414096014
  0
LINE
  5
28C
330
1CE
100
AcDbEntity
  8
4
100
AcDbLine
 10
1.157724404967892
 20
4.02932190050476
 30
0.0
 11
1.161082318953692
 21
4.032679814490561
 31
0.0
  0
LINE
  5
28D
330
1CE
100
AcDbEntity
  8
4
100
AcDbLine
 10
1.156032016319049
 20
4.037730117125204
 30
0.0
 11
1.152674102333251
 21
4.034372203139404
 31
0.0
  0
ARC
  5
28E
330
1CE
100
AcDbEntity
  8
4
 62
   130
100
AcDbCircle
 10
1.158569215000899
 20
4.031806785529518
 30
0.0
 40
0.00592651176
100
AcDbArc
 50
225.0
 51
44.99999999999997
  0
LINE
  5
28F
330
1CE
100
AcDbEntity
  8
4
100
AcDbLine
 10
1.183040140625
 20
4.070510418906246
 30
0.0
 11
1.137369932336158
 21
4.070510418906246
 31
0.0
  0
LINE
  5
290
330
1CE
100
AcDbEntity
  8
4
100
AcDbLine
 10
1.183040140625
 20
4.089505648906246
 30
0.0
 11
1.132018257923994
 21
4.089505648906246
 31
0.0
  0
LINE
  5
291
330
1CE
100
AcDbEntity
  8
4
100
AcDbLine
 10
1.183040140625
 20
4.089505648906246
 30
0.0
 11
1.234062023326008
 21
4.089505648906246
 31
0.0
  0
LINE
  5
292
330
1CE
100
AcDbEntity
  8
4
100
AcDbLine
 10
1.183040140625
 20
4.070510418906246
 30
0.0
 11
1.228710348913843
 21
4.070510418906246
 31
0.0
  0
ARC
  5
293
330
1CE
100
AcDbEntity
  8
4
100
AcDbCircle
 10
1.316006750625
 20
4.362265279687496
 30
0.0
 40
0.077168121875
100
AcDbArc
 50
167.5762104955836
 51
192.4237895044163
  0
ARC
  5
294
330
1CE
100
AcDbEntity
  8
4
100
AcDbCircle
 10
1.280390694375001
 20
4.115920890624995
 30
0.0
 40
0.26593322
100
AcDbArc
 50
81.40466153832001
 51
98.59533846167998
  0
ARC
  5
295
330
1CE
100
AcDbEntity
  8
4
100
AcDbCircle
 10
1.280390694375001
 20
4.608609668749996
 30
0.0
 40
0.26593322
100
AcDbArc
 50
261.40466153832
 51
278.5953384616799
  0
CIRCLE
  5
296
330
1CE
100
AcDbEntity
  8
4
100
AcDbCircle
 10
1.244774638125001
 20
4.362265279687496
 30
0.0
 40
0.00258335128
  0
ARC
  5
297
330
1CE
100
AcDbEntity
  8
4
100
AcDbCircle
 10
1.244774638125001
 20
4.362265279687496
 30
0.0
 40
0.077168121875
100
AcDbArc
 50
347.5762104955836
 51
12.42378950441639
  0
CIRCLE
  5
298
330
1CE
100
AcDbEntity
  8
4
100
AcDbCircle
 10
1.316006750625
 20
4.362265279687496
 30
0.0
 40
0.00258335128
  0
LINE
  5
299
330
1CE
100
AcDbEntity
  8
4
100
AcDbLine
 10
1.531000000000003
 20
4.327873182731147
 30
0.0
 11
1.524470389687501
 21
4.327873182731147
 31
0.0
  0
LINE
  5
29A
330
1CE
100
AcDbEntity
  8
4
100
AcDbLine
 10
1.536465572289418
 20
4.288104769203144
 30
0.0
 11
1.516532218486553
 21
4.288104769203144
 31
0.0
  0
LINE
  5
29B
330
1CE
100
AcDbEntity
  8
4
100
AcDbLine
 10
1.524470389687501
 20
4.251298661793646
 30
0.0
 11
1.531000000000001
 21
4.251298661793646
 31
0.0
  0
LINE
  5
29C
330
1CE
100
AcDbEntity
  8
4
100
AcDbLine
 10
1.524470389687501
 20
4.327873182731147
 30
0.0
 11
1.524470389687501
 21
4.251298661793646
 31
0.0
  0
LINE
  5
29D
330
1CE
100
AcDbEntity
  8
4
100
AcDbLine
 10
1.506574033742998
 20
4.401159629355656
 30
0.0
 11
1.416346691243003
 21
4.401159629355648
 31
0.0
  0
ARC
  5
29E
330
1CE
100
AcDbEntity
  8
4
100
AcDbCircle
 10
1.712000000000001
 20
4.341998668630366
 30
0.0
 40
0.025
100
AcDbArc
 50
180.0
 51
0.0
  0
ARC
  5
29F
330
1CE
100
AcDbEntity
  8
4
100
AcDbCircle
 10
2.163000000000001
 20
4.341998668630366
 30
0.0
 40
0.025
100
AcDbArc
 50
180.0
 51
0.0
  0
LINE
  5
2A0
330
1CE
100
AcDbEntity
  8
4
100
AcDbLine
 10
2.937000000000001
 20
2.541004547187496
 30
0.0
 11
3.438
 21
2.541004547187496
 31
0.0
  0
LINE
  5
2A1
330
1CE
100
AcDbEntity
  8
4
100
AcDbLine
 10
2.937000000000001
 20
2.479004547187496
 30
0.0
 11
3.438
 21
2.479004547187496
 31
0.0
  0
LINE
  5
2A2
330
1CE
100
AcDbEntity
  8
4
100
AcDbLine
 10
2.937000000000001
 20
3.458004547187496
 30
0.0
 11
3.438
 21
3.458004547187496
 31
0.0
  0
LINE
  5
2A3
330
1CE
100
AcDbEntity
  8
4
100
AcDbLine
 10
2.937000000000001
 20
3.520004547187496
 30
0.0
 11
3.438
 21
3.520004547187496
 31
0.0
  0
LINE
  5
2A4
330
1CE
100
AcDbEntity
  8
4
100
AcDbLine
 10
2.625
 20
2.479004547187496
 30
0.0
 11
2.813
 21
2.479004547187496
 31
0.0
  0
LINE
  5
2A5
330
1CE
100
AcDbEntity
  8
4
100
AcDbLine
 10
2.625
 20
2.541004547187496
 30
0.0
 11
2.813
 21
2.541004547187496
 31
0.0
  0
LINE
  5
2A6
330
1CE
100
AcDbEntity
  8
4
100
AcDbLine
 10
2.312000000000001
 20
2.541004547187496
 30
0.0
 11
2.5
 21
2.541004547187496
 31
0.0
  0
LINE
  5
2A7
330
1CE
100
AcDbEntity
  8
4
100
AcDbLine
 10
2.312000000000001
 20
2.479004547187496
 30
0.0
 11
2.5
 21
2.479004547187496
 31
0.0
  0
LINE
  5
2A8
330
1CE
100
AcDbEntity
  8
4
100
AcDbLine
 10
3.155000000000001
 20
2.421044852620145
 30
0.0
 11
3.217000000000001
 21
2.421044852620145
 31
0.0
  0
LINE
  5
2A9
330
1CE
100
AcDbEntity
  8
4
100
AcDbLine
 10
2.625
 20
3.520004547187496
 30
0.0
 11
2.813
 21
3.520004547187496
 31
0.0
  0
LINE
  5
2AA
330
1CE
100
AcDbEntity
  8
4
100
AcDbLine
 10
2.625
 20
3.458004547187496
 30
0.0
 11
2.813
 21
3.458004547187496
 31
0.0
  0
ARC
  5
2AB
330
1CE
100
AcDbEntity
  8
4
100
AcDbCircle
 10
2.788000000000001
 20
3.363044852620147
 30
0.0
 40
0.025
100
AcDbArc
 50
180.0
 51
0.0
  0
ARC
  5
2AC
330
1CE
100
AcDbEntity
  8
4
100
AcDbCircle
 10
2.337
 20
3.363044852620147
 30
0.0
 40
0.025
100
AcDbArc
 50
180.0
 51
0.0
  0
LINE
  5
2AD
330
1CE
100
AcDbEntity
  8
4
100
AcDbLine
 10
2.312000000000001
 20
3.458004547187496
 30
0.0
 11
2.5
 21
3.458004547187496
 31
0.0
  0
LINE
  5
2AE
330
1CE
100
AcDbEntity
  8
4
100
AcDbLine
 10
2.312000000000001
 20
3.520004547187496
 30
0.0
 11
2.512196030826982
 21
3.520004547187496
 31
0.0
  0
ARC
  5
2AF
330
1CE
100
AcDbEntity
  8
4
100
AcDbCircle
 10
2.962
 20
3.363044852620147
 30
0.0
 40
0.025
100
AcDbArc
 50
180.0
 51
0.0
  0
LINE
  5
2B0
330
1CE
100
AcDbEntity
  8
4
100
AcDbLine
 10
3.155000000000001
 20
3.400044852620146
 30
0.0
 11
3.155000000000001
 21
3.338044852620146
 31
0.0
  0
LINE
  5
2B1
330
1CE
100
AcDbEntity
  8
4
100
AcDbLine
 10
3.217000000000001
 20
3.400044852620146
 30
0.0
 11
3.217000000000001
 21
3.338044852620146
 31
0.0
  0
LINE
  5
2B2
330
1CE
100
AcDbEntity
  8
4
100
AcDbLine
 10
3.155000000000001
 20
3.400044852620146
 30
0.0
 11
3.217000000000001
 21
3.400044852620146
 31
0.0
  0
ARC
  5
2B3
330
1CE
100
AcDbEntity
  8
4
100
AcDbCircle
 10
3.413000000000001
 20
3.363044852620147
 30
0.0
 40
0.025
100
AcDbArc
 50
180.0
 51
0.0
  0
ARC
  5
2B4
330
1CE
100
AcDbEntity
  8
4
100
AcDbCircle
 10
2.788000000000001
 20
4.341998668630366
 30
0.0
 40
0.025
100
AcDbArc
 50
180.0
 51
0.0
  0
ARC
  5
2B5
330
1CE
100
AcDbEntity
  8
4
100
AcDbCircle
 10
2.337
 20
4.341998668630366
 30
0.0
 40
0.025
100
AcDbArc
 50
180.0
 51
0.0
  0
ARC
  5
2B6
330
1CE
100
AcDbEntity
  8
4
100
AcDbCircle
 10
2.962
 20
4.341998668630366
 30
0.0
 40
0.025
100
AcDbArc
 50
180.0
 51
0.0
  0
LINE
  5
2B7
330
1CE
100
AcDbEntity
  8
4
100
AcDbLine
 10
3.217000000000001
 20
4.378998668630365
 30
0.0
 11
3.217000000000001
 21
4.316998668630366
 31
0.0
  0
LINE
  5
2B8
330
1CE
100
AcDbEntity
  8
4
100
AcDbLine
 10
3.155000000000001
 20
4.378998668630365
 30
0.0
 11
3.155000000000001
 21
4.316998668630366
 31
0.0
  0
LINE
  5
2B9
330
1CE
100
AcDbEntity
  8
4
100
AcDbLine
 10
3.155000000000001
 20
4.378998668630365
 30
0.0
 11
3.217000000000001
 21
4.378998668630365
 31
0.0
  0
ARC
  5
2BA
330
1CE
100
AcDbEntity
  8
4
100
AcDbCircle
 10
3.413000000000001
 20
4.341998668630366
 30
0.0
 40
0.025
100
AcDbArc
 50
180.0
 51
0.0
  0
LINE
  5
2BB
330
1CE
100
AcDbEntity
  8
4
100
AcDbLine
 10
7.624500000000002
 20
2.447004547187495
 30
0.0
 11
7.624500000000002
 21
1.592998668630366
 31
0.0
  0
LINE
  5
2BC
330
1CE
100
AcDbEntity
  8
4
100
AcDbLine
 10
7.301520109897514
 20
2.421044852620145
 30
0.0
 11
7.301520109897514
 21
2.359044852620145
 31
0.0
  0
LINE
  5
2BD
330
1CE
100
AcDbEntity
  8
4
100
AcDbLine
 10
7.019499999999999
 20
2.384044852620146
 30
0.0
 11
7.019499999999999
 21
2.434044852620146
 31
0.0
  0
LINE
  5
2BE
330
1CE
100
AcDbEntity
  8
4
100
AcDbLine
 10
6.980500000000001
 20
2.384044852620146
 30
0.0
 11
6.980500000000001
 21
2.434044852620146
 31
0.0
  0
LINE
  5
2BF
330
1CE
100
AcDbEntity
  8
4
100
AcDbLine
 10
6.698479890102487
 20
2.421044852620145
 30
0.0
 11
6.698479890102487
 21
2.359044852620145
 31
0.0
  0
LINE
  5
2C0
330
1CE
100
AcDbEntity
  8
4
100
AcDbLine
 10
5.388479890102487
 20
2.421044852620145
 30
0.0
 11
5.388479890102487
 21
2.359044852620145
 31
0.0
  0
LINE
  5
2C1
330
1CE
100
AcDbEntity
  8
4
100
AcDbLine
 10
5.670500000000003
 20
2.384044852620146
 30
0.0
 11
5.670500000000003
 21
2.434044852620146
 31
0.0
  0
LINE
  5
2C2
330
1CE
100
AcDbEntity
  8
4
100
AcDbLine
 10
4.8125
 20
4.498998668630365
 30
0.0
 11
4.8125
 21
1.560998668630365
 31
0.0
  0
LINE
  5
2C3
330
1CE
100
AcDbEntity
  8
4
100
AcDbLine
 10
5.065500000000001
 20
2.447004547187495
 30
0.0
 11
5.065500000000001
 21
1.592998668630366
 31
0.0
  0
LINE
  5
2C4
330
1CE
100
AcDbEntity
  8
4
100
AcDbLine
 10
6.375499999999999
 20
2.447004547187495
 30
0.0
 11
6.375499999999999
 21
1.592998668630366
 31
0.0
  0
LINE
  5
2C5
330
1CE
100
AcDbEntity
  8
4
100
AcDbLine
 10
5.065500000000001
 20
1.592998668630366
 30
0.0
 11
5.127500000000001
 21
1.592998668630366
 31
0.0
  0
LINE
  5
2C6
330
1CE
100
AcDbEntity
  8
4
100
AcDbLine
 10
5.002500000000001
 20
1.560998668630365
 30
0.0
 11
4.8125
 21
1.560998668630365
 31
0.0
  0
TEXT
  5
2C7
330
1CE
100
AcDbEntity
  8
8
100
AcDbText
 10
4.7505
 20
1.379414195962395
 30
0.0
 40
0.07
  1
1
 50
90.0
 72
     1
 11
4.7505
 21
1.391080862629062
 31
0.0
100
AcDbText
  0
INSERT
  5
2C8
330
1CE
100
AcDbEntity
  8
4
100
AcDbBlockReference
  2
ARRO
 10
4.8125
 20
1.498998668630365
 30
0.0
 50
270.0
  0
LINE
  5
2C9
330
1CE
100
AcDbEntity
  8
4
100
AcDbLine
 10
4.8125
 20
1.498998668630365
 30
0.0
 11
4.8125
 21
1.373998668630365
 31
0.0
  0
LINE
  5
2CA
330
1CE
100
AcDbEntity
  8
4
100
AcDbLine
 10
4.8125
 20
1.560998668630365
 30
0.0
 11
4.7505
 21
1.560998668630365
 31
0.0
  0
INSERT
  5
2CB
330
1CE
100
AcDbEntity
  8
4
100
AcDbBlockReference
  2
ARRO
 10
4.8125
 20
1.560998668630365
 30
0.0
 50
90.0
  0
INSERT
  5
2CC
330
1CE
100
AcDbEntity
  8
4
100
AcDbBlockReference
 66
     1
  2
FRACTION
 10
4.790032040623011
 20
2.07127628167949
 30
0.0
 41
0.5999999999999997
 42
0.5999999999999997
 43
0.6
 50
90.0
  0
ATTRIB
  5
2CD
330
2CC
100
AcDbEntity
  8
8
100
AcDbText
 10
4.731532040623016
 20
1.927529750910844
 30
0.0
 40
0.075
  1
19
 50
90.0
 72
     2
 11
4.731532040623016
 21
2.027529750910844
 31
0.0
100
AcDbAttribute
  2
A
 70
     0
  0
ATTRIB
  5
2CE
330
2CC
100
AcDbEntity
  8
8
100
AcDbText
 10
4.682032040623014
 20
2.07447628167949
 30
0.0
 40
0.06
  1
21
 50
90.0
 72
     1
 11
4.682032040623014
 21
2.11447628167949
 31
0.0
100
AcDbAttribute
  2
B
 70
     0
  0
ATTRIB
  5
2CF
330
2CC
100
AcDbEntity
  8
8
100
AcDbText
 10
4.766032040623014
 20
2.06447628167949
 30
0.0
 40
0.06
  1
32
 50
90.0
 72
     1
 11
4.766032040623014
 21
2.11447628167949
 31
0.0
100
AcDbAttribute
  2
C
 70
     0
  0
SEQEND
  5
2D0
330
2CC
100
AcDbEntity
  8
4
  0
ARC
  5
2D1
330
1CE
100
AcDbEntity
  8
4
100
AcDbCircle
 10
5.645500000000003
 20
2.384044852620146
 30
0.0
 40
0.025
100
AcDbArc
 50
180.0
 51
0.0
  0
LINE
  5
2D2
330
1CE
100
AcDbEntity
  8
4
100
AcDbLine
 10
6.375499999999999
 20
1.592998668630366
 30
0.0
 11
6.4375
 21
1.592998668630366
 31
0.0
  0
ARC
  5
2D3
330
1CE
100
AcDbEntity
  8
4
100
AcDbCircle
 10
6.955500000000001
 20
2.384044852620146
 30
0.0
 40
0.025
100
AcDbArc
 50
180.0
 51
0.0
  0
LINE
  5
2D4
330
1CE
100
AcDbEntity
  8
4
100
AcDbLine
 10
7.624500000000002
 20
1.592998668630366
 30
0.0
 11
7.5625
 21
1.592998668630366
 31
0.0
  0
ARC
  5
2D5
330
1CE
100
AcDbEntity
  8
4
100
AcDbCircle
 10
7.0445
 20
2.384044852620146
 30
0.0
 40
0.025
100
AcDbArc
 50
180.0
 51
0.0
  0
LINE
  5
2D6
330
1CE
100
AcDbEntity
  8
4
100
AcDbLine
 10
5.065500000000001
 20
4.404998668630366
 30
0.0
 11
5.065500000000001
 21
3.551960393296852
 31
0.0
  0
LINE
  5
2D7
330
1CE
100
AcDbEntity
  8
4
100
AcDbLine
 10
5.065500000000002
 20
2.447004547187495
 30
0.0
 11
5.127500000000003
 21
2.447004547187495
 31
0.0
  0
LINE
  5
2D8
330
1CE
100
AcDbEntity
  8
4
100
AcDbLine
 10
5.065500000000002
 20
2.572960393296852
 30
0.0
 11
5.127500000000002
 21
2.572960393296852
 31
0.0
  0
LINE
  5
2D9
330
1CE
100
AcDbEntity
  8
4
100
AcDbLine
 10
5.127500000000002
 20
2.479004547187495
 30
0.0
 11
5.065500000000001
 21
2.479004547187495
 31
0.0
  0
LINE
  5
2DA
330
1CE
100
AcDbEntity
  8
4
100
AcDbLine
 10
5.065500000000001
 20
2.541004547187496
 30
0.0
 11
5.173500000000001
 21
2.541004547187496
 31
0.0
  0
LINE
  5
2DB
330
1CE
100
AcDbEntity
  8
4
100
AcDbLine
 10
5.188500000000002
 20
2.526004547187495
 30
0.0
 11
5.090500000000002
 21
2.526004547187495
 31
0.0
  0
LINE
  5
2DC
330
1CE
100
AcDbEntity
  8
4
100
AcDbLine
 10
5.188500000000001
 20
3.505004547187495
 30
0.0
 11
5.090500000000001
 21
3.505004547187495
 31
0.0
  0
LINE
  5
2DD
330
1CE
100
AcDbEntity
  8
4
100
AcDbLine
 10
5.065500000000001
 20
3.520004547187496
 30
0.0
 11
5.1735
 21
3.520004547187496
 31
0.0
  0
LINE
  5
2DE
330
1CE
100
AcDbEntity
  8
4
100
AcDbLine
 10
5.127500000000001
 20
3.458004547187496
 30
0.0
 11
5.065500000000001
 21
3.458004547187496
 31
0.0
  0
LINE
  5
2DF
330
1CE
100
AcDbEntity
  8
4
100
AcDbLine
 10
5.065500000000001
 20
3.551960393296853
 30
0.0
 11
5.127500000000001
 21
3.551960393296853
 31
0.0
  0
LINE
  5
2E0
330
1CE
100
AcDbEntity
  8
4
100
AcDbLine
 10
5.065500000000001
 20
3.426004547187496
 30
0.0
 11
5.127500000000002
 21
3.426004547187496
 31
0.0
  0
LINE
  5
2E1
330
1CE
100
AcDbEntity
  8
4
100
AcDbLine
 10
5.065500000000001
 20
3.426004547187496
 30
0.0
 11
5.065500000000001
 21
2.572960393296852
 31
0.0
  0
INSERT
  5
2E2
330
1CE
100
AcDbEntity
  8
4
100
AcDbBlockReference
 66
     1
  2
FRACTION
 10
4.790032040623011
 20
3.023469994971744
 30
0.0
 41
0.5999999999999997
 42
0.5999999999999997
 43
0.6
 50
90.0
  0
ATTRIB
  5
2E3
330
2E2
100
AcDbEntity
  8
8
100
AcDbText
 10
4.731532040623016
 20
2.879723464203097
 30
0.0
 40
0.075
  1
19
 50
90.0
 72
     2
 11
4.731532040623016
 21
2.979723464203098
 31
0.0
100
AcDbAttribute
  2
A
 70
     0
  0
ATTRIB
  5
2E4
330
2E2
100
AcDbEntity
  8
8
100
AcDbText
 10
4.682032040623014
 20
3.036669994971743
 30
0.0
 40
0.06
  1
11
 50
90.0
 72
     1
 11
4.682032040623014
 21
3.066669994971743
 31
0.0
100
AcDbAttribute
  2
B
 70
     0
  0
ATTRIB
  5
2E5
330
2E2
100
AcDbEntity
  8
8
100
AcDbText
 10
4.766032040623014
 20
3.026669994971743
 30
0.0
 40
0.06
  1
16
 50
90.0
 72
     1
 11
4.766032040623014
 21
3.066669994971743
 31
0.0
100
AcDbAttribute
  2
C
 70
     0
  0
SEQEND
  5
2E6
330
2E2
100
AcDbEntity
  8
4
  0
LINE
  5
2E7
330
1CE
100
AcDbEntity
  8
4
100
AcDbLine
 10
5.002500000000003
 20
2.541004547187496
 30
0.0
 11
4.812500000000002
 21
2.541004547187496
 31
0.0
  0
INSERT
  5
2E8
330
1CE
100
AcDbEntity
  8
4
100
AcDbBlockReference
  2
ARRO2
 10
4.812500000000002
 20
2.541004547187496
 30
0.0
 50
90.0
  0
LINE
  5
2E9
330
1CE
100
AcDbEntity
  8
4
100
AcDbLine
 10
4.812500000000002
 20
2.541004547187496
 30
0.0
 11
4.750500000000002
 21
2.541004547187496
 31
0.0
  0
LINE
  5
2EA
330
1CE
100
AcDbEntity
  8
4
100
AcDbLine
 10
5.065500000000001
 20
2.479004547187495
 30
0.0
 11
5.065500000000001
 21
2.541004547187496
 31
0.0
  0
LINE
  5
2EB
330
1CE
100
AcDbEntity
  8
4
100
AcDbLine
 10
5.090500000000002
 20
2.526004547187495
 30
0.0
 11
5.090500000000002
 21
2.497758404749935
 31
0.0
  0
INSERT
  5
2EC
330
1CE
100
AcDbEntity
  8
4
100
AcDbBlockReference
  2
ARRO2
 10
4.812500000000001
 20
3.520004547187496
 30
0.0
 50
90.0
  0
LINE
  5
2ED
330
1CE
100
AcDbEntity
  8
4
100
AcDbLine
 10
5.002500000000002
 20
3.520004547187496
 30
0.0
 11
4.812500000000001
 21
3.520004547187496
 31
0.0
  0
LINE
  5
2EE
330
1CE
100
AcDbEntity
  8
4
100
AcDbLine
 10
4.812500000000001
 20
3.520004547187496
 30
0.0
 11
4.750500000000001
 21
3.520004547187496
 31
0.0
  0
LINE
  5
2EF
330
1CE
100
AcDbEntity
  8
4
100
AcDbLine
 10
5.090500000000001
 20
3.505004547187495
 30
0.0
 11
5.090500000000001
 21
3.476758404749936
 31
0.0
  0
LINE
  5
2F0
330
1CE
100
AcDbEntity
  8
4
100
AcDbLine
 10
5.065500000000001
 20
3.458004547187496
 30
0.0
 11
5.065500000000001
 21
3.520004547187496
 31
0.0
  0
LINE
  5
2F1
330
1CE
100
AcDbEntity
  8
4
100
AcDbLine
 10
5.203500000000001
 20
2.541004547187496
 30
0.0
 11
5.670500000000002
 21
2.541004547187496
 31
0.0
  0
LINE
  5
2F2
330
1CE
100
AcDbEntity
  8
4
100
AcDbLine
 10
5.630500000000002
 20
2.479004547187495
 30
0.0
 11
5.265500000000002
 21
2.479004547187495
 31
0.0
  0
LINE
  5
2F3
330
1CE
100
AcDbEntity
  8
4
100
AcDbLine
 10
5.265500000000002
 20
2.479004547187495
 30
0.0
 11
5.203500000000001
 21
2.541004547187496
 31
0.0
  0
LINE
  5
2F4
330
1CE
100
AcDbEntity
  8
4
100
AcDbLine
 10
5.203500000000001
 20
2.541004547187496
 30
0.0
 11
5.188500000000002
 21
2.526004547187495
 31
0.0
  0
LINE
  5
2F5
330
1CE
100
AcDbEntity
  8
4
100
AcDbLine
 10
5.357479890102488
 20
2.421044852620145
 30
0.0
 11
5.419479890102487
 21
2.421044852620145
 31
0.0
  0
LINE
  5
2F6
330
1CE
100
AcDbEntity
  8
4
100
AcDbLine
 10
5.670500000000002
 20
2.541004547187496
 30
0.0
 11
5.670500000000002
 21
2.479004547187495
 31
0.0
  0
LINE
  5
2F7
330
1CE
100
AcDbEntity
  8
4
100
AcDbLine
 10
5.630500000000002
 20
2.541004547187496
 30
0.0
 11
5.630500000000002
 21
2.479004547187495
 31
0.0
  0
LINE
  5
2F8
330
1CE
100
AcDbEntity
  8
4
100
AcDbLine
 10
5.630500000000001
 20
3.458004547187496
 30
0.0
 11
5.265500000000001
 21
3.458004547187496
 31
0.0
  0
LINE
  5
2F9
330
1CE
100
AcDbEntity
  8
4
100
AcDbLine
 10
5.2035
 20
3.520004547187496
 30
0.0
 11
5.670500000000001
 21
3.520004547187496
 31
0.0
  0
LINE
  5
2FA
330
1CE
100
AcDbEntity
  8
4
100
AcDbLine
 10
5.357479890102487
 20
3.400044852620146
 30
0.0
 11
5.419479890102486
 21
3.400044852620146
 31
0.0
  0
LINE
  5
2FB
330
1CE
100
AcDbEntity
  8
4
100
AcDbLine
 10
5.388479890102487
 20
3.400044852620146
 30
0.0
 11
5.388479890102487
 21
3.338044852620146
 31
0.0
  0
LINE
  5
2FC
330
1CE
100
AcDbEntity
  8
4
100
AcDbLine
 10
5.265500000000001
 20
3.458004547187496
 30
0.0
 11
5.2035
 21
3.520004547187496
 31
0.0
  0
LINE
  5
2FD
330
1CE
100
AcDbEntity
  8
4
100
AcDbLine
 10
5.2035
 20
3.520004547187496
 30
0.0
 11
5.188500000000001
 21
3.505004547187495
 31
0.0
  0
ARC
  5
2FE
330
1CE
100
AcDbEntity
  8
4
100
AcDbCircle
 10
5.645500000000002
 20
3.363044852620147
 30
0.0
 40
0.025
100
AcDbArc
 50
180.0
 51
0.0
  0
LINE
  5
2FF
330
1CE
100
AcDbEntity
  8
4
100
AcDbLine
 10
5.670500000000002
 20
3.363044852620147
 30
0.0
 11
5.670500000000002
 21
3.413044852620146
 31
0.0
  0
LINE
  5
300
330
1CE
100
AcDbEntity
  8
4
100
AcDbLine
 10
5.630500000000001
 20
3.520004547187496
 30
0.0
 11
5.630500000000001
 21
3.458004547187496
 31
0.0
  0
LINE
  5
301
330
1CE
100
AcDbEntity
  8
4
100
AcDbLine
 10
5.670500000000001
 20
3.520004547187496
 30
0.0
 11
5.670500000000001
 21
3.458004547187496
 31
0.0
  0
LINE
  5
302
330
1CE
100
AcDbEntity
  8
4
100
AcDbLine
 10
5.0655
 20
4.404998668630366
 30
0.0
 11
5.1275
 21
4.404998668630366
 31
0.0
  0
INSERT
  5
303
330
1CE
100
AcDbEntity
  8
4
100
AcDbBlockReference
 66
     1
  2
FRACTION
 10
4.790032040623011
 20
4.058463161593758
 30
0.0
 41
0.5999999999999997
 42
0.5999999999999997
 43
0.6
 50
90.0
  0
ATTRIB
  5
304
330
303
100
AcDbEntity
  8
8
100
AcDbText
 10
4.731532040623016
 20
3.914716630825111
 30
0.0
 40
0.075
  1
19
 50
90.0
 72
     2
 11
4.731532040623016
 21
4.014716630825112
 31
0.0
100
AcDbAttribute
  2
A
 70
     0
  0
ATTRIB
  5
305
330
303
100
AcDbEntity
  8
8
100
AcDbText
 10
4.682032040623014
 20
4.061663161593757
 30
0.0
 40
0.06
  1
21
 50
90.0
 72
     1
 11
4.682032040623014
 21
4.101663161593757
 31
0.0
100
AcDbAttribute
  2
B
 70
     0
  0
ATTRIB
  5
306
330
303
100
AcDbEntity
  8
8
100
AcDbText
 10
4.766032040623014
 20
4.051663161593757
 30
0.0
 40
0.06
  1
32
 50
90.0
 72
     1
 11
4.766032040623014
 21
4.101663161593757
 31
0.0
100
AcDbAttribute
  2
C
 70
     0
  0
SEQEND
  5
307
330
303
100
AcDbEntity
  8
4
  0
INSERT
  5
308
330
1CE
100
AcDbEntity
  8
4
100
AcDbBlockReference
  2
ARRO
 10
4.8125
 20
4.498998668630365
 30
0.0
 50
270.0
  0
LINE
  5
309
330
1CE
100
AcDbEntity
  8
4
100
AcDbLine
 10
5.388479890102486
 20
4.378998668630365
 30
0.0
 11
5.388479890102486
 21
4.316998668630366
 31
0.0
  0
LINE
  5
30A
330
1CE
100
AcDbEntity
  8
4
100
AcDbLine
 10
5.357479890102486
 20
4.378998668630365
 30
0.0
 11
5.419479890102485
 21
4.378998668630365
 31
0.0
  0
ARC
  5
30B
330
1CE
100
AcDbEntity
  8
4
100
AcDbCircle
 10
5.645500000000001
 20
4.341998668630367
 30
0.0
 40
0.025
100
AcDbArc
 50
180.0
 51
0.0
  0
LINE
  5
30C
330
1CE
100
AcDbEntity
  8
4
100
AcDbLine
 10
5.670500000000001
 20
4.341998668630367
 30
0.0
 11
5.670500000000001
 21
4.391998668630366
 31
0.0
  0
LINE
  5
30D
330
1CE
100
AcDbEntity
  8
4
100
AcDbLine
 10
7.624500000000002
 20
4.404998668630366
 30
0.0
 11
7.624500000000002
 21
3.551960393296852
 31
0.0
  0
LINE
  5
30E
330
1CE
100
AcDbEntity
  8
4
100
AcDbLine
 10
6.375499999999999
 20
4.404998668630366
 30
0.0
 11
6.375499999999999
 21
3.551960393296852
 31
0.0
  0
LINE
  5
30F
330
1CE
100
AcDbEntity
  8
4
100
AcDbLine
 10
6.375499999999999
 20
3.426004547187496
 30
0.0
 11
6.375499999999999
 21
2.572960393296852
 31
0.0
  0
LINE
  5
310
330
1CE
100
AcDbEntity
  8
4
100
AcDbLine
 10
6.513500000000001
 20
2.541004547187496
 30
0.0
 11
6.4985
 21
2.526004547187495
 31
0.0
  0
LINE
  5
311
330
1CE
100
AcDbEntity
  8
4
100
AcDbLine
 10
6.375499999999999
 20
2.541004547187496
 30
0.0
 11
6.4835
 21
2.541004547187496
 31
0.0
  0
LINE
  5
312
330
1CE
100
AcDbEntity
  8
4
100
AcDbLine
 10
6.4375
 20
2.479004547187495
 30
0.0
 11
6.375499999999999
 21
2.479004547187495
 31
0.0
  0
LINE
  5
313
330
1CE
100
AcDbEntity
  8
4
100
AcDbLine
 10
6.375500000000001
 20
2.447004547187495
 30
0.0
 11
6.4375
 21
2.447004547187495
 31
0.0
  0
LINE
  5
314
330
1CE
100
AcDbEntity
  8
4
100
AcDbLine
 10
6.375499999999999
 20
2.479004547187495
 30
0.0
 11
6.375499999999999
 21
2.541004547187496
 31
0.0
  0
LINE
  5
315
330
1CE
100
AcDbEntity
  8
4
100
AcDbLine
 10
6.4985
 20
2.526004547187495
 30
0.0
 11
6.400500000000001
 21
2.526004547187495
 31
0.0
  0
LINE
  5
316
330
1CE
100
AcDbEntity
  8
4
100
AcDbLine
 10
6.400500000000001
 20
2.526004547187495
 30
0.0
 11
6.400500000000001
 21
2.497758404749935
 31
0.0
  0
LINE
  5
317
330
1CE
100
AcDbEntity
  8
4
100
AcDbLine
 10
6.375500000000001
 20
2.572960393296852
 30
0.0
 11
6.4375
 21
2.572960393296852
 31
0.0
  0
LINE
  5
318
330
1CE
100
AcDbEntity
  8
4
100
AcDbLine
 10
6.940500000000001
 20
2.479004547187495
 30
0.0
 11
6.5755
 21
2.479004547187495
 31
0.0
  0
LINE
  5
319
330
1CE
100
AcDbEntity
  8
4
100
AcDbLine
 10
6.513500000000001
 20
2.541004547187496
 30
0.0
 11
6.9805
 21
2.541004547187496
 31
0.0
  0
LINE
  5
31A
330
1CE
100
AcDbEntity
  8
4
100
AcDbLine
 10
6.5755
 20
2.479004547187495
 30
0.0
 11
6.513500000000001
 21
2.541004547187496
 31
0.0
  0
LINE
  5
31B
330
1CE
100
AcDbEntity
  8
4
100
AcDbLine
 10
6.667479890102486
 20
2.421044852620145
 30
0.0
 11
6.729479890102486
 21
2.421044852620145
 31
0.0
  0
LINE
  5
31C
330
1CE
100
AcDbEntity
  8
4
100
AcDbLine
 10
6.940500000000001
 20
2.541004547187496
 30
0.0
 11
6.940500000000001
 21
2.479004547187495
 31
0.0
  0
LINE
  5
31D
330
1CE
100
AcDbEntity
  8
4
100
AcDbLine
 10
6.9805
 20
2.541004547187496
 30
0.0
 11
6.9805
 21
2.479004547187495
 31
0.0
  0
LINE
  5
31E
330
1CE
100
AcDbEntity
  8
4
100
AcDbLine
 10
6.513499999999999
 20
3.520004547187496
 30
0.0
 11
6.4985
 21
3.505004547187495
 31
0.0
  0
LINE
  5
31F
330
1CE
100
AcDbEntity
  8
4
100
AcDbLine
 10
6.375499999999999
 20
3.426004547187496
 30
0.0
 11
6.4375
 21
3.426004547187496
 31
0.0
  0
LINE
  5
320
330
1CE
100
AcDbEntity
  8
4
100
AcDbLine
 10
6.4375
 20
3.458004547187496
 30
0.0
 11
6.375499999999999
 21
3.458004547187496
 31
0.0
  0
LINE
  5
321
330
1CE
100
AcDbEntity
  8
4
100
AcDbLine
 10
6.375499999999999
 20
3.520004547187496
 30
0.0
 11
6.4835
 21
3.520004547187496
 31
0.0
  0
LINE
  5
322
330
1CE
100
AcDbEntity
  8
4
100
AcDbLine
 10
6.375499999999999
 20
3.551960393296852
 30
0.0
 11
6.4375
 21
3.551960393296852
 31
0.0
  0
LINE
  5
323
330
1CE
100
AcDbEntity
  8
4
100
AcDbLine
 10
6.375499999999999
 20
3.458004547187496
 30
0.0
 11
6.375499999999999
 21
3.520004547187496
 31
0.0
  0
LINE
  5
324
330
1CE
100
AcDbEntity
  8
4
100
AcDbLine
 10
6.4005
 20
3.505004547187495
 30
0.0
 11
6.4005
 21
3.476758404749936
 31
0.0
  0
LINE
  5
325
330
1CE
100
AcDbEntity
  8
4
100
AcDbLine
 10
6.4985
 20
3.505004547187495
 30
0.0
 11
6.4005
 21
3.505004547187495
 31
0.0
  0
LINE
  5
326
330
1CE
100
AcDbEntity
  8
4
100
AcDbLine
 10
6.698479890102485
 20
3.400044852620146
 30
0.0
 11
6.698479890102485
 21
3.338044852620146
 31
0.0
  0
LINE
  5
327
330
1CE
100
AcDbEntity
  8
4
100
AcDbLine
 10
6.667479890102485
 20
3.400044852620146
 30
0.0
 11
6.729479890102486
 21
3.400044852620146
 31
0.0
  0
LINE
  5
328
330
1CE
100
AcDbEntity
  8
4
100
AcDbLine
 10
6.9805
 20
3.363044852620147
 30
0.0
 11
6.9805
 21
3.413044852620146
 31
0.0
  0
ARC
  5
329
330
1CE
100
AcDbEntity
  8
4
100
AcDbCircle
 10
6.955500000000001
 20
3.363044852620147
 30
0.0
 40
0.025
100
AcDbArc
 50
180.0
 51
0.0
  0
LINE
  5
32A
330
1CE
100
AcDbEntity
  8
4
100
AcDbLine
 10
6.513499999999999
 20
3.520004547187496
 30
0.0
 11
6.9805
 21
3.520004547187496
 31
0.0
  0
LINE
  5
32B
330
1CE
100
AcDbEntity
  8
4
100
AcDbLine
 10
6.940500000000001
 20
3.458004547187496
 30
0.0
 11
6.575499999999999
 21
3.458004547187496
 31
0.0
  0
LINE
  5
32C
330
1CE
100
AcDbEntity
  8
4
100
AcDbLine
 10
6.575499999999999
 20
3.458004547187496
 30
0.0
 11
6.513499999999999
 21
3.520004547187496
 31
0.0
  0
LINE
  5
32D
330
1CE
100
AcDbEntity
  8
4
100
AcDbLine
 10
6.9805
 20
3.520004547187496
 30
0.0
 11
6.9805
 21
3.458004547187496
 31
0.0
  0
LINE
  5
32E
330
1CE
100
AcDbEntity
  8
4
100
AcDbLine
 10
6.940500000000001
 20
3.520004547187496
 30
0.0
 11
6.940500000000001
 21
3.458004547187496
 31
0.0
  0
LINE
  5
32F
330
1CE
100
AcDbEntity
  8
4
100
AcDbLine
 10
7.624500000000002
 20
3.426004547187496
 30
0.0
 11
7.624500000000002
 21
2.572960393296852
 31
0.0
  0
LINE
  5
330
330
1CE
100
AcDbEntity
  8
4
100
AcDbLine
 10
7.4865
 20
2.541004547187496
 30
0.0
 11
7.019500000000001
 21
2.541004547187496
 31
0.0
  0
LINE
  5
331
330
1CE
100
AcDbEntity
  8
4
100
AcDbLine
 10
7.4245
 20
2.479004547187495
 30
0.0
 11
7.4865
 21
2.541004547187496
 31
0.0
  0
LINE
  5
332
330
1CE
100
AcDbEntity
  8
4
100
AcDbLine
 10
7.0595
 20
2.479004547187495
 30
0.0
 11
7.4245
 21
2.479004547187495
 31
0.0
  0
LINE
  5
333
330
1CE
100
AcDbEntity
  8
4
100
AcDbLine
 10
7.019500000000001
 20
2.541004547187496
 30
0.0
 11
7.019500000000001
 21
2.479004547187495
 31
0.0
  0
LINE
  5
334
330
1CE
100
AcDbEntity
  8
4
100
AcDbLine
 10
7.0595
 20
2.541004547187496
 30
0.0
 11
7.0595
 21
2.479004547187495
 31
0.0
  0
LINE
  5
335
330
1CE
100
AcDbEntity
  8
4
100
AcDbLine
 10
7.332520109897514
 20
2.421044852620145
 30
0.0
 11
7.270520109897515
 21
2.421044852620145
 31
0.0
  0
LINE
  5
336
330
1CE
100
AcDbEntity
  8
4
100
AcDbLine
 10
7.6245
 20
2.447004547187495
 30
0.0
 11
7.5625
 21
2.447004547187495
 31
0.0
  0
LINE
  5
337
330
1CE
100
AcDbEntity
  8
4
100
AcDbLine
 10
7.5625
 20
2.479004547187495
 30
0.0
 11
7.624500000000002
 21
2.479004547187495
 31
0.0
  0
LINE
  5
338
330
1CE
100
AcDbEntity
  8
4
100
AcDbLine
 10
7.624500000000002
 20
2.541004547187496
 30
0.0
 11
7.516500000000001
 21
2.541004547187496
 31
0.0
  0
LINE
  5
339
330
1CE
100
AcDbEntity
  8
4
100
AcDbLine
 10
7.5015
 20
2.526004547187495
 30
0.0
 11
7.599499999999999
 21
2.526004547187495
 31
0.0
  0
LINE
  5
33A
330
1CE
100
AcDbEntity
  8
4
100
AcDbLine
 10
7.4865
 20
2.541004547187496
 30
0.0
 11
7.5015
 21
2.526004547187495
 31
0.0
  0
LINE
  5
33B
330
1CE
100
AcDbEntity
  8
4
100
AcDbLine
 10
7.624500000000002
 20
2.479004547187495
 30
0.0
 11
7.624500000000002
 21
2.541004547187496
 31
0.0
  0
LINE
  5
33C
330
1CE
100
AcDbEntity
  8
4
100
AcDbLine
 10
7.599499999999999
 20
2.526004547187495
 30
0.0
 11
7.599499999999999
 21
2.497758404749935
 31
0.0
  0
LINE
  5
33D
330
1CE
100
AcDbEntity
  8
4
100
AcDbLine
 10
7.6245
 20
2.572960393296852
 30
0.0
 11
7.5625
 21
2.572960393296852
 31
0.0
  0
LINE
  5
33E
330
1CE
100
AcDbEntity
  8
4
100
AcDbLine
 10
7.424500000000002
 20
3.458004547187496
 30
0.0
 11
7.486500000000002
 21
3.520004547187496
 31
0.0
  0
LINE
  5
33F
330
1CE
100
AcDbEntity
  8
4
100
AcDbLine
 10
7.486500000000002
 20
3.520004547187496
 30
0.0
 11
7.019500000000001
 21
3.520004547187496
 31
0.0
  0
ARC
  5
340
330
1CE
100
AcDbEntity
  8
4
100
AcDbCircle
 10
7.0445
 20
3.363044852620147
 30
0.0
 40
0.025
100
AcDbArc
 50
180.0
 51
0.0
  0
LINE
  5
341
330
1CE
100
AcDbEntity
  8
4
100
AcDbLine
 10
7.019500000000001
 20
3.363044852620147
 30
0.0
 11
7.019500000000001
 21
3.413044852620146
 31
0.0
  0
LINE
  5
342
330
1CE
100
AcDbEntity
  8
4
100
AcDbLine
 10
7.332520109897516
 20
3.400044852620146
 30
0.0
 11
7.270520109897517
 21
3.400044852620146
 31
0.0
  0
LINE
  5
343
330
1CE
100
AcDbEntity
  8
4
100
AcDbLine
 10
7.301520109897517
 20
3.400044852620146
 30
0.0
 11
7.301520109897517
 21
3.338044852620146
 31
0.0
  0
LINE
  5
344
330
1CE
100
AcDbEntity
  8
4
100
AcDbLine
 10
7.0595
 20
3.458004547187496
 30
0.0
 11
7.424500000000002
 21
3.458004547187496
 31
0.0
  0
LINE
  5
345
330
1CE
100
AcDbEntity
  8
4
100
AcDbLine
 10
7.0595
 20
3.520004547187496
 30
0.0
 11
7.0595
 21
3.458004547187496
 31
0.0
  0
LINE
  5
346
330
1CE
100
AcDbEntity
  8
4
100
AcDbLine
 10
7.019500000000001
 20
3.520004547187496
 30
0.0
 11
7.019500000000001
 21
3.458004547187496
 31
0.0
  0
LINE
  5
347
330
1CE
100
AcDbEntity
  8
4
100
AcDbLine
 10
7.5625
 20
3.426004547187496
 30
0.0
 11
7.6245
 21
3.426004547187496
 31
0.0
  0
LINE
  5
348
330
1CE
100
AcDbEntity
  8
4
100
AcDbLine
 10
7.5015
 20
3.505004547187495
 30
0.0
 11
7.599500000000001
 21
3.505004547187495
 31
0.0
  0
LINE
  5
349
330
1CE
100
AcDbEntity
  8
4
100
AcDbLine
 10
7.624500000000002
 20
3.520004547187496
 30
0.0
 11
7.516500000000001
 21
3.520004547187496
 31
0.0
  0
LINE
  5
34A
330
1CE
100
AcDbEntity
  8
4
100
AcDbLine
 10
7.5625
 20
3.458004547187496
 30
0.0
 11
7.624500000000002
 21
3.458004547187496
 31
0.0
  0
LINE
  5
34B
330
1CE
100
AcDbEntity
  8
4
100
AcDbLine
 10
7.5625
 20
3.551960393296852
 30
0.0
 11
7.6245
 21
3.551960393296852
 31
0.0
  0
LINE
  5
34C
330
1CE
100
AcDbEntity
  8
4
100
AcDbLine
 10
7.486500000000002
 20
3.520004547187496
 30
0.0
 11
7.5015
 21
3.505004547187495
 31
0.0
  0
LINE
  5
34D
330
1CE
100
AcDbEntity
  8
4
100
AcDbLine
 10
7.599500000000001
 20
3.505004547187495
 30
0.0
 11
7.599500000000001
 21
3.476758404749936
 31
0.0
  0
LINE
  5
34E
330
1CE
100
AcDbEntity
  8
4
100
AcDbLine
 10
7.624500000000002
 20
3.458004547187496
 30
0.0
 11
7.624500000000002
 21
3.520004547187496
 31
0.0
  0
LINE
  5
34F
330
1CE
100
AcDbEntity
  8
4
100
AcDbLine
 10
6.375499999999999
 20
4.404998668630366
 30
0.0
 11
6.4375
 21
4.404998668630366
 31
0.0
  0
LINE
  5
350
330
1CE
100
AcDbEntity
  8
4
100
AcDbLine
 10
6.698479890102485
 20
4.378998668630365
 30
0.0
 11
6.698479890102485
 21
4.316998668630366
 31
0.0
  0
LINE
  5
351
330
1CE
100
AcDbEntity
  8
4
100
AcDbLine
 10
6.667479890102485
 20
4.378998668630365
 30
0.0
 11
6.729479890102486
 21
4.378998668630365
 31
0.0
  0
ARC
  5
352
330
1CE
100
AcDbEntity
  8
4
100
AcDbCircle
 10
6.955500000000001
 20
4.341998668630367
 30
0.0
 40
0.025
100
AcDbArc
 50
180.0
 51
0.0
  0
LINE
  5
353
330
1CE
100
AcDbEntity
  8
4
100
AcDbLine
 10
6.9805
 20
4.341998668630367
 30
0.0
 11
6.9805
 21
4.391998668630366
 31
0.0
  0
ARC
  5
354
330
1CE
100
AcDbEntity
  8
4
100
AcDbCircle
 10
7.0445
 20
4.341998668630367
 30
0.0
 40
0.025
100
AcDbArc
 50
180.0
 51
0.0
  0
LINE
  5
355
330
1CE
100
AcDbEntity
  8
4
100
AcDbLine
 10
7.019500000000001
 20
4.341998668630367
 30
0.0
 11
7.019500000000001
 21
4.391998668630366
 31
0.0
  0
LINE
  5
356
330
1CE
100
AcDbEntity
  8
4
100
AcDbLine
 10
7.301520109897517
 20
4.378998668630365
 30
0.0
 11
7.301520109897517
 21
4.316998668630366
 31
0.0
  0
LINE
  5
357
330
1CE
100
AcDbEntity
  8
4
100
AcDbLine
 10
7.332520109897516
 20
4.378998668630365
 30
0.0
 11
7.270520109897517
 21
4.378998668630365
 31
0.0
  0
LINE
  5
358
330
1CE
100
AcDbEntity
  8
4
100
AcDbLine
 10
7.624500000000002
 20
4.404998668630366
 30
0.0
 11
7.5625
 21
4.404998668630366
 31
0.0
  0
ENDBLK
  5
35A
330
1CE
100
AcDbEntity
  8
0
100
AcDbBlockEnd
  0
BLOCK
  5
35E
330
35C
100
AcDbEntity
  8
0
100
AcDbBlockBegin
  2
LE1217
 70
     0
 10
0.0
 20
0.0
 30
0.0
  3
LE1217
  1

  0
INSERT
  5
35D
330
35C
100
AcDbEntity
  8
4
100
AcDbBlockReference
  2
SPL2CORRIDORTT60
 10
0.0
 20
0.0
 30
0.0
  0
ENDBLK
  5
35F
330
35C
100
AcDbEntity
  8
0
100
AcDbBlockEnd
  0
ENDSEC
  0
SECTION
  2
ENTITIES
  0
TEXT
  5
36A
330
1F
100
AcDbEntity
  8
8
100
AcDbText
 10
3.024471081514398
 20
1.853170628388486
 30
0.0
 40
0.125
  1
SINGLE POINT 2 CORRIDOR LOCKER  -  60" TRIPLE TIER
  7
ROMANS
 72
     1
 11
5.851852033895348
 21
1.853170628388486
 31
0.0
100
AcDbText
  0
LINE
  5
36B
330
1F
100
AcDbEntity
  8
4
  6
HIDDEN
100
AcDbLine
 10
3.143198725138351
 20
3.362339934957698
 30
0.0
 11
3.143198725138351
 21
4.203331589113769
 31
0.0
  0
LINE
  5
36C
330
1F
100
AcDbEntity
  8
4
  6
HIDDEN
100
AcDbLine
 10
3.16428343043835
 20
3.362339934957701
 30
0.0
 11
3.16428343043835
 21
4.203331589113769
 31
0.0
  0
LINE
  5
36D
330
1F
100
AcDbEntity
  8
4
  6
HIDDEN
100
AcDbLine
 10
3.233426067638347
 20
3.362339934957701
 30
0.0
 11
3.233426067638347
 21
4.203331589113777
 31
0.0
  0
LINE
  5
36E
330
1F
100
AcDbEntity
  8
4
  6
HIDDEN
100
AcDbLine
 10
3.212341362338348
 20
3.362339934957701
 30
0.0
 11
3.212341362338348
 21
4.203331589113773
 31
0.0
  0
INSERT
  5
36F
330
1F
100
AcDbEntity
  8
4
100
AcDbBlockReference
  2
TEMP3
 10
2.312763916418665
 20
4.967839510195528
 30
0.0
  0
LINE
  5
370
330
1F
100
AcDbEntity
  8
4
100
AcDbLine
 10
4.943852033895349
 20
4.181216812378266
 30
0.0
 11
4.943852033895349
 21
4.119216812378267
 31
0.0
  0
LINE
  5
371
330
1F
100
AcDbEntity
  8
4
100
AcDbLine
 10
4.881852033895349
 20
4.181216812378266
 30
0.0
 11
4.881852033895349
 21
4.119216812378267
 31
0.0
  0
LINE
  5
372
330
1F
100
AcDbEntity
  8
4
100
AcDbLine
 10
3.631852033895349
 20
4.181216812378266
 30
0.0
 11
3.631852033895349
 21
4.119216812378267
 31
0.0
  0
LINE
  5
373
330
1F
100
AcDbEntity
  8
4
100
AcDbLine
 10
3.693852033895349
 20
4.181216812378266
 30
0.0
 11
3.693852033895349
 21
4.119216812378267
 31
0.0
  0
LINE
  5
374
330
1F
100
AcDbEntity
  8
4
100
AcDbLine
 10
2.820852033895348
 20
4.207176506945617
 30
0.0
 11
2.820852033895348
 21
3.354171959758121
 31
0.0
  0
LINE
  5
375
330
1F
100
AcDbEntity
  8
4
100
AcDbLine
 10
3.257852033895347
 20
3.35421156646127
 30
0.0
 11
3.257852033895349
 21
4.207216113648765
 31
0.0
  0
ARC
  5
376
330
1F
100
AcDbEntity
  8
4
100
AcDbCircle
 10
3.042858784520348
 20
4.164437239445617
 30
0.0
 40
0.077168121875
100
AcDbArc
 50
167.5762104955836
 51
192.4237895044163
  0
ARC
  5
377
330
1F
100
AcDbEntity
  8
4
100
AcDbCircle
 10
2.97162667202035
 20
4.164437239445617
 30
0.0
 40
0.077168121875
100
AcDbArc
 50
347.5762104955836
 51
12.42378950441639
  0
POINT
  5
378
330
1F
100
AcDbEntity
  8
4
100
AcDbPoint
 10
1.726852033895347
 20
1.760171959758121
 30
0.0
  0
LINE
  5
379
330
1F
100
AcDbEntity
  8
4
100
AcDbLine
 10
3.257852033895347
 20
3.35421156646127
 30
0.0
 11
2.820852033895348
 21
3.354171959758121
 31
0.0
  0
LINE
  5
37A
330
1F
100
AcDbEntity
  8
4
100
AcDbLine
 10
2.989351414641919
 20
3.861407428825582
 30
0.0
 11
2.979496684484408
 21
3.703731746305433
 31
0.0
  0
LINE
  5
37B
330
1F
100
AcDbEntity
  8
4
100
AcDbLine
 10
2.830432934398779
 20
3.861407428825582
 30
0.0
 11
2.840287664556288
 21
3.703731746305433
 31
0.0
  0
LINE
  5
37C
330
1F
100
AcDbEntity
  8
4
100
AcDbLine
 10
2.845263727951132
 20
3.852502258771846
 30
0.0
 11
2.853287956132317
 21
3.724114607872858
 31
0.0
  0
LINE
  5
37D
330
1F
100
AcDbEntity
  8
4
100
AcDbLine
 10
2.974520621089566
 20
3.852502258771846
 30
0.0
 11
2.966496392908379
 21
3.724132494431845
 31
0.0
  0
ARC
  5
37E
330
1F
100
AcDbEntity
  8
4
100
AcDbCircle
 10
2.865170352299281
 20
3.705286914289367
 30
0.0
 40
0.024931239375
100
AcDbArc
 50
183.5763343749981
 51
270.0
  0
ARC
  5
37F
330
1F
100
AcDbEntity
  8
4
100
AcDbCircle
 10
2.947538154628003
 20
3.72531738432437
 30
0.0
 40
0.01899523
100
AcDbArc
 50
270.0
 51
356.4236656250018
  0
ARC
  5
380
330
1F
100
AcDbEntity
  8
4
100
AcDbCircle
 10
2.954613996741415
 20
3.705286914289367
 30
0.0
 40
0.024931239375
100
AcDbArc
 50
270.0
 51
356.4236656250018
  0
ARC
  5
381
330
1F
100
AcDbEntity
  8
4
100
AcDbCircle
 10
2.872246194412693
 20
3.72531738432437
 30
0.0
 40
0.01899523
100
AcDbArc
 50
183.5763343749981
 51
270.0
  0
LINE
  5
382
330
1F
100
AcDbEntity
  8
4
100
AcDbLine
 10
2.909892174520348
 20
3.680355674914367
 30
0.0
 11
2.865170352299281
 21
3.680355674914367
 31
0.0
  0
CIRCLE
  5
383
330
1F
100
AcDbEntity
  8
4
100
AcDbCircle
 10
2.909892174520348
 20
3.691040491789371
 30
0.0
 40
0.006834483754
  0
LINE
  5
384
330
1F
100
AcDbEntity
  8
4
100
AcDbLine
 10
2.909892174520348
 20
3.706322154324366
 30
0.0
 11
2.872246194412693
 21
3.706322154324371
 31
0.0
  0
LINE
  5
385
330
1F
100
AcDbEntity
  8
4
100
AcDbLine
 10
2.909892174520348
 20
3.680355674914367
 30
0.0
 11
2.954613996741415
 21
3.680355674914367
 31
0.0
  0
LINE
  5
386
330
1F
100
AcDbEntity
  8
4
100
AcDbLine
 10
2.909892174520348
 20
3.706322154324366
 30
0.0
 11
2.947538154628003
 21
3.706322154324371
 31
0.0
  0
CIRCLE
  5
387
330
1F
100
AcDbEntity
  8
4
100
AcDbCircle
 10
2.909892174520348
 20
3.780674233351867
 30
0.0
 40
0.0124656196875
  0
CIRCLE
  5
388
330
1F
100
AcDbEntity
  8
4
100
AcDbCircle
 10
2.909892174520348
 20
3.739150660571868
 30
0.0
 40
0.00414096014
  0
ARC
  5
389
330
1F
100
AcDbEntity
  8
4
100
AcDbCircle
 10
2.858870291819342
 20
3.863184763664367
 30
0.0
 40
0.028492845
100
AcDbArc
 50
90.0
 51
183.5763343749981
  0
ARC
  5
38A
330
1F
100
AcDbEntity
  8
4
100
AcDbCircle
 10
2.864221966231506
 20
3.853687148664367
 30
0.0
 40
0.01899523
100
AcDbArc
 50
90.0
 51
183.5763343749981
  0
ARC
  5
38B
330
1F
100
AcDbEntity
  8
4
100
AcDbCircle
 10
2.960914057221354
 20
3.863184763664367
 30
0.0
 40
0.028492845
100
AcDbArc
 50
356.4236656250018
 51
90.0
  0
ARC
  5
38C
330
1F
100
AcDbEntity
  8
4
100
AcDbCircle
 10
2.95556238280919
 20
3.853687148664367
 30
0.0
 40
0.01899523
100
AcDbArc
 50
356.4236656250018
 51
90.0
  0
LINE
  5
38D
330
1F
100
AcDbEntity
  8
4
 62
   130
100
AcDbLine
 10
2.869438991290523
 20
3.858342356201914
 30
0.0
 11
2.889611925550524
 21
3.838169421941915
 31
0.0
  0
LINE
  5
38E
330
1F
100
AcDbEntity
  8
4
100
AcDbLine
 10
2.871171646231929
 20
3.851614480865795
 30
0.0
 11
2.867813732246129
 21
3.848256566879996
 31
0.0
  0
LINE
  5
38F
330
1F
100
AcDbEntity
  8
4
 62
   130
100
AcDbLine
 10
2.861057637981967
 20
3.849961002893361
 30
0.0
 11
2.881230572241967
 21
3.82978806863336
 31
0.0
  0
LINE
  5
390
330
1F
100
AcDbEntity
  8
4
100
AcDbLine
 10
2.909892174520348
 20
3.872682378664367
 30
0.0
 11
2.864221966231506
 21
3.872682378664367
 31
0.0
  0
LINE
  5
391
330
1F
100
AcDbEntity
  8
4
100
AcDbLine
 10
2.862763429611486
 20
3.853306869514635
 30
0.0
 11
2.88457643886324
 21
3.831493860262882
 31
0.0
  0
LINE
  5
392
330
1F
100
AcDbEntity
  8
4
100
AcDbLine
 10
2.866121343597286
 20
3.856664783500435
 30
0.0
 11
2.887934352849041
 21
3.834851774248682
 31
0.0
  0
LINE
  5
393
330
1F
100
AcDbEntity
  8
4
100
AcDbLine
 10
2.866121343597286
 20
3.856664783500435
 30
0.0
 11
2.862763429611486
 21
3.853306869514635
 31
0.0
  0
ARC
  5
394
330
1F
100
AcDbEntity
  8
4
 62
   130
100
AcDbCircle
 10
2.865248314636246
 20
3.854151679547638
 30
0.0
 40
0.00592651176
100
AcDbArc
 50
44.99999999999996
 51
225.0
  0
LINE
  5
395
330
1F
100
AcDbEntity
  8
4
100
AcDbLine
 10
2.909892174520348
 20
3.872682378664367
 30
0.0
 11
2.95556238280919
 21
3.872682378664367
 31
0.0
  0
ARC
  5
396
330
1F
100
AcDbEntity
  8
4
 62
   130
100
AcDbCircle
 10
2.885421248896245
 20
3.833978745287639
 30
0.0
 40
0.00592651176
100
AcDbArc
 50
225.0
 51
44.99999999999996
  0
CIRCLE
  5
397
330
1F
100
AcDbEntity
  8
4
100
AcDbCircle
 10
2.909892174520348
 20
3.82219780613187
 30
0.0
 40
0.00414096014
  0
LINE
  5
398
330
1F
100
AcDbEntity
  8
4
100
AcDbLine
 10
2.88457643886324
 20
3.831493860262882
 30
0.0
 11
2.887934352849041
 21
3.834851774248682
 31
0.0
  0
LINE
  5
399
330
1F
100
AcDbEntity
  8
4
100
AcDbLine
 10
2.882884050214397
 20
3.839902076883325
 30
0.0
 11
2.879526136228599
 21
3.836544162897525
 31
0.0
  0
LINE
  5
39A
330
1F
100
AcDbEntity
  8
4
100
AcDbLine
 10
2.909892174520348
 20
3.891677608664367
 30
0.0
 11
2.858870291819342
 21
3.891677608664367
 31
0.0
  0
LINE
  5
39B
330
1F
100
AcDbEntity
  8
4
100
AcDbLine
 10
2.909892174520348
 20
3.891677608664367
 30
0.0
 11
2.960914057221354
 21
3.891677608664367
 31
0.0
  0
ARC
  5
39C
330
1F
100
AcDbEntity
  8
4
100
AcDbCircle
 10
3.007242728270349
 20
4.410781628508117
 30
0.0
 40
0.26593322
100
AcDbArc
 50
261.40466153832
 51
278.5953384616799
  0
LINE
  5
39D
330
1F
100
AcDbEntity
  8
4
100
AcDbLine
 10
3.251322423582849
 20
3.509138561864268
 30
0.0
 11
3.251322423582847
 21
3.432564040926768
 31
0.0
  0
LINE
  5
39E
330
1F
100
AcDbEntity
  8
4
100
AcDbLine
 10
3.233426067638347
 20
3.362339934957701
 30
0.0
 11
3.143198725138351
 21
3.362339934957698
 31
0.0
  0
LINE
  5
39F
330
1F
100
AcDbEntity
  8
4
100
AcDbLine
 10
3.251322423582847
 20
3.432564040926768
 30
0.0
 11
3.257852033895349
 21
3.432564040926768
 31
0.0
  0
LINE
  5
3A0
330
1F
100
AcDbEntity
  8
4
100
AcDbLine
 10
3.257852033895351
 20
3.509138561864268
 30
0.0
 11
3.251322423582849
 21
3.509138561864268
 31
0.0
  0
LINE
  5
3A1
330
1F
100
AcDbEntity
  8
4
100
AcDbLine
 10
3.263317606184766
 20
3.469370148336266
 30
0.0
 11
3.243384252381901
 21
3.469370148336266
 31
0.0
  0
LINE
  5
3A2
330
1F
100
AcDbEntity
  8
4
100
AcDbLine
 10
3.251322423582849
 20
4.130045142489269
 30
0.0
 11
3.251322423582847
 21
4.053470621551768
 31
0.0
  0
LINE
  5
3A3
330
1F
100
AcDbEntity
  8
4
100
AcDbLine
 10
3.251322423582847
 20
4.053470621551768
 30
0.0
 11
3.257852033895349
 21
4.053470621551768
 31
0.0
  0
LINE
  5
3A4
330
1F
100
AcDbEntity
  8
4
100
AcDbLine
 10
3.257852033895351
 20
4.130045142489269
 30
0.0
 11
3.251322423582849
 21
4.130045142489269
 31
0.0
  0
LINE
  5
3A5
330
1F
100
AcDbEntity
  8
4
100
AcDbLine
 10
3.263317606184766
 20
4.090276728961265
 30
0.0
 11
3.243384252381901
 21
4.090276728961265
 31
0.0
  0
ARC
  5
3A6
330
1F
100
AcDbEntity
  8
4
100
AcDbCircle
 10
3.438852033895349
 20
4.144216812378267
 30
0.0
 40
0.025
100
AcDbArc
 50
180.0
 51
0.0
  0
ARC
  5
3A7
330
1F
100
AcDbEntity
  8
4
100
AcDbCircle
 10
3.889852033895349
 20
4.144216812378267
 30
0.0
 40
0.025
100
AcDbArc
 50
180.0
 51
0.0
  0
ARC
  5
3A8
330
1F
100
AcDbEntity
  8
4
100
AcDbCircle
 10
4.514852033895348
 20
4.144216812378267
 30
0.0
 40
0.025
100
AcDbArc
 50
180.0
 51
0.0
  0
ARC
  5
3A9
330
1F
100
AcDbEntity
  8
4
100
AcDbCircle
 10
4.063852033895348
 20
4.144216812378267
 30
0.0
 40
0.025
100
AcDbArc
 50
180.0
 51
0.0
  0
ARC
  5
3AA
330
1F
100
AcDbEntity
  8
4
100
AcDbCircle
 10
4.688852033895348
 20
4.144216812378267
 30
0.0
 40
0.025
100
AcDbArc
 50
180.0
 51
0.0
  0
ARC
  5
3AB
330
1F
100
AcDbEntity
  8
4
100
AcDbCircle
 10
5.139852033895348
 20
4.144216812378267
 30
0.0
 40
0.025
100
AcDbArc
 50
180.0
 51
0.0
  0
LINE
  5
3AC
330
1F
100
AcDbEntity
  8
4
100
AcDbLine
 10
2.820852033895349
 20
6.165176506945617
 30
0.0
 11
2.820852033895349
 21
5.312171959758122
 31
0.0
  0
LINE
  5
3AD
330
1F
100
AcDbEntity
  8
4
100
AcDbLine
 10
3.257852033895347
 20
5.31221156646127
 30
0.0
 11
3.257852033895349
 21
6.165216113648765
 31
0.0
  0
LINE
  5
3AE
330
1F
100
AcDbEntity
  8
4
  6
HIDDEN
100
AcDbLine
 10
3.233426067638347
 20
5.320339934957702
 30
0.0
 11
3.233426067638347
 21
6.161331589113777
 31
0.0
  0
LINE
  5
3AF
330
1F
100
AcDbEntity
  8
4
  6
HIDDEN
100
AcDbLine
 10
3.212341362338348
 20
5.320339934957702
 30
0.0
 11
3.212341362338348
 21
6.161331589113773
 31
0.0
  0
LINE
  5
3B0
330
1F
100
AcDbEntity
  8
4
  6
HIDDEN
100
AcDbLine
 10
3.143198725138351
 20
5.320339934957698
 30
0.0
 11
3.143198725138351
 21
6.161331589113769
 31
0.0
  0
LINE
  5
3B1
330
1F
100
AcDbEntity
  8
4
  6
HIDDEN
100
AcDbLine
 10
3.16428343043835
 20
5.320339934957702
 30
0.0
 11
3.16428343043835
 21
6.161331589113769
 31
0.0
  0
LINE
  5
3B2
330
1F
100
AcDbEntity
  8
4
100
AcDbLine
 10
3.257852033895347
 20
4.33321156646127
 30
0.0
 11
2.820852033895349
 21
4.333171959758121
 31
0.0
  0
LINE
  5
3B3
330
1F
100
AcDbEntity
  8
4
100
AcDbLine
 10
3.257852033895349
 20
4.207216113648765
 30
0.0
 11
2.820852033895348
 21
4.207176506945617
 31
0.0
  0
LINE
  5
3B4
330
1F
100
AcDbEntity
  8
4
100
AcDbLine
 10
2.788852033895349
 20
4.239216113648766
 30
0.0
 11
3.289852033895349
 21
4.239216113648766
 31
0.0
  0
LINE
  5
3B5
330
1F
100
AcDbEntity
  8
4
100
AcDbLine
 10
2.788852033895349
 20
4.301216113648766
 30
0.0
 11
3.289852033895349
 21
4.301216113648766
 31
0.0
  0
LINE
  5
3B6
330
1F
100
AcDbEntity
  8
4
100
AcDbLine
 10
3.257852033895349
 20
5.186216113648765
 30
0.0
 11
2.820852033895349
 21
5.186176506945617
 31
0.0
  0
LINE
  5
3B7
330
1F
100
AcDbEntity
  8
4
100
AcDbLine
 10
3.257852033895347
 20
5.31221156646127
 30
0.0
 11
2.820852033895349
 21
5.312171959758122
 31
0.0
  0
LINE
  5
3B8
330
1F
100
AcDbEntity
  8
4
100
AcDbLine
 10
2.788852033895349
 20
5.280216113648766
 30
0.0
 11
3.289852033895349
 21
5.280216113648766
 31
0.0
  0
LINE
  5
3B9
330
1F
100
AcDbEntity
  8
4
100
AcDbLine
 10
2.788852033895349
 20
5.218216113648765
 30
0.0
 11
3.289852033895349
 21
5.218216113648765
 31
0.0
  0
LINE
  5
3BA
330
1F
100
AcDbEntity
  8
4
100
AcDbLine
 10
2.820852033895349
 20
5.186176506945617
 30
0.0
 11
2.820852033895349
 21
4.333171959758121
 31
0.0
  0
ARC
  5
3BB
330
1F
100
AcDbEntity
  8
4
100
AcDbCircle
 10
2.960914057221356
 20
4.842184763664367
 30
0.0
 40
0.028492845
100
AcDbArc
 50
356.4236656250018
 51
90.0
  0
ARC
  5
3BC
330
1F
100
AcDbEntity
  8
4
100
AcDbCircle
 10
2.858870291819342
 20
4.842184763664367
 30
0.0
 40
0.028492845
100
AcDbArc
 50
90.0
 51
183.5763343749981
  0
INSERT
  5
3BD
330
1F
100
AcDbEntity
  8
4
100
AcDbBlockReference
  2
ARRO
 10
2.687763916418665
 20
4.756857647299147
 30
0.0
 50
180.0
  0
LINE
  5
3BE
330
1F
100
AcDbEntity
  8
4
100
AcDbLine
 10
2.687763916418665
 20
4.756857647299147
 30
0.0
 11
2.312763916418665
 21
4.756857647299147
 31
0.0
  0
LINE
  5
3BF
330
1F
100
AcDbEntity
  8
4
100
AcDbLine
 10
2.312763916418665
 20
4.756857647299147
 30
0.0
 11
2.312763916418665
 21
4.694857647299147
 31
0.0
  0
ARC
  5
3C0
330
1F
100
AcDbEntity
  8
4
100
AcDbCircle
 10
3.007242728270349
 20
3.918092850383117
 30
0.0
 40
0.26593322
100
AcDbArc
 50
81.40466153832001
 51
98.59533846167998
  0
CIRCLE
  5
3C1
330
1F
100
AcDbEntity
  8
4
100
AcDbCircle
 10
2.97162667202035
 20
4.164437239445617
 30
0.0
 40
0.00258335128
  0
CIRCLE
  5
3C2
330
1F
100
AcDbEntity
  8
4
100
AcDbCircle
 10
3.042858784520348
 20
4.164437239445617
 30
0.0
 40
0.00258335128
  0
ARC
  5
3C3
330
1F
100
AcDbEntity
  8
4
100
AcDbCircle
 10
2.865170352299281
 20
4.684286914289367
 30
0.0
 40
0.024931239375
100
AcDbArc
 50
183.5763343749981
 51
270.0
  0
ARC
  5
3C4
330
1F
100
AcDbEntity
  8
4
100
AcDbCircle
 10
2.864221966231506
 20
4.832687148664367
 30
0.0
 40
0.01899523
100
AcDbArc
 50
90.0
 51
183.5763343749981
  0
LINE
  5
3C5
330
1F
100
AcDbEntity
  8
4
100
AcDbLine
 10
2.845263727951132
 20
4.831502258771846
 30
0.0
 11
2.853287956132319
 21
4.703114607872858
 31
0.0
  0
LINE
  5
3C6
330
1F
100
AcDbEntity
  8
4
100
AcDbLine
 10
2.830432934398779
 20
4.840407428825582
 30
0.0
 11
2.840287664556288
 21
4.682731746305434
 31
0.0
  0
ARC
  5
3C7
330
1F
100
AcDbEntity
  8
4
100
AcDbCircle
 10
2.872246194412693
 20
4.704317384324371
 30
0.0
 40
0.01899523
100
AcDbArc
 50
183.5763343749981
 51
270.0
  0
ARC
  5
3C8
330
1F
100
AcDbEntity
  8
4
100
AcDbCircle
 10
2.954613996741415
 20
4.684286914289367
 30
0.0
 40
0.024931239375
100
AcDbArc
 50
270.0
 51
356.4236656250018
  0
ARC
  5
3C9
330
1F
100
AcDbEntity
  8
4
100
AcDbCircle
 10
2.947538154628003
 20
4.704317384324371
 30
0.0
 40
0.01899523
100
AcDbArc
 50
270.0
 51
356.4236656250018
  0
LINE
  5
3CA
330
1F
100
AcDbEntity
  8
4
100
AcDbLine
 10
2.909892174520348
 20
4.659355674914367
 30
0.0
 11
2.865170352299281
 21
4.659355674914367
 31
0.0
  0
CIRCLE
  5
3CB
330
1F
100
AcDbEntity
  8
4
100
AcDbCircle
 10
2.909892174520348
 20
4.670040491789372
 30
0.0
 40
0.006834483754
  0
LINE
  5
3CC
330
1F
100
AcDbEntity
  8
4
100
AcDbLine
 10
2.909892174520348
 20
4.659355674914367
 30
0.0
 11
2.954613996741415
 21
4.659355674914367
 31
0.0
  0
ARC
  5
3CD
330
1F
100
AcDbEntity
  8
4
100
AcDbCircle
 10
2.955562382809191
 20
4.832687148664367
 30
0.0
 40
0.01899523
100
AcDbArc
 50
356.4236656250018
 51
90.0
  0
CIRCLE
  5
3CE
330
1F
100
AcDbEntity
  8
4
100
AcDbCircle
 10
2.909892174520348
 20
4.759674233351867
 30
0.0
 40
0.0124656196875
  0
LINE
  5
3CF
330
1F
100
AcDbEntity
  8
4
100
AcDbLine
 10
2.909892174520348
 20
4.685322154324366
 30
0.0
 11
2.872246194412693
 21
4.685322154324371
 31
0.0
  0
LINE
  5
3D0
330
1F
100
AcDbEntity
  8
4
100
AcDbLine
 10
2.909892174520348
 20
4.685322154324366
 30
0.0
 11
2.947538154628003
 21
4.685322154324371
 31
0.0
  0
CIRCLE
  5
3D1
330
1F
100
AcDbEntity
  8
4
100
AcDbCircle
 10
2.909892174520348
 20
4.718150660571869
 30
0.0
 40
0.00414096014
  0
LINE
  5
3D2
330
1F
100
AcDbEntity
  8
4
 62
   130
100
AcDbLine
 10
2.869438991290523
 20
4.837342356201914
 30
0.0
 11
2.889611925550524
 21
4.817169421941915
 31
0.0
  0
LINE
  5
3D3
330
1F
100
AcDbEntity
  8
4
100
AcDbLine
 10
2.871171646231929
 20
4.830614480865795
 30
0.0
 11
2.867813732246129
 21
4.827256566879996
 31
0.0
  0
LINE
  5
3D4
330
1F
100
AcDbEntity
  8
4
 62
   130
100
AcDbLine
 10
2.861057637981967
 20
4.828961002893361
 30
0.0
 11
2.881230572241968
 21
4.80878806863336
 31
0.0
  0
LINE
  5
3D5
330
1F
100
AcDbEntity
  8
4
100
AcDbLine
 10
2.909892174520348
 20
4.851682378664367
 30
0.0
 11
2.864221966231506
 21
4.851682378664367
 31
0.0
  0
LINE
  5
3D6
330
1F
100
AcDbEntity
  8
4
100
AcDbLine
 10
2.862763429611486
 20
4.832306869514635
 30
0.0
 11
2.88457643886324
 21
4.810493860262882
 31
0.0
  0
LINE
  5
3D7
330
1F
100
AcDbEntity
  8
4
100
AcDbLine
 10
2.866121343597286
 20
4.835664783500435
 30
0.0
 11
2.887934352849041
 21
4.813851774248682
 31
0.0
  0
LINE
  5
3D8
330
1F
100
AcDbEntity
  8
4
100
AcDbLine
 10
2.866121343597286
 20
4.835664783500435
 30
0.0
 11
2.862763429611486
 21
4.832306869514635
 31
0.0
  0
ARC
  5
3D9
330
1F
100
AcDbEntity
  8
4
 62
   130
100
AcDbCircle
 10
2.865248314636246
 20
4.833151679547638
 30
0.0
 40
0.00592651176
100
AcDbArc
 50
44.99999999999996
 51
225.0
  0
LINE
  5
3DA
330
1F
100
AcDbEntity
  8
4
100
AcDbLine
 10
2.882884050214397
 20
4.818902076883325
 30
0.0
 11
2.879526136228599
 21
4.815544162897525
 31
0.0
  0
LINE
  5
3DB
330
1F
100
AcDbEntity
  8
4
100
AcDbLine
 10
2.88457643886324
 20
4.810493860262882
 30
0.0
 11
2.887934352849041
 21
4.813851774248682
 31
0.0
  0
LINE
  5
3DC
330
1F
100
AcDbEntity
  8
4
100
AcDbLine
 10
2.909892174520348
 20
4.851682378664367
 30
0.0
 11
2.955562382809191
 21
4.851682378664367
 31
0.0
  0
CIRCLE
  5
3DD
330
1F
100
AcDbEntity
  8
4
100
AcDbCircle
 10
2.909892174520348
 20
4.80119780613187
 30
0.0
 40
0.00414096014
  0
ARC
  5
3DE
330
1F
100
AcDbEntity
  8
4
 62
   130
100
AcDbCircle
 10
2.885421248896247
 20
4.812978745287639
 30
0.0
 40
0.00592651176
100
AcDbArc
 50
225.0
 51
44.99999999999996
  0
LINE
  5
3DF
330
1F
100
AcDbEntity
  8
4
100
AcDbLine
 10
2.989351414641919
 20
4.840407428825582
 30
0.0
 11
2.979496684484408
 21
4.682731746305434
 31
0.0
  0
LINE
  5
3E0
330
1F
100
AcDbEntity
  8
4
100
AcDbLine
 10
2.974520621089566
 20
4.831502258771846
 30
0.0
 11
2.966496392908379
 21
4.703132494431845
 31
0.0
  0
INSERT
  5
3E1
330
1F
100
AcDbEntity
  8
4
100
AcDbBlockReference
  2
ARRO
 10
2.687763916418665
 20
4.905839510195527
 30
0.0
 50
180.0
  0
LINE
  5
3E2
330
1F
100
AcDbEntity
  8
4
100
AcDbLine
 10
2.687763916418665
 20
4.905839510195527
 30
0.0
 11
2.312763916418665
 21
4.905839510195527
 31
0.0
  0
LINE
  5
3E3
330
1F
100
AcDbEntity
  8
4
100
AcDbLine
 10
2.312763916418665
 20
4.905839510195527
 30
0.0
 11
2.312763916418665
 21
4.967839510195528
 31
0.0
  0
LINE
  5
3E4
330
1F
100
AcDbEntity
  8
4
100
AcDbLine
 10
2.909892174520348
 20
4.870677608664367
 30
0.0
 11
2.858870291819342
 21
4.870677608664367
 31
0.0
  0
LINE
  5
3E5
330
1F
100
AcDbEntity
  8
4
100
AcDbLine
 10
2.909892174520348
 20
4.870677608664367
 30
0.0
 11
2.960914057221356
 21
4.870677608664367
 31
0.0
  0
ARC
  5
3E6
330
1F
100
AcDbEntity
  8
4
100
AcDbCircle
 10
3.042858784520348
 20
5.143437239445617
 30
0.0
 40
0.077168121875
100
AcDbArc
 50
167.5762104955836
 51
192.4237895044163
  0
ARC
  5
3E7
330
1F
100
AcDbEntity
  8
4
100
AcDbCircle
 10
3.007242728270349
 20
4.897092850383117
 30
0.0
 40
0.26593322
100
AcDbArc
 50
81.40466153832001
 51
98.59533846167998
  0
ARC
  5
3E8
330
1F
100
AcDbEntity
  8
4
100
AcDbCircle
 10
3.007242728270349
 20
5.389781628508117
 30
0.0
 40
0.26593322
100
AcDbArc
 50
261.40466153832
 51
278.5953384616799
  0
CIRCLE
  5
3E9
330
1F
100
AcDbEntity
  8
4
100
AcDbCircle
 10
2.97162667202035
 20
5.143437239445617
 30
0.0
 40
0.00258335128
  0
ARC
  5
3EA
330
1F
100
AcDbEntity
  8
4
100
AcDbCircle
 10
2.97162667202035
 20
5.143437239445617
 30
0.0
 40
0.077168121875
100
AcDbArc
 50
347.5762104955836
 51
12.42378950441639
  0
CIRCLE
  5
3EB
330
1F
100
AcDbEntity
  8
4
100
AcDbCircle
 10
3.042858784520348
 20
5.143437239445617
 30
0.0
 40
0.00258335128
  0
LINE
  5
3EC
330
1F
100
AcDbEntity
  8
4
  6
HIDDEN
100
AcDbLine
 10
3.143198725138351
 20
4.341339934957698
 30
0.0
 11
3.143198725138351
 21
5.182331589113769
 31
0.0
  0
LINE
  5
3ED
330
1F
100
AcDbEntity
  8
4
  6
HIDDEN
100
AcDbLine
 10
3.16428343043835
 20
4.341339934957702
 30
0.0
 11
3.16428343043835
 21
5.182331589113769
 31
0.0
  0
LINE
  5
3EE
330
1F
100
AcDbEntity
  8
4
  6
HIDDEN
100
AcDbLine
 10
3.233426067638347
 20
4.341339934957702
 30
0.0
 11
3.233426067638347
 21
5.182331589113777
 31
0.0
  0
LINE
  5
3EF
330
1F
100
AcDbEntity
  8
4
  6
HIDDEN
100
AcDbLine
 10
3.212341362338348
 20
4.341339934957702
 30
0.0
 11
3.212341362338348
 21
5.182331589113773
 31
0.0
  0
LINE
  5
3F0
330
1F
100
AcDbEntity
  8
4
100
AcDbLine
 10
3.257852033895347
 20
4.33321156646127
 30
0.0
 11
3.257852033895349
 21
5.186216113648765
 31
0.0
  0
LINE
  5
3F1
330
1F
100
AcDbEntity
  8
4
100
AcDbLine
 10
3.413852033895348
 20
4.301176506945617
 30
0.0
 11
3.914852033895348
 21
4.301176506945617
 31
0.0
  0
LINE
  5
3F2
330
1F
100
AcDbEntity
  8
4
100
AcDbLine
 10
3.413852033895348
 20
4.239176506945618
 30
0.0
 11
3.914852033895348
 21
4.239176506945618
 31
0.0
  0
LINE
  5
3F3
330
1F
100
AcDbEntity
  8
4
100
AcDbLine
 10
3.233426067638347
 20
4.203331589113777
 30
0.0
 11
3.143198725138351
 21
4.203331589113769
 31
0.0
  0
LINE
  5
3F4
330
1F
100
AcDbEntity
  8
4
100
AcDbLine
 10
3.233426067638347
 20
4.341339934957702
 30
0.0
 11
3.143198725138351
 21
4.341339934957698
 31
0.0
  0
LINE
  5
3F5
330
1F
100
AcDbEntity
  8
4
100
AcDbLine
 10
3.251322423582849
 20
4.488138561864269
 30
0.0
 11
3.251322423582847
 21
4.411564040926768
 31
0.0
  0
LINE
  5
3F6
330
1F
100
AcDbEntity
  8
4
100
AcDbLine
 10
3.251322423582847
 20
4.411564040926768
 30
0.0
 11
3.257852033895349
 21
4.411564040926768
 31
0.0
  0
LINE
  5
3F7
330
1F
100
AcDbEntity
  8
4
100
AcDbLine
 10
3.257852033895351
 20
4.488138561864269
 30
0.0
 11
3.251322423582849
 21
4.488138561864269
 31
0.0
  0
LINE
  5
3F8
330
1F
100
AcDbEntity
  8
4
100
AcDbLine
 10
3.263317606184766
 20
4.448370148336265
 30
0.0
 11
3.243384252381901
 21
4.448370148336265
 31
0.0
  0
LINE
  5
3F9
330
1F
100
AcDbEntity
  8
4
100
AcDbLine
 10
3.631852033895349
 20
4.181216812378266
 30
0.0
 11
3.693852033895349
 21
4.181216812378266
 31
0.0
  0
LINE
  5
3FA
330
1F
100
AcDbEntity
  8
4
100
AcDbLine
 10
3.413852033895349
 20
5.218176506945617
 30
0.0
 11
3.914852033895348
 21
5.218176506945617
 31
0.0
  0
LINE
  5
3FB
330
1F
100
AcDbEntity
  8
4
100
AcDbLine
 10
3.413852033895349
 20
5.280176506945617
 30
0.0
 11
3.914852033895348
 21
5.280176506945617
 31
0.0
  0
LINE
  5
3FC
330
1F
100
AcDbEntity
  8
4
100
AcDbLine
 10
3.251322423582849
 20
5.109045142489269
 30
0.0
 11
3.251322423582847
 21
5.032470621551768
 31
0.0
  0
LINE
  5
3FD
330
1F
100
AcDbEntity
  8
4
100
AcDbLine
 10
3.251322423582847
 20
5.032470621551768
 30
0.0
 11
3.257852033895349
 21
5.032470621551768
 31
0.0
  0
LINE
  5
3FE
330
1F
100
AcDbEntity
  8
4
100
AcDbLine
 10
3.233426067638347
 20
5.182331589113777
 30
0.0
 11
3.143198725138351
 21
5.182331589113769
 31
0.0
  0
LINE
  5
3FF
330
1F
100
AcDbEntity
  8
4
100
AcDbLine
 10
3.257852033895351
 20
5.109045142489269
 30
0.0
 11
3.251322423582849
 21
5.109045142489269
 31
0.0
  0
LINE
  5
400
330
1F
100
AcDbEntity
  8
4
100
AcDbLine
 10
3.263317606184766
 20
5.069276728961265
 30
0.0
 11
3.243384252381901
 21
5.069276728961265
 31
0.0
  0
ARC
  5
401
330
1F
100
AcDbEntity
  8
4
100
AcDbCircle
 10
3.438852033895349
 20
5.123216812378268
 30
0.0
 40
0.025
100
AcDbArc
 50
180.0
 51
0.0
  0
LINE
  5
402
330
1F
100
AcDbEntity
  8
4
100
AcDbLine
 10
3.233426067638347
 20
5.320339934957702
 30
0.0
 11
3.143198725138351
 21
5.320339934957698
 31
0.0
  0
LINE
  5
403
330
1F
100
AcDbEntity
  8
4
100
AcDbLine
 10
3.257852033895351
 20
5.467138561864268
 30
0.0
 11
3.251322423582849
 21
5.467138561864268
 31
0.0
  0
LINE
  5
404
330
1F
100
AcDbEntity
  8
4
100
AcDbLine
 10
3.263317606184766
 20
5.427370148336266
 30
0.0
 11
3.243384252381901
 21
5.427370148336266
 31
0.0
  0
LINE
  5
405
330
1F
100
AcDbEntity
  8
4
100
AcDbLine
 10
3.251322423582849
 20
5.390564040926768
 30
0.0
 11
3.257852033895349
 21
5.390564040926768
 31
0.0
  0
LINE
  5
406
330
1F
100
AcDbEntity
  8
4
100
AcDbLine
 10
3.251322423582849
 20
5.467138561864268
 30
0.0
 11
3.251322423582849
 21
5.390564040926768
 31
0.0
  0
LINE
  5
407
330
1F
100
AcDbEntity
  8
4
100
AcDbLine
 10
3.631852033895349
 20
5.160216812378267
 30
0.0
 11
3.693852033895349
 21
5.160216812378267
 31
0.0
  0
LINE
  5
408
330
1F
100
AcDbEntity
  8
4
100
AcDbLine
 10
3.631852033895349
 20
5.160216812378267
 30
0.0
 11
3.631852033895349
 21
5.098216812378267
 31
0.0
  0
LINE
  5
409
330
1F
100
AcDbEntity
  8
4
100
AcDbLine
 10
3.693852033895349
 20
5.160216812378267
 30
0.0
 11
3.693852033895349
 21
5.098216812378267
 31
0.0
  0
ARC
  5
40A
330
1F
100
AcDbEntity
  8
4
100
AcDbCircle
 10
3.889852033895349
 20
5.123216812378268
 30
0.0
 40
0.025
100
AcDbArc
 50
180.0
 51
0.0
  0
LINE
  5
40B
330
1F
100
AcDbEntity
  8
4
100
AcDbLine
 10
3.257852033895349
 20
6.165216113648765
 30
0.0
 11
2.820852033895349
 21
6.165176506945617
 31
0.0
  0
ARC
  5
40C
330
1F
100
AcDbEntity
  8
4
100
AcDbCircle
 10
2.864221966231506
 20
5.811687148664367
 30
0.0
 40
0.01899523
100
AcDbArc
 50
90.0
 51
183.5763343749981
  0
ARC
  5
40D
330
1F
100
AcDbEntity
  8
4
100
AcDbCircle
 10
2.858870291819342
 20
5.821184763664367
 30
0.0
 40
0.028492845
100
AcDbArc
 50
90.0
 51
183.5763343749981
  0
ARC
  5
40E
330
1F
100
AcDbEntity
  8
4
100
AcDbCircle
 10
2.865170352299281
 20
5.663286914289368
 30
0.0
 40
0.024931239375
100
AcDbArc
 50
183.5763343749981
 51
270.0
  0
LINE
  5
40F
330
1F
100
AcDbEntity
  8
4
100
AcDbLine
 10
2.845263727951132
 20
5.810502258771846
 30
0.0
 11
2.853287956132319
 21
5.682114607872859
 31
0.0
  0
LINE
  5
410
330
1F
100
AcDbEntity
  8
4
100
AcDbLine
 10
2.830432934398779
 20
5.819407428825583
 30
0.0
 11
2.84028766455629
 21
5.661731746305433
 31
0.0
  0
LINE
  5
411
330
1F
100
AcDbEntity
  8
4
100
AcDbLine
 10
2.989351414641919
 20
5.819407428825583
 30
0.0
 11
2.979496684484408
 21
5.661731746305433
 31
0.0
  0
LINE
  5
412
330
1F
100
AcDbEntity
  8
4
100
AcDbLine
 10
2.974520621089566
 20
5.810502258771846
 30
0.0
 11
2.966496392908379
 21
5.682132494431845
 31
0.0
  0
CIRCLE
  5
413
330
1F
100
AcDbEntity
  8
4
100
AcDbCircle
 10
2.909892174520348
 20
5.738674233351868
 30
0.0
 40
0.0124656196875
  0
ARC
  5
414
330
1F
100
AcDbEntity
  8
4
100
AcDbCircle
 10
2.954613996741417
 20
5.663286914289368
 30
0.0
 40
0.024931239375
100
AcDbArc
 50
270.0
 51
356.4236656250018
  0
ARC
  5
415
330
1F
100
AcDbEntity
  8
4
100
AcDbCircle
 10
2.947538154628005
 20
5.683317384324371
 30
0.0
 40
0.01899523
100
AcDbArc
 50
270.0
 51
356.4236656250018
  0
CIRCLE
  5
416
330
1F
100
AcDbEntity
  8
4
100
AcDbCircle
 10
2.909892174520348
 20
5.649040491789372
 30
0.0
 40
0.006834483754
  0
LINE
  5
417
330
1F
100
AcDbEntity
  8
4
100
AcDbLine
 10
2.909892174520348
 20
5.638355674914367
 30
0.0
 11
2.865170352299281
 21
5.638355674914367
 31
0.0
  0
LINE
  5
418
330
1F
100
AcDbEntity
  8
4
100
AcDbLine
 10
2.909892174520348
 20
5.638355674914367
 30
0.0
 11
2.954613996741417
 21
5.638355674914367
 31
0.0
  0
ARC
  5
419
330
1F
100
AcDbEntity
  8
4
100
AcDbCircle
 10
2.872246194412693
 20
5.683317384324371
 30
0.0
 40
0.01899523
100
AcDbArc
 50
183.5763343749981
 51
270.0
  0
CIRCLE
  5
41A
330
1F
100
AcDbEntity
  8
4
100
AcDbCircle
 10
2.909892174520348
 20
5.697150660571868
 30
0.0
 40
0.00414096014
  0
LINE
  5
41B
330
1F
100
AcDbEntity
  8
4
100
AcDbLine
 10
2.909892174520348
 20
5.664322154324366
 30
0.0
 11
2.872246194412693
 21
5.664322154324371
 31
0.0
  0
LINE
  5
41C
330
1F
100
AcDbEntity
  8
4
100
AcDbLine
 10
2.909892174520348
 20
5.664322154324366
 30
0.0
 11
2.947538154628005
 21
5.664322154324371
 31
0.0
  0
ARC
  5
41D
330
1F
100
AcDbEntity
  8
4
100
AcDbCircle
 10
2.960914057221356
 20
5.821184763664367
 30
0.0
 40
0.028492845
100
AcDbArc
 50
356.4236656250018
 51
90.0
  0
ARC
  5
41E
330
1F
100
AcDbEntity
  8
4
100
AcDbCircle
 10
2.955562382809191
 20
5.811687148664367
 30
0.0
 40
0.01899523
100
AcDbArc
 50
356.4236656250018
 51
90.0
  0
LINE
  5
41F
330
1F
100
AcDbEntity
  8
4
 62
   130
100
AcDbLine
 10
2.869438991290524
 20
5.816342356201914
 30
0.0
 11
2.889611925550524
 21
5.796169421941915
 31
0.0
  0
LINE
  5
420
330
1F
100
AcDbEntity
  8
4
100
AcDbLine
 10
2.866121343597286
 20
5.814664783500435
 30
0.0
 11
2.887934352849041
 21
5.792851774248682
 31
0.0
  0
LINE
  5
421
330
1F
100
AcDbEntity
  8
4
100
AcDbLine
 10
2.862763429611486
 20
5.811306869514635
 30
0.0
 11
2.88457643886324
 21
5.789493860262882
 31
0.0
  0
LINE
  5
422
330
1F
100
AcDbEntity
  8
4
 62
   130
100
AcDbLine
 10
2.861057637981967
 20
5.807961002893361
 30
0.0
 11
2.881230572241968
 21
5.78778806863336
 31
0.0
  0
LINE
  5
423
330
1F
100
AcDbEntity
  8
4
100
AcDbLine
 10
2.871171646231929
 20
5.809614480865795
 30
0.0
 11
2.867813732246129
 21
5.806256566879996
 31
0.0
  0
LINE
  5
424
330
1F
100
AcDbEntity
  8
4
100
AcDbLine
 10
2.866121343597286
 20
5.814664783500435
 30
0.0
 11
2.862763429611486
 21
5.811306869514635
 31
0.0
  0
ARC
  5
425
330
1F
100
AcDbEntity
  8
4
 62
   130
100
AcDbCircle
 10
2.865248314636246
 20
5.812151679547638
 30
0.0
 40
0.00592651176
100
AcDbArc
 50
44.99999999999996
 51
225.0
  0
CIRCLE
  5
426
330
1F
100
AcDbEntity
  8
4
100
AcDbCircle
 10
2.909892174520348
 20
5.78019780613187
 30
0.0
 40
0.00414096014
  0
LINE
  5
427
330
1F
100
AcDbEntity
  8
4
100
AcDbLine
 10
2.88457643886324
 20
5.789493860262882
 30
0.0
 11
2.887934352849041
 21
5.792851774248682
 31
0.0
  0
LINE
  5
428
330
1F
100
AcDbEntity
  8
4
100
AcDbLine
 10
2.882884050214397
 20
5.797902076883326
 30
0.0
 11
2.879526136228599
 21
5.794544162897525
 31
0.0
  0
ARC
  5
429
330
1F
100
AcDbEntity
  8
4
 62
   130
100
AcDbCircle
 10
2.885421248896247
 20
5.791978745287639
 30
0.0
 40
0.00592651176
100
AcDbArc
 50
225.0
 51
44.99999999999996
  0
LINE
  5
42A
330
1F
100
AcDbEntity
  8
4
100
AcDbLine
 10
2.909892174520348
 20
5.830682378664367
 30
0.0
 11
2.864221966231506
 21
5.830682378664367
 31
0.0
  0
LINE
  5
42B
330
1F
100
AcDbEntity
  8
4
100
AcDbLine
 10
2.909892174520348
 20
5.849677608664367
 30
0.0
 11
2.858870291819342
 21
5.849677608664367
 31
0.0
  0
LINE
  5
42C
330
1F
100
AcDbEntity
  8
4
100
AcDbLine
 10
2.909892174520348
 20
5.849677608664367
 30
0.0
 11
2.960914057221356
 21
5.849677608664367
 31
0.0
  0
LINE
  5
42D
330
1F
100
AcDbEntity
  8
4
100
AcDbLine
 10
2.909892174520348
 20
5.830682378664367
 30
0.0
 11
2.955562382809191
 21
5.830682378664367
 31
0.0
  0
ARC
  5
42E
330
1F
100
AcDbEntity
  8
4
100
AcDbCircle
 10
3.042858784520348
 20
6.122437239445617
 30
0.0
 40
0.077168121875
100
AcDbArc
 50
167.5762104955836
 51
192.4237895044163
  0
ARC
  5
42F
330
1F
100
AcDbEntity
  8
4
100
AcDbCircle
 10
3.007242728270349
 20
5.876092850383117
 30
0.0
 40
0.26593322
100
AcDbArc
 50
81.40466153832001
 51
98.59533846167998
  0
ARC
  5
430
330
1F
100
AcDbEntity
  8
4
100
AcDbCircle
 10
3.007242728270349
 20
6.368781628508117
 30
0.0
 40
0.26593322
100
AcDbArc
 50
261.40466153832
 51
278.5953384616799
  0
CIRCLE
  5
431
330
1F
100
AcDbEntity
  8
4
100
AcDbCircle
 10
2.97162667202035
 20
6.122437239445617
 30
0.0
 40
0.00258335128
  0
ARC
  5
432
330
1F
100
AcDbEntity
  8
4
100
AcDbCircle
 10
2.97162667202035
 20
6.122437239445617
 30
0.0
 40
0.077168121875
100
AcDbArc
 50
347.5762104955836
 51
12.42378950441639
  0
CIRCLE
  5
433
330
1F
100
AcDbEntity
  8
4
100
AcDbCircle
 10
3.042858784520348
 20
6.122437239445617
 30
0.0
 40
0.00258335128
  0
LINE
  5
434
330
1F
100
AcDbEntity
  8
4
100
AcDbLine
 10
3.257852033895351
 20
6.088045142489269
 30
0.0
 11
3.251322423582849
 21
6.088045142489269
 31
0.0
  0
LINE
  5
435
330
1F
100
AcDbEntity
  8
4
100
AcDbLine
 10
3.263317606184766
 20
6.048276728961266
 30
0.0
 11
3.243384252381901
 21
6.048276728961266
 31
0.0
  0
LINE
  5
436
330
1F
100
AcDbEntity
  8
4
100
AcDbLine
 10
3.251322423582849
 20
6.011470621551768
 30
0.0
 11
3.257852033895349
 21
6.011470621551768
 31
0.0
  0
LINE
  5
437
330
1F
100
AcDbEntity
  8
4
100
AcDbLine
 10
3.251322423582849
 20
6.088045142489269
 30
0.0
 11
3.251322423582849
 21
6.011470621551768
 31
0.0
  0
LINE
  5
438
330
1F
100
AcDbEntity
  8
4
100
AcDbLine
 10
3.233426067638347
 20
6.161331589113777
 30
0.0
 11
3.143198725138351
 21
6.161331589113769
 31
0.0
  0
ARC
  5
439
330
1F
100
AcDbEntity
  8
4
100
AcDbCircle
 10
3.438852033895349
 20
6.102170628388488
 30
0.0
 40
0.025
100
AcDbArc
 50
180.0
 51
0.0
  0
ARC
  5
43A
330
1F
100
AcDbEntity
  8
4
100
AcDbCircle
 10
3.889852033895349
 20
6.102170628388488
 30
0.0
 40
0.025
100
AcDbArc
 50
180.0
 51
0.0
  0
LINE
  5
43B
330
1F
100
AcDbEntity
  8
4
100
AcDbLine
 10
4.663852033895349
 20
4.301176506945617
 30
0.0
 11
5.164852033895348
 21
4.301176506945617
 31
0.0
  0
LINE
  5
43C
330
1F
100
AcDbEntity
  8
4
100
AcDbLine
 10
4.663852033895349
 20
4.239176506945618
 30
0.0
 11
5.164852033895348
 21
4.239176506945618
 31
0.0
  0
LINE
  5
43D
330
1F
100
AcDbEntity
  8
4
100
AcDbLine
 10
4.663852033895349
 20
5.218176506945617
 30
0.0
 11
5.164852033895348
 21
5.218176506945617
 31
0.0
  0
LINE
  5
43E
330
1F
100
AcDbEntity
  8
4
100
AcDbLine
 10
4.663852033895349
 20
5.280176506945617
 30
0.0
 11
5.164852033895348
 21
5.280176506945617
 31
0.0
  0
LINE
  5
43F
330
1F
100
AcDbEntity
  8
4
100
AcDbLine
 10
4.351852033895348
 20
4.239176506945618
 30
0.0
 11
4.539852033895348
 21
4.239176506945618
 31
0.0
  0
LINE
  5
440
330
1F
100
AcDbEntity
  8
4
100
AcDbLine
 10
4.351852033895348
 20
4.301176506945617
 30
0.0
 11
4.539852033895348
 21
4.301176506945617
 31
0.0
  0
LINE
  5
441
330
1F
100
AcDbEntity
  8
4
100
AcDbLine
 10
4.038852033895349
 20
4.301176506945617
 30
0.0
 11
4.226852033895347
 21
4.301176506945617
 31
0.0
  0
LINE
  5
442
330
1F
100
AcDbEntity
  8
4
100
AcDbLine
 10
4.038852033895349
 20
4.239176506945618
 30
0.0
 11
4.226852033895347
 21
4.239176506945618
 31
0.0
  0
LINE
  5
443
330
1F
100
AcDbEntity
  8
4
100
AcDbLine
 10
4.881852033895349
 20
4.181216812378266
 30
0.0
 11
4.943852033895349
 21
4.181216812378266
 31
0.0
  0
LINE
  5
444
330
1F
100
AcDbEntity
  8
4
100
AcDbLine
 10
4.351852033895348
 20
5.280176506945617
 30
0.0
 11
4.539852033895348
 21
5.280176506945617
 31
0.0
  0
LINE
  5
445
330
1F
100
AcDbEntity
  8
4
100
AcDbLine
 10
4.351852033895348
 20
5.218176506945617
 30
0.0
 11
4.539852033895348
 21
5.218176506945617
 31
0.0
  0
ARC
  5
446
330
1F
100
AcDbEntity
  8
4
100
AcDbCircle
 10
4.514852033895349
 20
5.123216812378268
 30
0.0
 40
0.025
100
AcDbArc
 50
180.0
 51
0.0
  0
ARC
  5
447
330
1F
100
AcDbEntity
  8
4
100
AcDbCircle
 10
4.063852033895348
 20
5.123216812378268
 30
0.0
 40
0.025
100
AcDbArc
 50
180.0
 51
0.0
  0
LINE
  5
448
330
1F
100
AcDbEntity
  8
4
100
AcDbLine
 10
4.038852033895349
 20
5.218176506945617
 30
0.0
 11
4.226852033895348
 21
5.218176506945617
 31
0.0
  0
LINE
  5
449
330
1F
100
AcDbEntity
  8
4
100
AcDbLine
 10
4.038852033895349
 20
5.280176506945617
 30
0.0
 11
4.23904806472233
 21
5.280176506945617
 31
0.0
  0
ARC
  5
44A
330
1F
100
AcDbEntity
  8
4
100
AcDbCircle
 10
4.688852033895348
 20
5.123216812378268
 30
0.0
 40
0.025
100
AcDbArc
 50
180.0
 51
0.0
  0
LINE
  5
44B
330
1F
100
AcDbEntity
  8
4
100
AcDbLine
 10
4.881852033895349
 20
5.160216812378267
 30
0.0
 11
4.881852033895349
 21
5.098216812378267
 31
0.0
  0
LINE
  5
44C
330
1F
100
AcDbEntity
  8
4
100
AcDbLine
 10
4.943852033895349
 20
5.160216812378267
 30
0.0
 11
4.943852033895349
 21
5.098216812378267
 31
0.0
  0
LINE
  5
44D
330
1F
100
AcDbEntity
  8
4
100
AcDbLine
 10
4.881852033895349
 20
5.160216812378267
 30
0.0
 11
4.943852033895349
 21
5.160216812378267
 31
0.0
  0
ARC
  5
44E
330
1F
100
AcDbEntity
  8
4
100
AcDbCircle
 10
5.139852033895349
 20
5.123216812378268
 30
0.0
 40
0.025
100
AcDbArc
 50
180.0
 51
0.0
  0
ARC
  5
44F
330
1F
100
AcDbEntity
  8
4
100
AcDbCircle
 10
4.514852033895349
 20
6.102170628388488
 30
0.0
 40
0.025
100
AcDbArc
 50
180.0
 51
0.0
  0
ARC
  5
450
330
1F
100
AcDbEntity
  8
4
100
AcDbCircle
 10
4.063852033895348
 20
6.102170628388488
 30
0.0
 40
0.025
100
AcDbArc
 50
180.0
 51
0.0
  0
ARC
  5
451
330
1F
100
AcDbEntity
  8
4
100
AcDbCircle
 10
4.688852033895348
 20
6.102170628388488
 30
0.0
 40
0.025
100
AcDbArc
 50
180.0
 51
0.0
  0
LINE
  5
452
330
1F
100
AcDbEntity
  8
4
100
AcDbLine
 10
4.943852033895349
 20
6.139170628388487
 30
0.0
 11
4.943852033895349
 21
6.077170628388487
 31
0.0
  0
LINE
  5
453
330
1F
100
AcDbEntity
  8
4
100
AcDbLine
 10
4.881852033895349
 20
6.139170628388487
 30
0.0
 11
4.881852033895349
 21
6.077170628388487
 31
0.0
  0
LINE
  5
454
330
1F
100
AcDbEntity
  8
4
100
AcDbLine
 10
4.881852033895349
 20
6.139170628388487
 30
0.0
 11
4.943852033895349
 21
6.139170628388487
 31
0.0
  0
ARC
  5
455
330
1F
100
AcDbEntity
  8
4
100
AcDbCircle
 10
5.139852033895349
 20
6.102170628388488
 30
0.0
 40
0.025
100
AcDbArc
 50
180.0
 51
0.0
  0
LINE
  5
456
330
1F
100
AcDbEntity
  8
4
100
AcDbLine
 10
9.383352033895349
 20
4.207176506945616
 30
0.0
 11
9.383352033895349
 21
3.353170628388487
 31
0.0
  0
LINE
  5
457
330
1F
100
AcDbEntity
  8
4
100
AcDbLine
 10
9.060372143792861
 20
4.181216812378266
 30
0.0
 11
9.060372143792861
 21
4.119216812378267
 31
0.0
  0
LINE
  5
458
330
1F
100
AcDbEntity
  8
4
100
AcDbLine
 10
8.778352033895348
 20
4.144216812378267
 30
0.0
 11
8.778352033895348
 21
4.194216812378267
 31
0.0
  0
LINE
  5
459
330
1F
100
AcDbEntity
  8
4
100
AcDbLine
 10
8.70735203389535
 20
4.144216812378267
 30
0.0
 11
8.70735203389535
 21
4.194216812378267
 31
0.0
  0
LINE
  5
45A
330
1F
100
AcDbEntity
  8
4
100
AcDbLine
 10
8.425331923997834
 20
4.181216812378266
 30
0.0
 11
8.425331923997834
 21
4.119216812378267
 31
0.0
  0
LINE
  5
45B
330
1F
100
AcDbEntity
  8
4
100
AcDbLine
 10
7.115331923997835
 20
4.181216812378266
 30
0.0
 11
7.115331923997835
 21
4.119216812378267
 31
0.0
  0
LINE
  5
45C
330
1F
100
AcDbEntity
  8
4
100
AcDbLine
 10
7.397352033895351
 20
4.144216812378267
 30
0.0
 11
7.397352033895351
 21
4.194216812378267
 31
0.0
  0
LINE
  5
45D
330
1F
100
AcDbEntity
  8
4
100
AcDbLine
 10
6.539352033895348
 20
6.259170628388487
 30
0.0
 11
6.539352033895348
 21
3.321170628388487
 31
0.0
  0
LINE
  5
45E
330
1F
100
AcDbEntity
  8
4
100
AcDbLine
 10
6.792352033895348
 20
4.207176506945616
 30
0.0
 11
6.792352033895348
 21
3.353170628388487
 31
0.0
  0
LINE
  5
45F
330
1F
100
AcDbEntity
  8
4
100
AcDbLine
 10
8.102352033895346
 20
4.207176506945616
 30
0.0
 11
8.102352033895346
 21
3.353170628388487
 31
0.0
  0
LINE
  5
460
330
1F
100
AcDbEntity
  8
4
100
AcDbLine
 10
6.792352033895348
 20
3.353170628388487
 30
0.0
 11
6.854352033895349
 21
3.353170628388487
 31
0.0
  0
LINE
  5
461
330
1F
100
AcDbEntity
  8
4
100
AcDbLine
 10
6.729352033895349
 20
3.321170628388487
 30
0.0
 11
6.539352033895348
 21
3.321170628388487
 31
0.0
  0
TEXT
  5
462
330
1F
100
AcDbEntity
  8
8
100
AcDbText
 10
6.477352033895348
 20
3.139586155720517
 30
0.0
 40
0.07
  1
1
 50
90.0
 72
     1
 11
6.477352033895348
 21
3.151252822387184
 31
0.0
100
AcDbText
  0
INSERT
  5
463
330
1F
100
AcDbEntity
  8
4
100
AcDbBlockReference
  2
ARRO
 10
6.539352033895348
 20
3.259170628388487
 30
0.0
 50
270.0
  0
LINE
  5
464
330
1F
100
AcDbEntity
  8
4
100
AcDbLine
 10
6.539352033895348
 20
3.259170628388487
 30
0.0
 11
6.539352033895348
 21
3.134170628388487
 31
0.0
  0
LINE
  5
465
330
1F
100
AcDbEntity
  8
4
100
AcDbLine
 10
6.539352033895348
 20
3.321170628388487
 30
0.0
 11
6.477352033895348
 21
3.321170628388487
 31
0.0
  0
INSERT
  5
466
330
1F
100
AcDbEntity
  8
4
100
AcDbBlockReference
  2
ARRO
 10
6.539352033895348
 20
3.321170628388487
 30
0.0
 50
90.0
  0
INSERT
  5
467
330
1F
100
AcDbEntity
  8
4
100
AcDbBlockReference
 66
     1
  2
FRACTION
 10
6.516884074518359
 20
3.831448241437612
 30
0.0
 41
0.5999999999999997
 42
0.5999999999999997
 43
0.6
 50
90.0
  0
ATTRIB
  5
468
330
467
100
AcDbEntity
  8
8
100
AcDbText
 10
6.458384074518364
 20
3.687701710668965
 30
0.0
 40
0.075
  1
19
 50
90.0
 72
     2
 11
6.458384074518364
 21
3.787701710668965
 31
0.0
100
AcDbAttribute
  2
A
 70
     0
  0
ATTRIB
  5
469
330
467
100
AcDbEntity
  8
8
100
AcDbText
 10
6.408884074518362
 20
3.834648241437611
 30
0.0
 40
0.06
  1
21
 50
90.0
 72
     1
 11
6.408884074518362
 21
3.874648241437611
 31
0.0
100
AcDbAttribute
  2
B
 70
     0
  0
ATTRIB
  5
46A
330
467
100
AcDbEntity
  8
8
100
AcDbText
 10
6.492884074518362
 20
3.824648241437611
 30
0.0
 40
0.06
  1
32
 50
90.0
 72
     1
 11
6.492884074518362
 21
3.874648241437611
 31
0.0
100
AcDbAttribute
  2
C
 70
     0
  0
SEQEND
  5
46B
330
467
100
AcDbEntity
  8
4
  0
ARC
  5
46C
330
1F
100
AcDbEntity
  8
4
100
AcDbCircle
 10
7.372352033895351
 20
4.144216812378267
 30
0.0
 40
0.025
100
AcDbArc
 50
180.0
 51
0.0
  0
LINE
  5
46D
330
1F
100
AcDbEntity
  8
4
100
AcDbLine
 10
8.102352033895346
 20
3.353170628388487
 30
0.0
 11
8.164352033895347
 21
3.353170628388487
 31
0.0
  0
ARC
  5
46E
330
1F
100
AcDbEntity
  8
4
100
AcDbCircle
 10
8.682352033895348
 20
4.144216812378267
 30
0.0
 40
0.025
100
AcDbArc
 50
180.0
 51
0.0
  0
LINE
  5
46F
330
1F
100
AcDbEntity
  8
4
100
AcDbLine
 10
9.383352033895349
 20
3.353170628388487
 30
0.0
 11
9.321352033895347
 21
3.353170628388487
 31
0.0
  0
ARC
  5
470
330
1F
100
AcDbEntity
  8
4
100
AcDbCircle
 10
8.803352033895347
 20
4.144216812378267
 30
0.0
 40
0.025
100
AcDbArc
 50
180.0
 51
0.0
  0
LINE
  5
471
330
1F
100
AcDbEntity
  8
4
100
AcDbLine
 10
6.792352033895348
 20
6.165170628388487
 30
0.0
 11
6.792352033895349
 21
5.312132353054973
 31
0.0
  0
LINE
  5
472
330
1F
100
AcDbEntity
  8
4
100
AcDbLine
 10
6.79235203389535
 20
4.207176506945616
 30
0.0
 11
6.85435203389535
 21
4.207176506945616
 31
0.0
  0
LINE
  5
473
330
1F
100
AcDbEntity
  8
4
100
AcDbLine
 10
6.79235203389535
 20
4.333132353054974
 30
0.0
 11
6.85435203389535
 21
4.333132353054974
 31
0.0
  0
LINE
  5
474
330
1F
100
AcDbEntity
  8
4
100
AcDbLine
 10
6.85435203389535
 20
4.239176506945616
 30
0.0
 11
6.792352033895349
 21
4.239176506945616
 31
0.0
  0
LINE
  5
475
330
1F
100
AcDbEntity
  8
4
100
AcDbLine
 10
6.792352033895349
 20
4.301176506945617
 30
0.0
 11
6.900352033895349
 21
4.301176506945617
 31
0.0
  0
LINE
  5
476
330
1F
100
AcDbEntity
  8
4
100
AcDbLine
 10
6.91535203389535
 20
4.286176506945617
 30
0.0
 11
6.81735203389535
 21
4.286176506945617
 31
0.0
  0
LINE
  5
477
330
1F
100
AcDbEntity
  8
4
100
AcDbLine
 10
6.915352033895349
 20
5.265176506945617
 30
0.0
 11
6.817352033895349
 21
5.265176506945617
 31
0.0
  0
LINE
  5
478
330
1F
100
AcDbEntity
  8
4
100
AcDbLine
 10
6.792352033895348
 20
5.280176506945617
 30
0.0
 11
6.900352033895348
 21
5.280176506945617
 31
0.0
  0
LINE
  5
479
330
1F
100
AcDbEntity
  8
4
100
AcDbLine
 10
6.854352033895349
 20
5.218176506945617
 30
0.0
 11
6.792352033895348
 21
5.218176506945617
 31
0.0
  0
LINE
  5
47A
330
1F
100
AcDbEntity
  8
4
100
AcDbLine
 10
6.792352033895349
 20
5.312132353054974
 30
0.0
 11
6.854352033895349
 21
5.312132353054974
 31
0.0
  0
LINE
  5
47B
330
1F
100
AcDbEntity
  8
4
100
AcDbLine
 10
6.792352033895349
 20
5.186176506945617
 30
0.0
 11
6.85435203389535
 21
5.186176506945617
 31
0.0
  0
LINE
  5
47C
330
1F
100
AcDbEntity
  8
4
100
AcDbLine
 10
6.792352033895349
 20
5.186176506945617
 30
0.0
 11
6.792352033895349
 21
4.333132353054974
 31
0.0
  0
INSERT
  5
47D
330
1F
100
AcDbEntity
  8
4
100
AcDbBlockReference
 66
     1
  2
FRACTION
 10
6.516884074518359
 20
4.783641954729866
 30
0.0
 41
0.5999999999999997
 42
0.5999999999999997
 43
0.6
 50
90.0
  0
ATTRIB
  5
47E
330
47D
100
AcDbEntity
  8
8
100
AcDbText
 10
6.458384074518364
 20
4.63989542396122
 30
0.0
 40
0.075
  1
19
 50
90.0
 72
     2
 11
6.458384074518364
 21
4.739895423961219
 31
0.0
100
AcDbAttribute
  2
A
 70
     0
  0
ATTRIB
  5
47F
330
47D
100
AcDbEntity
  8
8
100
AcDbText
 10
6.408884074518362
 20
4.796841954729864
 30
0.0
 40
0.06
  1
11
 50
90.0
 72
     1
 11
6.408884074518362
 21
4.826841954729864
 31
0.0
100
AcDbAttribute
  2
B
 70
     0
  0
ATTRIB
  5
480
330
47D
100
AcDbEntity
  8
8
100
AcDbText
 10
6.492884074518362
 20
4.786841954729864
 30
0.0
 40
0.06
  1
16
 50
90.0
 72
     1
 11
6.492884074518362
 21
4.826841954729864
 31
0.0
100
AcDbAttribute
  2
C
 70
     0
  0
SEQEND
  5
481
330
47D
100
AcDbEntity
  8
4
  0
LINE
  5
482
330
1F
100
AcDbEntity
  8
4
100
AcDbLine
 10
6.72935203389535
 20
4.301176506945617
 30
0.0
 11
6.53935203389535
 21
4.301176506945617
 31
0.0
  0
INSERT
  5
483
330
1F
100
AcDbEntity
  8
4
100
AcDbBlockReference
  2
ARRO2
 10
6.53935203389535
 20
4.301176506945617
 30
0.0
 50
90.0
  0
LINE
  5
484
330
1F
100
AcDbEntity
  8
4
100
AcDbLine
 10
6.53935203389535
 20
4.301176506945617
 30
0.0
 11
6.47735203389535
 21
4.301176506945617
 31
0.0
  0
LINE
  5
485
330
1F
100
AcDbEntity
  8
4
100
AcDbLine
 10
6.792352033895349
 20
4.239176506945616
 30
0.0
 11
6.792352033895349
 21
4.301176506945617
 31
0.0
  0
LINE
  5
486
330
1F
100
AcDbEntity
  8
4
100
AcDbLine
 10
6.81735203389535
 20
4.286176506945617
 30
0.0
 11
6.81735203389535
 21
4.257930364508057
 31
0.0
  0
INSERT
  5
487
330
1F
100
AcDbEntity
  8
4
100
AcDbBlockReference
  2
ARRO2
 10
6.539352033895349
 20
5.280176506945617
 30
0.0
 50
90.0
  0
LINE
  5
488
330
1F
100
AcDbEntity
  8
4
100
AcDbLine
 10
6.72935203389535
 20
5.280176506945617
 30
0.0
 11
6.539352033895349
 21
5.280176506945617
 31
0.0
  0
LINE
  5
489
330
1F
100
AcDbEntity
  8
4
100
AcDbLine
 10
6.539352033895349
 20
5.280176506945617
 30
0.0
 11
6.477352033895349
 21
5.280176506945617
 31
0.0
  0
LINE
  5
48A
330
1F
100
AcDbEntity
  8
4
100
AcDbLine
 10
6.817352033895349
 20
5.265176506945617
 30
0.0
 11
6.817352033895349
 21
5.236930364508057
 31
0.0
  0
LINE
  5
48B
330
1F
100
AcDbEntity
  8
4
100
AcDbLine
 10
6.792352033895348
 20
5.218176506945617
 30
0.0
 11
6.792352033895348
 21
5.280176506945617
 31
0.0
  0
LINE
  5
48C
330
1F
100
AcDbEntity
  8
4
100
AcDbLine
 10
6.930352033895349
 20
4.301176506945617
 30
0.0
 11
7.39735203389535
 21
4.301176506945617
 31
0.0
  0
LINE
  5
48D
330
1F
100
AcDbEntity
  8
4
100
AcDbLine
 10
7.35735203389535
 20
4.239176506945616
 30
0.0
 11
6.992352033895349
 21
4.239176506945616
 31
0.0
  0
LINE
  5
48E
330
1F
100
AcDbEntity
  8
4
100
AcDbLine
 10
6.992352033895349
 20
4.239176506945616
 30
0.0
 11
6.930352033895349
 21
4.301176506945617
 31
0.0
  0
LINE
  5
48F
330
1F
100
AcDbEntity
  8
4
100
AcDbLine
 10
6.930352033895349
 20
4.301176506945617
 30
0.0
 11
6.91535203389535
 21
4.286176506945617
 31
0.0
  0
LINE
  5
490
330
1F
100
AcDbEntity
  8
4
100
AcDbLine
 10
7.084331923997836
 20
4.181216812378266
 30
0.0
 11
7.146331923997835
 21
4.181216812378266
 31
0.0
  0
LINE
  5
491
330
1F
100
AcDbEntity
  8
4
100
AcDbLine
 10
7.39735203389535
 20
4.301176506945617
 30
0.0
 11
7.39735203389535
 21
4.239176506945616
 31
0.0
  0
LINE
  5
492
330
1F
100
AcDbEntity
  8
4
100
AcDbLine
 10
7.35735203389535
 20
4.301176506945617
 30
0.0
 11
7.35735203389535
 21
4.239176506945616
 31
0.0
  0
LINE
  5
493
330
1F
100
AcDbEntity
  8
4
100
AcDbLine
 10
7.357352033895349
 20
5.218176506945617
 30
0.0
 11
6.992352033895349
 21
5.218176506945617
 31
0.0
  0
LINE
  5
494
330
1F
100
AcDbEntity
  8
4
100
AcDbLine
 10
6.930352033895348
 20
5.280176506945617
 30
0.0
 11
7.397352033895349
 21
5.280176506945617
 31
0.0
  0
LINE
  5
495
330
1F
100
AcDbEntity
  8
4
100
AcDbLine
 10
7.084331923997835
 20
5.160216812378267
 30
0.0
 11
7.146331923997834
 21
5.160216812378267
 31
0.0
  0
LINE
  5
496
330
1F
100
AcDbEntity
  8
4
100
AcDbLine
 10
7.115331923997834
 20
5.160216812378267
 30
0.0
 11
7.115331923997834
 21
5.098216812378267
 31
0.0
  0
LINE
  5
497
330
1F
100
AcDbEntity
  8
4
100
AcDbLine
 10
6.992352033895349
 20
5.218176506945617
 30
0.0
 11
6.930352033895348
 21
5.280176506945617
 31
0.0
  0
LINE
  5
498
330
1F
100
AcDbEntity
  8
4
100
AcDbLine
 10
6.930352033895348
 20
5.280176506945617
 30
0.0
 11
6.915352033895349
 21
5.265176506945617
 31
0.0
  0
ARC
  5
499
330
1F
100
AcDbEntity
  8
4
100
AcDbCircle
 10
7.37235203389535
 20
5.123216812378268
 30
0.0
 40
0.025
100
AcDbArc
 50
180.0
 51
0.0
  0
LINE
  5
49A
330
1F
100
AcDbEntity
  8
4
100
AcDbLine
 10
7.39735203389535
 20
5.123216812378268
 30
0.0
 11
7.39735203389535
 21
5.173216812378267
 31
0.0
  0
LINE
  5
49B
330
1F
100
AcDbEntity
  8
4
100
AcDbLine
 10
7.357352033895349
 20
5.280176506945617
 30
0.0
 11
7.357352033895349
 21
5.218176506945617
 31
0.0
  0
LINE
  5
49C
330
1F
100
AcDbEntity
  8
4
100
AcDbLine
 10
7.397352033895349
 20
5.280176506945617
 30
0.0
 11
7.397352033895349
 21
5.218176506945617
 31
0.0
  0
LINE
  5
49D
330
1F
100
AcDbEntity
  8
4
100
AcDbLine
 10
6.792352033895348
 20
6.165170628388487
 30
0.0
 11
6.854352033895348
 21
6.165170628388487
 31
0.0
  0
INSERT
  5
49E
330
1F
100
AcDbEntity
  8
4
100
AcDbBlockReference
 66
     1
  2
FRACTION
 10
6.516884074518359
 20
5.81863512135188
 30
0.0
 41
0.5999999999999997
 42
0.5999999999999997
 43
0.6
 50
90.0
  0
ATTRIB
  5
49F
330
49E
100
AcDbEntity
  8
8
100
AcDbText
 10
6.458384074518364
 20
5.674888590583234
 30
0.0
 40
0.075
  1
19
 50
90.0
 72
     2
 11
6.458384074518364
 21
5.774888590583233
 31
0.0
100
AcDbAttribute
  2
A
 70
     0
  0
ATTRIB
  5
4A0
330
49E
100
AcDbEntity
  8
8
100
AcDbText
 10
6.408884074518362
 20
5.821835121351878
 30
0.0
 40
0.06
  1
21
 50
90.0
 72
     1
 11
6.408884074518362
 21
5.861835121351878
 31
0.0
100
AcDbAttribute
  2
B
 70
     0
  0
ATTRIB
  5
4A1
330
49E
100
AcDbEntity
  8
8
100
AcDbText
 10
6.492884074518362
 20
5.811835121351879
 30
0.0
 40
0.06
  1
32
 50
90.0
 72
     1
 11
6.492884074518362
 21
5.861835121351878
 31
0.0
100
AcDbAttribute
  2
C
 70
     0
  0
SEQEND
  5
4A2
330
49E
100
AcDbEntity
  8
4
  0
INSERT
  5
4A3
330
1F
100
AcDbEntity
  8
4
100
AcDbBlockReference
  2
ARRO
 10
6.539352033895348
 20
6.259170628388487
 30
0.0
 50
270.0
  0
LINE
  5
4A4
330
1F
100
AcDbEntity
  8
4
100
AcDbLine
 10
7.115331923997834
 20
6.139170628388487
 30
0.0
 11
7.115331923997834
 21
6.077170628388487
 31
0.0
  0
LINE
  5
4A5
330
1F
100
AcDbEntity
  8
4
100
AcDbLine
 10
7.084331923997834
 20
6.139170628388487
 30
0.0
 11
7.146331923997833
 21
6.139170628388487
 31
0.0
  0
ARC
  5
4A6
330
1F
100
AcDbEntity
  8
4
100
AcDbCircle
 10
7.372352033895349
 20
6.102170628388488
 30
0.0
 40
0.025
100
AcDbArc
 50
180.0
 51
0.0
  0
LINE
  5
4A7
330
1F
100
AcDbEntity
  8
4
100
AcDbLine
 10
7.397352033895349
 20
6.102170628388488
 30
0.0
 11
7.397352033895349
 21
6.152170628388487
 31
0.0
  0
LINE
  5
4A8
330
1F
100
AcDbEntity
  8
4
100
AcDbLine
 10
9.383352033895349
 20
6.165170628388487
 30
0.0
 11
9.383352033895349
 21
5.312132353054973
 31
0.0
  0
LINE
  5
4A9
330
1F
100
AcDbEntity
  8
4
100
AcDbLine
 10
8.102352033895346
 20
6.165170628388487
 30
0.0
 11
8.102352033895346
 21
5.312132353054973
 31
0.0
  0
LINE
  5
4AA
330
1F
100
AcDbEntity
  8
4
100
AcDbLine
 10
8.102352033895346
 20
5.186176506945617
 30
0.0
 11
8.102352033895346
 21
4.333132353054974
 31
0.0
  0
LINE
  5
4AB
330
1F
100
AcDbEntity
  8
4
100
AcDbLine
 10
8.240352033895348
 20
4.301176506945617
 30
0.0
 11
8.225352033895347
 21
4.286176506945617
 31
0.0
  0
LINE
  5
4AC
330
1F
100
AcDbEntity
  8
4
100
AcDbLine
 10
8.102352033895346
 20
4.301176506945617
 30
0.0
 11
8.210352033895347
 21
4.301176506945617
 31
0.0
  0
LINE
  5
4AD
330
1F
100
AcDbEntity
  8
4
100
AcDbLine
 10
8.164352033895347
 20
4.239176506945616
 30
0.0
 11
8.102352033895346
 21
4.239176506945616
 31
0.0
  0
LINE
  5
4AE
330
1F
100
AcDbEntity
  8
4
100
AcDbLine
 10
8.10235203389535
 20
4.207176506945616
 30
0.0
 11
8.164352033895347
 21
4.207176506945616
 31
0.0
  0
LINE
  5
4AF
330
1F
100
AcDbEntity
  8
4
100
AcDbLine
 10
8.102352033895346
 20
4.239176506945616
 30
0.0
 11
8.102352033895346
 21
4.301176506945617
 31
0.0
  0
LINE
  5
4B0
330
1F
100
AcDbEntity
  8
4
100
AcDbLine
 10
8.225352033895347
 20
4.286176506945617
 30
0.0
 11
8.127352033895348
 21
4.286176506945617
 31
0.0
  0
LINE
  5
4B1
330
1F
100
AcDbEntity
  8
4
100
AcDbLine
 10
8.127352033895348
 20
4.286176506945617
 30
0.0
 11
8.127352033895348
 21
4.257930364508057
 31
0.0
  0
LINE
  5
4B2
330
1F
100
AcDbEntity
  8
4
100
AcDbLine
 10
8.10235203389535
 20
4.333132353054974
 30
0.0
 11
8.164352033895347
 21
4.333132353054974
 31
0.0
  0
LINE
  5
4B3
330
1F
100
AcDbEntity
  8
4
100
AcDbLine
 10
8.667352033895348
 20
4.239176506945616
 30
0.0
 11
8.302352033895349
 21
4.239176506945616
 31
0.0
  0
LINE
  5
4B4
330
1F
100
AcDbEntity
  8
4
100
AcDbLine
 10
8.240352033895348
 20
4.301176506945617
 30
0.0
 11
8.707352033895347
 21
4.301176506945617
 31
0.0
  0
LINE
  5
4B5
330
1F
100
AcDbEntity
  8
4
100
AcDbLine
 10
8.302352033895349
 20
4.239176506945616
 30
0.0
 11
8.240352033895348
 21
4.301176506945617
 31
0.0
  0
LINE
  5
4B6
330
1F
100
AcDbEntity
  8
4
100
AcDbLine
 10
8.394331923997835
 20
4.181216812378266
 30
0.0
 11
8.456331923997833
 21
4.181216812378266
 31
0.0
  0
LINE
  5
4B7
330
1F
100
AcDbEntity
  8
4
100
AcDbLine
 10
8.667352033895348
 20
4.301176506945617
 30
0.0
 11
8.667352033895348
 21
4.239176506945616
 31
0.0
  0
LINE
  5
4B8
330
1F
100
AcDbEntity
  8
4
100
AcDbLine
 10
8.707352033895347
 20
4.301176506945617
 30
0.0
 11
8.707352033895347
 21
4.239176506945616
 31
0.0
  0
LINE
  5
4B9
330
1F
100
AcDbEntity
  8
4
100
AcDbLine
 10
8.240352033895348
 20
5.280176506945617
 30
0.0
 11
8.225352033895347
 21
5.265176506945617
 31
0.0
  0
LINE
  5
4BA
330
1F
100
AcDbEntity
  8
4
100
AcDbLine
 10
8.102352033895346
 20
5.186176506945617
 30
0.0
 11
8.164352033895347
 21
5.186176506945617
 31
0.0
  0
LINE
  5
4BB
330
1F
100
AcDbEntity
  8
4
100
AcDbLine
 10
8.164352033895347
 20
5.218176506945617
 30
0.0
 11
8.102352033895346
 21
5.218176506945617
 31
0.0
  0
LINE
  5
4BC
330
1F
100
AcDbEntity
  8
4
100
AcDbLine
 10
8.102352033895346
 20
5.280176506945617
 30
0.0
 11
8.210352033895347
 21
5.280176506945617
 31
0.0
  0
LINE
  5
4BD
330
1F
100
AcDbEntity
  8
4
100
AcDbLine
 10
8.102352033895346
 20
5.312132353054973
 30
0.0
 11
8.164352033895347
 21
5.312132353054973
 31
0.0
  0
LINE
  5
4BE
330
1F
100
AcDbEntity
  8
4
100
AcDbLine
 10
8.102352033895346
 20
5.218176506945617
 30
0.0
 11
8.102352033895346
 21
5.280176506945617
 31
0.0
  0
LINE
  5
4BF
330
1F
100
AcDbEntity
  8
4
100
AcDbLine
 10
8.127352033895348
 20
5.265176506945617
 30
0.0
 11
8.127352033895348
 21
5.236930364508057
 31
0.0
  0
LINE
  5
4C0
330
1F
100
AcDbEntity
  8
4
100
AcDbLine
 10
8.225352033895347
 20
5.265176506945617
 30
0.0
 11
8.127352033895348
 21
5.265176506945617
 31
0.0
  0
LINE
  5
4C1
330
1F
100
AcDbEntity
  8
4
100
AcDbLine
 10
8.425331923997834
 20
5.160216812378267
 30
0.0
 11
8.425331923997834
 21
5.098216812378267
 31
0.0
  0
LINE
  5
4C2
330
1F
100
AcDbEntity
  8
4
100
AcDbLine
 10
8.394331923997832
 20
5.160216812378267
 30
0.0
 11
8.456331923997833
 21
5.160216812378267
 31
0.0
  0
LINE
  5
4C3
330
1F
100
AcDbEntity
  8
4
100
AcDbLine
 10
8.707352033895347
 20
5.123216812378268
 30
0.0
 11
8.707352033895347
 21
5.173216812378267
 31
0.0
  0
ARC
  5
4C4
330
1F
100
AcDbEntity
  8
4
100
AcDbCircle
 10
8.682352033895348
 20
5.123216812378268
 30
0.0
 40
0.025
100
AcDbArc
 50
180.0
 51
0.0
  0
LINE
  5
4C5
330
1F
100
AcDbEntity
  8
4
100
AcDbLine
 10
8.240352033895348
 20
5.280176506945617
 30
0.0
 11
8.707352033895347
 21
5.280176506945617
 31
0.0
  0
LINE
  5
4C6
330
1F
100
AcDbEntity
  8
4
100
AcDbLine
 10
8.667352033895348
 20
5.218176506945617
 30
0.0
 11
8.302352033895346
 21
5.218176506945617
 31
0.0
  0
LINE
  5
4C7
330
1F
100
AcDbEntity
  8
4
100
AcDbLine
 10
8.302352033895346
 20
5.218176506945617
 30
0.0
 11
8.240352033895348
 21
5.280176506945617
 31
0.0
  0
LINE
  5
4C8
330
1F
100
AcDbEntity
  8
4
100
AcDbLine
 10
8.707352033895347
 20
5.280176506945617
 30
0.0
 11
8.707352033895347
 21
5.218176506945617
 31
0.0
  0
LINE
  5
4C9
330
1F
100
AcDbEntity
  8
4
100
AcDbLine
 10
8.667352033895348
 20
5.280176506945617
 30
0.0
 11
8.667352033895348
 21
5.218176506945617
 31
0.0
  0
LINE
  5
4CA
330
1F
100
AcDbEntity
  8
4
100
AcDbLine
 10
9.383352033895349
 20
5.186176506945617
 30
0.0
 11
9.383352033895349
 21
4.333132353054974
 31
0.0
  0
LINE
  5
4CB
330
1F
100
AcDbEntity
  8
4
100
AcDbLine
 10
9.245352033895347
 20
4.301176506945617
 30
0.0
 11
8.778352033895348
 21
4.301176506945617
 31
0.0
  0
LINE
  5
4CC
330
1F
100
AcDbEntity
  8
4
100
AcDbLine
 10
9.183352033895349
 20
4.239176506945616
 30
0.0
 11
9.245352033895347
 21
4.301176506945617
 31
0.0
  0
LINE
  5
4CD
330
1F
100
AcDbEntity
  8
4
100
AcDbLine
 10
8.818352033895347
 20
4.239176506945616
 30
0.0
 11
9.183352033895349
 21
4.239176506945616
 31
0.0
  0
LINE
  5
4CE
330
1F
100
AcDbEntity
  8
4
100
AcDbLine
 10
8.778352033895348
 20
4.301176506945617
 30
0.0
 11
8.778352033895348
 21
4.239176506945616
 31
0.0
  0
LINE
  5
4CF
330
1F
100
AcDbEntity
  8
4
100
AcDbLine
 10
8.818352033895347
 20
4.301176506945617
 30
0.0
 11
8.818352033895347
 21
4.239176506945616
 31
0.0
  0
LINE
  5
4D0
330
1F
100
AcDbEntity
  8
4
100
AcDbLine
 10
9.091372143792863
 20
4.181216812378266
 30
0.0
 11
9.029372143792862
 21
4.181216812378266
 31
0.0
  0
LINE
  5
4D1
330
1F
100
AcDbEntity
  8
4
100
AcDbLine
 10
9.383352033895349
 20
4.207176506945616
 30
0.0
 11
9.321352033895347
 21
4.207176506945616
 31
0.0
  0
LINE
  5
4D2
330
1F
100
AcDbEntity
  8
4
100
AcDbLine
 10
9.321352033895347
 20
4.239176506945616
 30
0.0
 11
9.383352033895349
 21
4.239176506945616
 31
0.0
  0
LINE
  5
4D3
330
1F
100
AcDbEntity
  8
4
100
AcDbLine
 10
9.383352033895349
 20
4.301176506945617
 30
0.0
 11
9.275352033895348
 21
4.301176506945617
 31
0.0
  0
LINE
  5
4D4
330
1F
100
AcDbEntity
  8
4
100
AcDbLine
 10
9.260352033895348
 20
4.286176506945617
 30
0.0
 11
9.358352033895346
 21
4.286176506945617
 31
0.0
  0
LINE
  5
4D5
330
1F
100
AcDbEntity
  8
4
100
AcDbLine
 10
9.245352033895347
 20
4.301176506945617
 30
0.0
 11
9.260352033895348
 21
4.286176506945617
 31
0.0
  0
LINE
  5
4D6
330
1F
100
AcDbEntity
  8
4
100
AcDbLine
 10
9.383352033895349
 20
4.239176506945616
 30
0.0
 11
9.383352033895349
 21
4.301176506945617
 31
0.0
  0
LINE
  5
4D7
330
1F
100
AcDbEntity
  8
4
100
AcDbLine
 10
9.358352033895346
 20
4.286176506945617
 30
0.0
 11
9.358352033895346
 21
4.257930364508057
 31
0.0
  0
LINE
  5
4D8
330
1F
100
AcDbEntity
  8
4
100
AcDbLine
 10
9.383352033895349
 20
4.333132353054974
 30
0.0
 11
9.321352033895347
 21
4.333132353054974
 31
0.0
  0
LINE
  5
4D9
330
1F
100
AcDbEntity
  8
4
100
AcDbLine
 10
9.183352033895349
 20
5.218176506945617
 30
0.0
 11
9.24535203389535
 21
5.280176506945617
 31
0.0
  0
LINE
  5
4DA
330
1F
100
AcDbEntity
  8
4
100
AcDbLine
 10
9.24535203389535
 20
5.280176506945617
 30
0.0
 11
8.778352033895348
 21
5.280176506945617
 31
0.0
  0
ARC
  5
4DB
330
1F
100
AcDbEntity
  8
4
100
AcDbCircle
 10
8.803352033895347
 20
5.123216812378268
 30
0.0
 40
0.025
100
AcDbArc
 50
180.0
 51
0.0
  0
LINE
  5
4DC
330
1F
100
AcDbEntity
  8
4
100
AcDbLine
 10
8.778352033895348
 20
5.123216812378268
 30
0.0
 11
8.778352033895348
 21
5.173216812378267
 31
0.0
  0
LINE
  5
4DD
330
1F
100
AcDbEntity
  8
4
100
AcDbLine
 10
9.091372143792863
 20
5.160216812378267
 30
0.0
 11
9.029372143792866
 21
5.160216812378267
 31
0.0
  0
LINE
  5
4DE
330
1F
100
AcDbEntity
  8
4
100
AcDbLine
 10
9.060372143792864
 20
5.160216812378267
 30
0.0
 11
9.060372143792864
 21
5.098216812378267
 31
0.0
  0
LINE
  5
4DF
330
1F
100
AcDbEntity
  8
4
100
AcDbLine
 10
8.818352033895347
 20
5.218176506945617
 30
0.0
 11
9.183352033895349
 21
5.218176506945617
 31
0.0
  0
LINE
  5
4E0
330
1F
100
AcDbEntity
  8
4
100
AcDbLine
 10
8.818352033895347
 20
5.280176506945617
 30
0.0
 11
8.818352033895347
 21
5.218176506945617
 31
0.0
  0
LINE
  5
4E1
330
1F
100
AcDbEntity
  8
4
100
AcDbLine
 10
8.778352033895348
 20
5.280176506945617
 30
0.0
 11
8.778352033895348
 21
5.218176506945617
 31
0.0
  0
LINE
  5
4E2
330
1F
100
AcDbEntity
  8
4
100
AcDbLine
 10
9.321352033895347
 20
5.186176506945617
 30
0.0
 11
9.383352033895349
 21
5.186176506945617
 31
0.0
  0
LINE
  5
4E3
330
1F
100
AcDbEntity
  8
4
100
AcDbLine
 10
9.260352033895348
 20
5.265176506945617
 30
0.0
 11
9.35835203389535
 21
5.265176506945617
 31
0.0
  0
LINE
  5
4E4
330
1F
100
AcDbEntity
  8
4
100
AcDbLine
 10
9.383352033895349
 20
5.280176506945617
 30
0.0
 11
9.275352033895348
 21
5.280176506945617
 31
0.0
  0
LINE
  5
4E5
330
1F
100
AcDbEntity
  8
4
100
AcDbLine
 10
9.321352033895347
 20
5.218176506945617
 30
0.0
 11
9.383352033895349
 21
5.218176506945617
 31
0.0
  0
LINE
  5
4E6
330
1F
100
AcDbEntity
  8
4
100
AcDbLine
 10
9.321352033895347
 20
5.312132353054973
 30
0.0
 11
9.383352033895349
 21
5.312132353054973
 31
0.0
  0
LINE
  5
4E7
330
1F
100
AcDbEntity
  8
4
100
AcDbLine
 10
9.24535203389535
 20
5.280176506945617
 30
0.0
 11
9.260352033895348
 21
5.265176506945617
 31
0.0
  0
LINE
  5
4E8
330
1F
100
AcDbEntity
  8
4
100
AcDbLine
 10
9.35835203389535
 20
5.265176506945617
 30
0.0
 11
9.35835203389535
 21
5.236930364508057
 31
0.0
  0
LINE
  5
4E9
330
1F
100
AcDbEntity
  8
4
100
AcDbLine
 10
9.383352033895349
 20
5.218176506945617
 30
0.0
 11
9.383352033895349
 21
5.280176506945617
 31
0.0
  0
LINE
  5
4EA
330
1F
100
AcDbEntity
  8
4
100
AcDbLine
 10
8.102352033895346
 20
6.165170628388487
 30
0.0
 11
8.164352033895347
 21
6.165170628388487
 31
0.0
  0
LINE
  5
4EB
330
1F
100
AcDbEntity
  8
4
100
AcDbLine
 10
8.425331923997834
 20
6.139170628388487
 30
0.0
 11
8.425331923997834
 21
6.077170628388487
 31
0.0
  0
LINE
  5
4EC
330
1F
100
AcDbEntity
  8
4
100
AcDbLine
 10
8.394331923997832
 20
6.139170628388487
 30
0.0
 11
8.456331923997833
 21
6.139170628388487
 31
0.0
  0
ARC
  5
4ED
330
1F
100
AcDbEntity
  8
4
100
AcDbCircle
 10
8.682352033895348
 20
6.102170628388488
 30
0.0
 40
0.025
100
AcDbArc
 50
180.0
 51
0.0
  0
LINE
  5
4EE
330
1F
100
AcDbEntity
  8
4
100
AcDbLine
 10
8.707352033895347
 20
6.102170628388488
 30
0.0
 11
8.707352033895347
 21
6.152170628388487
 31
0.0
  0
ARC
  5
4EF
330
1F
100
AcDbEntity
  8
4
100
AcDbCircle
 10
8.803352033895347
 20
6.102170628388488
 30
0.0
 40
0.025
100
AcDbArc
 50
180.0
 51
0.0
  0
LINE
  5
4F0
330
1F
100
AcDbEntity
  8
4
100
AcDbLine
 10
8.778352033895348
 20
6.102170628388488
 30
0.0
 11
8.778352033895348
 21
6.152170628388487
 31
0.0
  0
LINE
  5
4F1
330
1F
100
AcDbEntity
  8
4
100
AcDbLine
 10
9.060372143792864
 20
6.139170628388487
 30
0.0
 11
9.060372143792864
 21
6.077170628388487
 31
0.0
  0
LINE
  5
4F2
330
1F
100
AcDbEntity
  8
4
100
AcDbLine
 10
9.091372143792863
 20
6.139170628388487
 30
0.0
 11
9.029372143792866
 21
6.139170628388487
 31
0.0
  0
LINE
  5
4F3
330
1F
100
AcDbEntity
  8
4
100
AcDbLine
 10
9.383352033895349
 20
6.165170628388487
 30
0.0
 11
9.321352033895347
 21
6.165170628388487
 31
0.0
  0
INSERT
  5
4F4
330
1F
100
AcDbEntity
  8
4
100
AcDbBlockReference
 66
     1
  2
FRACTION
 10
6.275734145520556
 20
4.181665163180164
 30
0.0
 41
0.5999999999999997
 42
0.5999999999999997
 43
0.6
 50
90.0
  0
ATTRIB
  5
4F5
330
4F4
100
AcDbEntity
  8
8
100
AcDbText
 10
6.233482827447407
 20
4.117162379511373
 30
0.0
 40
0.075
  1
60" 
 50
90.0
 72
     2
 11
6.233482827447407
 21
4.379662379511374
 31
0.0
100
AcDbAttribute
  2
A
 70
     0
  0
ATTRIB
  5
4F6
330
4F4
100
AcDbEntity
  8
8
100
AcDbText
 10
6.167734145520559
 20
4.194865163180163
 30
0.0
 40
0.06
  1
 
 50
90.0
 72
     1
 11
6.167734145520559
 21
4.224865163180163
 31
0.0
100
AcDbAttribute
  2
B
 70
     0
  0
ATTRIB
  5
4F7
330
4F4
100
AcDbEntity
  8
8
100
AcDbText
 10
6.251734145520559
 20
4.164865163180163
 30
0.0
 40
0.06
  1
 
 50
90.0
 72
     1
 11
6.251734145520559
 21
4.194865163180163
 31
0.0
100
AcDbAttribute
  2
C
 70
     0
  0
SEQEND
  5
4F8
330
4F4
100
AcDbEntity
  8
4
  0
TEXT
  5
4F9
330
1F
100
AcDbEntity
  8
8
100
AcDbText
 10
6.939352033895348
 20
3.451832671401307
 30
0.0
 40
0.07
  1
DEPTH
  7
ROMANS
 72
     1
 11
7.104352033895348
 21
3.451832671401307
 31
0.0
100
AcDbText
  0
TEXT
  5
4FA
330
1F
100
AcDbEntity
  8
8
100
AcDbText
 10
8.561852033895348
 20
3.451832671401307
 30
0.0
 40
0.07
  1
DEPTH
  7
ROMANS
 72
     1
 11
8.726852033895347
 21
3.451832671401307
 31
0.0
100
AcDbText
  0
TEXT
  5
4FB
330
1F
100
AcDbEntity
  8
8
100
AcDbText
 10
8.004690520968892
 20
2.506772966583431
 30
0.0
 40
0.1
  1
SR BACK TO BACK
  7
ROMANS
 72
     1
 11
8.728500044778416
 21
2.506772966583431
 31
0.0
100
AcDbText
  0
TEXT
  5
4FC
330
1F
100
AcDbEntity
  8
8
100
AcDbText
 10
7.521241358453727
 20
2.322171959758121
 30
0.0
 40
0.1
  1
SECTIONS
  7
ROMANS
 72
     1
 11
7.873622310834679
 21
2.322171959758121
 31
0.0
100
AcDbText
  0
TEXT
  5
4FD
330
1F
100
AcDbEntity
  8
8
100
AcDbText
 10
7.028905197022305
 20
2.506772966583431
 30
0.0
 40
0.1
  1
SR
  7
ROMANS
 72
     1
 11
7.126524244641352
 21
2.506772966583431
 31
0.0
100
AcDbText
  0
LINE
  5
4FE
330
1F
100
AcDbEntity
  8
4
100
AcDbLine
 10
7.354852033895348
 20
6.010171959758121
 30
0.0
 11
7.618583636560751
 21
6.010171959758121
 31
0.0
  0
LINE
  5
4FF
330
1F
100
AcDbEntity
  8
4
100
AcDbLine
 10
7.659010846233178
 20
6.010171959758121
 30
0.0
 11
7.839474643057121
 21
6.010171959758121
 31
0.0
  0
INSERT
  5
500
330
1F
100
AcDbEntity
  8
4
100
AcDbBlockReference
  2
ARRO
 10
7.659010846233178
 20
6.010171959758121
 30
0.0
  0
LINE
  5
501
330
1F
100
AcDbEntity
  8
4
100
AcDbLine
 10
7.839474643057121
 20
6.010171959758121
 30
0.0
 11
7.839474643057121
 21
5.807184289967609
 31
0.0
  0
TEXT
  5
502
330
1F
100
AcDbEntity
  8
8
100
AcDbText
 10
7.874474643057121
 20
4.431850956634275
 30
0.0
 40
0.07
  1
ANCHORING BY ERECTOR
 50
90.0
  7
ROMANS
 72
     2
 11
7.874474643057121
 21
5.745184289967609
 31
0.0
100
AcDbText
  0
TEXT
  5
503
330
1F
100
AcDbEntity
  8
8
100
AcDbText
 10
6.227352033895347
 20
4.338505293091454
 30
0.0
 40
0.07
  1
LOCKER HEIGHT
 50
90.0
  7
ROMANS
 72
     1
 11
6.227352033895347
 21
4.760171959758121
 31
0.0
100
AcDbText
  0
TEXT
  5
504
330
1F
100
AcDbEntity
  8
8
100
AcDbText
 10
3.071852033895346
 20
2.822171959758121
 30
0.0
 40
0.07
  1
LOCKER WIDTH - SEE SCHEDULE
  7
ROMANS
 72
     1
 11
3.976852033895347
 21
2.822171959758121
 31
0.0
100
AcDbText
  0
TEXT
  5
505
330
1F
100
AcDbEntity
  8
8
100
AcDbText
 10
3.312566319609633
 20
2.322171959758121
 30
0.0
 40
0.1
  1
FRONT ELEVATION
  7
ROMANS
 72
     1
 11
3.976852033895347
 21
2.322171959758121
 31
0.0
100
AcDbText
  0
LINE
  5
506
330
1F
100
AcDbEntity
  8
1
100
AcDbLine
 10
6.930352033895347
 20
3.322671959758121
 30
0.0
 11
6.915352033895347
 21
3.307671959758121
 31
0.0
  0
LINE
  5
507
330
1F
100
AcDbEntity
  8
1
100
AcDbLine
 10
6.915352033895347
 20
3.307671959758121
 30
0.0
 11
6.817352033895347
 21
3.307671959758121
 31
0.0
  0
LINE
  5
508
330
1F
100
AcDbEntity
  8
1
100
AcDbLine
 10
6.817352033895347
 20
3.307671959758121
 30
0.0
 11
6.817352033895347
 21
3.279425817320561
 31
0.0
  0
LINE
  5
509
330
1F
100
AcDbEntity
  8
1
100
AcDbLine
 10
6.992352033895347
 20
3.260671959758121
 30
0.0
 11
6.930352033895347
 21
3.322671959758121
 31
0.0
  0
LINE
  5
50A
330
1F
100
AcDbEntity
  8
1
100
AcDbLine
 10
7.357352033895347
 20
3.260671959758121
 30
0.0
 11
6.992352033895347
 21
3.260671959758121
 31
0.0
  0
LINE
  5
50B
330
1F
100
AcDbEntity
  8
1
100
AcDbLine
 10
7.357352033895347
 20
3.322671959758121
 30
0.0
 11
7.357352033895347
 21
3.260671959758121
 31
0.0
  0
LINE
  5
50C
330
1F
100
AcDbEntity
  8
1
100
AcDbLine
 10
7.397352033895347
 20
3.322671959758121
 30
0.0
 11
7.397352033895347
 21
3.260671959758121
 31
0.0
  0
LINE
  5
50D
330
1F
100
AcDbEntity
  8
1
100
AcDbLine
 10
6.792352033895347
 20
3.322671959758121
 30
0.0
 11
6.900352033895346
 21
3.322671959758121
 31
0.0
  0
LINE
  5
50E
330
1F
100
AcDbEntity
  8
1
100
AcDbLine
 10
6.792352033895347
 20
3.260671959758121
 30
0.0
 11
6.792352033895347
 21
3.322671959758121
 31
0.0
  0
LINE
  5
50F
330
1F
100
AcDbEntity
  8
1
100
AcDbLine
 10
6.854352033895347
 20
3.260671959758121
 30
0.0
 11
6.792352033895347
 21
3.260671959758121
 31
0.0
  0
LINE
  5
510
330
1F
100
AcDbEntity
  8
1
100
AcDbLine
 10
6.930352033895347
 20
3.322671959758121
 30
0.0
 11
7.397352033895347
 21
3.322671959758121
 31
0.0
  0
LINE
  5
511
330
1F
100
AcDbEntity
  8
1
100
AcDbLine
 10
8.240352033895346
 20
3.322671959758121
 30
0.0
 11
8.707352033895347
 21
3.322671959758121
 31
0.0
  0
LINE
  5
512
330
1F
100
AcDbEntity
  8
1
100
AcDbLine
 10
8.164352033895347
 20
3.260671959758121
 30
0.0
 11
8.102352033895346
 21
3.260671959758121
 31
0.0
  0
LINE
  5
513
330
1F
100
AcDbEntity
  8
1
100
AcDbLine
 10
8.102352033895346
 20
3.260671959758121
 30
0.0
 11
8.102352033895346
 21
3.322671959758121
 31
0.0
  0
LINE
  5
514
330
1F
100
AcDbEntity
  8
1
100
AcDbLine
 10
8.102352033895346
 20
3.322671959758121
 30
0.0
 11
8.210352033895347
 21
3.322671959758121
 31
0.0
  0
LINE
  5
515
330
1F
100
AcDbEntity
  8
1
100
AcDbLine
 10
8.707352033895347
 20
3.322671959758121
 30
0.0
 11
8.707352033895347
 21
3.260671959758121
 31
0.0
  0
LINE
  5
516
330
1F
100
AcDbEntity
  8
1
100
AcDbLine
 10
8.667352033895348
 20
3.322671959758121
 30
0.0
 11
8.667352033895348
 21
3.260671959758121
 31
0.0
  0
LINE
  5
517
330
1F
100
AcDbEntity
  8
1
100
AcDbLine
 10
8.667352033895348
 20
3.260671959758121
 30
0.0
 11
8.302352033895346
 21
3.260671959758121
 31
0.0
  0
LINE
  5
518
330
1F
100
AcDbEntity
  8
1
100
AcDbLine
 10
8.302352033895346
 20
3.260671959758121
 30
0.0
 11
8.240352033895346
 21
3.322671959758121
 31
0.0
  0
LINE
  5
519
330
1F
100
AcDbEntity
  8
1
100
AcDbLine
 10
8.127352033895347
 20
3.307671959758121
 30
0.0
 11
8.127352033895347
 21
3.279425817320561
 31
0.0
  0
LINE
  5
51A
330
1F
100
AcDbEntity
  8
1
100
AcDbLine
 10
8.225352033895347
 20
3.307671959758121
 30
0.0
 11
8.127352033895347
 21
3.307671959758121
 31
0.0
  0
LINE
  5
51B
330
1F
100
AcDbEntity
  8
1
100
AcDbLine
 10
8.240352033895346
 20
3.322671959758121
 30
0.0
 11
8.225352033895347
 21
3.307671959758121
 31
0.0
  0
LINE
  5
51C
330
1F
100
AcDbEntity
  8
1
100
AcDbLine
 10
9.245352033895349
 20
3.322671959758121
 30
0.0
 11
9.260352033895348
 21
3.307671959758121
 31
0.0
  0
LINE
  5
51D
330
1F
100
AcDbEntity
  8
1
100
AcDbLine
 10
9.260352033895348
 20
3.307671959758121
 30
0.0
 11
9.358352033895348
 21
3.307671959758121
 31
0.0
  0
LINE
  5
51E
330
1F
100
AcDbEntity
  8
1
100
AcDbLine
 10
9.358352033895348
 20
3.307671959758121
 30
0.0
 11
9.358352033895348
 21
3.279425817320561
 31
0.0
  0
LINE
  5
51F
330
1F
100
AcDbEntity
  8
1
100
AcDbLine
 10
9.183352033895349
 20
3.260671959758121
 30
0.0
 11
9.245352033895349
 21
3.322671959758121
 31
0.0
  0
LINE
  5
520
330
1F
100
AcDbEntity
  8
1
100
AcDbLine
 10
8.818352033895347
 20
3.260671959758121
 30
0.0
 11
9.183352033895349
 21
3.260671959758121
 31
0.0
  0
LINE
  5
521
330
1F
100
AcDbEntity
  8
1
100
AcDbLine
 10
8.818352033895347
 20
3.322671959758121
 30
0.0
 11
8.818352033895347
 21
3.260671959758121
 31
0.0
  0
LINE
  5
522
330
1F
100
AcDbEntity
  8
1
100
AcDbLine
 10
8.778352033895348
 20
3.322671959758121
 30
0.0
 11
8.778352033895348
 21
3.260671959758121
 31
0.0
  0
LINE
  5
523
330
1F
100
AcDbEntity
  8
1
100
AcDbLine
 10
9.383352033895349
 20
3.322671959758121
 30
0.0
 11
9.275352033895348
 21
3.322671959758121
 31
0.0
  0
LINE
  5
524
330
1F
100
AcDbEntity
  8
1
100
AcDbLine
 10
9.383352033895349
 20
3.260671959758121
 30
0.0
 11
9.383352033895349
 21
3.322671959758121
 31
0.0
  0
LINE
  5
525
330
1F
100
AcDbEntity
  8
1
100
AcDbLine
 10
9.321352033895347
 20
3.260671959758121
 30
0.0
 11
9.383352033895349
 21
3.260671959758121
 31
0.0
  0
LINE
  5
526
330
1F
100
AcDbEntity
  8
1
100
AcDbLine
 10
9.245352033895349
 20
3.322671959758121
 30
0.0
 11
8.778352033895348
 21
3.322671959758121
 31
0.0
  0
LINE
  5
527
330
1F
100
AcDbEntity
  8
1
100
AcDbLine
 10
9.245352033895349
 20
6.260171959758121
 30
0.0
 11
8.778352033895348
 21
6.260171959758121
 31
0.0
  0
LINE
  5
528
330
1F
100
AcDbEntity
  8
1
100
AcDbLine
 10
9.321352033895347
 20
6.198171959758121
 30
0.0
 11
9.383352033895349
 21
6.198171959758121
 31
0.0
  0
LINE
  5
529
330
1F
100
AcDbEntity
  8
1
100
AcDbLine
 10
9.383352033895349
 20
6.198171959758121
 30
0.0
 11
9.383352033895349
 21
6.260171959758121
 31
0.0
  0
LINE
  5
52A
330
1F
100
AcDbEntity
  8
1
100
AcDbLine
 10
9.383352033895349
 20
6.260171959758121
 30
0.0
 11
9.275352033895348
 21
6.260171959758121
 31
0.0
  0
LINE
  5
52B
330
1F
100
AcDbEntity
  8
1
100
AcDbLine
 10
8.778352033895348
 20
6.260171959758121
 30
0.0
 11
8.778352033895348
 21
6.198171959758121
 31
0.0
  0
LINE
  5
52C
330
1F
100
AcDbEntity
  8
1
100
AcDbLine
 10
8.818352033895347
 20
6.260171959758121
 30
0.0
 11
8.818352033895347
 21
6.198171959758121
 31
0.0
  0
LINE
  5
52D
330
1F
100
AcDbEntity
  8
1
100
AcDbLine
 10
8.818352033895347
 20
6.198171959758121
 30
0.0
 11
9.183352033895349
 21
6.198171959758121
 31
0.0
  0
LINE
  5
52E
330
1F
100
AcDbEntity
  8
1
100
AcDbLine
 10
9.183352033895349
 20
6.198171959758121
 30
0.0
 11
9.245352033895349
 21
6.260171959758121
 31
0.0
  0
LINE
  5
52F
330
1F
100
AcDbEntity
  8
1
100
AcDbLine
 10
9.358352033895348
 20
6.245171959758121
 30
0.0
 11
9.358352033895348
 21
6.216925817320561
 31
0.0
  0
LINE
  5
530
330
1F
100
AcDbEntity
  8
1
100
AcDbLine
 10
9.260352033895348
 20
6.245171959758121
 30
0.0
 11
9.358352033895348
 21
6.245171959758121
 31
0.0
  0
LINE
  5
531
330
1F
100
AcDbEntity
  8
1
100
AcDbLine
 10
9.245352033895349
 20
6.260171959758121
 30
0.0
 11
9.260352033895348
 21
6.245171959758121
 31
0.0
  0
LINE
  5
532
330
1F
100
AcDbEntity
  8
1
100
AcDbLine
 10
8.240352033895346
 20
6.260171959758121
 30
0.0
 11
8.225352033895347
 21
6.245171959758121
 31
0.0
  0
LINE
  5
533
330
1F
100
AcDbEntity
  8
1
100
AcDbLine
 10
8.225352033895347
 20
6.245171959758121
 30
0.0
 11
8.127352033895347
 21
6.245171959758121
 31
0.0
  0
LINE
  5
534
330
1F
100
AcDbEntity
  8
1
100
AcDbLine
 10
8.127352033895347
 20
6.245171959758121
 30
0.0
 11
8.127352033895347
 21
6.216925817320561
 31
0.0
  0
LINE
  5
535
330
1F
100
AcDbEntity
  8
1
100
AcDbLine
 10
8.302352033895346
 20
6.198171959758121
 30
0.0
 11
8.240352033895346
 21
6.260171959758121
 31
0.0
  0
LINE
  5
536
330
1F
100
AcDbEntity
  8
1
100
AcDbLine
 10
8.667352033895348
 20
6.198171959758121
 30
0.0
 11
8.302352033895346
 21
6.198171959758121
 31
0.0
  0
LINE
  5
537
330
1F
100
AcDbEntity
  8
1
100
AcDbLine
 10
8.667352033895348
 20
6.260171959758121
 30
0.0
 11
8.667352033895348
 21
6.198171959758121
 31
0.0
  0
LINE
  5
538
330
1F
100
AcDbEntity
  8
1
100
AcDbLine
 10
8.707352033895347
 20
6.260171959758121
 30
0.0
 11
8.707352033895347
 21
6.198171959758121
 31
0.0
  0
LINE
  5
539
330
1F
100
AcDbEntity
  8
1
100
AcDbLine
 10
8.102352033895346
 20
6.260171959758121
 30
0.0
 11
8.210352033895347
 21
6.260171959758121
 31
0.0
  0
LINE
  5
53A
330
1F
100
AcDbEntity
  8
1
100
AcDbLine
 10
8.102352033895346
 20
6.198171959758121
 30
0.0
 11
8.102352033895346
 21
6.260171959758121
 31
0.0
  0
LINE
  5
53B
330
1F
100
AcDbEntity
  8
1
100
AcDbLine
 10
8.164352033895347
 20
6.198171959758121
 30
0.0
 11
8.102352033895346
 21
6.198171959758121
 31
0.0
  0
LINE
  5
53C
330
1F
100
AcDbEntity
  8
1
100
AcDbLine
 10
8.240352033895346
 20
6.260171959758121
 30
0.0
 11
8.707352033895347
 21
6.260171959758121
 31
0.0
  0
LINE
  5
53D
330
1F
100
AcDbEntity
  8
1
100
AcDbLine
 10
6.930352033895347
 20
6.260171959758121
 30
0.0
 11
7.397352033895347
 21
6.260171959758121
 31
0.0
  0
LINE
  5
53E
330
1F
100
AcDbEntity
  8
1
100
AcDbLine
 10
6.854352033895347
 20
6.198171959758121
 30
0.0
 11
6.792352033895347
 21
6.198171959758121
 31
0.0
  0
LINE
  5
53F
330
1F
100
AcDbEntity
  8
1
100
AcDbLine
 10
6.792352033895347
 20
6.198171959758121
 30
0.0
 11
6.792352033895347
 21
6.260171959758121
 31
0.0
  0
LINE
  5
540
330
1F
100
AcDbEntity
  8
1
100
AcDbLine
 10
6.792352033895347
 20
6.260171959758121
 30
0.0
 11
6.900352033895346
 21
6.260171959758121
 31
0.0
  0
LINE
  5
541
330
1F
100
AcDbEntity
  8
1
100
AcDbLine
 10
7.397352033895347
 20
6.260171959758121
 30
0.0
 11
7.397352033895347
 21
6.198171959758121
 31
0.0
  0
LINE
  5
542
330
1F
100
AcDbEntity
  8
1
100
AcDbLine
 10
7.357352033895347
 20
6.260171959758121
 30
0.0
 11
7.357352033895347
 21
6.198171959758121
 31
0.0
  0
LINE
  5
543
330
1F
100
AcDbEntity
  8
1
100
AcDbLine
 10
7.357352033895347
 20
6.198171959758121
 30
0.0
 11
6.992352033895347
 21
6.198171959758121
 31
0.0
  0
LINE
  5
544
330
1F
100
AcDbEntity
  8
1
100
AcDbLine
 10
6.992352033895347
 20
6.198171959758121
 30
0.0
 11
6.930352033895347
 21
6.260171959758121
 31
0.0
  0
LINE
  5
545
330
1F
100
AcDbEntity
  8
1
100
AcDbLine
 10
6.817352033895347
 20
6.245171959758121
 30
0.0
 11
6.817352033895347
 21
6.216925817320561
 31
0.0
  0
LINE
  5
546
330
1F
100
AcDbEntity
  8
1
100
AcDbLine
 10
6.915352033895347
 20
6.245171959758121
 30
0.0
 11
6.817352033895347
 21
6.245171959758121
 31
0.0
  0
LINE
  5
547
330
1F
100
AcDbEntity
  8
1
100
AcDbLine
 10
6.930352033895347
 20
6.260171959758121
 30
0.0
 11
6.915352033895347
 21
6.245171959758121
 31
0.0
  0
LINE
  5
548
330
1F
100
AcDbEntity
  8
1
100
AcDbLine
 10
2.788852033895348
 20
3.322171959758121
 30
0.0
 11
3.289852033895347
 21
3.322171959758121
 31
0.0
  0
LINE
  5
549
330
1F
100
AcDbEntity
  8
4
100
AcDbLine
 10
3.599718744203361
 20
3.134171959758121
 30
0.0
 11
3.66171874420336
 21
3.134171959758121
 31
0.0
  0
CIRCLE
  5
54A
330
1F
100
AcDbEntity
  8
4
100
AcDbCircle
 10
3.755718744203361
 20
3.134171959758121
 30
0.0
 40
0.094
  0
LINE
  5
54B
330
1F
100
AcDbEntity
  8
4
100
AcDbLine
 10
3.505718744203361
 20
3.228171959758121
 30
0.0
 11
3.505718744203361
 21
3.353171959758121
 31
0.0
  0
CIRCLE
  5
54C
330
1F
100
AcDbEntity
  8
4
100
AcDbCircle
 10
3.505718744203361
 20
3.134171959758121
 30
0.0
 40
0.094
  0
CIRCLE
  5
54D
330
1F
100
AcDbEntity
  8
4
100
AcDbCircle
 10
3.664352033895347
 20
6.072171959758121
 30
0.0
 40
0.094
  0
LINE
  5
54E
330
1F
100
AcDbEntity
  8
4
100
AcDbLine
 10
3.664352033895347
 20
6.166171959758122
 30
0.0
 11
3.664352033895347
 21
6.291171959758122
 31
0.0
  0
LINE
  5
54F
330
1F
100
AcDbEntity
  8
1
100
AcDbLine
 10
4.226852033895347
 20
3.322171959758121
 30
0.0
 11
4.038852033895348
 21
3.322171959758121
 31
0.0
  0
LINE
  5
550
330
1F
100
AcDbEntity
  8
1
100
AcDbLine
 10
4.351852033895347
 20
6.198171959758122
 30
0.0
 11
4.539852033895348
 21
6.198171959758122
 31
0.0
  0
LINE
  5
551
330
1F
100
AcDbEntity
  8
1
100
AcDbLine
 10
4.601852033895347
 20
3.260171959758121
 30
0.0
 11
4.601852033895347
 21
6.260171959758121
 31
0.0
  0
LINE
  5
552
330
1F
100
AcDbEntity
  8
1
100
AcDbLine
 10
3.976852033895347
 20
3.260171959758121
 30
0.0
 11
3.976852033895347
 21
6.260171959758121
 31
0.0
  0
LINE
  5
553
330
1F
100
AcDbEntity
  8
1
100
AcDbLine
 10
3.351852033895347
 20
3.260171959758121
 30
0.0
 11
3.351852033895347
 21
6.260171959758121
 31
0.0
  0
LINE
  5
554
330
1F
100
AcDbEntity
  8
1
100
AcDbLine
 10
5.164852033895347
 20
3.322171959758121
 30
0.0
 11
4.663852033895348
 21
3.322171959758121
 31
0.0
  0
LINE
  5
555
330
1F
100
AcDbEntity
  8
1
100
AcDbLine
 10
5.164852033895348
 20
6.198171959758122
 30
0.0
 11
5.164852033895347
 21
3.322171959758121
 31
0.0
  0
LINE
  5
556
330
1F
100
AcDbEntity
  8
1
100
AcDbLine
 10
4.663852033895348
 20
6.198171959758122
 30
0.0
 11
5.164852033895348
 21
6.198171959758122
 31
0.0
  0
LINE
  5
557
330
1F
100
AcDbEntity
  8
1
100
AcDbLine
 10
4.663852033895348
 20
3.322171959758121
 30
0.0
 11
4.663852033895348
 21
6.198171959758122
 31
0.0
  0
LINE
  5
558
330
1F
100
AcDbEntity
  8
1
100
AcDbLine
 10
4.539852033895347
 20
3.322171959758121
 30
0.0
 11
4.351852033895347
 21
3.322171959758121
 31
0.0
  0
LINE
  5
559
330
1F
100
AcDbEntity
  8
1
100
AcDbLine
 10
4.539852033895348
 20
6.198171959758122
 30
0.0
 11
4.539852033895347
 21
3.322171959758121
 31
0.0
  0
LINE
  5
55A
330
1F
100
AcDbEntity
  8
1
100
AcDbLine
 10
4.038852033895348
 20
6.198171959758122
 30
0.0
 11
4.226852033895347
 21
6.198171959758122
 31
0.0
  0
LINE
  5
55B
330
1F
100
AcDbEntity
  8
1
100
AcDbLine
 10
4.038852033895348
 20
3.322171959758121
 30
0.0
 11
4.038852033895348
 21
6.198171959758122
 31
0.0
  0
LINE
  5
55C
330
1F
100
AcDbEntity
  8
1
100
AcDbLine
 10
3.914852033895347
 20
3.322171959758121
 30
0.0
 11
3.413852033895348
 21
3.322171959758121
 31
0.0
  0
LINE
  5
55D
330
1F
100
AcDbEntity
  8
1
100
AcDbLine
 10
3.914852033895348
 20
6.198171959758122
 30
0.0
 11
3.914852033895347
 21
3.322171959758121
 31
0.0
  0
LINE
  5
55E
330
1F
100
AcDbEntity
  8
1
100
AcDbLine
 10
3.413852033895348
 20
6.198171959758122
 30
0.0
 11
3.914852033895348
 21
6.198171959758122
 31
0.0
  0
LINE
  5
55F
330
1F
100
AcDbEntity
  8
1
100
AcDbLine
 10
3.413852033895348
 20
3.322171959758121
 30
0.0
 11
3.413852033895348
 21
6.198171959758122
 31
0.0
  0
LINE
  5
560
330
1F
100
AcDbEntity
  8
1
100
AcDbLine
 10
3.289852033895348
 20
6.198171959758122
 30
0.0
 11
3.289852033895347
 21
3.322171959758121
 31
0.0
  0
LINE
  5
561
330
1F
100
AcDbEntity
  8
1
100
AcDbLine
 10
2.788852033895348
 20
6.198171959758122
 30
0.0
 11
3.289852033895348
 21
6.198171959758122
 31
0.0
  0
LINE
  5
562
330
1F
100
AcDbEntity
  8
1
100
AcDbLine
 10
2.788852033895348
 20
3.322171959758121
 30
0.0
 11
2.788852033895348
 21
6.198171959758122
 31
0.0
  0
INSERT
  5
563
330
1F
100
AcDbEntity
  8
4
100
AcDbBlockReference
  2
ARRO
 10
9.383852033895347
 20
3.572671959758121
 30
0.0
 50
180.0
  0
INSERT
  5
564
330
1F
100
AcDbEntity
  8
4
100
AcDbBlockReference
  2
ARRO
 10
8.101852033895347
 20
3.572671959758121
 30
0.0
  0
INSERT
  5
565
330
1F
100
AcDbEntity
  8
4
100
AcDbBlockReference
  2
ARRO
 10
7.476852033895347
 20
3.572671959758121
 30
0.0
  0
INSERT
  5
566
330
1F
100
AcDbEntity
  8
4
100
AcDbBlockReference
  2
ARRO
 10
7.416852033895348
 20
3.572671959758121
 30
0.0
 50
180.0
  0
INSERT
  5
567
330
1F
100
AcDbEntity
  8
4
100
AcDbBlockReference
  2
ARRO
 10
6.791852033895348
 20
3.572671959758121
 30
0.0
  0
LINE
  5
568
330
1F
100
AcDbEntity
  8
4
100
AcDbLine
 10
8.101852033895347
 20
3.572671959758121
 30
0.0
 11
9.383852033895347
 21
3.572671959758121
 31
0.0
  0
LINE
  5
569
330
1F
100
AcDbEntity
  8
4
100
AcDbLine
 10
7.476852033895347
 20
3.572671959758121
 30
0.0
 11
7.726852033895347
 21
3.572671959758121
 31
0.0
  0
LINE
  5
56A
330
1F
100
AcDbEntity
  8
4
100
AcDbLine
 10
7.416852033895348
 20
3.572671959758121
 30
0.0
 11
6.791852033895348
 21
3.572671959758121
 31
0.0
  0
INSERT
  5
56B
330
1F
100
AcDbEntity
  8
4
100
AcDbBlockReference
  2
ARRO
 10
6.289352033895347
 20
3.260171959758121
 30
0.0
 50
90.0
  0
INSERT
  5
56C
330
1F
100
AcDbEntity
  8
4
100
AcDbBlockReference
  2
ARRO
 10
6.289352033895347
 20
6.260171959758121
 30
0.0
 50
270.0
  0
LINE
  5
56D
330
1F
100
AcDbEntity
  8
4
100
AcDbLine
 10
6.729352033895348
 20
6.260171959758121
 30
0.0
 11
6.229352033895348
 21
6.260171959758121
 31
0.0
  0
LINE
  5
56E
330
1F
100
AcDbEntity
  8
4
100
AcDbLine
 10
6.289352033895347
 20
3.260171959758121
 30
0.0
 11
6.289352033895347
 21
6.260171959758121
 31
0.0
  0
LINE
  5
56F
330
1F
100
AcDbEntity
  8
4
100
AcDbLine
 10
6.729352033895348
 20
3.260171959758121
 30
0.0
 11
6.229352033895348
 21
3.260171959758121
 31
0.0
  0
INSERT
  5
570
330
1F
100
AcDbEntity
  8
4
100
AcDbBlockReference
  2
ARRO
 10
5.226852033895347
 20
2.760171959758121
 30
0.0
 50
180.0
  0
INSERT
  5
571
330
1F
100
AcDbEntity
  8
4
100
AcDbBlockReference
  2
ARRO
 10
2.726852033895347
 20
2.760171959758122
 30
0.0
  0
LINE
  5
572
330
1F
100
AcDbEntity
  8
4
100
AcDbLine
 10
5.226852033895347
 20
2.760171959758121
 30
0.0
 11
2.726852033895347
 21
2.760171959758122
 31
0.0
  0
LINE
  5
573
330
1F
100
AcDbEntity
  8
4
100
AcDbLine
 10
5.226852033895347
 20
3.198171959758121
 30
0.0
 11
5.226852033895347
 21
2.698171959758121
 31
0.0
  0
LINE
  5
574
330
1F
100
AcDbEntity
  8
4
100
AcDbLine
 10
2.726852033895347
 20
3.198171959758121
 30
0.0
 11
2.726852033895347
 21
2.698171959758121
 31
0.0
  0
LINE
  5
575
330
1F
100
AcDbEntity
  8
1
100
AcDbLine
 10
7.416852033895348
 20
3.260171959758121
 30
0.0
 11
7.416852033895348
 21
6.260171959758121
 31
0.0
  0
LINE
  5
576
330
1F
100
AcDbEntity
  8
1
100
AcDbLine
 10
7.476852033895347
 20
6.510171959758121
 30
0.0
 11
7.601852033895347
 21
6.635171959758121
 31
0.0
  0
LINE
  5
577
330
1F
100
AcDbEntity
  8
1
100
AcDbLine
 10
7.476852033895347
 20
6.385171959758121
 30
0.0
 11
7.664852033895347
 21
6.573171959758121
 31
0.0
  0
LINE
  5
578
330
1F
100
AcDbEntity
  8
1
100
AcDbLine
 10
7.476852033895347
 20
6.260171959758121
 30
0.0
 11
7.664852033895347
 21
6.448171959758121
 31
0.0
  0
LINE
  5
579
330
1F
100
AcDbEntity
  8
1
100
AcDbLine
 10
7.476852033895347
 20
6.135171959758121
 30
0.0
 11
7.664852033895347
 21
6.323171959758121
 31
0.0
  0
LINE
  5
57A
330
1F
100
AcDbEntity
  8
1
100
AcDbLine
 10
7.476852033895347
 20
6.010171959758121
 30
0.0
 11
7.664852033895347
 21
6.198171959758121
 31
0.0
  0
LINE
  5
57B
330
1F
100
AcDbEntity
  8
1
100
AcDbLine
 10
7.476852033895347
 20
5.885171959758121
 30
0.0
 11
7.664852033895347
 21
6.073171959758121
 31
0.0
  0
LINE
  5
57C
330
1F
100
AcDbEntity
  8
1
100
AcDbLine
 10
7.476852033895347
 20
5.760171959758121
 30
0.0
 11
7.664852033895347
 21
5.948171959758121
 31
0.0
  0
LINE
  5
57D
330
1F
100
AcDbEntity
  8
1
100
AcDbLine
 10
7.476852033895347
 20
5.635171959758121
 30
0.0
 11
7.664852033895347
 21
5.823171959758121
 31
0.0
  0
LINE
  5
57E
330
1F
100
AcDbEntity
  8
1
100
AcDbLine
 10
7.476852033895347
 20
5.510171959758121
 30
0.0
 11
7.664852033895347
 21
5.698171959758121
 31
0.0
  0
LINE
  5
57F
330
1F
100
AcDbEntity
  8
1
100
AcDbLine
 10
7.476852033895347
 20
5.385171959758121
 30
0.0
 11
7.664852033895347
 21
5.573171959758121
 31
0.0
  0
LINE
  5
580
330
1F
100
AcDbEntity
  8
1
100
AcDbLine
 10
7.476852033895347
 20
5.260171959758121
 30
0.0
 11
7.664852033895347
 21
5.448171959758121
 31
0.0
  0
LINE
  5
581
330
1F
100
AcDbEntity
  8
1
100
AcDbLine
 10
7.476852033895347
 20
5.135171959758121
 30
0.0
 11
7.664852033895347
 21
5.323171959758121
 31
0.0
  0
LINE
  5
582
330
1F
100
AcDbEntity
  8
1
100
AcDbLine
 10
7.476852033895347
 20
5.010171959758121
 30
0.0
 11
7.664852033895347
 21
5.198171959758121
 31
0.0
  0
LINE
  5
583
330
1F
100
AcDbEntity
  8
1
100
AcDbLine
 10
7.476852033895347
 20
4.885171959758121
 30
0.0
 11
7.664852033895347
 21
5.073171959758121
 31
0.0
  0
LINE
  5
584
330
1F
100
AcDbEntity
  8
1
100
AcDbLine
 10
7.476852033895347
 20
4.760171959758121
 30
0.0
 11
7.664852033895347
 21
4.948171959758121
 31
0.0
  0
LINE
  5
585
330
1F
100
AcDbEntity
  8
1
100
AcDbLine
 10
7.476852033895347
 20
4.635171959758121
 30
0.0
 11
7.664852033895347
 21
4.823171959758121
 31
0.0
  0
LINE
  5
586
330
1F
100
AcDbEntity
  8
1
100
AcDbLine
 10
7.476852033895347
 20
4.510171959758121
 30
0.0
 11
7.664852033895347
 21
4.698171959758121
 31
0.0
  0
LINE
  5
587
330
1F
100
AcDbEntity
  8
1
100
AcDbLine
 10
7.476852033895347
 20
4.385171959758121
 30
0.0
 11
7.664852033895347
 21
4.573171959758121
 31
0.0
  0
LINE
  5
588
330
1F
100
AcDbEntity
  8
1
100
AcDbLine
 10
7.476852033895347
 20
4.260171959758121
 30
0.0
 11
7.664852033895347
 21
4.448171959758121
 31
0.0
  0
LINE
  5
589
330
1F
100
AcDbEntity
  8
1
100
AcDbLine
 10
7.476852033895347
 20
4.135171959758121
 30
0.0
 11
7.664852033895347
 21
4.323171959758121
 31
0.0
  0
LINE
  5
58A
330
1F
100
AcDbEntity
  8
1
100
AcDbLine
 10
7.476852033895347
 20
4.010171959758121
 30
0.0
 11
7.664852033895347
 21
4.198171959758121
 31
0.0
  0
LINE
  5
58B
330
1F
100
AcDbEntity
  8
1
100
AcDbLine
 10
7.476852033895347
 20
3.885171959758121
 30
0.0
 11
7.664852033895347
 21
4.073171959758121
 31
0.0
  0
LINE
  5
58C
330
1F
100
AcDbEntity
  8
1
100
AcDbLine
 10
7.476852033895347
 20
3.760171959758121
 30
0.0
 11
7.664852033895347
 21
3.948171959758121
 31
0.0
  0
LINE
  5
58D
330
1F
100
AcDbEntity
  8
1
100
AcDbLine
 10
7.476852033895347
 20
3.385171959758121
 30
0.0
 11
7.664852033895347
 21
3.573171959758121
 31
0.0
  0
LINE
  5
58E
330
1F
100
AcDbEntity
  8
1
100
AcDbLine
 10
7.476852033895347
 20
3.260171959758121
 30
0.0
 11
7.664852033895347
 21
3.448171959758121
 31
0.0
  0
LINE
  5
58F
330
1F
100
AcDbEntity
  8
1
100
AcDbLine
 10
4.351852033895347
 20
4.140146139069701
 30
0.0
 11
4.351852033895347
 21
3.135171959758121
 31
0.0
  0
LINE
  5
590
330
1F
100
AcDbEntity
  8
1
100
AcDbLine
 10
4.351852033895347
 20
4.542646139069701
 30
0.0
 11
4.351852033895347
 21
4.230146139069701
 31
0.0
  0
LINE
  5
591
330
1F
100
AcDbEntity
  8
1
100
AcDbLine
 10
4.351852033895347
 20
5.386139663909987
 30
0.0
 11
4.351852033895347
 21
4.542646139069701
 31
0.0
  0
LINE
  5
592
330
1F
100
AcDbEntity
  8
1
100
AcDbLine
 10
4.306852033895347
 20
5.425146139069701
 30
0.0
 11
4.396852033895347
 21
5.335146139069701
 31
0.0
  0
LINE
  5
593
330
1F
100
AcDbEntity
  8
1
100
AcDbLine
 10
4.396852033895347
 20
5.425146139069701
 30
0.0
 11
4.306852033895347
 21
5.425146139069701
 31
0.0
  0
LINE
  5
594
330
1F
100
AcDbEntity
  8
1
100
AcDbLine
 10
4.306852033895347
 20
5.515146139069701
 30
0.0
 11
4.396852033895347
 21
5.425146139069701
 31
0.0
  0
LINE
  5
595
330
1F
100
AcDbEntity
  8
1
100
AcDbLine
 10
4.306852033895347
 20
4.185146139069701
 30
0.0
 11
4.396852033895347
 21
4.095146139069701
 31
0.0
  0
LINE
  5
596
330
1F
100
AcDbEntity
  8
1
100
AcDbLine
 10
4.396852033895347
 20
4.185146139069701
 30
0.0
 11
4.306852033895347
 21
4.185146139069701
 31
0.0
  0
LINE
  5
597
330
1F
100
AcDbEntity
  8
1
100
AcDbLine
 10
4.306852033895347
 20
4.2751461390697
 30
0.0
 11
4.396852033895347
 21
4.185146139069701
 31
0.0
  0
LINE
  5
598
330
1F
100
AcDbEntity
  8
1
100
AcDbLine
 10
4.226852033895347
 20
3.515146139069701
 30
0.0
 11
4.226852033895347
 21
3.135171959758121
 31
0.0
  0
LINE
  5
599
330
1F
100
AcDbEntity
  8
1
100
AcDbLine
 10
4.226852033895347
 20
4.230146139069701
 30
0.0
 11
4.226852033895347
 21
3.605146139069701
 31
0.0
  0
LINE
  5
59A
330
1F
100
AcDbEntity
  8
1
100
AcDbLine
 10
4.226852033895347
 20
4.765146139069701
 30
0.0
 11
4.226852033895347
 21
4.230146139069701
 31
0.0
  0
LINE
  5
59B
330
1F
100
AcDbEntity
  8
1
100
AcDbLine
 10
4.181852033895347
 20
3.6501461390697
 30
0.0
 11
4.271852033895347
 21
3.560146139069701
 31
0.0
  0
LINE
  5
59C
330
1F
100
AcDbEntity
  8
1
100
AcDbLine
 10
4.271852033895347
 20
3.560146139069701
 30
0.0
 11
4.181852033895347
 21
3.560146139069701
 31
0.0
  0
LINE
  5
59D
330
1F
100
AcDbEntity
  8
1
100
AcDbLine
 10
4.181852033895347
 20
3.560146139069701
 30
0.0
 11
4.271852033895347
 21
3.470146139069701
 31
0.0
  0
LINE
  5
59E
330
1F
100
AcDbEntity
  8
1
100
AcDbLine
 10
4.181852033895347
 20
4.9001461390697
 30
0.0
 11
4.271852033895347
 21
4.810146139069701
 31
0.0
  0
LINE
  5
59F
330
1F
100
AcDbEntity
  8
1
100
AcDbLine
 10
4.271852033895347
 20
4.810146139069701
 30
0.0
 11
4.181852033895347
 21
4.810146139069701
 31
0.0
  0
LINE
  5
5A0
330
1F
100
AcDbEntity
  8
1
100
AcDbLine
 10
4.181852033895347
 20
4.810146139069701
 30
0.0
 11
4.271852033895347
 21
4.720146139069701
 31
0.0
  0
LINE
  5
5A1
330
1F
100
AcDbEntity
  8
1
100
AcDbLine
 10
4.23904806472233
 20
6.002950108242719
 30
0.0
 11
4.23904806472233
 21
4.835850488905791
 31
0.0
  0
LINE
  5
5A2
330
1F
100
AcDbEntity
  8
1
100
AcDbLine
 10
4.181852033895347
 20
6.060146139069701
 30
0.0
 11
4.271852033895347
 21
5.970146139069701
 31
0.0
  0
LINE
  5
5A3
330
1F
100
AcDbEntity
  8
1
100
AcDbLine
 10
4.271852033895347
 20
6.060146139069701
 30
0.0
 11
4.181852033895347
 21
6.060146139069701
 31
0.0
  0
LINE
  5
5A4
330
1F
100
AcDbEntity
  8
1
100
AcDbLine
 10
4.181852033895347
 20
6.1501461390697
 30
0.0
 11
4.271852033895347
 21
6.060146139069701
 31
0.0
  0
LINE
  5
5A5
330
1F
100
AcDbEntity
  8
1
100
AcDbLine
 10
4.226852033895347
 20
6.385171959758121
 30
0.0
 11
4.226852033895347
 21
6.105146139069701
 31
0.0
  0
LINE
  5
5A6
330
1F
100
AcDbEntity
  8
1
100
AcDbLine
 10
4.351852033895347
 20
6.385171959758121
 30
0.0
 11
4.351852033895347
 21
5.470146139069701
 31
0.0
  0
CIRCLE
  5
5A7
330
1F
100
AcDbEntity
  8
1
100
AcDbCircle
 10
5.851852033895347
 20
2.260171959758121
 30
0.0
 40
0.1875
  0
LINE
  5
5A8
330
1F
100
AcDbEntity
  8
1
100
AcDbLine
 10
7.476852033895347
 20
3.260171959758121
 30
0.0
 11
7.476852033895347
 21
6.635171959758121
 31
0.0
  0
LINE
  5
5A9
330
1F
100
AcDbEntity
  8
1
100
AcDbLine
 10
8.726852033895347
 20
3.260171959758121
 30
0.0
 11
8.726852033895347
 21
6.260171959758121
 31
0.0
  0
LINE
  5
5AA
330
1F
100
AcDbEntity
  8
1
100
AcDbLine
 10
5.226852033895347
 20
3.260171959758121
 30
0.0
 11
4.351852033895347
 21
3.260171959758121
 31
0.0
  0
LINE
  5
5AB
330
1F
100
AcDbEntity
  8
1
100
AcDbLine
 10
5.226852033895347
 20
6.260171959758121
 30
0.0
 11
5.226852033895347
 21
3.260171959758121
 31
0.0
  0
LINE
  5
5AC
330
1F
100
AcDbEntity
  8
1
100
AcDbLine
 10
4.351852033895347
 20
6.260171959758121
 30
0.0
 11
5.226852033895347
 21
6.260171959758121
 31
0.0
  0
LINE
  5
5AD
330
1F
100
AcDbEntity
  8
1
100
AcDbLine
 10
2.726852033895347
 20
6.260171959758121
 30
0.0
 11
4.226852033895347
 21
6.260171959758121
 31
0.0
  0
LINE
  5
5AE
330
1F
100
AcDbEntity
  8
1
100
AcDbLine
 10
2.726852033895347
 20
3.260171959758121
 30
0.0
 11
2.726852033895347
 21
6.260171959758121
 31
0.0
  0
LINE
  5
5AF
330
1F
100
AcDbEntity
  8
1
100
AcDbLine
 10
2.726852033895347
 20
3.260171959758121
 30
0.0
 11
4.226852033895347
 21
3.260171959758121
 31
0.0
  0
LINE
  5
5B0
330
1F
100
AcDbEntity
  8
1
100
AcDbLine
 10
1.726852033895347
 20
7.010171959758121
 30
0.0
 11
1.726852033895347
 21
1.760171959758121
 31
0.0
  0
LINE
  5
5B1
330
1F
100
AcDbEntity
  8
1
100
AcDbLine
 10
9.976852033895347
 20
7.010171959758121
 30
0.0
 11
1.726852033895347
 21
7.010171959758121
 31
0.0
  0
LINE
  5
5B2
330
1F
100
AcDbEntity
  8
1
100
AcDbLine
 10
9.976852033895347
 20
1.760171959758121
 30
0.0
 11
9.976852033895347
 21
7.010171959758121
 31
0.0
  0
LINE
  5
5B3
330
1F
100
AcDbEntity
  8
1
100
AcDbLine
 10
1.726852033895347
 20
1.760171959758121
 30
0.0
 11
9.976852033895347
 21
1.760171959758121
 31
0.0
  0
LINE
  5
5B4
330
1F
100
AcDbEntity
  8
1
100
AcDbLine
 10
8.758852033895347
 20
3.260171959758121
 30
0.0
 11
8.758852033895347
 21
6.260171959758121
 31
0.0
  0
ENDSEC
  0
SECTION
  2
OBJECTS
  0
DICTIONARY
  5
C
330
0
100
AcDbDictionary
281
     1
  3
ACAD_COLOR
350
365
  3
ACAD_GROUP
350
D
  3
ACAD_LAYOUT
350
1A
  3
ACAD_MATERIAL
350
364
  3
ACAD_MLINESTYLE
350
17
  3
ACAD_PLOTSETTINGS
350
19
  3
ACAD_PLOTSTYLENAME
350
E
  3
ACDBHEADERROUNDTRIPXREC
350
5E1
  3
AcDbVariableDictionary
350
5D8
  3
DWGPROPS
350
5E0
  0
DICTIONARY
  5
365
102
{ACAD_REACTORS
330
C
102
}
330
C
100
AcDbDictionary
281
     1
  0
DICTIONARY
  5
D
102
{ACAD_REACTORS
330
C
102
}
330
C
100
AcDbDictionary
281
     1
  0
DICTIONARY
  5
1A
102
{ACAD_REACTORS
330
C
102
}
330
C
100
AcDbDictionary
281
     1
  3
Layout1
350
1E
  3
Layout2
350
26
  3
Model
350
22
  0
DICTIONARY
  5
364
102
{ACAD_REACTORS
330
C
102
}
330
C
100
AcDbDictionary
281
     1
  0
DICTIONARY
  5
17
102
{ACAD_REACTORS
330
C
102
}
330
C
100
AcDbDictionary
281
     1
  3
Standard
350
18
  0
DICTIONARY
  5
19
102
{ACAD_REACTORS
330
C
102
}
330
C
100
AcDbDictionary
281
     1
  0
ACDBDICTIONARYWDFLT
  5
E
102
{ACAD_REACTORS
330
C
102
}
330
C
100
AcDbDictionary
281
     1
  3
Normal
350
F
100
AcDbDictionaryWithDefault
340
F
  0
DICTIONARY
  5
5E1
102
{ACAD_REACTORS
330
C
102
}
330
C
100
AcDbDictionary
281
     1
  3
COLORDICT
350
5E3
  3
MATERIALDICT
350
5E2
  0
DICTIONARY
  5
5D8
102
{ACAD_REACTORS
330
C
102
}
330
C
100
AcDbDictionary
281
     1
  3
DIMASSOC
350
5D9
  3
PROJECTNAME
350
5DA
  0
XRECORD
  5
5E0
102
{ACAD_REACTORS
330
C
102
}
330
C
100
AcDbXrecord
280
     1
  1
DWGPROPS COOKIE
  2

  3

  4

  6

  7

  8
dbabbo
  9

300
=
301
=
302
=
303
=
304
=
305
=
306
=
307
=
308
=
309
=
 40
0.5690010648148149
 41
2452633.698138542
 42
2454728.628324468
  1

 90
        0
  0
LAYOUT
  5
1E
102
{ACAD_XDICTIONARY
360
5E4
102
}
102
{ACAD_REACTORS
330
1A
102
}
330
1A
100
AcDbPlotSettings
  1

  2
Lexmark E210
  4

  6

 40
0.0
 41
0.0
 42
0.0
 43
0.0
 44
0.0
 45
0.0
 46
0.0
 47
0.0
 48
0.0
 49
0.0
140
0.0
141
0.0
142
1.0
143
1.0
 70
   688
 72
     0
 73
     0
 74
     5
  7
monochrome.ctb
 75
    16
147
1.0
148
0.0
149
0.0
100
AcDbLayout
  1
Layout1
 70
     1
 71
     1
 10
0.0
 20
0.0
 11
12.0
 21
9.0
 12
0.0
 22
0.0
 32
0.0
 14
1.000000000000000E+20
 24
1.000000000000000E+20
 34
1.000000000000000E+20
 15
-1.000000000000000E+20
 25
-1.000000000000000E+20
 35
-1.000000000000000E+20
146
0.0
 13
0.0
 23
0.0
 33
0.0
 16
1.0
 26
0.0
 36
0.0
 17
0.0
 27
1.0
 37
0.0
 76
     0
330
1B
  0
LAYOUT
  5
26
102
{ACAD_XDICTIONARY
360
5E8
102
}
102
{ACAD_REACTORS
330
1A
102
}
330
1A
100
AcDbPlotSettings
  1

  2
Lexmark E210
  4

  6

 40
0.0
 41
0.0
 42
0.0
 43
0.0
 44
0.0
 45
0.0
 46
0.0
 47
0.0
 48
0.0
 49
0.0
140
0.0
141
0.0
142
1.0
143
1.0
 70
   688
 72
     0
 73
     0
 74
     5
  7
monochrome.ctb
 75
    16
147
1.0
148
0.0
149
0.0
100
AcDbLayout
  1
Layout2
 70
     1
 71
     2
 10
0.0
 20
0.0
 11
12.0
 21
9.0
 12
0.0
 22
0.0
 32
0.0
 14
0.0
 24
0.0
 34
0.0
 15
0.0
 25
0.0
 35
0.0
146
0.0
 13
0.0
 23
0.0
 33
0.0
 16
1.0
 26
0.0
 36
0.0
 17
0.0
 27
1.0
 37
0.0
 76
     0
330
23
  0
LAYOUT
  5
22
102
{ACAD_XDICTIONARY
360
5E6
102
}
102
{ACAD_REACTORS
330
1A
102
}
330
1A
100
AcDbPlotSettings
  1

  2
Lexmark E210
  4

  6

 40
0.0
 41
0.0
 42
0.0
 43
0.0
 44
0.0
 45
0.0
 46
0.0
 47
0.0
 48
0.0
 49
0.0
140
0.0
141
0.0
142
1.0
143
1.0
 70
  1712
 72
     0
 73
     0
 74
     0
  7
monochrome.ctb
 75
     0
147
1.0
148
0.0
149
0.0
100
AcDbLayout
  1
Model
 70
     1
 71
     0
 10
0.0
 20
0.0
 11
12.0
 21
9.0
 12
0.0
 22
0.0
 32
0.0
 14
0.0
 24
0.0
 34
0.0
 15
0.0
 25
0.0
 35
0.0
146
0.0
 13
0.0
 23
0.0
 33
0.0
 16
1.0
 26
0.0
 36
0.0
 17
0.0
 27
1.0
 37
0.0
 76
     0
330
1F
  0
MLINESTYLE
  5
18
102
{ACAD_REACTORS
330
17
102
}
330
17
100
AcDbMlineStyle
  2
STANDARD
 70
     0
  3

 62
   256
 51
90.0
 52
90.0
 71
     2
 49
0.5
 62
   256
  6
BYLAYER
 49
-0.5
 62
   256
  6
BYLAYER
  0
ACDBPLACEHOLDER
  5
F
102
{ACAD_REACTORS
330
E
102
}
330
E
  0
XRECORD
  5
5E3
102
{ACAD_REACTORS
330
5E1
102
}
330
5E1
100
AcDbXrecord
280
     1
340
365
  0
XRECORD
  5
5E2
102
{ACAD_REACTORS
330
5E1
102
}
330
5E1
100
AcDbXrecord
280
     1
340
364
  0
DICTIONARYVAR
  5
5D9
102
{ACAD_REACTORS
330
5D8
102
}
330
5D8
100
DictionaryVariables
280
     0
  1
1
  0
DICTIONARYVAR
  5
5DA
102
{ACAD_REACTORS
330
5D8
102
}
330
5D8
100
DictionaryVariables
280
     0
  1

  0
DICTIONARY
  5
5E4
330
1E
100
AcDbDictionary
280
     1
281
     1
  3
ACAD_XREC_ROUNDTRIP
360
5E5
  0
DICTIONARY
  5
5E8
330
26
100
AcDbDictionary
280
     1
281
     1
  3
ACAD_XREC_ROUNDTRIP
360
5E9
  0
DICTIONARY
  5
5E6
330
22
100
AcDbDictionary
280
     1
281
     1
  3
ACAD_XREC_ROUNDTRIP
360
5E7
  0
XRECORD
  5
5E5
102
{ACAD_REACTORS
330
5E4
102
}
330
5E4
100
AcDbXrecord
280
     1
102
SHADEPLOT
 70
     0
102
SHADEPLOTRESLEVEL
 70
     2
102
SHADEPLOTCUSTOMDPI
 70
   300
  0
XRECORD
  5
5E9
102
{ACAD_REACTORS
330
5E8
102
}
330
5E8
100
AcDbXrecord
280
     1
102
SHADEPLOT
 70
     0
102
SHADEPLOTRESLEVEL
 70
     2
102
SHADEPLOTCUSTOMDPI
 70
   300
  0
XRECORD
  5
5E7
102
{ACAD_REACTORS
330
5E6
102
}
330
5E6
100
AcDbXrecord
280
     1
102
SHADEPLOT
 70
     0
102
SHADEPLOTRESLEVEL
 70
     2
102
SHADEPLOTCUSTOMDPI
 70
   300
  0
ENDSEC
  0
EOF
