  0
SECTION
  2
HEADER
  9
$ACADVER
  1
AC1015
  9
$ACADMAINTVER
 70
    20
  9
$DWGCODEPAGE
  3
ANSI_1252
  9
$INSBASE
 10
0.0
 20
0.0
 30
0.0
  9
$EXTMIN
 10
1.606384307153504
 20
1.708786033686234
 30
-0.000000000000013
  9
$EXTMAX
 10
9.858032252008598
 20
6.959564227563753
 30
0.0000000000000023
  9
$LIMMIN
 10
0.0
 20
0.0
  9
$LIMMAX
 10
12.0
 20
9.0
  9
$ORTHOMODE
 70
     1
  9
$REGENMODE
 70
     1
  9
$FILLMODE
 70
     1
  9
$QTEXTMODE
 70
     0
  9
$MIRRTEXT
 70
     1
  9
$LTSCALE
 40
1.0
  9
$ATTMODE
 70
     1
  9
$TEXTSIZE
 40
0.2
  9
$TRACEWID
 40
0.05
  9
$TEXTSTYLE
  7
Standard
  9
$CLAYER
  8
0
  9
$CELTYPE
  6
ByLayer
  9
$CECOLOR
 62
   256
  9
$CELTSCALE
 40
1.0
  9
$DISPSILH
 70
     0
  9
$DIMSCALE
 40
1.0
  9
$DIMASZ
 40
0.18
  9
$DIMEXO
 40
0.0625
  9
$DIMDLI
 40
0.38
  9
$DIMRND
 40
0.0
  9
$DIMDLE
 40
0.0
  9
$DIMEXE
 40
0.18
  9
$DIMTP
 40
0.0
  9
$DIMTM
 40
0.0
  9
$DIMTXT
 40
0.18
  9
$DIMCEN
 40
0.09
  9
$DIMTSZ
 40
0.0
  9
$DIMTOL
 70
     0
  9
$DIMLIM
 70
     0
  9
$DIMTIH
 70
     1
  9
$DIMTOH
 70
     1
  9
$DIMSE1
 70
     0
  9
$DIMSE2
 70
     0
  9
$DIMTAD
 70
     0
  9
$DIMZIN
 70
     0
  9
$DIMBLK
  1

  9
$DIMASO
 70
     1
  9
$DIMSHO
 70
     1
  9
$DIMPOST
  1

  9
$DIMAPOST
  1

  9
$DIMALT
 70
     0
  9
$DIMALTD
 70
     2
  9
$DIMALTF
 40
25.4
  9
$DIMLFAC
 40
1.0
  9
$DIMTOFL
 70
     0
  9
$DIMTVP
 40
0.0
  9
$DIMTIX
 70
     0
  9
$DIMSOXD
 70
     0
  9
$DIMSAH
 70
     0
  9
$DIMBLK1
  1

  9
$DIMBLK2
  1

  9
$DIMSTYLE
  2
Standard
  9
$DIMCLRD
 70
     0
  9
$DIMCLRE
 70
     0
  9
$DIMCLRT
 70
     0
  9
$DIMTFAC
 40
1.0
  9
$DIMGAP
 40
0.09
  9
$DIMJUST
 70
     0
  9
$DIMSD1
 70
     0
  9
$DIMSD2
 70
     0
  9
$DIMTOLJ
 70
     1
  9
$DIMTZIN
 70
     0
  9
$DIMALTZ
 70
     0
  9
$DIMALTTZ
 70
     0
  9
$DIMUPT
 70
     0
  9
$DIMDEC
 70
     4
  9
$DIMTDEC
 70
     4
  9
$DIMALTU
 70
     2
  9
$DIMALTTD
 70
     2
  9
$DIMTXSTY
  7
Standard
  9
$DIMAUNIT
 70
     0
  9
$DIMADEC
 70
     0
  9
$DIMALTRND
 40
0.0
  9
$DIMAZIN
 70
     0
  9
$DIMDSEP
 70
    46
  9
$DIMATFIT
 70
     3
  9
$DIMFRAC
 70
     0
  9
$DIMLDRBLK
  1

  9
$DIMLUNIT
 70
     2
  9
$DIMLWD
 70
    -2
  9
$DIMLWE
 70
    -2
  9
$DIMTMOVE
 70
     0
  9
$LUNITS
 70
     2
  9
$LUPREC
 70
     4
  9
$SKETCHINC
 40
0.1
  9
$FILLETRAD
 40
0.5
  9
$AUNITS
 70
     0
  9
$AUPREC
 70
     0
  9
$MENU
  1
.
  9
$ELEVATION
 40
0.0
  9
$PELEVATION
 40
0.0
  9
$THICKNESS
 40
0.0
  9
$LIMCHECK
 70
     0
  9
$CHAMFERA
 40
0.5
  9
$CHAMFERB
 40
0.5
  9
$CHAMFERC
 40
1.0
  9
$CHAMFERD
 40
0.0
  9
$SKPOLY
 70
     0
  9
$TDCREATE
 40
2452633.587265972
  9
$TDUCREATE
 40
2452633.795599306
  9
$TDUPDATE
 40
2454728.627433623
  9
$TDUUPDATE
 40
2454728.835766956
  9
$TDINDWG
 40
0.2686057407
  9
$TDUSRTIMER
 40
0.2686057407
  9
$USRTIMER
 70
     1
  9
$ANGBASE
 50
0.0
  9
$ANGDIR
 70
     0
  9
$PDMODE
 70
     0
  9
$PDSIZE
 40
0.0
  9
$PLINEWID
 40
0.0
  9
$SPLFRAME
 70
     0
  9
$SPLINETYPE
 70
     6
  9
$SPLINESEGS
 70
     8
  9
$HANDSEED
  5
44D
  9
$SURFTAB1
 70
     6
  9
$SURFTAB2
 70
     6
  9
$SURFTYPE
 70
     6
  9
$SURFU
 70
     6
  9
$SURFV
 70
     6
  9
$UCSBASE
  2

  9
$UCSNAME
  2

  9
$UCSORG
 10
0.0
 20
0.0
 30
0.0
  9
$UCSXDIR
 10
1.0
 20
0.0
 30
0.0
  9
$UCSYDIR
 10
0.0
 20
1.0
 30
0.0
  9
$UCSORTHOREF
  2

  9
$UCSORTHOVIEW
 70
     0
  9
$UCSORGTOP
 10
0.0
 20
0.0
 30
0.0
  9
$UCSORGBOTTOM
 10
0.0
 20
0.0
 30
0.0
  9
$UCSORGLEFT
 10
0.0
 20
0.0
 30
0.0
  9
$UCSORGRIGHT
 10
0.0
 20
0.0
 30
0.0
  9
$UCSORGFRONT
 10
0.0
 20
0.0
 30
0.0
  9
$UCSORGBACK
 10
0.0
 20
0.0
 30
0.0
  9
$PUCSBASE
  2

  9
$PUCSNAME
  2

  9
$PUCSORG
 10
0.0
 20
0.0
 30
0.0
  9
$PUCSXDIR
 10
1.0
 20
0.0
 30
0.0
  9
$PUCSYDIR
 10
0.0
 20
1.0
 30
0.0
  9
$PUCSORTHOREF
  2

  9
$PUCSORTHOVIEW
 70
     0
  9
$PUCSORGTOP
 10
0.0
 20
0.0
 30
0.0
  9
$PUCSORGBOTTOM
 10
0.0
 20
0.0
 30
0.0
  9
$PUCSORGLEFT
 10
0.0
 20
0.0
 30
0.0
  9
$PUCSORGRIGHT
 10
0.0
 20
0.0
 30
0.0
  9
$PUCSORGFRONT
 10
0.0
 20
0.0
 30
0.0
  9
$PUCSORGBACK
 10
0.0
 20
0.0
 30
0.0
  9
$USERI1
 70
     0
  9
$USERI2
 70
     0
  9
$USERI3
 70
     0
  9
$USERI4
 70
     0
  9
$USERI5
 70
     0
  9
$USERR1
 40
0.0
  9
$USERR2
 40
0.0
  9
$USERR3
 40
0.0
  9
$USERR4
 40
0.0
  9
$USERR5
 40
0.0
  9
$WORLDVIEW
 70
     1
  9
$SHADEDGE
 70
     3
  9
$SHADEDIF
 70
    70
  9
$TILEMODE
 70
     1
  9
$MAXACTVP
 70
    64
  9
$PINSBASE
 10
0.0
 20
0.0
 30
0.0
  9
$PLIMCHECK
 70
     0
  9
$PEXTMIN
 10
1.000000000000000E+20
 20
1.000000000000000E+20
 30
1.000000000000000E+20
  9
$PEXTMAX
 10
-1.000000000000000E+20
 20
-1.000000000000000E+20
 30
-1.000000000000000E+20
  9
$PLIMMIN
 10
0.0
 20
0.0
  9
$PLIMMAX
 10
12.0
 20
9.0
  9
$UNITMODE
 70
     0
  9
$VISRETAIN
 70
     1
  9
$PLINEGEN
 70
     0
  9
$PSLTSCALE
 70
     1
  9
$TREEDEPTH
 70
  3020
  9
$CMLSTYLE
  2
Standard
  9
$CMLJUST
 70
     0
  9
$CMLSCALE
 40
1.0
  9
$PROXYGRAPHICS
 70
     1
  9
$MEASUREMENT
 70
     0
  9
$CELWEIGHT
370
    -1
  9
$ENDCAPS
280
     0
  9
$JOINSTYLE
280
     0
  9
$LWDISPLAY
290
     0
  9
$INSUNITS
 70
     1
  9
$HYPERLINKBASE
  1

  9
$STYLESHEET
  1
monochrome.ctb
  9
$XEDIT
290
     1
  9
$CEPSNTYPE
380
     0
  9
$PSTYLEMODE
290
     1
  9
$FINGERPRINTGUID
  2
{E074F03F-1719-11D7-8CE2-8BE5FF525123}
  9
$VERSIONGUID
  2
{729AD163-A7E4-45BE-8E80-72213DE50A27}
  9
$EXTNAMES
290
     1
  9
$PSVPSCALE
 40
0.0
  9
$OLESTARTUP
290
     0
  0
ENDSEC
  0
SECTION
  2
CLASSES
  0
CLASS
  1
ACDBDICTIONARYWDFLT
  2
AcDbDictionaryWithDefault
  3
ObjectDBX Classes
 90
        0
280
     0
281
     0
  0
CLASS
  1
ACDBPLACEHOLDER
  2
AcDbPlaceHolder
  3
ObjectDBX Classes
 90
        0
280
     0
281
     0
  0
CLASS
  1
LAYOUT
  2
AcDbLayout
  3
ObjectDBX Classes
 90
        0
280
     0
281
     0
  0
CLASS
  1
DICTIONARYVAR
  2
AcDbDictionaryVar
  3
ObjectDBX Classes
 90
        0
280
     0
281
     0
  0
ENDSEC
  0
SECTION
  2
TABLES
  0
TABLE
  2
VPORT
  5
8
330
0
100
AcDbSymbolTable
 70
     2
  0
VPORT
  5
443
330
8
100
AcDbSymbolTableRecord
100
AcDbViewportTableRecord
  2
*Active
 70
     0
 10
0.0
 20
0.0
 11
1.0
 21
1.0
 12
5.732208279581052
 22
4.334175130624993
 13
0.0
 23
0.0
 14
0.5
 24
0.5
 15
0.5
 25
0.5
 16
0.0
 26
0.0
 36
1.0
 17
0.0
 27
0.0
 37
0.0
 40
5.545804809020239
 41
1.495145631067961
 42
50.0
 43
0.0
 44
0.0
 50
0.0
 51
0.0
 71
     0
 72
   100
 73
     1
 74
     3
 75
     0
 76
     0
 77
     0
 78
     0
281
     0
 65
     1
110
0.0
120
0.0
130
0.0
111
1.0
121
0.0
131
0.0
112
0.0
122
1.0
132
0.0
 79
     0
146
0.0
  0
ENDTAB
  0
TABLE
  2
LTYPE
  5
5
330
0
100
AcDbSymbolTable
 70
     2
  0
LTYPE
  5
14
330
5
100
AcDbSymbolTableRecord
100
AcDbLinetypeTableRecord
  2
ByBlock
 70
     0
  3

 72
    65
 73
     0
 40
0.0
  0
LTYPE
  5
15
330
5
100
AcDbSymbolTableRecord
100
AcDbLinetypeTableRecord
  2
ByLayer
 70
     0
  3

 72
    65
 73
     0
 40
0.0
  0
LTYPE
  5
16
330
5
100
AcDbSymbolTableRecord
100
AcDbLinetypeTableRecord
  2
Continuous
 70
     0
  3
Solid line
 72
    65
 73
     0
 40
0.0
  0
LTYPE
  5
273
330
5
100
AcDbSymbolTableRecord
100
AcDbLinetypeTableRecord
  2
HIDDEN
 70
     0
  3
_ _ _ _ _ _ _ _ _ _ _ _ _ _ _ _ _ _ _ _ _ _ _
 72
    65
 73
     2
 40
0.375
 49
0.25
 74
     0
 49
-0.125
 74
     0
  0
ENDTAB
  0
TABLE
  2
LAYER
  5
2
330
0
100
AcDbSymbolTable
 70
     4
  0
LAYER
  5
10
330
2
100
AcDbSymbolTableRecord
100
AcDbLayerTableRecord
  2
0
 70
     0
 62
     7
  6
Continuous
370
    -3
390
F
  0
LAYER
  5
33
330
2
100
AcDbSymbolTableRecord
100
AcDbLayerTableRecord
  2
1
 70
     0
 62
     1
  6
Continuous
370
    -3
390
F
  0
LAYER
  5
34
330
2
100
AcDbSymbolTableRecord
100
AcDbLayerTableRecord
  2
4
 70
     0
 62
     4
  6
Continuous
370
    -3
390
F
  0
LAYER
  5
35
330
2
100
AcDbSymbolTableRecord
100
AcDbLayerTableRecord
  2
8
 70
     0
 62
     2
  6
Continuous
370
    -3
390
F
  0
ENDTAB
  0
TABLE
  2
STYLE
  5
3
330
0
100
AcDbSymbolTable
 70
     2
  0
STYLE
  5
11
330
3
100
AcDbSymbolTableRecord
100
AcDbTextStyleTableRecord
  2
Standard
 70
     0
 40
0.0
 41
1.0
 50
0.0
 71
     0
 42
0.2
  3
txt
  4

  0
STYLE
  5
36
330
3
100
AcDbSymbolTableRecord
100
AcDbTextStyleTableRecord
  2
ROMANS
 70
     0
 40
0.0
 41
1.0
 50
0.0
 71
     0
 42
0.07
  3
ROMANS
  4

  0
ENDTAB
  0
TABLE
  2
VIEW
  5
6
330
0
100
AcDbSymbolTable
 70
     0
  0
ENDTAB
  0
TABLE
  2
UCS
  5
7
330
0
100
AcDbSymbolTable
 70
     0
  0
ENDTAB
  0
TABLE
  2
APPID
  5
9
330
0
100
AcDbSymbolTable
 70
     1
  0
APPID
  5
12
330
9
100
AcDbSymbolTableRecord
100
AcDbRegAppTableRecord
  2
ACAD
 70
     0
  0
ENDTAB
  0
TABLE
  2
DIMSTYLE
  5
A
330
0
100
AcDbSymbolTable
 70
     1
100
AcDbDimStyleTable
 71
     0
  0
DIMSTYLE
105
27
330
A
100
AcDbSymbolTableRecord
100
AcDbDimStyleTableRecord
  2
Standard
 70
     0
340
11
  0
ENDTAB
  0
TABLE
  2
BLOCK_RECORD
  5
1
330
0
100
AcDbSymbolTable
 70
     9
  0
BLOCK_RECORD
  5
1F
330
1
100
AcDbSymbolTableRecord
100
AcDbBlockTableRecord
  2
*Model_Space
340
22
  0
BLOCK_RECORD
  5
1B
330
1
100
AcDbSymbolTableRecord
100
AcDbBlockTableRecord
  2
*Paper_Space
340
1E
  0
BLOCK_RECORD
  5
23
330
1
100
AcDbSymbolTableRecord
100
AcDbBlockTableRecord
  2
*Paper_Space0
340
26
  0
BLOCK_RECORD
  5
2B
330
1
100
AcDbSymbolTableRecord
100
AcDbBlockTableRecord
  2
ARRO
340
0
102
{BLKREFS
331
3F
331
A2
331
A3
331
A4
331
A5
331
A6
331
AA
331
AB
331
AF
331
B0
331
13A
331
13B
331
13C
331
22F
331
231
331
2EF
331
2F0
331
2F1
331
2F2
331
2F3
331
2F7
331
2F8
331
2FC
331
2FD
331
28C
331
350
331
352
331
3C1
331
3C2
331
3C3
102
}
  0
BLOCK_RECORD
  5
37
330
1
100
AcDbSymbolTableRecord
100
AcDbBlockTableRecord
  2
LE1001
340
0
  0
BLOCK_RECORD
  5
F7
330
1
100
AcDbSymbolTableRecord
100
AcDbBlockTableRecord
  2
ARRO2
340
0
102
{BLKREFS
331
10B
331
392
102
}
  0
BLOCK_RECORD
  5
104
330
1
100
AcDbSymbolTableRecord
100
AcDbBlockTableRecord
  2
TEMP2
340
0
102
{BLKREFS
331
141
331
3C8
102
}
  0
BLOCK_RECORD
  5
10A
330
1
100
AcDbSymbolTableRecord
100
AcDbBlockTableRecord
  2
LE1007
340
0
  0
BLOCK_RECORD
  5
21A
330
1
100
AcDbSymbolTableRecord
100
AcDbBlockTableRecord
  2
TEMP3
340
0
102
{BLKREFS
331
227
331
348
102
}
  0
BLOCK_RECORD
  5
21F
330
1
100
AcDbSymbolTableRecord
100
AcDbBlockTableRecord
  2
SPL2CORRIDORST60
340
0
310
28000000200000002000000001000800000000000004000000000000000000000000000000000000000000004000000080000000FF000000002000004020000080200000FF200000004000004040000080400000FF400000006000004060000080600000FF600000008000004080000080800000FF80000000A0000040A000
310
0080A00000FFA0000000C0000040C0000080C00000FFC0000000FF000040FF000080FF0000FFFF0000000020004000200080002000FF002000002020004020200080202000FF202000004020004040200080402000FF402000006020004060200080602000FF602000008020004080200080802000FF80200000A0200040A0
310
200080A02000FFA0200000C0200040C0200080C02000FFC0200000FF200040FF200080FF2000FFFF2000000040004000400080004000FF004000002040004020400080204000FF204000004040004040400080404000FF404000006040004060400080604000FF604000008040004080400080804000FF80400000A0400040
310
A0400080A04000FFA0400000C0400040C0400080C04000FFC0400000FF400040FF400080FF4000FFFF4000000060004000600080006000FF006000002060004020600080206000FF206000004060004040600080406000FF406000006060004060600080606000FF606000008060004080600080806000FF80600000A06000
310
40A0600080A06000FFA0600000C0600040C0600080C06000FFC0600000FF600040FF600080FF6000FFFF6000000080004000800080008000FF008000002080004020800080208000FF208000004080004040800080408000FF408000006080004060800080608000FF608000008080004080800080808000FF80800000A080
310
0040A0800080A08000FFA0800000C0800040C0800080C08000FFC0800000FF800040FF800080FF8000FFFF80000000A0004000A0008000A000FF00A0000020A0004020A0008020A000FF20A0000040A0004040A0008040A000FF40A0000060A0004060A0008060A000FF60A0000080A0004080A0008080A000FF80A00000A0
310
A00040A0A00080A0A000FFA0A00000C0A00040C0A00080C0A000FFC0A00000FFA00040FFA00080FFA000FFFFA0000000C0004000C0008000C000FF00C0000020C0004020C0008020C000FF20C0000040C0004040C0008040C000FF40C0000060C0004060C0008060C000FF60C0000080C0004080C0008080C000FF80C00000
310
A0C00040A0C00080A0C000FFA0C00000C0C00040C0C00080C0C000FFC0C00000FFC00040FFC00080FFC000FFFFC0000000FF004000FF008000FF00FF00FF000020FF004020FF008020FF00FF20FF000040FF004040FF008040FF00FF40FF000060FF004060FF008060FF00FF60FF000080FF004080FF008080FF00FF80FF00
310
00A0FF0040A0FF0080A0FF00FFA0FF0000C0FF0040C0FF0080C0FF00FFC0FF0000FFFF0040FFFF0080FFFF00FFFFFF0000000000000000000000000000000000000000000000000000000000000000000000000000000000000000000000000000000000000000000000000000000000000000000000000000000000000000
310
00000000000000000000000000000000000000000000000000000000000000000000000000000000000000000000000000000000000000000000000000000000000000000000000000000000000000000000000000000000000000000000000000000000000000000000000000000000000000000000000000000000000000
310
000000000000000000000000000000000000001F000000000000000000000000000000000000000000000000000000000000000000000000FCFCFCFCFCFCFCFCFCFCFCFCFCFCFCFCFCFCFCFCFCFC00000000000000000000000000000000000000000000000000000000000000000000000000000000000000000000000000
310
000000000000000000000000000000000000000000000000000000000000000000000000000000000000000000000000000000000000000000000000000000000000000000000000000000000000000000000000000000001F1F1F0000000000000000000000001F000000001F0000001F1F00000000FCFC1F001F00000000
310
00000000000000001F000000001F000000001F00000000FCFC1F001F0000000000000000000000001F000000001F000000001F00000000FCFC1F001F00000000000000000000FC001F000000001F000000001F00000000FCFC1F001F0000000000000000000000001F000000001F000000001F00000000FC1F1F1F1F000000
310
0000000000000000001F000000001F000000001F00000000FC1F1F1F1F0000000000000000000000001F000000001F000000001F00000000FCFC1F001F0000000000000000000000001F000000001F000000001F00000000FCFC1F001F0000000000000000000000001F000000001F000000001F00000000FCFC1F001F0000
310
000000000000000000001F000000001F000000001F0000000000001F1F1F0000000000000000000000001F000000001F000000001F0000000000001F1F1F0000000000000000000000001F000000001F0000001F1F000000000000000000000000000000000000000000000000000000000000000000000000000000000000
310
00000000000000000000000000000000000000000000000000000000000000000000000000000000000000000000000000000000000000000000000000000000000000000000000000000000000000000000000000000000000000000000000000000000000000000000000000000000000000000000000000000000000000
310
0000000000000000000000000000000000000000000000000000000000000000000000000000000000000000000000000000000000000000
102
{BLKREFS
331
275
102
}
1001
ACAD
1000
DesignCenter Data
1002
{
1070
     1
1070
     1
1002
}
  0
BLOCK_RECORD
  5
274
330
1
100
AcDbSymbolTableRecord
100
AcDbBlockTableRecord
  2
LE1213
340
0
1001
ACAD
1000
DesignCenter Data
1002
{
1070
     1
1070
     1
1002
}
  0
ENDTAB
  0
ENDSEC
  0
SECTION
  2
BLOCKS
  0
BLOCK
  5
20
330
1F
100
AcDbEntity
  8
0
100
AcDbBlockBegin
  2
*Model_Space
 70
     0
 10
0.0
 20
0.0
 30
0.0
  3
*Model_Space
  1

  0
ENDBLK
  5
21
330
1F
100
AcDbEntity
  8
0
100
AcDbBlockEnd
  0
BLOCK
  5
1C
330
1B
100
AcDbEntity
 67
     1
  8
0
100
AcDbBlockBegin
  2
*Paper_Space
 70
     0
 10
0.0
 20
0.0
 30
0.0
  3
*Paper_Space
  1

  0
ENDBLK
  5
1D
330
1B
100
AcDbEntity
 67
     1
  8
0
100
AcDbBlockEnd
  0
BLOCK
  5
24
330
23
100
AcDbEntity
  8
0
100
AcDbBlockBegin
  2
*Paper_Space0
 70
     0
 10
0.0
 20
0.0
 30
0.0
  3
*Paper_Space0
  1

  0
ENDBLK
  5
25
330
23
100
AcDbEntity
  8
0
100
AcDbBlockEnd
  0
BLOCK
  5
31
330
2B
100
AcDbEntity
  8
4
100
AcDbBlockBegin
  2
ARRO
 70
     0
 10
0.0
 20
0.0
 30
0.0
  3
ARRO
  1

  0
LINE
  5
2C
330
2B
100
AcDbEntity
  8
4
100
AcDbLine
 10
0.1250000000000018
 20
0.0199999999999996
 30
0.0
 11
0.1250000000000018
 21
-0.0200000000000005
 31
0.0
  0
LINE
  5
2D
330
2B
100
AcDbEntity
  8
4
100
AcDbLine
 10
0.1250000000000018
 20
-0.0100000000000007
 30
0.0
 11
0.0000000000000009
 21
0.0
 31
0.0
  0
LINE
  5
2E
330
2B
100
AcDbEntity
  8
4
100
AcDbLine
 10
0.1250000000000018
 20
0.0099999999999989
 30
0.0
 11
0.0000000000000018
 21
0.0
 31
0.0
  0
LINE
  5
2F
330
2B
100
AcDbEntity
  8
4
100
AcDbLine
 10
0.0000000000000018
 20
0.0
 30
0.0
 11
0.1250000000000018
 21
-0.0200000000000005
 31
0.0
  0
LINE
  5
30
330
2B
100
AcDbEntity
  8
4
100
AcDbLine
 10
0.1250000000000018
 20
0.0199999999999996
 30
0.0
 11
0.0000000000000018
 21
0.0
 31
0.0
  0
ENDBLK
  5
32
330
2B
100
AcDbEntity
  8
4
100
AcDbBlockEnd
  0
BLOCK
  5
F3
330
37
100
AcDbEntity
  8
0
100
AcDbBlockBegin
  2
LE1001
 70
     0
 10
0.0
 20
0.0
 30
0.0
  3
LE1001
  1

  0
TEXT
  5
38
330
37
100
AcDbEntity
  8
8
100
AcDbText
 10
5.2125
 20
1.691660711643185
 30
0.0
 40
0.07
  1
DEPTH
  7
ROMANS
 72
     1
 11
5.3775
 21
1.691660711643185
 31
0.0
100
AcDbText
  0
TEXT
  5
39
330
37
100
AcDbEntity
  8
8
100
AcDbText
 10
6.834999999999999
 20
1.691660711643185
 30
0.0
 40
0.07
  1
DEPTH
  7
ROMANS
 72
     1
 11
7.0
 21
1.691660711643185
 31
0.0
100
AcDbText
  0
TEXT
  5
3A
330
37
100
AcDbEntity
  8
8
100
AcDbText
 10
6.899267058502116
 20
0.7466010068253098
 30
0.0
 40
0.1
  1
DR
  7
ROMANS
 72
     1
 11
7.001648010883068
 21
0.7466010068253098
 31
0.0
100
AcDbText
  0
TEXT
  5
3B
330
37
100
AcDbEntity
  8
8
100
AcDbText
 10
5.794389324558379
 20
0.5620000000000003
 30
0.0
 40
0.1
  1
SECTIONS
  7
ROMANS
 72
     1
 11
6.146770276939331
 21
0.5620000000000003
 31
0.0
100
AcDbText
  0
TEXT
  5
3C
330
37
100
AcDbEntity
  8
8
100
AcDbText
 10
5.302053163126957
 20
0.7466010068253098
 30
0.0
 40
0.1
  1
SR
  7
ROMANS
 72
     1
 11
5.399672210746004
 21
0.7466010068253098
 31
0.0
100
AcDbText
  0
LINE
  5
3D
330
37
100
AcDbEntity
  8
4
100
AcDbLine
 10
5.628
 20
4.25
 30
0.0
 11
5.891731602665403
 21
4.25
 31
0.0
  0
LINE
  5
3E
330
37
100
AcDbEntity
  8
4
100
AcDbLine
 10
5.93215881233783
 20
4.25
 30
0.0
 11
6.112622609161773
 21
4.25
 31
0.0
  0
INSERT
  5
3F
330
37
100
AcDbEntity
  8
4
100
AcDbBlockReference
  2
ARRO
 10
5.93215881233783
 20
4.25
 30
0.0
  0
LINE
  5
40
330
37
100
AcDbEntity
  8
4
100
AcDbLine
 10
6.112622609161773
 20
4.25
 30
0.0
 11
6.112622609161773
 21
4.047012330209487
 31
0.0
  0
TEXT
  5
41
330
37
100
AcDbEntity
  8
8
100
AcDbText
 10
6.147622609161773
 20
2.671678996876154
 30
0.0
 40
0.07
  1
ANCHORING BY ERECTOR
 50
90.0
  7
ROMANS
 72
     2
 11
6.147622609161773
 21
3.985012330209487
 31
0.0
100
AcDbText
  0
TEXT
  5
42
330
37
100
AcDbEntity
  8
8
100
AcDbText
 10
4.500499999999999
 20
2.578333333333333
 30
0.0
 40
0.07
  1
LOCKER HEIGHT
 50
90.0
  7
ROMANS
 72
     1
 11
4.500499999999999
 21
3.0
 31
0.0
100
AcDbText
  0
TEXT
  5
43
330
37
100
AcDbEntity
  8
8
100
AcDbText
 10
1.344999999999998
 20
1.062
 30
0.0
 40
0.07
  1
LOCKER WIDTH - SEE SCHEDULE
  7
ROMANS
 72
     1
 11
2.249999999999999
 21
1.062
 31
0.0
100
AcDbText
  0
TEXT
  5
44
330
37
100
AcDbEntity
  8
8
100
AcDbText
 10
1.585714285714285
 20
0.5620000000000003
 30
0.0
 40
0.1
  1
FRONT ELEVATION
  7
ROMANS
 72
     1
 11
2.249999999999999
 21
0.5620000000000003
 31
0.0
100
AcDbText
  0
LINE
  5
45
330
37
100
AcDbEntity
  8
1
100
AcDbLine
 10
5.203499999999999
 20
1.5625
 30
0.0
 11
5.188499999999999
 21
1.547499999999999
 31
0.0
  0
LINE
  5
46
330
37
100
AcDbEntity
  8
1
100
AcDbLine
 10
5.188499999999999
 20
1.547499999999999
 30
0.0
 11
5.090499999999999
 21
1.547499999999999
 31
0.0
  0
LINE
  5
47
330
37
100
AcDbEntity
  8
1
100
AcDbLine
 10
5.090499999999999
 20
1.547499999999999
 30
0.0
 11
5.090499999999999
 21
1.519253857562439
 31
0.0
  0
LINE
  5
48
330
37
100
AcDbEntity
  8
1
100
AcDbLine
 10
5.265499999999999
 20
1.500499999999999
 30
0.0
 11
5.203499999999999
 21
1.5625
 31
0.0
  0
LINE
  5
49
330
37
100
AcDbEntity
  8
1
100
AcDbLine
 10
5.630499999999999
 20
1.500499999999999
 30
0.0
 11
5.265499999999999
 21
1.500499999999999
 31
0.0
  0
LINE
  5
4A
330
37
100
AcDbEntity
  8
1
100
AcDbLine
 10
5.630499999999999
 20
1.5625
 30
0.0
 11
5.630499999999999
 21
1.500499999999999
 31
0.0
  0
LINE
  5
4B
330
37
100
AcDbEntity
  8
1
100
AcDbLine
 10
5.670499999999999
 20
1.5625
 30
0.0
 11
5.670499999999999
 21
1.500499999999999
 31
0.0
  0
LINE
  5
4C
330
37
100
AcDbEntity
  8
1
100
AcDbLine
 10
5.065499999999999
 20
1.5625
 30
0.0
 11
5.173499999999998
 21
1.5625
 31
0.0
  0
LINE
  5
4D
330
37
100
AcDbEntity
  8
1
100
AcDbLine
 10
5.065499999999999
 20
1.500499999999999
 30
0.0
 11
5.065499999999999
 21
1.5625
 31
0.0
  0
LINE
  5
4E
330
37
100
AcDbEntity
  8
1
100
AcDbLine
 10
5.127499999999999
 20
1.500499999999999
 30
0.0
 11
5.065499999999999
 21
1.500499999999999
 31
0.0
  0
LINE
  5
4F
330
37
100
AcDbEntity
  8
1
100
AcDbLine
 10
5.203499999999999
 20
1.5625
 30
0.0
 11
5.670499999999999
 21
1.5625
 31
0.0
  0
LINE
  5
50
330
37
100
AcDbEntity
  8
1
100
AcDbLine
 10
6.513499999999998
 20
1.5625
 30
0.0
 11
6.980499999999999
 21
1.5625
 31
0.0
  0
LINE
  5
51
330
37
100
AcDbEntity
  8
1
100
AcDbLine
 10
6.437499999999999
 20
1.500499999999999
 30
0.0
 11
6.375499999999998
 21
1.500499999999999
 31
0.0
  0
LINE
  5
52
330
37
100
AcDbEntity
  8
1
100
AcDbLine
 10
6.375499999999998
 20
1.500499999999999
 30
0.0
 11
6.375499999999998
 21
1.5625
 31
0.0
  0
LINE
  5
53
330
37
100
AcDbEntity
  8
1
100
AcDbLine
 10
6.375499999999998
 20
1.5625
 30
0.0
 11
6.483499999999998
 21
1.5625
 31
0.0
  0
LINE
  5
54
330
37
100
AcDbEntity
  8
1
100
AcDbLine
 10
6.980499999999999
 20
1.5625
 30
0.0
 11
6.980499999999999
 21
1.500499999999999
 31
0.0
  0
LINE
  5
55
330
37
100
AcDbEntity
  8
1
100
AcDbLine
 10
6.940499999999999
 20
1.5625
 30
0.0
 11
6.940499999999999
 21
1.500499999999999
 31
0.0
  0
LINE
  5
56
330
37
100
AcDbEntity
  8
1
100
AcDbLine
 10
6.940499999999999
 20
1.500499999999999
 30
0.0
 11
6.575499999999999
 21
1.500499999999999
 31
0.0
  0
LINE
  5
57
330
37
100
AcDbEntity
  8
1
100
AcDbLine
 10
6.575499999999999
 20
1.500499999999999
 30
0.0
 11
6.513499999999998
 21
1.5625
 31
0.0
  0
LINE
  5
58
330
37
100
AcDbEntity
  8
1
100
AcDbLine
 10
6.400499999999999
 20
1.547499999999999
 30
0.0
 11
6.400499999999999
 21
1.519253857562439
 31
0.0
  0
LINE
  5
59
330
37
100
AcDbEntity
  8
1
100
AcDbLine
 10
6.498499999999999
 20
1.547499999999999
 30
0.0
 11
6.400499999999999
 21
1.547499999999999
 31
0.0
  0
LINE
  5
5A
330
37
100
AcDbEntity
  8
1
100
AcDbLine
 10
6.513499999999998
 20
1.5625
 30
0.0
 11
6.498499999999999
 21
1.547499999999999
 31
0.0
  0
LINE
  5
5B
330
37
100
AcDbEntity
  8
1
100
AcDbLine
 10
7.486500000000001
 20
1.5625
 30
0.0
 11
7.5015
 21
1.547499999999999
 31
0.0
  0
LINE
  5
5C
330
37
100
AcDbEntity
  8
1
100
AcDbLine
 10
7.5015
 20
1.547499999999999
 30
0.0
 11
7.5995
 21
1.547499999999999
 31
0.0
  0
LINE
  5
5D
330
37
100
AcDbEntity
  8
1
100
AcDbLine
 10
7.5995
 20
1.547499999999999
 30
0.0
 11
7.5995
 21
1.519253857562439
 31
0.0
  0
LINE
  5
5E
330
37
100
AcDbEntity
  8
1
100
AcDbLine
 10
7.4245
 20
1.500499999999999
 30
0.0
 11
7.486500000000001
 21
1.5625
 31
0.0
  0
LINE
  5
5F
330
37
100
AcDbEntity
  8
1
100
AcDbLine
 10
7.0595
 20
1.500499999999999
 30
0.0
 11
7.4245
 21
1.500499999999999
 31
0.0
  0
LINE
  5
60
330
37
100
AcDbEntity
  8
1
100
AcDbLine
 10
7.0595
 20
1.5625
 30
0.0
 11
7.0595
 21
1.500499999999999
 31
0.0
  0
LINE
  5
61
330
37
100
AcDbEntity
  8
1
100
AcDbLine
 10
7.0195
 20
1.5625
 30
0.0
 11
7.0195
 21
1.500499999999999
 31
0.0
  0
LINE
  5
62
330
37
100
AcDbEntity
  8
1
100
AcDbLine
 10
7.624500000000001
 20
1.5625
 30
0.0
 11
7.516500000000001
 21
1.5625
 31
0.0
  0
LINE
  5
63
330
37
100
AcDbEntity
  8
1
100
AcDbLine
 10
7.624500000000001
 20
1.500499999999999
 30
0.0
 11
7.624500000000001
 21
1.5625
 31
0.0
  0
LINE
  5
64
330
37
100
AcDbEntity
  8
1
100
AcDbLine
 10
7.5625
 20
1.500499999999999
 30
0.0
 11
7.624500000000001
 21
1.500499999999999
 31
0.0
  0
LINE
  5
65
330
37
100
AcDbEntity
  8
1
100
AcDbLine
 10
7.486500000000001
 20
1.5625
 30
0.0
 11
7.0195
 21
1.5625
 31
0.0
  0
LINE
  5
66
330
37
100
AcDbEntity
  8
1
100
AcDbLine
 10
7.486500000000001
 20
4.5
 30
0.0
 11
7.0195
 21
4.5
 31
0.0
  0
LINE
  5
67
330
37
100
AcDbEntity
  8
1
100
AcDbLine
 10
7.5625
 20
4.437999999999999
 30
0.0
 11
7.624500000000001
 21
4.437999999999999
 31
0.0
  0
LINE
  5
68
330
37
100
AcDbEntity
  8
1
100
AcDbLine
 10
7.624500000000001
 20
4.437999999999999
 30
0.0
 11
7.624500000000001
 21
4.5
 31
0.0
  0
LINE
  5
69
330
37
100
AcDbEntity
  8
1
100
AcDbLine
 10
7.624500000000001
 20
4.5
 30
0.0
 11
7.516500000000001
 21
4.5
 31
0.0
  0
LINE
  5
6A
330
37
100
AcDbEntity
  8
1
100
AcDbLine
 10
7.0195
 20
4.5
 30
0.0
 11
7.0195
 21
4.437999999999999
 31
0.0
  0
LINE
  5
6B
330
37
100
AcDbEntity
  8
1
100
AcDbLine
 10
7.0595
 20
4.5
 30
0.0
 11
7.0595
 21
4.437999999999999
 31
0.0
  0
LINE
  5
6C
330
37
100
AcDbEntity
  8
1
100
AcDbLine
 10
7.0595
 20
4.437999999999999
 30
0.0
 11
7.4245
 21
4.437999999999999
 31
0.0
  0
LINE
  5
6D
330
37
100
AcDbEntity
  8
1
100
AcDbLine
 10
7.4245
 20
4.437999999999999
 30
0.0
 11
7.486500000000001
 21
4.5
 31
0.0
  0
LINE
  5
6E
330
37
100
AcDbEntity
  8
1
100
AcDbLine
 10
7.5995
 20
4.484999999999999
 30
0.0
 11
7.5995
 21
4.456753857562439
 31
0.0
  0
LINE
  5
6F
330
37
100
AcDbEntity
  8
1
100
AcDbLine
 10
7.5015
 20
4.484999999999999
 30
0.0
 11
7.5995
 21
4.484999999999999
 31
0.0
  0
LINE
  5
70
330
37
100
AcDbEntity
  8
1
100
AcDbLine
 10
7.486500000000001
 20
4.5
 30
0.0
 11
7.5015
 21
4.484999999999999
 31
0.0
  0
LINE
  5
71
330
37
100
AcDbEntity
  8
1
100
AcDbLine
 10
6.513499999999998
 20
4.5
 30
0.0
 11
6.498499999999999
 21
4.484999999999999
 31
0.0
  0
LINE
  5
72
330
37
100
AcDbEntity
  8
1
100
AcDbLine
 10
6.498499999999999
 20
4.484999999999999
 30
0.0
 11
6.400499999999999
 21
4.484999999999999
 31
0.0
  0
LINE
  5
73
330
37
100
AcDbEntity
  8
1
100
AcDbLine
 10
6.400499999999999
 20
4.484999999999999
 30
0.0
 11
6.400499999999999
 21
4.456753857562439
 31
0.0
  0
LINE
  5
74
330
37
100
AcDbEntity
  8
1
100
AcDbLine
 10
6.575499999999999
 20
4.437999999999999
 30
0.0
 11
6.513499999999998
 21
4.5
 31
0.0
  0
LINE
  5
75
330
37
100
AcDbEntity
  8
1
100
AcDbLine
 10
6.940499999999999
 20
4.437999999999999
 30
0.0
 11
6.575499999999999
 21
4.437999999999999
 31
0.0
  0
LINE
  5
76
330
37
100
AcDbEntity
  8
1
100
AcDbLine
 10
6.940499999999999
 20
4.5
 30
0.0
 11
6.940499999999999
 21
4.437999999999999
 31
0.0
  0
LINE
  5
77
330
37
100
AcDbEntity
  8
1
100
AcDbLine
 10
6.980499999999999
 20
4.5
 30
0.0
 11
6.980499999999999
 21
4.437999999999999
 31
0.0
  0
LINE
  5
78
330
37
100
AcDbEntity
  8
1
100
AcDbLine
 10
6.375499999999998
 20
4.5
 30
0.0
 11
6.483499999999998
 21
4.5
 31
0.0
  0
LINE
  5
79
330
37
100
AcDbEntity
  8
1
100
AcDbLine
 10
6.375499999999998
 20
4.437999999999999
 30
0.0
 11
6.375499999999998
 21
4.5
 31
0.0
  0
LINE
  5
7A
330
37
100
AcDbEntity
  8
1
100
AcDbLine
 10
6.437499999999999
 20
4.437999999999999
 30
0.0
 11
6.375499999999998
 21
4.437999999999999
 31
0.0
  0
LINE
  5
7B
330
37
100
AcDbEntity
  8
1
100
AcDbLine
 10
6.513499999999998
 20
4.5
 30
0.0
 11
6.980499999999999
 21
4.5
 31
0.0
  0
LINE
  5
7C
330
37
100
AcDbEntity
  8
1
100
AcDbLine
 10
5.203499999999999
 20
4.5
 30
0.0
 11
5.670499999999999
 21
4.5
 31
0.0
  0
LINE
  5
7D
330
37
100
AcDbEntity
  8
1
100
AcDbLine
 10
5.127499999999999
 20
4.437999999999999
 30
0.0
 11
5.065499999999999
 21
4.437999999999999
 31
0.0
  0
LINE
  5
7E
330
37
100
AcDbEntity
  8
1
100
AcDbLine
 10
5.065499999999999
 20
4.437999999999999
 30
0.0
 11
5.065499999999999
 21
4.5
 31
0.0
  0
LINE
  5
7F
330
37
100
AcDbEntity
  8
1
100
AcDbLine
 10
5.065499999999999
 20
4.5
 30
0.0
 11
5.173499999999998
 21
4.5
 31
0.0
  0
LINE
  5
80
330
37
100
AcDbEntity
  8
1
100
AcDbLine
 10
5.670499999999999
 20
4.5
 30
0.0
 11
5.670499999999999
 21
4.437999999999999
 31
0.0
  0
LINE
  5
81
330
37
100
AcDbEntity
  8
1
100
AcDbLine
 10
5.630499999999999
 20
4.5
 30
0.0
 11
5.630499999999999
 21
4.437999999999999
 31
0.0
  0
LINE
  5
82
330
37
100
AcDbEntity
  8
1
100
AcDbLine
 10
5.630499999999999
 20
4.437999999999999
 30
0.0
 11
5.265499999999999
 21
4.437999999999999
 31
0.0
  0
LINE
  5
83
330
37
100
AcDbEntity
  8
1
100
AcDbLine
 10
5.265499999999999
 20
4.437999999999999
 30
0.0
 11
5.203499999999999
 21
4.5
 31
0.0
  0
LINE
  5
84
330
37
100
AcDbEntity
  8
1
100
AcDbLine
 10
5.090499999999999
 20
4.484999999999999
 30
0.0
 11
5.090499999999999
 21
4.456753857562439
 31
0.0
  0
LINE
  5
85
330
37
100
AcDbEntity
  8
1
100
AcDbLine
 10
5.188499999999999
 20
4.484999999999999
 30
0.0
 11
5.090499999999999
 21
4.484999999999999
 31
0.0
  0
LINE
  5
86
330
37
100
AcDbEntity
  8
1
100
AcDbLine
 10
5.203499999999999
 20
4.5
 30
0.0
 11
5.188499999999999
 21
4.484999999999999
 31
0.0
  0
LINE
  5
87
330
37
100
AcDbEntity
  8
1
100
AcDbLine
 10
1.062
 20
1.562
 30
0.0
 11
1.562999999999999
 21
1.562
 31
0.0
  0
LINE
  5
88
330
37
100
AcDbEntity
  8
4
100
AcDbLine
 10
1.872866710308013
 20
1.373999999999999
 30
0.0
 11
1.934866710308013
 21
1.373999999999999
 31
0.0
  0
CIRCLE
  5
89
330
37
100
AcDbEntity
  8
4
100
AcDbCircle
 10
2.028866710308013
 20
1.373999999999999
 30
0.0
 40
0.094
  0
LINE
  5
8A
330
37
100
AcDbEntity
  8
4
100
AcDbLine
 10
1.778866710308013
 20
1.467999999999999
 30
0.0
 11
1.778866710308013
 21
1.592999999999999
 31
0.0
  0
CIRCLE
  5
8B
330
37
100
AcDbEntity
  8
4
100
AcDbCircle
 10
1.778866710308013
 20
1.373999999999999
 30
0.0
 40
0.094
  0
CIRCLE
  5
8C
330
37
100
AcDbEntity
  8
4
100
AcDbCircle
 10
1.9375
 20
4.312
 30
0.0
 40
0.094
  0
LINE
  5
8D
330
37
100
AcDbEntity
  8
4
100
AcDbLine
 10
1.9375
 20
4.406
 30
0.0
 11
1.9375
 21
4.531
 31
0.0
  0
LINE
  5
8E
330
37
100
AcDbEntity
  8
1
100
AcDbLine
 10
2.499999999999999
 20
1.562
 30
0.0
 11
2.312
 21
1.562
 31
0.0
  0
LINE
  5
8F
330
37
100
AcDbEntity
  8
1
100
AcDbLine
 10
2.625
 20
4.438
 30
0.0
 11
2.813
 21
4.438
 31
0.0
  0
LINE
  5
90
330
37
100
AcDbEntity
  8
1
100
AcDbLine
 10
2.875
 20
1.5
 30
0.0
 11
2.875
 21
4.5
 31
0.0
  0
LINE
  5
91
330
37
100
AcDbEntity
  8
1
100
AcDbLine
 10
2.25
 20
1.5
 30
0.0
 11
2.25
 21
4.5
 31
0.0
  0
LINE
  5
92
330
37
100
AcDbEntity
  8
1
100
AcDbLine
 10
1.625
 20
1.5
 30
0.0
 11
1.625
 21
4.5
 31
0.0
  0
LINE
  5
93
330
37
100
AcDbEntity
  8
1
100
AcDbLine
 10
3.437999999999999
 20
1.562
 30
0.0
 11
2.937
 21
1.562
 31
0.0
  0
LINE
  5
94
330
37
100
AcDbEntity
  8
1
100
AcDbLine
 10
3.438
 20
4.438
 30
0.0
 11
3.437999999999999
 21
1.562
 31
0.0
  0
LINE
  5
95
330
37
100
AcDbEntity
  8
1
100
AcDbLine
 10
2.937
 20
4.438
 30
0.0
 11
3.438
 21
4.438
 31
0.0
  0
LINE
  5
96
330
37
100
AcDbEntity
  8
1
100
AcDbLine
 10
2.937
 20
1.562
 30
0.0
 11
2.937
 21
4.438
 31
0.0
  0
LINE
  5
97
330
37
100
AcDbEntity
  8
1
100
AcDbLine
 10
2.812999999999999
 20
1.562
 30
0.0
 11
2.625
 21
1.562
 31
0.0
  0
LINE
  5
98
330
37
100
AcDbEntity
  8
1
100
AcDbLine
 10
2.813
 20
4.438
 30
0.0
 11
2.812999999999999
 21
1.562
 31
0.0
  0
LINE
  5
99
330
37
100
AcDbEntity
  8
1
100
AcDbLine
 10
2.312
 20
4.438
 30
0.0
 11
2.5
 21
4.438
 31
0.0
  0
LINE
  5
9A
330
37
100
AcDbEntity
  8
1
100
AcDbLine
 10
2.312
 20
1.562
 30
0.0
 11
2.312
 21
4.438
 31
0.0
  0
LINE
  5
9B
330
37
100
AcDbEntity
  8
1
100
AcDbLine
 10
2.187999999999999
 20
1.562
 30
0.0
 11
1.687
 21
1.562
 31
0.0
  0
LINE
  5
9C
330
37
100
AcDbEntity
  8
1
100
AcDbLine
 10
2.188
 20
4.438
 30
0.0
 11
2.187999999999999
 21
1.562
 31
0.0
  0
LINE
  5
9D
330
37
100
AcDbEntity
  8
1
100
AcDbLine
 10
1.687
 20
4.438
 30
0.0
 11
2.188
 21
4.438
 31
0.0
  0
LINE
  5
9E
330
37
100
AcDbEntity
  8
1
100
AcDbLine
 10
1.687
 20
1.562
 30
0.0
 11
1.687
 21
4.438
 31
0.0
  0
LINE
  5
9F
330
37
100
AcDbEntity
  8
1
100
AcDbLine
 10
1.563
 20
4.438
 30
0.0
 11
1.562999999999999
 21
1.562
 31
0.0
  0
LINE
  5
A0
330
37
100
AcDbEntity
  8
1
100
AcDbLine
 10
1.062
 20
4.438
 30
0.0
 11
1.563
 21
4.438
 31
0.0
  0
LINE
  5
A1
330
37
100
AcDbEntity
  8
1
100
AcDbLine
 10
1.062
 20
1.562
 30
0.0
 11
1.062
 21
4.438
 31
0.0
  0
INSERT
  5
A2
330
37
100
AcDbEntity
  8
4
100
AcDbBlockReference
  2
ARRO
 10
7.625
 20
1.8125
 30
0.0
 50
180.0
  0
INSERT
  5
A3
330
37
100
AcDbEntity
  8
4
100
AcDbBlockReference
  2
ARRO
 10
6.375
 20
1.8125
 30
0.0
  0
INSERT
  5
A4
330
37
100
AcDbEntity
  8
4
100
AcDbBlockReference
  2
ARRO
 10
5.75
 20
1.8125
 30
0.0
  0
INSERT
  5
A5
330
37
100
AcDbEntity
  8
4
100
AcDbBlockReference
  2
ARRO
 10
5.69
 20
1.8125
 30
0.0
 50
180.0
  0
INSERT
  5
A6
330
37
100
AcDbEntity
  8
4
100
AcDbBlockReference
  2
ARRO
 10
5.065
 20
1.8125
 30
0.0
  0
LINE
  5
A7
330
37
100
AcDbEntity
  8
4
100
AcDbLine
 10
6.375
 20
1.8125
 30
0.0
 11
7.625
 21
1.8125
 31
0.0
  0
LINE
  5
A8
330
37
100
AcDbEntity
  8
4
100
AcDbLine
 10
5.75
 20
1.8125
 30
0.0
 11
6.0
 21
1.8125
 31
0.0
  0
LINE
  5
A9
330
37
100
AcDbEntity
  8
4
100
AcDbLine
 10
5.69
 20
1.8125
 30
0.0
 11
5.065
 21
1.8125
 31
0.0
  0
INSERT
  5
AA
330
37
100
AcDbEntity
  8
4
100
AcDbBlockReference
  2
ARRO
 10
4.5625
 20
1.5
 30
0.0
 50
90.0
  0
INSERT
  5
AB
330
37
100
AcDbEntity
  8
4
100
AcDbBlockReference
  2
ARRO
 10
4.5625
 20
4.5
 30
0.0
 50
270.0
  0
LINE
  5
AC
330
37
100
AcDbEntity
  8
4
100
AcDbLine
 10
5.0025
 20
4.5
 30
0.0
 11
4.5025
 21
4.5
 31
0.0
  0
LINE
  5
AD
330
37
100
AcDbEntity
  8
4
100
AcDbLine
 10
4.5625
 20
1.5
 30
0.0
 11
4.5625
 21
4.5
 31
0.0
  0
LINE
  5
AE
330
37
100
AcDbEntity
  8
4
100
AcDbLine
 10
5.0025
 20
1.5
 30
0.0
 11
4.5025
 21
1.5
 31
0.0
  0
INSERT
  5
AF
330
37
100
AcDbEntity
  8
4
100
AcDbBlockReference
  2
ARRO
 10
3.499999999999999
 20
0.9999999999999998
 30
0.0
 50
180.0
  0
INSERT
  5
B0
330
37
100
AcDbEntity
  8
4
100
AcDbBlockReference
  2
ARRO
 10
0.9999999999999998
 20
1.0
 30
0.0
  0
LINE
  5
B1
330
37
100
AcDbEntity
  8
4
100
AcDbLine
 10
3.499999999999999
 20
1.0
 30
0.0
 11
0.9999999999999998
 21
1.0
 31
0.0
  0
LINE
  5
B2
330
37
100
AcDbEntity
  8
4
100
AcDbLine
 10
3.499999999999999
 20
1.437999999999999
 30
0.0
 11
3.499999999999999
 21
0.9379999999999999
 31
0.0
  0
LINE
  5
B3
330
37
100
AcDbEntity
  8
4
100
AcDbLine
 10
1.0
 20
1.437999999999999
 30
0.0
 11
0.9999999999999998
 21
0.9379999999999999
 31
0.0
  0
LINE
  5
B4
330
37
100
AcDbEntity
  8
1
100
AcDbLine
 10
5.69
 20
1.5
 30
0.0
 11
5.69
 21
4.5
 31
0.0
  0
LINE
  5
B5
330
37
100
AcDbEntity
  8
1
100
AcDbLine
 10
5.75
 20
4.75
 30
0.0
 11
5.875
 21
4.875
 31
0.0
  0
LINE
  5
B6
330
37
100
AcDbEntity
  8
1
100
AcDbLine
 10
5.75
 20
4.625
 30
0.0
 11
5.937999999999999
 21
4.812999999999999
 31
0.0
  0
LINE
  5
B7
330
37
100
AcDbEntity
  8
1
100
AcDbLine
 10
5.75
 20
4.5
 30
0.0
 11
5.937999999999999
 21
4.687999999999999
 31
0.0
  0
LINE
  5
B8
330
37
100
AcDbEntity
  8
1
100
AcDbLine
 10
5.75
 20
4.375
 30
0.0
 11
5.937999999999999
 21
4.562999999999999
 31
0.0
  0
LINE
  5
B9
330
37
100
AcDbEntity
  8
1
100
AcDbLine
 10
5.75
 20
4.25
 30
0.0
 11
5.937999999999999
 21
4.437999999999999
 31
0.0
  0
LINE
  5
BA
330
37
100
AcDbEntity
  8
1
100
AcDbLine
 10
5.75
 20
4.125
 30
0.0
 11
5.937999999999999
 21
4.312999999999999
 31
0.0
  0
LINE
  5
BB
330
37
100
AcDbEntity
  8
1
100
AcDbLine
 10
5.75
 20
4.0
 30
0.0
 11
5.937999999999999
 21
4.187999999999999
 31
0.0
  0
LINE
  5
BC
330
37
100
AcDbEntity
  8
1
100
AcDbLine
 10
5.75
 20
3.875
 30
0.0
 11
5.937999999999999
 21
4.062999999999999
 31
0.0
  0
LINE
  5
BD
330
37
100
AcDbEntity
  8
1
100
AcDbLine
 10
5.75
 20
3.75
 30
0.0
 11
5.937999999999999
 21
3.937999999999999
 31
0.0
  0
LINE
  5
BE
330
37
100
AcDbEntity
  8
1
100
AcDbLine
 10
5.75
 20
3.625
 30
0.0
 11
5.937999999999999
 21
3.812999999999999
 31
0.0
  0
LINE
  5
BF
330
37
100
AcDbEntity
  8
1
100
AcDbLine
 10
5.75
 20
3.5
 30
0.0
 11
5.937999999999999
 21
3.687999999999999
 31
0.0
  0
LINE
  5
C0
330
37
100
AcDbEntity
  8
1
100
AcDbLine
 10
5.75
 20
3.375
 30
0.0
 11
5.937999999999999
 21
3.562999999999999
 31
0.0
  0
LINE
  5
C1
330
37
100
AcDbEntity
  8
1
100
AcDbLine
 10
5.75
 20
3.25
 30
0.0
 11
5.937999999999999
 21
3.437999999999999
 31
0.0
  0
LINE
  5
C2
330
37
100
AcDbEntity
  8
1
100
AcDbLine
 10
5.75
 20
3.125
 30
0.0
 11
5.937999999999999
 21
3.312999999999999
 31
0.0
  0
LINE
  5
C3
330
37
100
AcDbEntity
  8
1
100
AcDbLine
 10
5.75
 20
3.0
 30
0.0
 11
5.937999999999999
 21
3.187999999999999
 31
0.0
  0
LINE
  5
C4
330
37
100
AcDbEntity
  8
1
100
AcDbLine
 10
5.75
 20
2.875
 30
0.0
 11
5.937999999999999
 21
3.062999999999999
 31
0.0
  0
LINE
  5
C5
330
37
100
AcDbEntity
  8
1
100
AcDbLine
 10
5.75
 20
2.75
 30
0.0
 11
5.937999999999999
 21
2.937999999999999
 31
0.0
  0
LINE
  5
C6
330
37
100
AcDbEntity
  8
1
100
AcDbLine
 10
5.75
 20
2.625
 30
0.0
 11
5.937999999999999
 21
2.812999999999999
 31
0.0
  0
LINE
  5
C7
330
37
100
AcDbEntity
  8
1
100
AcDbLine
 10
5.75
 20
2.5
 30
0.0
 11
5.937999999999999
 21
2.687999999999999
 31
0.0
  0
LINE
  5
C8
330
37
100
AcDbEntity
  8
1
100
AcDbLine
 10
5.75
 20
2.375
 30
0.0
 11
5.937999999999999
 21
2.562999999999999
 31
0.0
  0
LINE
  5
C9
330
37
100
AcDbEntity
  8
1
100
AcDbLine
 10
5.75
 20
2.25
 30
0.0
 11
5.937999999999999
 21
2.437999999999999
 31
0.0
  0
LINE
  5
CA
330
37
100
AcDbEntity
  8
1
100
AcDbLine
 10
5.75
 20
2.125
 30
0.0
 11
5.937999999999999
 21
2.312999999999999
 31
0.0
  0
LINE
  5
CB
330
37
100
AcDbEntity
  8
1
100
AcDbLine
 10
5.75
 20
2.0
 30
0.0
 11
5.937999999999999
 21
2.187999999999999
 31
0.0
  0
LINE
  5
CC
330
37
100
AcDbEntity
  8
1
100
AcDbLine
 10
5.75
 20
1.625
 30
0.0
 11
5.937999999999999
 21
1.812999999999999
 31
0.0
  0
LINE
  5
CD
330
37
100
AcDbEntity
  8
1
100
AcDbLine
 10
5.75
 20
1.5
 30
0.0
 11
5.937999999999999
 21
1.687999999999999
 31
0.0
  0
LINE
  5
CE
330
37
100
AcDbEntity
  8
1
100
AcDbLine
 10
2.625
 20
2.379974179311579
 30
0.0
 11
2.624999999999999
 21
1.375
 31
0.0
  0
LINE
  5
CF
330
37
100
AcDbEntity
  8
1
100
AcDbLine
 10
2.625
 20
2.782474179311579
 30
0.0
 11
2.625
 21
2.469974179311579
 31
0.0
  0
LINE
  5
D0
330
37
100
AcDbEntity
  8
1
100
AcDbLine
 10
2.625
 20
3.625967704151865
 30
0.0
 11
2.625
 21
2.782474179311579
 31
0.0
  0
LINE
  5
D1
330
37
100
AcDbEntity
  8
1
100
AcDbLine
 10
2.58
 20
3.664974179311579
 30
0.0
 11
2.669999999999999
 21
3.574974179311579
 31
0.0
  0
LINE
  5
D2
330
37
100
AcDbEntity
  8
1
100
AcDbLine
 10
2.669999999999999
 20
3.664974179311579
 30
0.0
 11
2.58
 21
3.664974179311579
 31
0.0
  0
LINE
  5
D3
330
37
100
AcDbEntity
  8
1
100
AcDbLine
 10
2.58
 20
3.754974179311579
 30
0.0
 11
2.669999999999999
 21
3.664974179311579
 31
0.0
  0
LINE
  5
D4
330
37
100
AcDbEntity
  8
1
100
AcDbLine
 10
2.579999999999999
 20
2.424974179311579
 30
0.0
 11
2.669999999999999
 21
2.334974179311579
 31
0.0
  0
LINE
  5
D5
330
37
100
AcDbEntity
  8
1
100
AcDbLine
 10
2.669999999999999
 20
2.424974179311579
 30
0.0
 11
2.579999999999999
 21
2.424974179311579
 31
0.0
  0
LINE
  5
D6
330
37
100
AcDbEntity
  8
1
100
AcDbLine
 10
2.579999999999999
 20
2.514974179311579
 30
0.0
 11
2.669999999999999
 21
2.424974179311579
 31
0.0
  0
LINE
  5
D7
330
37
100
AcDbEntity
  8
1
100
AcDbLine
 10
2.499999999999999
 20
1.754974179311579
 30
0.0
 11
2.499999999999999
 21
1.375
 31
0.0
  0
LINE
  5
D8
330
37
100
AcDbEntity
  8
1
100
AcDbLine
 10
2.5
 20
2.469974179311579
 30
0.0
 11
2.499999999999999
 21
1.844974179311579
 31
0.0
  0
LINE
  5
D9
330
37
100
AcDbEntity
  8
1
100
AcDbLine
 10
2.5
 20
3.004974179311579
 30
0.0
 11
2.5
 21
2.469974179311579
 31
0.0
  0
LINE
  5
DA
330
37
100
AcDbEntity
  8
1
100
AcDbLine
 10
2.454999999999999
 20
1.889974179311579
 30
0.0
 11
2.544999999999999
 21
1.799974179311579
 31
0.0
  0
LINE
  5
DB
330
37
100
AcDbEntity
  8
1
100
AcDbLine
 10
2.544999999999999
 20
1.799974179311579
 30
0.0
 11
2.454999999999999
 21
1.799974179311579
 31
0.0
  0
LINE
  5
DC
330
37
100
AcDbEntity
  8
1
100
AcDbLine
 10
2.454999999999999
 20
1.799974179311579
 30
0.0
 11
2.544999999999999
 21
1.709974179311579
 31
0.0
  0
LINE
  5
DD
330
37
100
AcDbEntity
  8
1
100
AcDbLine
 10
2.454999999999999
 20
3.139974179311579
 30
0.0
 11
2.544999999999999
 21
3.049974179311579
 31
0.0
  0
LINE
  5
DE
330
37
100
AcDbEntity
  8
1
100
AcDbLine
 10
2.544999999999999
 20
3.049974179311579
 30
0.0
 11
2.454999999999999
 21
3.049974179311579
 31
0.0
  0
LINE
  5
DF
330
37
100
AcDbEntity
  8
1
100
AcDbLine
 10
2.454999999999999
 20
3.049974179311579
 30
0.0
 11
2.544999999999999
 21
2.959974179311579
 31
0.0
  0
LINE
  5
E0
330
37
100
AcDbEntity
  8
1
100
AcDbLine
 10
2.512196030826982
 20
4.242778148484597
 30
0.0
 11
2.512196030826982
 21
3.07567852914767
 31
0.0
  0
LINE
  5
E1
330
37
100
AcDbEntity
  8
1
100
AcDbLine
 10
2.455
 20
4.299974179311579
 30
0.0
 11
2.544999999999999
 21
4.209974179311579
 31
0.0
  0
LINE
  5
E2
330
37
100
AcDbEntity
  8
1
100
AcDbLine
 10
2.544999999999999
 20
4.299974179311579
 30
0.0
 11
2.455
 21
4.299974179311579
 31
0.0
  0
LINE
  5
E3
330
37
100
AcDbEntity
  8
1
100
AcDbLine
 10
2.455
 20
4.389974179311579
 30
0.0
 11
2.544999999999999
 21
4.299974179311579
 31
0.0
  0
LINE
  5
E4
330
37
100
AcDbEntity
  8
1
100
AcDbLine
 10
2.5
 20
4.625
 30
0.0
 11
2.5
 21
4.344974179311579
 31
0.0
  0
LINE
  5
E5
330
37
100
AcDbEntity
  8
1
100
AcDbLine
 10
2.625
 20
4.625
 30
0.0
 11
2.625
 21
3.709974179311579
 31
0.0
  0
CIRCLE
  5
E6
330
37
100
AcDbEntity
  8
1
100
AcDbCircle
 10
4.125
 20
0.5
 30
0.0
 40
0.1875
  0
LINE
  5
E7
330
37
100
AcDbEntity
  8
1
100
AcDbLine
 10
5.75
 20
1.5
 30
0.0
 11
5.75
 21
4.875
 31
0.0
  0
LINE
  5
E8
330
37
100
AcDbEntity
  8
1
100
AcDbLine
 10
7.0
 20
1.5
 30
0.0
 11
7.0
 21
4.5
 31
0.0
  0
LINE
  5
E9
330
37
100
AcDbEntity
  8
1
100
AcDbLine
 10
3.499999999999999
 20
1.5
 30
0.0
 11
2.624999999999999
 21
1.5
 31
0.0
  0
LINE
  5
EA
330
37
100
AcDbEntity
  8
1
100
AcDbLine
 10
3.5
 20
4.5
 30
0.0
 11
3.499999999999999
 21
1.5
 31
0.0
  0
LINE
  5
EB
330
37
100
AcDbEntity
  8
1
100
AcDbLine
 10
2.625
 20
4.5
 30
0.0
 11
3.5
 21
4.5
 31
0.0
  0
LINE
  5
EC
330
37
100
AcDbEntity
  8
1
100
AcDbLine
 10
1.0
 20
4.5
 30
0.0
 11
2.5
 21
4.5
 31
0.0
  0
LINE
  5
ED
330
37
100
AcDbEntity
  8
1
100
AcDbLine
 10
1.0
 20
1.5
 30
0.0
 11
1.0
 21
4.5
 31
0.0
  0
LINE
  5
EE
330
37
100
AcDbEntity
  8
1
100
AcDbLine
 10
1.0
 20
1.5
 30
0.0
 11
2.5
 21
1.5
 31
0.0
  0
LINE
  5
EF
330
37
100
AcDbEntity
  8
1
100
AcDbLine
 10
0.0
 20
5.25
 30
0.0
 11
0.0
 21
0.0
 31
0.0
  0
LINE
  5
F0
330
37
100
AcDbEntity
  8
1
100
AcDbLine
 10
8.25
 20
5.25
 30
0.0
 11
0.0
 21
5.25
 31
0.0
  0
LINE
  5
F1
330
37
100
AcDbEntity
  8
1
100
AcDbLine
 10
8.25
 20
0.0
 30
0.0
 11
8.25
 21
5.25
 31
0.0
  0
LINE
  5
F2
330
37
100
AcDbEntity
  8
1
100
AcDbLine
 10
0.0
 20
0.0
 30
0.0
 11
8.25
 21
0.0
 31
0.0
  0
ENDBLK
  5
F4
330
37
100
AcDbEntity
  8
0
100
AcDbBlockEnd
  0
BLOCK
  5
102
330
F7
100
AcDbEntity
  8
4
100
AcDbBlockBegin
  2
ARRO2
 70
     0
 10
0.0
 20
0.0
 30
0.0
  3
ARRO2
  1

  0
LINE
  5
F8
330
F7
100
AcDbEntity
  8
4
100
AcDbLine
 10
-0.124999999999992
 20
-0.0200000000000005
 30
0.0
 11
0.000000000000008
 21
-0.0000000000000009
 31
0.0
  0
LINE
  5
F9
330
F7
100
AcDbEntity
  8
4
100
AcDbLine
 10
0.000000000000008
 20
-0.0000000000000009
 30
0.0
 11
-0.124999999999992
 21
0.0199999999999996
 31
0.0
  0
LINE
  5
FA
330
F7
100
AcDbEntity
  8
4
100
AcDbLine
 10
-0.124999999999992
 20
-0.0099999999999998
 30
0.0
 11
0.000000000000008
 21
-0.0000000000000009
 31
0.0
  0
LINE
  5
FB
330
F7
100
AcDbEntity
  8
4
100
AcDbLine
 10
-0.124999999999992
 20
0.0099999999999998
 30
0.0
 11
0.0000000000000089
 21
-0.0000000000000009
 31
0.0
  0
LINE
  5
FC
330
F7
100
AcDbEntity
  8
4
100
AcDbLine
 10
-0.124999999999992
 20
-0.0200000000000005
 30
0.0
 11
-0.124999999999992
 21
0.0199999999999996
 31
0.0
  0
LINE
  5
FD
330
F7
100
AcDbEntity
  8
4
100
AcDbLine
 10
0.1250000000000124
 20
0.0199999999999987
 30
0.0
 11
0.1250000000000124
 21
-0.0200000000000014
 31
0.0
  0
LINE
  5
FE
330
F7
100
AcDbEntity
  8
4
100
AcDbLine
 10
0.1250000000000124
 20
-0.0100000000000016
 30
0.0
 11
0.0000000000000115
 21
-0.0000000000000009
 31
0.0
  0
LINE
  5
FF
330
F7
100
AcDbEntity
  8
4
100
AcDbLine
 10
0.1250000000000124
 20
0.009999999999998
 30
0.0
 11
0.0000000000000124
 21
-0.0000000000000009
 31
0.0
  0
LINE
  5
100
330
F7
100
AcDbEntity
  8
4
100
AcDbLine
 10
0.0000000000000124
 20
-0.0000000000000009
 30
0.0
 11
0.1250000000000124
 21
-0.0200000000000014
 31
0.0
  0
LINE
  5
101
330
F7
100
AcDbEntity
  8
4
100
AcDbLine
 10
0.1250000000000124
 20
0.0199999999999987
 30
0.0
 11
0.0000000000000124
 21
-0.0000000000000009
 31
0.0
  0
ENDBLK
  5
103
330
F7
100
AcDbEntity
  8
4
100
AcDbBlockEnd
  0
BLOCK
  5
106
330
104
100
AcDbEntity
  8
4
100
AcDbBlockBegin
  2
TEMP2
 70
     0
 10
0.0
 20
0.0
 30
0.0
  3
TEMP2
  1

  0
TEXT
  5
105
330
104
100
AcDbEntity
  8
8
100
AcDbText
 10
-0.0620000000000003
 20
0.1763333333333335
 30
0.0
 40
0.07
  1
1
 50
90.0
 72
     1
 11
-0.0620000000000003
 21
0.1880000000000002
 31
0.0
100
AcDbText
  0
ENDBLK
  5
107
330
104
100
AcDbEntity
  8
4
100
AcDbBlockEnd
  0
BLOCK
  5
142
330
10A
100
AcDbEntity
  8
0
100
AcDbBlockBegin
  2
LE1007
 70
     0
 10
0.0
 20
0.0
 30
0.0
  3
LE1007
  1

  0
INSERT
  5
10B
330
10A
100
AcDbEntity
  8
4
100
AcDbBlockReference
  2
ARRO2
 10
4.8125
 20
4.125
 30
0.0
 50
90.0
  0
LINE
  5
10C
330
10A
100
AcDbEntity
  8
4
100
AcDbLine
 10
4.8125
 20
4.125
 30
0.0
 11
4.750499999999999
 21
4.125
 31
0.0
  0
LINE
  5
10D
330
10A
100
AcDbEntity
  8
4
100
AcDbLine
 10
5.0025
 20
4.125
 30
0.0
 11
4.8125
 21
4.125
 31
0.0
  0
LINE
  5
10E
330
10A
100
AcDbEntity
  8
4
100
AcDbLine
 10
7.5195
 20
4.063
 30
0.0
 11
7.488500000000001
 21
4.094
 31
0.0
  0
LINE
  5
10F
330
10A
100
AcDbEntity
  8
4
100
AcDbLine
 10
7.5195
 20
4.125
 30
0.0
 11
7.5195
 21
4.063
 31
0.0
  0
LINE
  5
110
330
10A
100
AcDbEntity
  8
4
100
AcDbLine
 10
7.0195
 20
4.125
 30
0.0
 11
7.5195
 21
4.125
 31
0.0
  0
LINE
  5
111
330
10A
100
AcDbEntity
  8
4
100
AcDbLine
 10
7.0195
 20
4.063
 30
0.0
 11
7.0195
 21
4.125
 31
0.0
  0
LINE
  5
112
330
10A
100
AcDbEntity
  8
4
100
AcDbLine
 10
7.301520109897515
 20
3.975
 30
0.0
 11
7.301520109897515
 21
3.913
 31
0.0
  0
LINE
  5
113
330
10A
100
AcDbEntity
  8
4
100
AcDbLine
 10
7.332520109897515
 20
3.975
 30
0.0
 11
7.270520109897516
 21
3.975
 31
0.0
  0
LINE
  5
114
330
10A
100
AcDbEntity
  8
4
100
AcDbLine
 10
7.0195
 20
3.938
 30
0.0
 11
7.0195
 21
3.988
 31
0.0
  0
ARC
  5
115
330
10A
100
AcDbEntity
  8
4
100
AcDbCircle
 10
7.0445
 20
3.938
 30
0.0
 40
0.025
100
AcDbArc
 50
180.0
 51
0.0
  0
ARC
  5
116
330
10A
100
AcDbEntity
  8
4
100
AcDbCircle
 10
6.9555
 20
3.938
 30
0.0
 40
0.025
100
AcDbArc
 50
180.0
 51
0.0
  0
LINE
  5
117
330
10A
100
AcDbEntity
  8
4
100
AcDbLine
 10
6.9805
 20
3.938
 30
0.0
 11
6.9805
 21
3.988
 31
0.0
  0
LINE
  5
118
330
10A
100
AcDbEntity
  8
4
100
AcDbLine
 10
6.667479890102485
 20
3.975
 30
0.0
 11
6.729479890102484
 21
3.975
 31
0.0
  0
LINE
  5
119
330
10A
100
AcDbEntity
  8
4
100
AcDbLine
 10
6.698479890102484
 20
3.975
 30
0.0
 11
6.698479890102484
 21
3.913
 31
0.0
  0
LINE
  5
11A
330
10A
100
AcDbEntity
  8
4
100
AcDbLine
 10
6.9805
 20
4.063
 30
0.0
 11
6.9805
 21
4.125
 31
0.0
  0
LINE
  5
11B
330
10A
100
AcDbEntity
  8
4
100
AcDbLine
 10
6.9805
 20
4.125
 30
0.0
 11
6.4805
 21
4.125
 31
0.0
  0
LINE
  5
11C
330
10A
100
AcDbEntity
  8
4
100
AcDbLine
 10
6.4805
 20
4.125
 30
0.0
 11
6.4805
 21
4.063
 31
0.0
  0
LINE
  5
11D
330
10A
100
AcDbEntity
  8
4
100
AcDbLine
 10
6.4805
 20
4.063
 30
0.0
 11
6.511499999999999
 21
4.094
 31
0.0
  0
LINE
  5
11E
330
10A
100
AcDbEntity
  8
4
100
AcDbLine
 10
5.1705
 20
4.063
 30
0.0
 11
5.2015
 21
4.094
 31
0.0
  0
LINE
  5
11F
330
10A
100
AcDbEntity
  8
4
100
AcDbLine
 10
5.1705
 20
4.125
 30
0.0
 11
5.1705
 21
4.063
 31
0.0
  0
LINE
  5
120
330
10A
100
AcDbEntity
  8
4
100
AcDbLine
 10
5.6705
 20
4.125
 30
0.0
 11
5.1705
 21
4.125
 31
0.0
  0
LINE
  5
121
330
10A
100
AcDbEntity
  8
4
100
AcDbLine
 10
5.6705
 20
4.063
 30
0.0
 11
5.6705
 21
4.125
 31
0.0
  0
LINE
  5
122
330
10A
100
AcDbEntity
  8
4
100
AcDbLine
 10
5.388479890102485
 20
3.975
 30
0.0
 11
5.388479890102485
 21
3.913
 31
0.0
  0
LINE
  5
123
330
10A
100
AcDbEntity
  8
4
100
AcDbLine
 10
5.357479890102485
 20
3.975
 30
0.0
 11
5.419479890102484
 21
3.975
 31
0.0
  0
LINE
  5
124
330
10A
100
AcDbEntity
  8
4
100
AcDbLine
 10
5.6705
 20
3.938
 30
0.0
 11
5.6705
 21
3.988
 31
0.0
  0
ARC
  5
125
330
10A
100
AcDbEntity
  8
4
100
AcDbCircle
 10
5.645500000000001
 20
3.938
 30
0.0
 40
0.025
100
AcDbArc
 50
180.0
 51
0.0
  0
ARC
  5
126
330
10A
100
AcDbEntity
  8
4
100
AcDbCircle
 10
3.412999999999999
 20
3.938
 30
0.0
 40
0.025
100
AcDbArc
 50
180.0
 51
0.0
  0
ARC
  5
127
330
10A
100
AcDbEntity
  8
4
100
AcDbCircle
 10
2.962
 20
3.938
 30
0.0
 40
0.025
100
AcDbArc
 50
180.0
 51
0.0
  0
ARC
  5
128
330
10A
100
AcDbEntity
  8
4
100
AcDbCircle
 10
2.787999999999999
 20
3.938
 30
0.0
 40
0.025
100
AcDbArc
 50
180.0
 51
0.0
  0
ARC
  5
129
330
10A
100
AcDbEntity
  8
4
100
AcDbCircle
 10
2.337
 20
3.938
 30
0.0
 40
0.025
100
AcDbArc
 50
180.0
 51
0.0
  0
ARC
  5
12A
330
10A
100
AcDbEntity
  8
4
100
AcDbCircle
 10
2.163
 20
3.938
 30
0.0
 40
0.025
100
AcDbArc
 50
180.0
 51
0.0
  0
ARC
  5
12B
330
10A
100
AcDbEntity
  8
4
100
AcDbCircle
 10
1.712
 20
3.938
 30
0.0
 40
0.025
100
AcDbArc
 50
180.0
 51
0.0
  0
LINE
  5
12C
330
10A
100
AcDbEntity
  8
4
100
AcDbLine
 10
3.155
 20
3.975
 30
0.0
 11
3.217
 21
3.975
 31
0.0
  0
LINE
  5
12D
330
10A
100
AcDbEntity
  8
4
100
AcDbLine
 10
3.217
 20
3.975
 30
0.0
 11
3.217
 21
3.913
 31
0.0
  0
LINE
  5
12E
330
10A
100
AcDbEntity
  8
4
100
AcDbLine
 10
3.155
 20
3.975
 30
0.0
 11
3.155
 21
3.913
 31
0.0
  0
LINE
  5
12F
330
10A
100
AcDbEntity
  8
4
100
AcDbLine
 10
1.905
 20
3.975
 30
0.0
 11
1.905
 21
3.913
 31
0.0
  0
LINE
  5
130
330
10A
100
AcDbEntity
  8
4
100
AcDbLine
 10
1.967
 20
3.975
 30
0.0
 11
1.967
 21
3.913
 31
0.0
  0
LINE
  5
131
330
10A
100
AcDbEntity
  8
4
100
AcDbLine
 10
1.905
 20
3.975
 30
0.0
 11
1.967
 21
3.975
 31
0.0
  0
LINE
  5
132
330
10A
100
AcDbEntity
  8
4
100
AcDbLine
 10
2.937
 20
4.125
 30
0.0
 11
3.437999999999999
 21
4.125
 31
0.0
  0
LINE
  5
133
330
10A
100
AcDbEntity
  8
4
100
AcDbLine
 10
2.625
 20
4.125
 30
0.0
 11
2.812999999999999
 21
4.125
 31
0.0
  0
LINE
  5
134
330
10A
100
AcDbEntity
  8
4
100
AcDbLine
 10
2.312
 20
4.125
 30
0.0
 11
2.5
 21
4.125
 31
0.0
  0
LINE
  5
135
330
10A
100
AcDbEntity
  8
4
100
AcDbLine
 10
1.687
 20
4.125
 30
0.0
 11
2.188
 21
4.125
 31
0.0
  0
LINE
  5
136
330
10A
100
AcDbEntity
  8
4
100
AcDbLine
 10
2.625
 20
4.063
 30
0.0
 11
2.812999999999999
 21
4.063
 31
0.0
  0
LINE
  5
137
330
10A
100
AcDbEntity
  8
4
100
AcDbLine
 10
2.312
 20
4.063
 30
0.0
 11
2.5
 21
4.063
 31
0.0
  0
LINE
  5
138
330
10A
100
AcDbEntity
  8
4
100
AcDbLine
 10
2.937
 20
4.063
 30
0.0
 11
3.437999999999999
 21
4.063
 31
0.0
  0
LINE
  5
139
330
10A
100
AcDbEntity
  8
4
100
AcDbLine
 10
1.687
 20
4.063
 30
0.0
 11
2.188
 21
4.063
 31
0.0
  0
INSERT
  5
13A
330
10A
100
AcDbEntity
  8
4
100
AcDbBlockReference
  2
ARRO
 10
4.8125
 20
4.5
 30
0.0
 50
270.0
  0
INSERT
  5
13B
330
10A
100
AcDbEntity
  8
4
100
AcDbBlockReference
  2
ARRO
 10
4.8125
 20
1.5
 30
0.0
 50
270.0
  0
INSERT
  5
13C
330
10A
100
AcDbEntity
  8
4
100
AcDbBlockReference
  2
ARRO
 10
4.8125
 20
1.562
 30
0.0
 50
90.0
  0
LINE
  5
13D
330
10A
100
AcDbEntity
  8
4
100
AcDbLine
 10
4.8125
 20
1.562
 30
0.0
 11
4.750499999999999
 21
1.562
 31
0.0
  0
LINE
  5
13E
330
10A
100
AcDbEntity
  8
4
100
AcDbLine
 10
5.0025
 20
1.562
 30
0.0
 11
4.8125
 21
1.562
 31
0.0
  0
LINE
  5
13F
330
10A
100
AcDbEntity
  8
4
100
AcDbLine
 10
4.8125
 20
1.5
 30
0.0
 11
4.8125
 21
1.375
 31
0.0
  0
LINE
  5
140
330
10A
100
AcDbEntity
  8
4
100
AcDbLine
 10
4.8125
 20
4.5
 30
0.0
 11
4.8125
 21
1.562
 31
0.0
  0
INSERT
  5
141
330
10A
100
AcDbEntity
  8
8
100
AcDbBlockReference
  2
TEMP2
 10
4.8125
 20
1.562
 30
0.0
  0
ENDBLK
  5
143
330
10A
100
AcDbEntity
  8
0
100
AcDbBlockEnd
  0
BLOCK
  5
21D
330
21A
100
AcDbEntity
  8
8
100
AcDbBlockBegin
  2
TEMP3
 70
     0
 10
0.0
 20
0.0
 30
0.0
  3
TEMP3
  1

  0
TEXT
  5
21B
330
21A
100
AcDbEntity
  8
8
100
AcDbText
 10
0.03
 20
0.0619999999999998
 30
0.0
 40
0.07
  1
HANDLE & P/A
 50
90.0
  7
ROMANS
100
AcDbText
  0
TEXT
  5
21C
330
21A
100
AcDbEntity
  8
8
100
AcDbText
 10
0.03
 20
-1.33310960351371
 30
0.0
 40
0.07
  1
LOCK ESCUTCHEON
 50
90.0
  7
ROMANS
 72
     2
 11
0.03
 21
-0.3264429368470441
 31
0.0
100
AcDbText
  0
ENDBLK
  5
21E
330
21A
100
AcDbEntity
  8
8
100
AcDbBlockEnd
  0
BLOCK
  5
271
330
21F
100
AcDbEntity
  8
0
100
AcDbBlockBegin
  2
SPL2CORRIDORST60
 70
     0
 10
0.0
 20
0.0
 30
0.0
  3
SPL2CORRIDORST60
  1

  4
SPL2 CORRIDOR ST 60 INCH
  0
TEXT
  5
220
330
21F
100
AcDbEntity
  8
8
100
AcDbText
 10
1.282738095238096
 20
0.093999702150001
 30
0.0
 40
0.125
  1
SINGLE POINT 2 CORRIDOR LOCKER  -  60" SINGLE TIER
  7
ROMANS
 72
     1
 11
4.124999999999998
 21
0.093999702150001
 31
0.0
100
AcDbText
  0
LINE
  5
221
330
21F
100
AcDbEntity
  8
4
  6
HIDDEN
100
AcDbLine
 10
1.505096291929375
 20
1.598119533634368
 30
0.0
 11
1.505096291929371
 21
4.401880168515639
 31
0.0
  0
LINE
  5
222
330
21F
100
AcDbEntity
  8
4
  6
HIDDEN
100
AcDbLine
 10
1.379609943018854
 20
1.59811953363437
 30
0.0
 11
1.379609943018853
 21
4.40188016851563
 31
0.0
  0
LINE
  5
223
330
21F
100
AcDbEntity
  8
4
  6
HIDDEN
100
AcDbLine
 10
1.401970247831352
 20
1.59811953363437
 30
0.0
 11
1.401970247831352
 21
4.40188016851563
 31
0.0
  0
LINE
  5
224
330
21F
100
AcDbEntity
  8
4
  6
HIDDEN
100
AcDbLine
 10
1.482735987116873
 20
1.598119533634367
 30
0.0
 11
1.482735987116873
 21
4.401880168515635
 31
0.0
  0
LINE
  5
225
330
21F
100
AcDbEntity
  8
4
100
AcDbLine
 10
1.530999999999997
 20
1.594
 30
0.0
 11
1.530999999999999
 21
4.405999702150001
 31
0.0
  0
LINE
  5
226
330
21F
100
AcDbEntity
  8
4
100
AcDbLine
 10
1.093999999999999
 20
4.405999702150001
 30
0.0
 11
1.093999999999999
 21
1.594
 31
0.0
  0
INSERT
  5
227
330
21F
100
AcDbEntity
  8
8
100
AcDbBlockReference
  2
TEMP3
 10
0.5859118825233148
 20
3.190678671058805
 30
0.0
  0
POINT
  5
228
330
21F
100
AcDbEntity
  8
4
100
AcDbPoint
 10
0.0
 20
0.0
 30
0.0
  0
LINE
  5
229
330
21F
100
AcDbEntity
  8
4
100
AcDbLine
 10
1.093999999999999
 20
1.594
 30
0.0
 11
1.530999999999997
 21
1.594
 31
0.0
  0
LINE
  5
22A
330
21F
100
AcDbEntity
  8
4
100
AcDbLine
 10
1.524075356054686
 20
1.913442638380471
 30
0.0
 11
1.524075356054686
 21
1.832235450294533
 31
0.0
  0
LINE
  5
22B
330
21F
100
AcDbEntity
  8
4
  6
HIDDEN
100
AcDbLine
 10
1.505096291929375
 20
1.598119533634368
 30
0.0
 11
1.379609943018854
 21
1.59811953363437
 31
0.0
  0
LINE
  5
22C
330
21F
100
AcDbEntity
  8
4
100
AcDbLine
 10
1.545252029733181
 20
1.871268283285467
 30
0.0
 11
1.514002514605677
 21
1.871268283285467
 31
0.0
  0
LINE
  5
22D
330
21F
100
AcDbEntity
  8
4
100
AcDbLine
 10
1.524075356054686
 20
1.832235450294533
 30
0.0
 11
1.530999999999999
 21
1.832235450294533
 31
0.0
  0
LINE
  5
22E
330
21F
100
AcDbEntity
  8
4
100
AcDbLine
 10
1.530999999999999
 20
1.913442638380471
 30
0.0
 11
1.524075356054686
 21
1.913442638380471
 31
0.0
  0
INSERT
  5
22F
330
21F
100
AcDbEntity
  8
4
100
AcDbBlockReference
  2
ARRO
 10
0.9609118825233146
 20
3.128678671058805
 30
0.0
 50
179.9999999999998
  0
LINE
  5
230
330
21F
100
AcDbEntity
  8
4
100
AcDbLine
 10
0.9609118825233146
 20
3.128678671058805
 30
0.0
 11
0.5859118825233148
 21
3.128678671058805
 31
0.0
  0
INSERT
  5
231
330
21F
100
AcDbEntity
  8
4
100
AcDbBlockReference
  2
ARRO
 10
0.9609118825233146
 20
2.988235734211761
 30
0.0
 50
179.9999999999998
  0
LINE
  5
232
330
21F
100
AcDbEntity
  8
4
100
AcDbLine
 10
0.9609118825233146
 20
2.988235734211761
 30
0.0
 11
0.5859118825233148
 21
2.988235734211761
 31
0.0
  0
LINE
  5
233
330
21F
100
AcDbEntity
  8
4
100
AcDbLine
 10
0.5859118825233148
 20
2.988235734211761
 30
0.0
 11
0.5859118825233148
 21
2.926235734211761
 31
0.0
  0
LINE
  5
234
330
21F
100
AcDbEntity
  8
4
100
AcDbLine
 10
0.5859118825233148
 20
3.128678671058805
 30
0.0
 11
0.5859118825233148
 21
3.190678671058805
 31
0.0
  0
LINE
  5
235
330
21F
100
AcDbEntity
  8
4
100
AcDbLine
 10
1.524075356054686
 20
3.041530088380466
 30
0.0
 11
1.524075356054686
 21
2.960322900294529
 31
0.0
  0
LINE
  5
236
330
21F
100
AcDbEntity
  8
4
100
AcDbLine
 10
1.256965353362984
 20
3.075229116699192
 30
0.0
 11
1.2484556689513
 21
2.939093134786691
 31
0.0
  0
LINE
  5
237
330
21F
100
AcDbEntity
  8
4
100
AcDbLine
 10
1.272693392229238
 20
3.084673038915582
 30
0.0
 11
1.262242462655806
 21
2.917458165740688
 31
0.0
  0
LINE
  5
238
330
21F
100
AcDbEntity
  8
4
100
AcDbLine
 10
1.119888572418262
 20
3.075229116699192
 30
0.0
 11
1.128398256829948
 21
2.939074166112228
 31
0.0
  0
LINE
  5
239
330
21F
100
AcDbEntity
  8
4
100
AcDbLine
 10
1.10416053355201
 20
3.084673038915582
 30
0.0
 11
1.114611463125444
 21
2.917458165740688
 31
0.0
  0
ARC
  5
23A
330
21F
100
AcDbEntity
  8
4
100
AcDbCircle
 10
1.140999523787004
 20
2.919107419532032
 30
0.0
 40
0.026439549609375
100
AcDbArc
 50
183.5763343749982
 51
270.0
  0
ARC
  5
23B
330
21F
100
AcDbEntity
  8
4
100
AcDbCircle
 10
1.228350479875823
 20
2.940349709103911
 30
0.0
 40
0.02014441875
100
AcDbArc
 50
270.0
 51
356.4236656250018
  0
ARC
  5
23C
330
21F
100
AcDbEntity
  8
4
100
AcDbCircle
 10
1.235854401994244
 20
2.919107419532032
 30
0.0
 40
0.026439549609375
100
AcDbArc
 50
270.0
 51
356.4236656250018
  0
CIRCLE
  5
23D
330
21F
100
AcDbEntity
  8
4
100
AcDbCircle
 10
1.188426962890624
 20
2.955019882058596
 30
0.0
 40
0.0043914832875
  0
LINE
  5
23E
330
21F
100
AcDbEntity
  8
4
100
AcDbLine
 10
1.188426962890624
 20
2.920205290353907
 30
0.0
 11
1.228350479875823
 21
2.92020529035391
 31
0.0
  0
ARC
  5
23F
330
21F
100
AcDbEntity
  8
4
100
AcDbCircle
 10
1.148503445905424
 20
2.940349709103911
 30
0.0
 40
0.02014441875
100
AcDbArc
 50
183.5763343749982
 51
270.0
  0
LINE
  5
240
330
21F
100
AcDbEntity
  8
4
100
AcDbLine
 10
1.188426962890624
 20
2.920205290353907
 30
0.0
 11
1.148503445905424
 21
2.92020529035391
 31
0.0
  0
CIRCLE
  5
241
330
21F
100
AcDbEntity
  8
4
100
AcDbCircle
 10
1.188426962890624
 20
2.903999105469536
 30
0.0
 40
0.00724796186625
  0
LINE
  5
242
330
21F
100
AcDbEntity
  8
4
100
AcDbLine
 10
1.188426962890624
 20
2.892667869922657
 30
0.0
 11
1.235854401994244
 21
2.892667869922657
 31
0.0
  0
LINE
  5
243
330
21F
100
AcDbEntity
  8
4
100
AcDbLine
 10
1.188426962890624
 20
2.892667869922657
 30
0.0
 11
1.140999523787004
 21
2.892667869922657
 31
0.0
  0
LINE
  5
244
330
21F
100
AcDbEntity
  8
4
100
AcDbLine
 10
1.524075356054686
 20
2.960322900294529
 30
0.0
 11
1.530999999999999
 21
2.960322900294529
 31
0.0
  0
ARC
  5
245
330
21F
100
AcDbEntity
  8
4
100
AcDbCircle
 10
1.134318317165226
 20
3.086557900391407
 30
0.0
 40
0.030216628125
100
AcDbArc
 50
90.0
 51
183.5763343749982
  0
ARC
  5
246
330
21F
100
AcDbEntity
  8
4
100
AcDbCircle
 10
1.139993761493738
 20
3.076485691016407
 30
0.0
 40
0.02014441875
100
AcDbArc
 50
90.0
 51
183.5763343749982
  0
LINE
  5
247
330
21F
100
AcDbEntity
  8
4
100
AcDbLine
 10
1.188426962890624
 20
3.116774528516407
 30
0.0
 11
1.242535608616022
 21
3.116774528516407
 31
0.0
  0
ARC
  5
248
330
21F
100
AcDbEntity
  8
4
100
AcDbCircle
 10
1.236860164287508
 20
3.076485691016407
 30
0.0
 40
0.02014441875
100
AcDbArc
 50
356.4236656250018
 51
90.0
  0
LINE
  5
249
330
21F
100
AcDbEntity
  8
4
100
AcDbLine
 10
1.188426962890624
 20
3.096630109766407
 30
0.0
 11
1.236860164287508
 21
3.096630109766407
 31
0.0
  0
LINE
  5
24A
330
21F
100
AcDbEntity
  8
4
100
AcDbLine
 10
1.188426962890624
 20
3.096630109766407
 30
0.0
 11
1.139993761493738
 21
3.096630109766407
 31
0.0
  0
LINE
  5
24B
330
21F
100
AcDbEntity
  8
4
100
AcDbLine
 10
1.188426962890624
 20
3.116774528516407
 30
0.0
 11
1.134318317165226
 21
3.116774528516407
 31
0.0
  0
CIRCLE
  5
24C
330
21F
100
AcDbEntity
  8
4
100
AcDbCircle
 10
1.188426962890624
 20
2.999055581446095
 30
0.0
 40
0.0132197748046875
  0
LINE
  5
24D
330
21F
100
AcDbEntity
  8
4
100
AcDbLine
 10
1.161579655432853
 20
3.052949735147537
 30
0.0
 11
1.165140719208148
 21
3.056510798922834
 31
0.0
  0
CIRCLE
  5
24E
330
21F
100
AcDbEntity
  8
4
100
AcDbCircle
 10
1.188426962890624
 20
3.043091280833598
 30
0.0
 40
0.0043914832875
  0
LINE
  5
24F
330
21F
100
AcDbEntity
  8
4
100
AcDbLine
 10
1.159784879290102
 20
3.061866638840881
 30
0.0
 11
1.156223815514807
 21
3.058305575065584
 31
0.0
  0
LINE
  5
250
330
21F
100
AcDbEntity
  8
4
100
AcDbLine
 10
1.147363888841868
 20
3.074287629289117
 30
0.0
 11
1.143802825066571
 21
3.070726565513821
 31
0.0
  0
LINE
  5
251
330
21F
100
AcDbEntity
  8
4
100
AcDbLine
 10
1.142008048923822
 20
3.07964346920716
 30
0.0
 11
1.138446985148525
 21
3.076082405431863
 31
0.0
  0
ARC
  5
252
330
21F
100
AcDbEntity
  8
4
 62
   130
100
AcDbCircle
 10
1.141082202752331
 20
3.07697832546384
 30
0.0
 40
0.00628505865
100
AcDbArc
 50
45.0
 51
225.0
  0
LINE
  5
253
330
21F
100
AcDbEntity
  8
4
 62
   130
100
AcDbLine
 10
1.136637995160759
 20
3.072534117872272
 30
0.0
 11
1.158031367873262
 21
3.051140745159768
 31
0.0
  0
LINE
  5
254
330
21F
100
AcDbEntity
  8
4
100
AcDbLine
 10
1.138446985148525
 20
3.076082405431863
 30
0.0
 11
1.161579655432853
 21
3.052949735147537
 31
0.0
  0
ARC
  5
255
330
21F
100
AcDbEntity
  8
4
 62
   130
100
AcDbCircle
 10
1.162475575464832
 20
3.055584952751342
 30
0.0
 40
0.00628505865
100
AcDbArc
 50
225.0
 51
45.0
  0
LINE
  5
256
330
21F
100
AcDbEntity
  8
4
 62
   130
100
AcDbLine
 10
1.1455264103439
 20
3.081422533055409
 30
0.0
 11
1.166919783056402
 21
3.06002916034291
 31
0.0
  0
LINE
  5
257
330
21F
100
AcDbEntity
  8
4
100
AcDbLine
 10
1.142008048923822
 20
3.07964346920716
 30
0.0
 11
1.165140719208148
 21
3.056510798922834
 31
0.0
  0
ARC
  5
258
330
21F
100
AcDbEntity
  8
4
100
AcDbCircle
 10
1.242535608616022
 20
3.086557900391407
 30
0.0
 40
0.030216628125
100
AcDbArc
 50
356.4236656250018
 51
90.0
  0
LINE
  5
259
330
21F
100
AcDbEntity
  8
4
100
AcDbLine
 10
1.524075356054686
 20
3.041530088380466
 30
0.0
 11
1.530999999999999
 21
3.041530088380466
 31
0.0
  0
LINE
  5
25A
330
21F
100
AcDbEntity
  8
4
100
AcDbLine
 10
1.540082937005325
 20
2.999355733285472
 30
0.0
 11
1.51619403904319
 21
2.999355733285472
 31
0.0
  0
ARC
  5
25B
330
21F
100
AcDbEntity
  8
4
100
AcDbCircle
 10
1.253896323828124
 20
4.360674759962501
 30
0.0
 40
0.081836701171875
100
AcDbArc
 50
347.5762104955836
 51
12.42378950441644
  0
ARC
  5
25C
330
21F
100
AcDbEntity
  8
4
100
AcDbCircle
 10
1.329437894140623
 20
4.360674759962501
 30
0.0
 40
0.081836701171875
100
AcDbArc
 50
167.5762104955835
 51
192.4237895044164
  0
CIRCLE
  5
25D
330
21F
100
AcDbEntity
  8
4
100
AcDbCircle
 10
1.329437894140623
 20
4.360674759962501
 30
0.0
 40
0.00273964095
  0
CIRCLE
  5
25E
330
21F
100
AcDbEntity
  8
4
100
AcDbCircle
 10
1.253896323828124
 20
4.360674759962501
 30
0.0
 40
0.00273964095
  0
ARC
  5
25F
330
21F
100
AcDbEntity
  8
4
100
AcDbCircle
 10
1.291667108984374
 20
4.621922690626565
 30
0.0
 40
0.2820218625
100
AcDbArc
 50
261.40466153832
 51
278.5953384616799
  0
LINE
  5
260
330
21F
100
AcDbEntity
  8
4
100
AcDbLine
 10
1.530999999999999
 20
4.169617538380474
 30
0.0
 11
1.524075356054686
 21
4.169617538380474
 31
0.0
  0
LINE
  5
261
330
21F
100
AcDbEntity
  8
4
100
AcDbLine
 10
1.524075356054686
 20
4.088410350294537
 30
0.0
 11
1.530999999999999
 21
4.088410350294537
 31
0.0
  0
LINE
  5
262
330
21F
100
AcDbEntity
  8
4
100
AcDbLine
 10
1.536796232891435
 20
4.127443183285473
 30
0.0
 11
1.515656934967861
 21
4.127443183285473
 31
0.0
  0
LINE
  5
263
330
21F
100
AcDbEntity
  8
4
100
AcDbLine
 10
1.524075356054686
 20
4.169617538380474
 30
0.0
 11
1.524075356054686
 21
4.088410350294537
 31
0.0
  0
LINE
  5
264
330
21F
100
AcDbEntity
  8
4
100
AcDbLine
 10
1.530999999999999
 20
4.405999702150001
 30
0.0
 11
1.093999999999999
 21
4.405999702150001
 31
0.0
  0
ARC
  5
265
330
21F
100
AcDbEntity
  8
4
100
AcDbCircle
 10
1.291667108984374
 20
4.099426829298439
 30
0.0
 40
0.2820218625
100
AcDbArc
 50
81.40466153831994
 51
98.5953384616797
  0
LINE
  5
266
330
21F
100
AcDbEntity
  8
4
  6
HIDDEN
100
AcDbLine
 10
1.505096291929371
 20
4.401880168515639
 30
0.0
 11
1.379609943018853
 21
4.40188016851563
 31
0.0
  0
LINE
  5
267
330
21F
100
AcDbEntity
  8
4
100
AcDbLine
 10
7.624500000000001
 20
4.405999702150001
 30
0.0
 11
7.624500000000001
 21
1.593999702150001
 31
0.0
  0
LINE
  5
268
330
21F
100
AcDbEntity
  8
4
100
AcDbLine
 10
5.065499999999998
 20
4.405999702150001
 30
0.0
 11
5.065499999999998
 21
1.593999702150001
 31
0.0
  0
LINE
  5
269
330
21F
100
AcDbEntity
  8
4
100
AcDbLine
 10
6.375499999999998
 20
4.405999702150001
 30
0.0
 11
6.375499999999998
 21
1.593999702150001
 31
0.0
  0
MTEXT
  5
26A
330
21F
100
AcDbEntity
  8
8
100
AcDbMText
 10
4.449517330910703
 20
2.310824825506271
 30
0.0
 40
0.1
 41
0.3094
 71
     5
 72
     5
  1
60
 11
0.0000000000000001
 21
1.0
 31
0.0
 73
     1
 44
1.0
1001
ACAD
1000
MTEXTBEGIN
1070
    73
1070
     1
1070
    44
1040
1.0
1070
    74
1070
     0
1000
MTEXTEND
  0
LINE
  5
26B
330
21F
100
AcDbEntity
  8
4
100
AcDbLine
 10
5.065499999999998
 20
1.593999702150001
 30
0.0
 11
5.127499999999999
 21
1.593999702150001
 31
0.0
  0
LINE
  5
26C
330
21F
100
AcDbEntity
  8
4
100
AcDbLine
 10
6.375499999999998
 20
1.593999702150001
 30
0.0
 11
6.4375
 21
1.593999702150001
 31
0.0
  0
LINE
  5
26D
330
21F
100
AcDbEntity
  8
4
100
AcDbLine
 10
7.624500000000001
 20
1.593999702150001
 30
0.0
 11
7.5625
 21
1.593999702150001
 31
0.0
  0
LINE
  5
26E
330
21F
100
AcDbEntity
  8
4
100
AcDbLine
 10
5.065499999999998
 20
4.405999702150001
 30
0.0
 11
5.127499999999997
 21
4.405999702150001
 31
0.0
  0
LINE
  5
26F
330
21F
100
AcDbEntity
  8
4
100
AcDbLine
 10
6.375499999999998
 20
4.405999702150001
 30
0.0
 11
6.4375
 21
4.405999702150001
 31
0.0
  0
LINE
  5
270
330
21F
100
AcDbEntity
  8
4
100
AcDbLine
 10
7.624500000000001
 20
4.405999702150001
 30
0.0
 11
7.5625
 21
4.405999702150001
 31
0.0
  0
ENDBLK
  5
272
330
21F
100
AcDbEntity
  8
0
100
AcDbBlockEnd
  0
BLOCK
  5
276
330
274
100
AcDbEntity
  8
0
100
AcDbBlockBegin
  2
LE1213
 70
     0
 10
0.0
 20
0.0
 30
0.0
  3
LE1213
  1

  0
INSERT
  5
275
330
274
100
AcDbEntity
  8
4
100
AcDbBlockReference
  2
SPL2CORRIDORST60
 10
0.0
 20
0.0
 30
0.0
  0
ENDBLK
  5
277
330
274
100
AcDbEntity
  8
0
100
AcDbBlockEnd
  0
ENDSEC
  0
SECTION
  2
ENTITIES
  0
TEXT
  5
285
330
1F
100
AcDbEntity
  8
8
100
AcDbText
 10
6.819771273316527
 20
3.4006301682143
 30
0.0
 40
0.07
  1
DEPTH
  7
ROMANS
 72
     1
 11
6.984771273316527
 21
3.4006301682143
 31
0.0
100
AcDbText
  0
TEXT
  5
286
330
1F
100
AcDbEntity
  8
8
100
AcDbText
 10
8.442271273316528
 20
3.4006301682143
 30
0.0
 40
0.07
  1
DEPTH
  7
ROMANS
 72
     1
 11
8.607271273316527
 21
3.4006301682143
 31
0.0
100
AcDbText
  0
TEXT
  5
287
330
1F
100
AcDbEntity
  8
8
100
AcDbText
 10
7.885109760390071
 20
2.455570463396424
 30
0.0
 40
0.1
  1
SR BACK TO BACK
  7
ROMANS
 72
     1
 11
8.608919284199595
 21
2.455570463396424
 31
0.0
100
AcDbText
  0
TEXT
  5
288
330
1F
100
AcDbEntity
  8
8
100
AcDbText
 10
7.401660597874907
 20
2.270969456571115
 30
0.0
 40
0.1
  1
SECTIONS
  7
ROMANS
 72
     1
 11
7.754041550255859
 21
2.270969456571115
 31
0.0
100
AcDbText
  0
TEXT
  5
289
330
1F
100
AcDbEntity
  8
8
100
AcDbText
 10
6.909324436443484
 20
2.455570463396424
 30
0.0
 40
0.1
  1
SR
  7
ROMANS
 72
     1
 11
7.006943484062531
 21
2.455570463396424
 31
0.0
100
AcDbText
  0
LINE
  5
28A
330
1F
100
AcDbEntity
  8
4
100
AcDbLine
 10
7.235271273316527
 20
5.958969456571114
 30
0.0
 11
7.499002875981931
 21
5.958969456571114
 31
0.0
  0
LINE
  5
28B
330
1F
100
AcDbEntity
  8
4
100
AcDbLine
 10
7.539430085654357
 20
5.958969456571114
 30
0.0
 11
7.7198938824783
 21
5.958969456571114
 31
0.0
  0
INSERT
  5
28C
330
1F
100
AcDbEntity
  8
4
100
AcDbBlockReference
  2
ARRO
 10
7.539430085654357
 20
5.958969456571114
 30
0.0
  0
LINE
  5
28D
330
1F
100
AcDbEntity
  8
4
100
AcDbLine
 10
7.7198938824783
 20
5.958969456571114
 30
0.0
 11
7.7198938824783
 21
5.755981786780602
 31
0.0
  0
TEXT
  5
28E
330
1F
100
AcDbEntity
  8
8
100
AcDbText
 10
7.754893882478301
 20
4.380648453447268
 30
0.0
 40
0.07
  1
ANCHORING BY ERECTOR
 50
90.0
  7
ROMANS
 72
     2
 11
7.754893882478301
 21
5.693981786780602
 31
0.0
100
AcDbText
  0
TEXT
  5
28F
330
1F
100
AcDbEntity
  8
8
100
AcDbText
 10
6.107771273316527
 20
4.287302789904448
 30
0.0
 40
0.07
  1
LOCKER HEIGHT
 50
90.0
  7
ROMANS
 72
     1
 11
6.107771273316527
 21
4.708969456571114
 31
0.0
100
AcDbText
  0
TEXT
  5
290
330
1F
100
AcDbEntity
  8
8
100
AcDbText
 10
2.952271273316526
 20
2.770969456571115
 30
0.0
 40
0.07
  1
LOCKER WIDTH - SEE SCHEDULE
  7
ROMANS
 72
     1
 11
3.857271273316527
 21
2.770969456571115
 31
0.0
100
AcDbText
  0
TEXT
  5
291
330
1F
100
AcDbEntity
  8
8
100
AcDbText
 10
3.192985559030812
 20
2.270969456571115
 30
0.0
 40
0.1
  1
FRONT ELEVATION
  7
ROMANS
 72
     1
 11
3.857271273316527
 21
2.270969456571115
 31
0.0
100
AcDbText
  0
LINE
  5
292
330
1F
100
AcDbEntity
  8
1
100
AcDbLine
 10
6.810771273316526
 20
3.271469456571114
 30
0.0
 11
6.795771273316526
 21
3.256469456571114
 31
0.0
  0
LINE
  5
293
330
1F
100
AcDbEntity
  8
1
100
AcDbLine
 10
6.795771273316526
 20
3.256469456571114
 30
0.0
 11
6.697771273316527
 21
3.256469456571114
 31
0.0
  0
LINE
  5
294
330
1F
100
AcDbEntity
  8
1
100
AcDbLine
 10
6.697771273316527
 20
3.256469456571114
 30
0.0
 11
6.697771273316527
 21
3.228223314133554
 31
0.0
  0
LINE
  5
295
330
1F
100
AcDbEntity
  8
1
100
AcDbLine
 10
6.872771273316526
 20
3.209469456571114
 30
0.0
 11
6.810771273316526
 21
3.271469456571114
 31
0.0
  0
LINE
  5
296
330
1F
100
AcDbEntity
  8
1
100
AcDbLine
 10
7.237771273316527
 20
3.209469456571114
 30
0.0
 11
6.872771273316526
 21
3.209469456571114
 31
0.0
  0
LINE
  5
297
330
1F
100
AcDbEntity
  8
1
100
AcDbLine
 10
7.237771273316527
 20
3.271469456571114
 30
0.0
 11
7.237771273316527
 21
3.209469456571114
 31
0.0
  0
LINE
  5
298
330
1F
100
AcDbEntity
  8
1
100
AcDbLine
 10
7.277771273316527
 20
3.271469456571114
 30
0.0
 11
7.277771273316527
 21
3.209469456571114
 31
0.0
  0
LINE
  5
299
330
1F
100
AcDbEntity
  8
1
100
AcDbLine
 10
6.672771273316526
 20
3.271469456571114
 30
0.0
 11
6.780771273316526
 21
3.271469456571114
 31
0.0
  0
LINE
  5
29A
330
1F
100
AcDbEntity
  8
1
100
AcDbLine
 10
6.672771273316526
 20
3.209469456571114
 30
0.0
 11
6.672771273316526
 21
3.271469456571114
 31
0.0
  0
LINE
  5
29B
330
1F
100
AcDbEntity
  8
1
100
AcDbLine
 10
6.734771273316527
 20
3.209469456571114
 30
0.0
 11
6.672771273316526
 21
3.209469456571114
 31
0.0
  0
LINE
  5
29C
330
1F
100
AcDbEntity
  8
1
100
AcDbLine
 10
6.810771273316526
 20
3.271469456571114
 30
0.0
 11
7.277771273316527
 21
3.271469456571114
 31
0.0
  0
LINE
  5
29D
330
1F
100
AcDbEntity
  8
1
100
AcDbLine
 10
8.120771273316526
 20
3.271469456571114
 30
0.0
 11
8.587771273316526
 21
3.271469456571114
 31
0.0
  0
LINE
  5
29E
330
1F
100
AcDbEntity
  8
1
100
AcDbLine
 10
8.044771273316527
 20
3.209469456571114
 30
0.0
 11
7.982771273316526
 21
3.209469456571114
 31
0.0
  0
LINE
  5
29F
330
1F
100
AcDbEntity
  8
1
100
AcDbLine
 10
7.982771273316526
 20
3.209469456571114
 30
0.0
 11
7.982771273316526
 21
3.271469456571114
 31
0.0
  0
LINE
  5
2A0
330
1F
100
AcDbEntity
  8
1
100
AcDbLine
 10
7.982771273316526
 20
3.271469456571114
 30
0.0
 11
8.090771273316526
 21
3.271469456571114
 31
0.0
  0
LINE
  5
2A1
330
1F
100
AcDbEntity
  8
1
100
AcDbLine
 10
8.587771273316526
 20
3.271469456571114
 30
0.0
 11
8.587771273316526
 21
3.209469456571114
 31
0.0
  0
LINE
  5
2A2
330
1F
100
AcDbEntity
  8
1
100
AcDbLine
 10
8.547771273316527
 20
3.271469456571114
 30
0.0
 11
8.547771273316527
 21
3.209469456571114
 31
0.0
  0
LINE
  5
2A3
330
1F
100
AcDbEntity
  8
1
100
AcDbLine
 10
8.547771273316527
 20
3.209469456571114
 30
0.0
 11
8.182771273316525
 21
3.209469456571114
 31
0.0
  0
LINE
  5
2A4
330
1F
100
AcDbEntity
  8
1
100
AcDbLine
 10
8.182771273316525
 20
3.209469456571114
 30
0.0
 11
8.120771273316526
 21
3.271469456571114
 31
0.0
  0
LINE
  5
2A5
330
1F
100
AcDbEntity
  8
1
100
AcDbLine
 10
8.007771273316526
 20
3.256469456571114
 30
0.0
 11
8.007771273316526
 21
3.228223314133554
 31
0.0
  0
LINE
  5
2A6
330
1F
100
AcDbEntity
  8
1
100
AcDbLine
 10
8.105771273316527
 20
3.256469456571114
 30
0.0
 11
8.007771273316526
 21
3.256469456571114
 31
0.0
  0
LINE
  5
2A7
330
1F
100
AcDbEntity
  8
1
100
AcDbLine
 10
8.120771273316526
 20
3.271469456571114
 30
0.0
 11
8.105771273316527
 21
3.256469456571114
 31
0.0
  0
LINE
  5
2A8
330
1F
100
AcDbEntity
  8
1
100
AcDbLine
 10
9.125771273316528
 20
3.271469456571114
 30
0.0
 11
9.140771273316527
 21
3.256469456571114
 31
0.0
  0
LINE
  5
2A9
330
1F
100
AcDbEntity
  8
1
100
AcDbLine
 10
9.140771273316527
 20
3.256469456571114
 30
0.0
 11
9.238771273316528
 21
3.256469456571114
 31
0.0
  0
LINE
  5
2AA
330
1F
100
AcDbEntity
  8
1
100
AcDbLine
 10
9.238771273316528
 20
3.256469456571114
 30
0.0
 11
9.238771273316528
 21
3.228223314133554
 31
0.0
  0
LINE
  5
2AB
330
1F
100
AcDbEntity
  8
1
100
AcDbLine
 10
9.063771273316529
 20
3.209469456571114
 30
0.0
 11
9.125771273316528
 21
3.271469456571114
 31
0.0
  0
LINE
  5
2AC
330
1F
100
AcDbEntity
  8
1
100
AcDbLine
 10
8.698771273316527
 20
3.209469456571114
 30
0.0
 11
9.063771273316529
 21
3.209469456571114
 31
0.0
  0
LINE
  5
2AD
330
1F
100
AcDbEntity
  8
1
100
AcDbLine
 10
8.698771273316527
 20
3.271469456571114
 30
0.0
 11
8.698771273316527
 21
3.209469456571114
 31
0.0
  0
LINE
  5
2AE
330
1F
100
AcDbEntity
  8
1
100
AcDbLine
 10
8.658771273316528
 20
3.271469456571114
 30
0.0
 11
8.658771273316528
 21
3.209469456571114
 31
0.0
  0
LINE
  5
2AF
330
1F
100
AcDbEntity
  8
1
100
AcDbLine
 10
9.263771273316528
 20
3.271469456571114
 30
0.0
 11
9.155771273316528
 21
3.271469456571114
 31
0.0
  0
LINE
  5
2B0
330
1F
100
AcDbEntity
  8
1
100
AcDbLine
 10
9.263771273316528
 20
3.209469456571114
 30
0.0
 11
9.263771273316528
 21
3.271469456571114
 31
0.0
  0
LINE
  5
2B1
330
1F
100
AcDbEntity
  8
1
100
AcDbLine
 10
9.201771273316527
 20
3.209469456571114
 30
0.0
 11
9.263771273316528
 21
3.209469456571114
 31
0.0
  0
LINE
  5
2B2
330
1F
100
AcDbEntity
  8
1
100
AcDbLine
 10
9.125771273316528
 20
3.271469456571114
 30
0.0
 11
8.658771273316528
 21
3.271469456571114
 31
0.0
  0
LINE
  5
2B3
330
1F
100
AcDbEntity
  8
1
100
AcDbLine
 10
9.125771273316528
 20
6.208969456571114
 30
0.0
 11
8.658771273316528
 21
6.208969456571114
 31
0.0
  0
LINE
  5
2B4
330
1F
100
AcDbEntity
  8
1
100
AcDbLine
 10
9.201771273316527
 20
6.146969456571114
 30
0.0
 11
9.263771273316528
 21
6.146969456571114
 31
0.0
  0
LINE
  5
2B5
330
1F
100
AcDbEntity
  8
1
100
AcDbLine
 10
9.263771273316528
 20
6.146969456571114
 30
0.0
 11
9.263771273316528
 21
6.208969456571114
 31
0.0
  0
LINE
  5
2B6
330
1F
100
AcDbEntity
  8
1
100
AcDbLine
 10
9.263771273316528
 20
6.208969456571114
 30
0.0
 11
9.155771273316528
 21
6.208969456571114
 31
0.0
  0
LINE
  5
2B7
330
1F
100
AcDbEntity
  8
1
100
AcDbLine
 10
8.658771273316528
 20
6.208969456571114
 30
0.0
 11
8.658771273316528
 21
6.146969456571114
 31
0.0
  0
LINE
  5
2B8
330
1F
100
AcDbEntity
  8
1
100
AcDbLine
 10
8.698771273316527
 20
6.208969456571114
 30
0.0
 11
8.698771273316527
 21
6.146969456571114
 31
0.0
  0
LINE
  5
2B9
330
1F
100
AcDbEntity
  8
1
100
AcDbLine
 10
8.698771273316527
 20
6.146969456571114
 30
0.0
 11
9.063771273316529
 21
6.146969456571114
 31
0.0
  0
LINE
  5
2BA
330
1F
100
AcDbEntity
  8
1
100
AcDbLine
 10
9.063771273316529
 20
6.146969456571114
 30
0.0
 11
9.125771273316528
 21
6.208969456571114
 31
0.0
  0
LINE
  5
2BB
330
1F
100
AcDbEntity
  8
1
100
AcDbLine
 10
9.238771273316528
 20
6.193969456571114
 30
0.0
 11
9.238771273316528
 21
6.165723314133554
 31
0.0
  0
LINE
  5
2BC
330
1F
100
AcDbEntity
  8
1
100
AcDbLine
 10
9.140771273316527
 20
6.193969456571114
 30
0.0
 11
9.238771273316528
 21
6.193969456571114
 31
0.0
  0
LINE
  5
2BD
330
1F
100
AcDbEntity
  8
1
100
AcDbLine
 10
9.125771273316528
 20
6.208969456571114
 30
0.0
 11
9.140771273316527
 21
6.193969456571114
 31
0.0
  0
LINE
  5
2BE
330
1F
100
AcDbEntity
  8
1
100
AcDbLine
 10
8.120771273316526
 20
6.208969456571114
 30
0.0
 11
8.105771273316527
 21
6.193969456571114
 31
0.0
  0
LINE
  5
2BF
330
1F
100
AcDbEntity
  8
1
100
AcDbLine
 10
8.105771273316527
 20
6.193969456571114
 30
0.0
 11
8.007771273316526
 21
6.193969456571114
 31
0.0
  0
LINE
  5
2C0
330
1F
100
AcDbEntity
  8
1
100
AcDbLine
 10
8.007771273316526
 20
6.193969456571114
 30
0.0
 11
8.007771273316526
 21
6.165723314133554
 31
0.0
  0
LINE
  5
2C1
330
1F
100
AcDbEntity
  8
1
100
AcDbLine
 10
8.182771273316525
 20
6.146969456571114
 30
0.0
 11
8.120771273316526
 21
6.208969456571114
 31
0.0
  0
LINE
  5
2C2
330
1F
100
AcDbEntity
  8
1
100
AcDbLine
 10
8.547771273316527
 20
6.146969456571114
 30
0.0
 11
8.182771273316525
 21
6.146969456571114
 31
0.0
  0
LINE
  5
2C3
330
1F
100
AcDbEntity
  8
1
100
AcDbLine
 10
8.547771273316527
 20
6.208969456571114
 30
0.0
 11
8.547771273316527
 21
6.146969456571114
 31
0.0
  0
LINE
  5
2C4
330
1F
100
AcDbEntity
  8
1
100
AcDbLine
 10
8.587771273316526
 20
6.208969456571114
 30
0.0
 11
8.587771273316526
 21
6.146969456571114
 31
0.0
  0
LINE
  5
2C5
330
1F
100
AcDbEntity
  8
1
100
AcDbLine
 10
7.982771273316526
 20
6.208969456571114
 30
0.0
 11
8.090771273316526
 21
6.208969456571114
 31
0.0
  0
LINE
  5
2C6
330
1F
100
AcDbEntity
  8
1
100
AcDbLine
 10
7.982771273316526
 20
6.146969456571114
 30
0.0
 11
7.982771273316526
 21
6.208969456571114
 31
0.0
  0
LINE
  5
2C7
330
1F
100
AcDbEntity
  8
1
100
AcDbLine
 10
8.044771273316527
 20
6.146969456571114
 30
0.0
 11
7.982771273316526
 21
6.146969456571114
 31
0.0
  0
LINE
  5
2C8
330
1F
100
AcDbEntity
  8
1
100
AcDbLine
 10
8.120771273316526
 20
6.208969456571114
 30
0.0
 11
8.587771273316526
 21
6.208969456571114
 31
0.0
  0
LINE
  5
2C9
330
1F
100
AcDbEntity
  8
1
100
AcDbLine
 10
6.810771273316526
 20
6.208969456571114
 30
0.0
 11
7.277771273316527
 21
6.208969456571114
 31
0.0
  0
LINE
  5
2CA
330
1F
100
AcDbEntity
  8
1
100
AcDbLine
 10
6.734771273316527
 20
6.146969456571114
 30
0.0
 11
6.672771273316526
 21
6.146969456571114
 31
0.0
  0
LINE
  5
2CB
330
1F
100
AcDbEntity
  8
1
100
AcDbLine
 10
6.672771273316526
 20
6.146969456571114
 30
0.0
 11
6.672771273316526
 21
6.208969456571114
 31
0.0
  0
LINE
  5
2CC
330
1F
100
AcDbEntity
  8
1
100
AcDbLine
 10
6.672771273316526
 20
6.208969456571114
 30
0.0
 11
6.780771273316526
 21
6.208969456571114
 31
0.0
  0
LINE
  5
2CD
330
1F
100
AcDbEntity
  8
1
100
AcDbLine
 10
7.277771273316527
 20
6.208969456571114
 30
0.0
 11
7.277771273316527
 21
6.146969456571114
 31
0.0
  0
LINE
  5
2CE
330
1F
100
AcDbEntity
  8
1
100
AcDbLine
 10
7.237771273316527
 20
6.208969456571114
 30
0.0
 11
7.237771273316527
 21
6.146969456571114
 31
0.0
  0
LINE
  5
2CF
330
1F
100
AcDbEntity
  8
1
100
AcDbLine
 10
7.237771273316527
 20
6.146969456571114
 30
0.0
 11
6.872771273316526
 21
6.146969456571114
 31
0.0
  0
LINE
  5
2D0
330
1F
100
AcDbEntity
  8
1
100
AcDbLine
 10
6.872771273316526
 20
6.146969456571114
 30
0.0
 11
6.810771273316526
 21
6.208969456571114
 31
0.0
  0
LINE
  5
2D1
330
1F
100
AcDbEntity
  8
1
100
AcDbLine
 10
6.697771273316527
 20
6.193969456571114
 30
0.0
 11
6.697771273316527
 21
6.165723314133554
 31
0.0
  0
LINE
  5
2D2
330
1F
100
AcDbEntity
  8
1
100
AcDbLine
 10
6.795771273316526
 20
6.193969456571114
 30
0.0
 11
6.697771273316527
 21
6.193969456571114
 31
0.0
  0
LINE
  5
2D3
330
1F
100
AcDbEntity
  8
1
100
AcDbLine
 10
6.810771273316526
 20
6.208969456571114
 30
0.0
 11
6.795771273316526
 21
6.193969456571114
 31
0.0
  0
LINE
  5
2D4
330
1F
100
AcDbEntity
  8
1
100
AcDbLine
 10
2.669271273316527
 20
3.270969456571115
 30
0.0
 11
3.170271273316527
 21
3.270969456571115
 31
0.0
  0
LINE
  5
2D5
330
1F
100
AcDbEntity
  8
4
100
AcDbLine
 10
3.48013798362454
 20
3.082969456571114
 30
0.0
 11
3.54213798362454
 21
3.082969456571114
 31
0.0
  0
CIRCLE
  5
2D6
330
1F
100
AcDbEntity
  8
4
100
AcDbCircle
 10
3.63613798362454
 20
3.082969456571114
 30
0.0
 40
0.094
  0
LINE
  5
2D7
330
1F
100
AcDbEntity
  8
4
100
AcDbLine
 10
3.38613798362454
 20
3.176969456571114
 30
0.0
 11
3.38613798362454
 21
3.301969456571114
 31
0.0
  0
CIRCLE
  5
2D8
330
1F
100
AcDbEntity
  8
4
100
AcDbCircle
 10
3.38613798362454
 20
3.082969456571114
 30
0.0
 40
0.094
  0
CIRCLE
  5
2D9
330
1F
100
AcDbEntity
  8
4
100
AcDbCircle
 10
3.544771273316527
 20
6.020969456571115
 30
0.0
 40
0.094
  0
LINE
  5
2DA
330
1F
100
AcDbEntity
  8
4
100
AcDbLine
 10
3.544771273316527
 20
6.114969456571115
 30
0.0
 11
3.544771273316527
 21
6.239969456571115
 31
0.0
  0
LINE
  5
2DB
330
1F
100
AcDbEntity
  8
1
100
AcDbLine
 10
4.107271273316526
 20
3.270969456571115
 30
0.0
 11
3.919271273316527
 21
3.270969456571115
 31
0.0
  0
LINE
  5
2DC
330
1F
100
AcDbEntity
  8
1
100
AcDbLine
 10
4.232271273316527
 20
6.146969456571115
 30
0.0
 11
4.420271273316528
 21
6.146969456571115
 31
0.0
  0
LINE
  5
2DD
330
1F
100
AcDbEntity
  8
1
100
AcDbLine
 10
4.482271273316527
 20
3.208969456571114
 30
0.0
 11
4.482271273316527
 21
6.208969456571114
 31
0.0
  0
LINE
  5
2DE
330
1F
100
AcDbEntity
  8
1
100
AcDbLine
 10
3.857271273316527
 20
3.208969456571114
 30
0.0
 11
3.857271273316527
 21
6.208969456571114
 31
0.0
  0
LINE
  5
2DF
330
1F
100
AcDbEntity
  8
1
100
AcDbLine
 10
3.232271273316527
 20
3.208969456571114
 30
0.0
 11
3.232271273316527
 21
6.208969456571114
 31
0.0
  0
LINE
  5
2E0
330
1F
100
AcDbEntity
  8
1
100
AcDbLine
 10
5.045271273316527
 20
3.270969456571115
 30
0.0
 11
4.544271273316527
 21
3.270969456571115
 31
0.0
  0
LINE
  5
2E1
330
1F
100
AcDbEntity
  8
1
100
AcDbLine
 10
5.045271273316528
 20
6.146969456571115
 30
0.0
 11
5.045271273316527
 21
3.270969456571115
 31
0.0
  0
LINE
  5
2E2
330
1F
100
AcDbEntity
  8
1
100
AcDbLine
 10
4.544271273316527
 20
6.146969456571115
 30
0.0
 11
5.045271273316528
 21
6.146969456571115
 31
0.0
  0
LINE
  5
2E3
330
1F
100
AcDbEntity
  8
1
100
AcDbLine
 10
4.544271273316527
 20
3.270969456571115
 30
0.0
 11
4.544271273316527
 21
6.146969456571115
 31
0.0
  0
LINE
  5
2E4
330
1F
100
AcDbEntity
  8
1
100
AcDbLine
 10
4.420271273316527
 20
3.270969456571115
 30
0.0
 11
4.232271273316527
 21
3.270969456571115
 31
0.0
  0
LINE
  5
2E5
330
1F
100
AcDbEntity
  8
1
100
AcDbLine
 10
4.420271273316528
 20
6.146969456571115
 30
0.0
 11
4.420271273316527
 21
3.270969456571115
 31
0.0
  0
LINE
  5
2E6
330
1F
100
AcDbEntity
  8
1
100
AcDbLine
 10
3.919271273316527
 20
6.146969456571115
 30
0.0
 11
4.107271273316527
 21
6.146969456571115
 31
0.0
  0
LINE
  5
2E7
330
1F
100
AcDbEntity
  8
1
100
AcDbLine
 10
3.919271273316527
 20
3.270969456571115
 30
0.0
 11
3.919271273316527
 21
6.146969456571115
 31
0.0
  0
LINE
  5
2E8
330
1F
100
AcDbEntity
  8
1
100
AcDbLine
 10
3.795271273316527
 20
3.270969456571115
 30
0.0
 11
3.294271273316527
 21
3.270969456571115
 31
0.0
  0
LINE
  5
2E9
330
1F
100
AcDbEntity
  8
1
100
AcDbLine
 10
3.795271273316527
 20
6.146969456571115
 30
0.0
 11
3.795271273316527
 21
3.270969456571115
 31
0.0
  0
LINE
  5
2EA
330
1F
100
AcDbEntity
  8
1
100
AcDbLine
 10
3.294271273316527
 20
6.146969456571115
 30
0.0
 11
3.795271273316527
 21
6.146969456571115
 31
0.0
  0
LINE
  5
2EB
330
1F
100
AcDbEntity
  8
1
100
AcDbLine
 10
3.294271273316527
 20
3.270969456571115
 30
0.0
 11
3.294271273316527
 21
6.146969456571115
 31
0.0
  0
LINE
  5
2EC
330
1F
100
AcDbEntity
  8
1
100
AcDbLine
 10
3.170271273316527
 20
6.146969456571115
 30
0.0
 11
3.170271273316527
 21
3.270969456571115
 31
0.0
  0
LINE
  5
2ED
330
1F
100
AcDbEntity
  8
1
100
AcDbLine
 10
2.669271273316527
 20
6.146969456571115
 30
0.0
 11
3.170271273316527
 21
6.146969456571115
 31
0.0
  0
LINE
  5
2EE
330
1F
100
AcDbEntity
  8
1
100
AcDbLine
 10
2.669271273316527
 20
3.270969456571115
 30
0.0
 11
2.669271273316527
 21
6.146969456571115
 31
0.0
  0
INSERT
  5
2EF
330
1F
100
AcDbEntity
  8
4
100
AcDbBlockReference
  2
ARRO
 10
9.264271273316527
 20
3.521469456571114
 30
0.0
 50
180.0
  0
INSERT
  5
2F0
330
1F
100
AcDbEntity
  8
4
100
AcDbBlockReference
  2
ARRO
 10
7.982271273316527
 20
3.521469456571114
 30
0.0
  0
INSERT
  5
2F1
330
1F
100
AcDbEntity
  8
4
100
AcDbBlockReference
  2
ARRO
 10
7.357271273316527
 20
3.521469456571114
 30
0.0
  0
INSERT
  5
2F2
330
1F
100
AcDbEntity
  8
4
100
AcDbBlockReference
  2
ARRO
 10
7.297271273316527
 20
3.521469456571114
 30
0.0
 50
180.0
  0
INSERT
  5
2F3
330
1F
100
AcDbEntity
  8
4
100
AcDbBlockReference
  2
ARRO
 10
6.672271273316527
 20
3.521469456571114
 30
0.0
  0
LINE
  5
2F4
330
1F
100
AcDbEntity
  8
4
100
AcDbLine
 10
7.982271273316527
 20
3.521469456571114
 30
0.0
 11
9.264271273316527
 21
3.521469456571114
 31
0.0
  0
LINE
  5
2F5
330
1F
100
AcDbEntity
  8
4
100
AcDbLine
 10
7.357271273316527
 20
3.521469456571114
 30
0.0
 11
7.607271273316527
 21
3.521469456571114
 31
0.0
  0
LINE
  5
2F6
330
1F
100
AcDbEntity
  8
4
100
AcDbLine
 10
7.297271273316527
 20
3.521469456571114
 30
0.0
 11
6.672271273316527
 21
3.521469456571114
 31
0.0
  0
INSERT
  5
2F7
330
1F
100
AcDbEntity
  8
4
100
AcDbBlockReference
  2
ARRO
 10
6.169771273316527
 20
3.208969456571114
 30
0.0
 50
90.0
  0
INSERT
  5
2F8
330
1F
100
AcDbEntity
  8
4
100
AcDbBlockReference
  2
ARRO
 10
6.169771273316527
 20
6.208969456571114
 30
0.0
 50
270.0
  0
LINE
  5
2F9
330
1F
100
AcDbEntity
  8
4
100
AcDbLine
 10
6.609771273316527
 20
6.208969456571114
 30
0.0
 11
6.109771273316527
 21
6.208969456571114
 31
0.0
  0
LINE
  5
2FA
330
1F
100
AcDbEntity
  8
4
100
AcDbLine
 10
6.169771273316527
 20
3.208969456571114
 30
0.0
 11
6.169771273316527
 21
6.208969456571114
 31
0.0
  0
LINE
  5
2FB
330
1F
100
AcDbEntity
  8
4
100
AcDbLine
 10
6.609771273316527
 20
3.208969456571114
 30
0.0
 11
6.109771273316527
 21
3.208969456571114
 31
0.0
  0
INSERT
  5
2FC
330
1F
100
AcDbEntity
  8
4
100
AcDbBlockReference
  2
ARRO
 10
5.107271273316527
 20
2.708969456571114
 30
0.0
 50
180.0
  0
INSERT
  5
2FD
330
1F
100
AcDbEntity
  8
4
100
AcDbBlockReference
  2
ARRO
 10
2.607271273316527
 20
2.708969456571115
 30
0.0
  0
LINE
  5
2FE
330
1F
100
AcDbEntity
  8
4
100
AcDbLine
 10
5.107271273316527
 20
2.708969456571114
 30
0.0
 11
2.607271273316527
 21
2.708969456571115
 31
0.0
  0
LINE
  5
2FF
330
1F
100
AcDbEntity
  8
4
100
AcDbLine
 10
5.107271273316527
 20
3.146969456571114
 30
0.0
 11
5.107271273316527
 21
2.646969456571114
 31
0.0
  0
LINE
  5
300
330
1F
100
AcDbEntity
  8
4
100
AcDbLine
 10
2.607271273316527
 20
3.146969456571114
 30
0.0
 11
2.607271273316527
 21
2.646969456571114
 31
0.0
  0
LINE
  5
301
330
1F
100
AcDbEntity
  8
1
100
AcDbLine
 10
7.297271273316527
 20
3.208969456571114
 30
0.0
 11
7.297271273316527
 21
6.208969456571114
 31
0.0
  0
LINE
  5
302
330
1F
100
AcDbEntity
  8
1
100
AcDbLine
 10
7.357271273316527
 20
6.458969456571114
 30
0.0
 11
7.482271273316527
 21
6.583969456571114
 31
0.0
  0
LINE
  5
303
330
1F
100
AcDbEntity
  8
1
100
AcDbLine
 10
7.357271273316527
 20
6.333969456571114
 30
0.0
 11
7.545271273316527
 21
6.521969456571114
 31
0.0
  0
LINE
  5
304
330
1F
100
AcDbEntity
  8
1
100
AcDbLine
 10
7.357271273316527
 20
6.208969456571114
 30
0.0
 11
7.545271273316527
 21
6.396969456571114
 31
0.0
  0
LINE
  5
305
330
1F
100
AcDbEntity
  8
1
100
AcDbLine
 10
7.357271273316527
 20
6.083969456571114
 30
0.0
 11
7.545271273316527
 21
6.271969456571114
 31
0.0
  0
LINE
  5
306
330
1F
100
AcDbEntity
  8
1
100
AcDbLine
 10
7.357271273316527
 20
5.958969456571114
 30
0.0
 11
7.545271273316527
 21
6.146969456571114
 31
0.0
  0
LINE
  5
307
330
1F
100
AcDbEntity
  8
1
100
AcDbLine
 10
7.357271273316527
 20
5.833969456571114
 30
0.0
 11
7.545271273316527
 21
6.021969456571114
 31
0.0
  0
LINE
  5
308
330
1F
100
AcDbEntity
  8
1
100
AcDbLine
 10
7.357271273316527
 20
5.708969456571114
 30
0.0
 11
7.545271273316527
 21
5.896969456571114
 31
0.0
  0
LINE
  5
309
330
1F
100
AcDbEntity
  8
1
100
AcDbLine
 10
7.357271273316527
 20
5.583969456571114
 30
0.0
 11
7.545271273316527
 21
5.771969456571114
 31
0.0
  0
LINE
  5
30A
330
1F
100
AcDbEntity
  8
1
100
AcDbLine
 10
7.357271273316527
 20
5.458969456571114
 30
0.0
 11
7.545271273316527
 21
5.646969456571114
 31
0.0
  0
LINE
  5
30B
330
1F
100
AcDbEntity
  8
1
100
AcDbLine
 10
7.357271273316527
 20
5.333969456571114
 30
0.0
 11
7.545271273316527
 21
5.521969456571114
 31
0.0
  0
LINE
  5
30C
330
1F
100
AcDbEntity
  8
1
100
AcDbLine
 10
7.357271273316527
 20
5.208969456571114
 30
0.0
 11
7.545271273316527
 21
5.396969456571114
 31
0.0
  0
LINE
  5
30D
330
1F
100
AcDbEntity
  8
1
100
AcDbLine
 10
7.357271273316527
 20
5.083969456571114
 30
0.0
 11
7.545271273316527
 21
5.271969456571114
 31
0.0
  0
LINE
  5
30E
330
1F
100
AcDbEntity
  8
1
100
AcDbLine
 10
7.357271273316527
 20
4.958969456571114
 30
0.0
 11
7.545271273316527
 21
5.146969456571114
 31
0.0
  0
LINE
  5
30F
330
1F
100
AcDbEntity
  8
1
100
AcDbLine
 10
7.357271273316527
 20
4.833969456571114
 30
0.0
 11
7.545271273316527
 21
5.021969456571114
 31
0.0
  0
LINE
  5
310
330
1F
100
AcDbEntity
  8
1
100
AcDbLine
 10
7.357271273316527
 20
4.708969456571114
 30
0.0
 11
7.545271273316527
 21
4.896969456571114
 31
0.0
  0
LINE
  5
311
330
1F
100
AcDbEntity
  8
1
100
AcDbLine
 10
7.357271273316527
 20
4.583969456571114
 30
0.0
 11
7.545271273316527
 21
4.771969456571114
 31
0.0
  0
LINE
  5
312
330
1F
100
AcDbEntity
  8
1
100
AcDbLine
 10
7.357271273316527
 20
4.458969456571114
 30
0.0
 11
7.545271273316527
 21
4.646969456571114
 31
0.0
  0
LINE
  5
313
330
1F
100
AcDbEntity
  8
1
100
AcDbLine
 10
7.357271273316527
 20
4.333969456571114
 30
0.0
 11
7.545271273316527
 21
4.521969456571114
 31
0.0
  0
LINE
  5
314
330
1F
100
AcDbEntity
  8
1
100
AcDbLine
 10
7.357271273316527
 20
4.208969456571114
 30
0.0
 11
7.545271273316527
 21
4.396969456571114
 31
0.0
  0
LINE
  5
315
330
1F
100
AcDbEntity
  8
1
100
AcDbLine
 10
7.357271273316527
 20
4.083969456571114
 30
0.0
 11
7.545271273316527
 21
4.271969456571114
 31
0.0
  0
LINE
  5
316
330
1F
100
AcDbEntity
  8
1
100
AcDbLine
 10
7.357271273316527
 20
3.958969456571114
 30
0.0
 11
7.545271273316527
 21
4.146969456571114
 31
0.0
  0
LINE
  5
317
330
1F
100
AcDbEntity
  8
1
100
AcDbLine
 10
7.357271273316527
 20
3.833969456571114
 30
0.0
 11
7.545271273316527
 21
4.021969456571114
 31
0.0
  0
LINE
  5
318
330
1F
100
AcDbEntity
  8
1
100
AcDbLine
 10
7.357271273316527
 20
3.708969456571114
 30
0.0
 11
7.545271273316527
 21
3.896969456571114
 31
0.0
  0
LINE
  5
319
330
1F
100
AcDbEntity
  8
1
100
AcDbLine
 10
7.357271273316527
 20
3.333969456571114
 30
0.0
 11
7.545271273316527
 21
3.521969456571114
 31
0.0
  0
LINE
  5
31A
330
1F
100
AcDbEntity
  8
1
100
AcDbLine
 10
7.357271273316527
 20
3.208969456571114
 30
0.0
 11
7.545271273316527
 21
3.396969456571114
 31
0.0
  0
LINE
  5
31B
330
1F
100
AcDbEntity
  8
1
100
AcDbLine
 10
4.232271273316527
 20
4.088943635882694
 30
0.0
 11
4.232271273316527
 21
3.083969456571114
 31
0.0
  0
LINE
  5
31C
330
1F
100
AcDbEntity
  8
1
100
AcDbLine
 10
4.232271273316527
 20
4.491443635882694
 30
0.0
 11
4.232271273316527
 21
4.178943635882694
 31
0.0
  0
LINE
  5
31D
330
1F
100
AcDbEntity
  8
1
100
AcDbLine
 10
4.232271273316527
 20
5.33493716072298
 30
0.0
 11
4.232271273316527
 21
4.491443635882694
 31
0.0
  0
LINE
  5
31E
330
1F
100
AcDbEntity
  8
1
100
AcDbLine
 10
4.187271273316527
 20
5.373943635882694
 30
0.0
 11
4.277271273316527
 21
5.283943635882694
 31
0.0
  0
LINE
  5
31F
330
1F
100
AcDbEntity
  8
1
100
AcDbLine
 10
4.277271273316527
 20
5.373943635882694
 30
0.0
 11
4.187271273316527
 21
5.373943635882694
 31
0.0
  0
LINE
  5
320
330
1F
100
AcDbEntity
  8
1
100
AcDbLine
 10
4.187271273316527
 20
5.463943635882694
 30
0.0
 11
4.277271273316527
 21
5.373943635882694
 31
0.0
  0
LINE
  5
321
330
1F
100
AcDbEntity
  8
1
100
AcDbLine
 10
4.187271273316527
 20
4.133943635882694
 30
0.0
 11
4.277271273316527
 21
4.043943635882694
 31
0.0
  0
LINE
  5
322
330
1F
100
AcDbEntity
  8
1
100
AcDbLine
 10
4.277271273316527
 20
4.133943635882694
 30
0.0
 11
4.187271273316527
 21
4.133943635882694
 31
0.0
  0
LINE
  5
323
330
1F
100
AcDbEntity
  8
1
100
AcDbLine
 10
4.187271273316527
 20
4.223943635882694
 30
0.0
 11
4.277271273316527
 21
4.133943635882694
 31
0.0
  0
LINE
  5
324
330
1F
100
AcDbEntity
  8
1
100
AcDbLine
 10
4.107271273316527
 20
3.463943635882694
 30
0.0
 11
4.107271273316527
 21
3.083969456571114
 31
0.0
  0
LINE
  5
325
330
1F
100
AcDbEntity
  8
1
100
AcDbLine
 10
4.107271273316527
 20
4.178943635882694
 30
0.0
 11
4.107271273316527
 21
3.553943635882694
 31
0.0
  0
LINE
  5
326
330
1F
100
AcDbEntity
  8
1
100
AcDbLine
 10
4.107271273316527
 20
4.713943635882694
 30
0.0
 11
4.107271273316527
 21
4.178943635882694
 31
0.0
  0
LINE
  5
327
330
1F
100
AcDbEntity
  8
1
100
AcDbLine
 10
4.062271273316527
 20
3.598943635882694
 30
0.0
 11
4.152271273316527
 21
3.508943635882694
 31
0.0
  0
LINE
  5
328
330
1F
100
AcDbEntity
  8
1
100
AcDbLine
 10
4.152271273316527
 20
3.508943635882694
 30
0.0
 11
4.062271273316527
 21
3.508943635882694
 31
0.0
  0
LINE
  5
329
330
1F
100
AcDbEntity
  8
1
100
AcDbLine
 10
4.062271273316527
 20
3.508943635882694
 30
0.0
 11
4.152271273316527
 21
3.418943635882694
 31
0.0
  0
LINE
  5
32A
330
1F
100
AcDbEntity
  8
1
100
AcDbLine
 10
4.062271273316527
 20
4.848943635882694
 30
0.0
 11
4.152271273316527
 21
4.758943635882694
 31
0.0
  0
LINE
  5
32B
330
1F
100
AcDbEntity
  8
1
100
AcDbLine
 10
4.152271273316527
 20
4.758943635882694
 30
0.0
 11
4.062271273316527
 21
4.758943635882694
 31
0.0
  0
LINE
  5
32C
330
1F
100
AcDbEntity
  8
1
100
AcDbLine
 10
4.062271273316527
 20
4.758943635882694
 30
0.0
 11
4.152271273316527
 21
4.668943635882694
 31
0.0
  0
LINE
  5
32D
330
1F
100
AcDbEntity
  8
1
100
AcDbLine
 10
4.119467304143509
 20
5.951747605055712
 30
0.0
 11
4.119467304143509
 21
4.784647985718784
 31
0.0
  0
LINE
  5
32E
330
1F
100
AcDbEntity
  8
1
100
AcDbLine
 10
4.062271273316527
 20
6.008943635882694
 30
0.0
 11
4.152271273316527
 21
5.918943635882694
 31
0.0
  0
LINE
  5
32F
330
1F
100
AcDbEntity
  8
1
100
AcDbLine
 10
4.152271273316527
 20
6.008943635882694
 30
0.0
 11
4.062271273316527
 21
6.008943635882694
 31
0.0
  0
LINE
  5
330
330
1F
100
AcDbEntity
  8
1
100
AcDbLine
 10
4.062271273316527
 20
6.098943635882694
 30
0.0
 11
4.152271273316527
 21
6.008943635882694
 31
0.0
  0
LINE
  5
331
330
1F
100
AcDbEntity
  8
1
100
AcDbLine
 10
4.107271273316527
 20
6.333969456571114
 30
0.0
 11
4.107271273316527
 21
6.053943635882694
 31
0.0
  0
LINE
  5
332
330
1F
100
AcDbEntity
  8
1
100
AcDbLine
 10
4.232271273316527
 20
6.333969456571114
 30
0.0
 11
4.232271273316527
 21
5.418943635882694
 31
0.0
  0
CIRCLE
  5
333
330
1F
100
AcDbEntity
  8
1
100
AcDbCircle
 10
5.732271273316527
 20
2.208969456571114
 30
0.0
 40
0.1875
  0
LINE
  5
334
330
1F
100
AcDbEntity
  8
1
100
AcDbLine
 10
7.357271273316527
 20
3.208969456571114
 30
0.0
 11
7.357271273316527
 21
6.583969456571114
 31
0.0
  0
LINE
  5
335
330
1F
100
AcDbEntity
  8
1
100
AcDbLine
 10
8.607271273316527
 20
3.208969456571114
 30
0.0
 11
8.607271273316527
 21
6.208969456571114
 31
0.0
  0
LINE
  5
336
330
1F
100
AcDbEntity
  8
1
100
AcDbLine
 10
5.107271273316527
 20
3.208969456571114
 30
0.0
 11
4.232271273316527
 21
3.208969456571114
 31
0.0
  0
LINE
  5
337
330
1F
100
AcDbEntity
  8
1
100
AcDbLine
 10
5.107271273316527
 20
6.208969456571114
 30
0.0
 11
5.107271273316527
 21
3.208969456571114
 31
0.0
  0
LINE
  5
338
330
1F
100
AcDbEntity
  8
1
100
AcDbLine
 10
4.232271273316527
 20
6.208969456571114
 30
0.0
 11
5.107271273316527
 21
6.208969456571114
 31
0.0
  0
LINE
  5
339
330
1F
100
AcDbEntity
  8
1
100
AcDbLine
 10
2.607271273316527
 20
6.208969456571114
 30
0.0
 11
4.107271273316527
 21
6.208969456571114
 31
0.0
  0
LINE
  5
33A
330
1F
100
AcDbEntity
  8
1
100
AcDbLine
 10
2.607271273316527
 20
3.208969456571114
 30
0.0
 11
2.607271273316527
 21
6.208969456571114
 31
0.0
  0
LINE
  5
33B
330
1F
100
AcDbEntity
  8
1
100
AcDbLine
 10
2.607271273316527
 20
3.208969456571114
 30
0.0
 11
4.107271273316527
 21
3.208969456571114
 31
0.0
  0
LINE
  5
33C
330
1F
100
AcDbEntity
  8
1
100
AcDbLine
 10
1.607271273316527
 20
6.958969456571114
 30
0.0
 11
1.607271273316527
 21
1.708969456571114
 31
0.0
  0
LINE
  5
33D
330
1F
100
AcDbEntity
  8
1
100
AcDbLine
 10
9.857271273316527
 20
6.958969456571114
 30
0.0
 11
1.607271273316527
 21
6.958969456571114
 31
0.0
  0
LINE
  5
33E
330
1F
100
AcDbEntity
  8
1
100
AcDbLine
 10
9.857271273316527
 20
1.708969456571114
 30
0.0
 11
9.857271273316527
 21
6.958969456571114
 31
0.0
  0
LINE
  5
33F
330
1F
100
AcDbEntity
  8
1
100
AcDbLine
 10
1.607271273316527
 20
1.708969456571114
 30
0.0
 11
9.857271273316527
 21
1.708969456571114
 31
0.0
  0
TEXT
  5
341
330
1F
100
AcDbEntity
  8
8
100
AcDbText
 10
2.890009368554623
 20
1.802969158721115
 30
0.0
 40
0.125
  1
SINGLE POINT 2 CORRIDOR LOCKER  -  60" SINGLE TIER
  7
ROMANS
 72
     1
 11
5.732271273316525
 21
1.802969158721115
 31
0.0
100
AcDbText
  0
LINE
  5
342
330
1F
100
AcDbEntity
  8
4
  6
HIDDEN
100
AcDbLine
 10
3.112367565245902
 20
3.307088990205483
 30
0.0
 11
3.112367565245899
 21
6.110849625086753
 31
0.0
  0
LINE
  5
343
330
1F
100
AcDbEntity
  8
4
  6
HIDDEN
100
AcDbLine
 10
2.986881216335382
 20
3.307088990205485
 30
0.0
 11
2.98688121633538
 21
6.110849625086745
 31
0.0
  0
LINE
  5
344
330
1F
100
AcDbEntity
  8
4
  6
HIDDEN
100
AcDbLine
 10
3.00924152114788
 20
3.307088990205485
 30
0.0
 11
3.00924152114788
 21
6.110849625086745
 31
0.0
  0
LINE
  5
345
330
1F
100
AcDbEntity
  8
4
  6
HIDDEN
100
AcDbLine
 10
3.090007260433401
 20
3.307088990205482
 30
0.0
 11
3.090007260433401
 21
6.11084962508675
 31
0.0
  0
LINE
  5
346
330
1F
100
AcDbEntity
  8
4
100
AcDbLine
 10
3.138271273316525
 20
3.302969456571115
 30
0.0
 11
3.138271273316526
 21
6.114969158721116
 31
0.0
  0
LINE
  5
347
330
1F
100
AcDbEntity
  8
4
100
AcDbLine
 10
2.701271273316527
 20
6.114969158721116
 30
0.0
 11
2.701271273316527
 21
3.302969456571115
 31
0.0
  0
INSERT
  5
348
330
1F
100
AcDbEntity
  8
8
100
AcDbBlockReference
  2
TEMP3
 10
2.193183155839842
 20
4.899648127629919
 30
0.0
  0
POINT
  5
349
330
1F
100
AcDbEntity
  8
4
100
AcDbPoint
 10
1.607271273316527
 20
1.708969456571114
 30
0.0
  0
LINE
  5
34A
330
1F
100
AcDbEntity
  8
4
100
AcDbLine
 10
2.701271273316527
 20
3.302969456571115
 30
0.0
 11
3.138271273316525
 21
3.302969456571115
 31
0.0
  0
LINE
  5
34B
330
1F
100
AcDbEntity
  8
4
100
AcDbLine
 10
3.131346629371213
 20
3.622412094951585
 30
0.0
 11
3.131346629371213
 21
3.541204906865647
 31
0.0
  0
LINE
  5
34C
330
1F
100
AcDbEntity
  8
4
  6
HIDDEN
100
AcDbLine
 10
3.112367565245902
 20
3.307088990205483
 30
0.0
 11
2.986881216335382
 21
3.307088990205485
 31
0.0
  0
LINE
  5
34D
330
1F
100
AcDbEntity
  8
4
100
AcDbLine
 10
3.152523303049708
 20
3.580237739856582
 30
0.0
 11
3.121273787922204
 21
3.580237739856582
 31
0.0
  0
LINE
  5
34E
330
1F
100
AcDbEntity
  8
4
100
AcDbLine
 10
3.131346629371213
 20
3.541204906865647
 30
0.0
 11
3.138271273316526
 21
3.541204906865647
 31
0.0
  0
LINE
  5
34F
330
1F
100
AcDbEntity
  8
4
100
AcDbLine
 10
3.138271273316526
 20
3.622412094951585
 30
0.0
 11
3.131346629371213
 21
3.622412094951585
 31
0.0
  0
INSERT
  5
350
330
1F
100
AcDbEntity
  8
4
100
AcDbBlockReference
  2
ARRO
 10
2.568183155839842
 20
4.83764812762992
 30
0.0
 50
179.9999999999998
  0
LINE
  5
351
330
1F
100
AcDbEntity
  8
4
100
AcDbLine
 10
2.568183155839842
 20
4.83764812762992
 30
0.0
 11
2.193183155839842
 21
4.83764812762992
 31
0.0
  0
INSERT
  5
352
330
1F
100
AcDbEntity
  8
4
100
AcDbBlockReference
  2
ARRO
 10
2.568183155839842
 20
4.697205190782876
 30
0.0
 50
179.9999999999998
  0
LINE
  5
353
330
1F
100
AcDbEntity
  8
4
100
AcDbLine
 10
2.568183155839842
 20
4.697205190782876
 30
0.0
 11
2.193183155839842
 21
4.697205190782876
 31
0.0
  0
LINE
  5
354
330
1F
100
AcDbEntity
  8
4
100
AcDbLine
 10
2.193183155839842
 20
4.697205190782876
 30
0.0
 11
2.193183155839842
 21
4.635205190782876
 31
0.0
  0
LINE
  5
355
330
1F
100
AcDbEntity
  8
4
100
AcDbLine
 10
2.193183155839842
 20
4.83764812762992
 30
0.0
 11
2.193183155839842
 21
4.899648127629919
 31
0.0
  0
LINE
  5
356
330
1F
100
AcDbEntity
  8
4
100
AcDbLine
 10
3.131346629371213
 20
4.750499544951581
 30
0.0
 11
3.131346629371213
 21
4.669292356865644
 31
0.0
  0
LINE
  5
357
330
1F
100
AcDbEntity
  8
4
100
AcDbLine
 10
2.864236626679512
 20
4.784198573270307
 30
0.0
 11
2.855726942267827
 21
4.648062591357806
 31
0.0
  0
LINE
  5
358
330
1F
100
AcDbEntity
  8
4
100
AcDbLine
 10
2.879964665545765
 20
4.793642495486697
 30
0.0
 11
2.869513735972333
 21
4.626427622311803
 31
0.0
  0
LINE
  5
359
330
1F
100
AcDbEntity
  8
4
100
AcDbLine
 10
2.727159845734789
 20
4.784198573270307
 30
0.0
 11
2.735669530146476
 21
4.648043622683343
 31
0.0
  0
LINE
  5
35A
330
1F
100
AcDbEntity
  8
4
100
AcDbLine
 10
2.711431806868537
 20
4.793642495486697
 30
0.0
 11
2.721882736441971
 21
4.626427622311803
 31
0.0
  0
ARC
  5
35B
330
1F
100
AcDbEntity
  8
4
100
AcDbCircle
 10
2.748270797103531
 20
4.628076876103147
 30
0.0
 40
0.026439549609375
100
AcDbArc
 50
183.5763343749982
 51
270.0
  0
ARC
  5
35C
330
1F
100
AcDbEntity
  8
4
100
AcDbCircle
 10
2.835621753192351
 20
4.649319165675025
 30
0.0
 40
0.02014441875
100
AcDbArc
 50
270.0
 51
356.4236656250018
  0
ARC
  5
35D
330
1F
100
AcDbEntity
  8
4
100
AcDbCircle
 10
2.843125675310771
 20
4.628076876103147
 30
0.0
 40
0.026439549609375
100
AcDbArc
 50
270.0
 51
356.4236656250018
  0
CIRCLE
  5
35E
330
1F
100
AcDbEntity
  8
4
100
AcDbCircle
 10
2.795698236207151
 20
4.663989338629711
 30
0.0
 40
0.0043914832875
  0
LINE
  5
35F
330
1F
100
AcDbEntity
  8
4
100
AcDbLine
 10
2.795698236207151
 20
4.629174746925022
 30
0.0
 11
2.835621753192351
 21
4.629174746925025
 31
0.0
  0
ARC
  5
360
330
1F
100
AcDbEntity
  8
4
100
AcDbCircle
 10
2.755774719221952
 20
4.649319165675025
 30
0.0
 40
0.02014441875
100
AcDbArc
 50
183.5763343749982
 51
270.0
  0
LINE
  5
361
330
1F
100
AcDbEntity
  8
4
100
AcDbLine
 10
2.795698236207151
 20
4.629174746925022
 30
0.0
 11
2.755774719221952
 21
4.629174746925025
 31
0.0
  0
CIRCLE
  5
362
330
1F
100
AcDbEntity
  8
4
100
AcDbCircle
 10
2.795698236207151
 20
4.612968562040651
 30
0.0
 40
0.00724796186625
  0
LINE
  5
363
330
1F
100
AcDbEntity
  8
4
100
AcDbLine
 10
2.795698236207151
 20
4.601637326493772
 30
0.0
 11
2.843125675310771
 21
4.601637326493772
 31
0.0
  0
LINE
  5
364
330
1F
100
AcDbEntity
  8
4
100
AcDbLine
 10
2.795698236207151
 20
4.601637326493772
 30
0.0
 11
2.748270797103531
 21
4.601637326493772
 31
0.0
  0
LINE
  5
365
330
1F
100
AcDbEntity
  8
4
100
AcDbLine
 10
3.131346629371213
 20
4.669292356865644
 30
0.0
 11
3.138271273316526
 21
4.669292356865644
 31
0.0
  0
ARC
  5
366
330
1F
100
AcDbEntity
  8
4
100
AcDbCircle
 10
2.741589590481753
 20
4.795527356962522
 30
0.0
 40
0.030216628125
100
AcDbArc
 50
90.0
 51
183.5763343749982
  0
ARC
  5
367
330
1F
100
AcDbEntity
  8
4
100
AcDbCircle
 10
2.747265034810265
 20
4.785455147587522
 30
0.0
 40
0.02014441875
100
AcDbArc
 50
90.0
 51
183.5763343749982
  0
LINE
  5
368
330
1F
100
AcDbEntity
  8
4
100
AcDbLine
 10
2.795698236207151
 20
4.825743985087521
 30
0.0
 11
2.849806881932549
 21
4.825743985087521
 31
0.0
  0
ARC
  5
369
330
1F
100
AcDbEntity
  8
4
100
AcDbCircle
 10
2.844131437604035
 20
4.785455147587522
 30
0.0
 40
0.02014441875
100
AcDbArc
 50
356.4236656250018
 51
90.0
  0
LINE
  5
36A
330
1F
100
AcDbEntity
  8
4
100
AcDbLine
 10
2.795698236207151
 20
4.805599566337522
 30
0.0
 11
2.844131437604035
 21
4.805599566337522
 31
0.0
  0
LINE
  5
36B
330
1F
100
AcDbEntity
  8
4
100
AcDbLine
 10
2.795698236207151
 20
4.805599566337522
 30
0.0
 11
2.747265034810265
 21
4.805599566337522
 31
0.0
  0
LINE
  5
36C
330
1F
100
AcDbEntity
  8
4
100
AcDbLine
 10
2.795698236207151
 20
4.825743985087521
 30
0.0
 11
2.741589590481753
 21
4.825743985087521
 31
0.0
  0
CIRCLE
  5
36D
330
1F
100
AcDbEntity
  8
4
100
AcDbCircle
 10
2.795698236207151
 20
4.708025038017209
 30
0.0
 40
0.0132197748046875
  0
LINE
  5
36E
330
1F
100
AcDbEntity
  8
4
100
AcDbLine
 10
2.76885092874938
 20
4.761919191718652
 30
0.0
 11
2.772411992524676
 21
4.765480255493949
 31
0.0
  0
CIRCLE
  5
36F
330
1F
100
AcDbEntity
  8
4
100
AcDbCircle
 10
2.795698236207151
 20
4.752060737404713
 30
0.0
 40
0.0043914832875
  0
LINE
  5
370
330
1F
100
AcDbEntity
  8
4
100
AcDbLine
 10
2.76705615260663
 20
4.770836095411996
 30
0.0
 11
2.763495088831334
 21
4.767275031636699
 31
0.0
  0
LINE
  5
371
330
1F
100
AcDbEntity
  8
4
100
AcDbLine
 10
2.754635162158395
 20
4.783257085860232
 30
0.0
 11
2.751074098383098
 21
4.779696022084936
 31
0.0
  0
LINE
  5
372
330
1F
100
AcDbEntity
  8
4
100
AcDbLine
 10
2.749279322240349
 20
4.788612925778275
 30
0.0
 11
2.745718258465052
 21
4.785051862002978
 31
0.0
  0
ARC
  5
373
330
1F
100
AcDbEntity
  8
4
 62
   130
100
AcDbCircle
 10
2.748353476068859
 20
4.785947782034955
 30
0.0
 40
0.00628505865
100
AcDbArc
 50
45.0
 51
225.0
  0
LINE
  5
374
330
1F
100
AcDbEntity
  8
4
 62
   130
100
AcDbLine
 10
2.743909268477287
 20
4.781503574443386
 30
0.0
 11
2.765302641189789
 21
4.760110201730883
 31
0.0
  0
LINE
  5
375
330
1F
100
AcDbEntity
  8
4
100
AcDbLine
 10
2.745718258465052
 20
4.785051862002978
 30
0.0
 11
2.76885092874938
 21
4.761919191718652
 31
0.0
  0
ARC
  5
376
330
1F
100
AcDbEntity
  8
4
 62
   130
100
AcDbCircle
 10
2.769746848781359
 20
4.764554409322457
 30
0.0
 40
0.00628505865
100
AcDbArc
 50
225.0
 51
45.0
  0
LINE
  5
377
330
1F
100
AcDbEntity
  8
4
 62
   130
100
AcDbLine
 10
2.752797683660427
 20
4.790391989626524
 30
0.0
 11
2.774191056372929
 21
4.768998616914025
 31
0.0
  0
LINE
  5
378
330
1F
100
AcDbEntity
  8
4
100
AcDbLine
 10
2.749279322240349
 20
4.788612925778275
 30
0.0
 11
2.772411992524676
 21
4.765480255493949
 31
0.0
  0
ARC
  5
379
330
1F
100
AcDbEntity
  8
4
100
AcDbCircle
 10
2.849806881932549
 20
4.795527356962522
 30
0.0
 40
0.030216628125
100
AcDbArc
 50
356.4236656250018
 51
90.0
  0
LINE
  5
37A
330
1F
100
AcDbEntity
  8
4
100
AcDbLine
 10
3.131346629371213
 20
4.750499544951581
 30
0.0
 11
3.138271273316526
 21
4.750499544951581
 31
0.0
  0
LINE
  5
37B
330
1F
100
AcDbEntity
  8
4
100
AcDbLine
 10
3.147354210321852
 20
4.708325189856587
 30
0.0
 11
3.123465312359718
 21
4.708325189856587
 31
0.0
  0
ARC
  5
37C
330
1F
100
AcDbEntity
  8
4
100
AcDbCircle
 10
2.861167597144652
 20
6.069644216533616
 30
0.0
 40
0.081836701171875
100
AcDbArc
 50
347.5762104955836
 51
12.42378950441644
  0
ARC
  5
37D
330
1F
100
AcDbEntity
  8
4
100
AcDbCircle
 10
2.936709167457151
 20
6.069644216533616
 30
0.0
 40
0.081836701171875
100
AcDbArc
 50
167.5762104955835
 51
192.4237895044164
  0
CIRCLE
  5
37E
330
1F
100
AcDbEntity
  8
4
100
AcDbCircle
 10
2.936709167457151
 20
6.069644216533616
 30
0.0
 40
0.00273964095
  0
CIRCLE
  5
37F
330
1F
100
AcDbEntity
  8
4
100
AcDbCircle
 10
2.861167597144652
 20
6.069644216533616
 30
0.0
 40
0.00273964095
  0
ARC
  5
380
330
1F
100
AcDbEntity
  8
4
100
AcDbCircle
 10
2.898938382300901
 20
6.33089214719768
 30
0.0
 40
0.2820218625
100
AcDbArc
 50
261.40466153832
 51
278.5953384616799
  0
LINE
  5
381
330
1F
100
AcDbEntity
  8
4
100
AcDbLine
 10
3.138271273316526
 20
5.878586994951589
 30
0.0
 11
3.131346629371213
 21
5.878586994951589
 31
0.0
  0
LINE
  5
382
330
1F
100
AcDbEntity
  8
4
100
AcDbLine
 10
3.131346629371213
 20
5.797379806865652
 30
0.0
 11
3.138271273316526
 21
5.797379806865652
 31
0.0
  0
LINE
  5
383
330
1F
100
AcDbEntity
  8
4
100
AcDbLine
 10
3.144067506207962
 20
5.836412639856588
 30
0.0
 11
3.122928208284389
 21
5.836412639856588
 31
0.0
  0
LINE
  5
384
330
1F
100
AcDbEntity
  8
4
100
AcDbLine
 10
3.131346629371213
 20
5.878586994951589
 30
0.0
 11
3.131346629371213
 21
5.797379806865652
 31
0.0
  0
LINE
  5
385
330
1F
100
AcDbEntity
  8
4
100
AcDbLine
 10
3.138271273316526
 20
6.114969158721116
 30
0.0
 11
2.701271273316527
 21
6.114969158721116
 31
0.0
  0
ARC
  5
386
330
1F
100
AcDbEntity
  8
4
100
AcDbCircle
 10
2.898938382300901
 20
5.808396285869553
 30
0.0
 40
0.2820218625
100
AcDbArc
 50
81.40466153831994
 51
98.5953384616797
  0
LINE
  5
387
330
1F
100
AcDbEntity
  8
4
  6
HIDDEN
100
AcDbLine
 10
3.112367565245899
 20
6.110849625086753
 30
0.0
 11
2.98688121633538
 21
6.110849625086745
 31
0.0
  0
LINE
  5
388
330
1F
100
AcDbEntity
  8
4
100
AcDbLine
 10
9.263771273316528
 20
6.114969158721116
 30
0.0
 11
9.263771273316528
 21
3.302969158721116
 31
0.0
  0
LINE
  5
389
330
1F
100
AcDbEntity
  8
4
100
AcDbLine
 10
6.672771273316525
 20
6.114969158721116
 30
0.0
 11
6.672771273316525
 21
3.302969158721116
 31
0.0
  0
LINE
  5
38A
330
1F
100
AcDbEntity
  8
4
100
AcDbLine
 10
7.982771273316526
 20
6.114969158721116
 30
0.0
 11
7.982771273316526
 21
3.302969158721116
 31
0.0
  0
MTEXT
  5
38B
330
1F
100
AcDbEntity
  8
8
100
AcDbMText
 10
6.05678860422723
 20
4.019794282077386
 30
0.0
 40
0.1
 41
0.3094
 71
     5
 72
     5
  1
60"
 11
0.0000000000000001
 21
1.0
 31
0.0
 73
     1
 44
1.0
1001
ACAD
1000
MTEXTBEGIN
1070
    73
1070
     1
1070
    44
1040
1.0
1070
    74
1070
     0
1000
MTEXTEND
  0
LINE
  5
38C
330
1F
100
AcDbEntity
  8
4
100
AcDbLine
 10
6.672771273316525
 20
3.302969158721116
 30
0.0
 11
6.734771273316527
 21
3.302969158721116
 31
0.0
  0
LINE
  5
38D
330
1F
100
AcDbEntity
  8
4
100
AcDbLine
 10
7.982771273316526
 20
3.302969158721116
 30
0.0
 11
8.044771273316527
 21
3.302969158721116
 31
0.0
  0
LINE
  5
38E
330
1F
100
AcDbEntity
  8
4
100
AcDbLine
 10
9.263771273316528
 20
3.302969158721116
 30
0.0
 11
9.201771273316527
 21
3.302969158721116
 31
0.0
  0
LINE
  5
38F
330
1F
100
AcDbEntity
  8
4
100
AcDbLine
 10
6.672771273316525
 20
6.114969158721116
 30
0.0
 11
6.734771273316525
 21
6.114969158721116
 31
0.0
  0
LINE
  5
390
330
1F
100
AcDbEntity
  8
4
100
AcDbLine
 10
7.982771273316526
 20
6.114969158721116
 30
0.0
 11
8.044771273316527
 21
6.114969158721116
 31
0.0
  0
LINE
  5
391
330
1F
100
AcDbEntity
  8
4
100
AcDbLine
 10
9.263771273316528
 20
6.114969158721116
 30
0.0
 11
9.201771273316527
 21
6.114969158721116
 31
0.0
  0
INSERT
  5
392
330
1F
100
AcDbEntity
  8
4
100
AcDbBlockReference
  2
ARRO2
 10
6.419771273316527
 20
5.833969456571115
 30
0.0
 50
90.0
  0
LINE
  5
393
330
1F
100
AcDbEntity
  8
4
100
AcDbLine
 10
6.419771273316527
 20
5.833969456571115
 30
0.0
 11
6.357771273316527
 21
5.833969456571115
 31
0.0
  0
LINE
  5
394
330
1F
100
AcDbEntity
  8
4
100
AcDbLine
 10
6.609771273316527
 20
5.833969456571115
 30
0.0
 11
6.419771273316527
 21
5.833969456571115
 31
0.0
  0
LINE
  5
395
330
1F
100
AcDbEntity
  8
4
100
AcDbLine
 10
9.158771273316528
 20
5.771969456571115
 30
0.0
 11
9.127771273316529
 21
5.802969456571115
 31
0.0
  0
LINE
  5
396
330
1F
100
AcDbEntity
  8
4
100
AcDbLine
 10
9.158771273316528
 20
5.833969456571115
 30
0.0
 11
9.158771273316528
 21
5.771969456571115
 31
0.0
  0
LINE
  5
397
330
1F
100
AcDbEntity
  8
4
100
AcDbLine
 10
8.658771273316528
 20
5.833969456571115
 30
0.0
 11
9.158771273316528
 21
5.833969456571115
 31
0.0
  0
LINE
  5
398
330
1F
100
AcDbEntity
  8
4
100
AcDbLine
 10
8.658771273316528
 20
5.771969456571115
 30
0.0
 11
8.658771273316528
 21
5.833969456571115
 31
0.0
  0
LINE
  5
399
330
1F
100
AcDbEntity
  8
4
100
AcDbLine
 10
8.940791383214044
 20
5.683969456571115
 30
0.0
 11
8.940791383214044
 21
5.621969456571115
 31
0.0
  0
LINE
  5
39A
330
1F
100
AcDbEntity
  8
4
100
AcDbLine
 10
8.971791383214043
 20
5.683969456571115
 30
0.0
 11
8.909791383214043
 21
5.683969456571115
 31
0.0
  0
LINE
  5
39B
330
1F
100
AcDbEntity
  8
4
100
AcDbLine
 10
8.658771273316528
 20
5.646969456571115
 30
0.0
 11
8.658771273316528
 21
5.696969456571115
 31
0.0
  0
ARC
  5
39C
330
1F
100
AcDbEntity
  8
4
100
AcDbCircle
 10
8.683771273316526
 20
5.646969456571115
 30
0.0
 40
0.025
100
AcDbArc
 50
180.0
 51
0.0
  0
ARC
  5
39D
330
1F
100
AcDbEntity
  8
4
100
AcDbCircle
 10
8.562771273316528
 20
5.646969456571115
 30
0.0
 40
0.025
100
AcDbArc
 50
180.0
 51
0.0
  0
LINE
  5
39E
330
1F
100
AcDbEntity
  8
4
100
AcDbLine
 10
8.587771273316526
 20
5.646969456571115
 30
0.0
 11
8.587771273316526
 21
5.696969456571115
 31
0.0
  0
LINE
  5
39F
330
1F
100
AcDbEntity
  8
4
100
AcDbLine
 10
8.274751163419011
 20
5.683969456571115
 30
0.0
 11
8.336751163419013
 21
5.683969456571115
 31
0.0
  0
LINE
  5
3A0
330
1F
100
AcDbEntity
  8
4
100
AcDbLine
 10
8.305751163419012
 20
5.683969456571115
 30
0.0
 11
8.305751163419012
 21
5.621969456571115
 31
0.0
  0
LINE
  5
3A1
330
1F
100
AcDbEntity
  8
4
100
AcDbLine
 10
8.587771273316526
 20
5.771969456571115
 30
0.0
 11
8.587771273316526
 21
5.833969456571115
 31
0.0
  0
LINE
  5
3A2
330
1F
100
AcDbEntity
  8
4
100
AcDbLine
 10
8.587771273316526
 20
5.833969456571115
 30
0.0
 11
8.087771273316526
 21
5.833969456571115
 31
0.0
  0
LINE
  5
3A3
330
1F
100
AcDbEntity
  8
4
100
AcDbLine
 10
8.087771273316526
 20
5.833969456571115
 30
0.0
 11
8.087771273316526
 21
5.771969456571115
 31
0.0
  0
LINE
  5
3A4
330
1F
100
AcDbEntity
  8
4
100
AcDbLine
 10
8.087771273316526
 20
5.771969456571115
 30
0.0
 11
8.118771273316527
 21
5.802969456571115
 31
0.0
  0
LINE
  5
3A5
330
1F
100
AcDbEntity
  8
4
100
AcDbLine
 10
6.777771273316528
 20
5.771969456571115
 30
0.0
 11
6.808771273316527
 21
5.802969456571115
 31
0.0
  0
LINE
  5
3A6
330
1F
100
AcDbEntity
  8
4
100
AcDbLine
 10
6.777771273316528
 20
5.833969456571115
 30
0.0
 11
6.777771273316528
 21
5.771969456571115
 31
0.0
  0
LINE
  5
3A7
330
1F
100
AcDbEntity
  8
4
100
AcDbLine
 10
7.277771273316528
 20
5.833969456571115
 30
0.0
 11
6.777771273316528
 21
5.833969456571115
 31
0.0
  0
LINE
  5
3A8
330
1F
100
AcDbEntity
  8
4
100
AcDbLine
 10
7.277771273316528
 20
5.771969456571115
 30
0.0
 11
7.277771273316528
 21
5.833969456571115
 31
0.0
  0
LINE
  5
3A9
330
1F
100
AcDbEntity
  8
4
100
AcDbLine
 10
6.995751163419012
 20
5.683969456571115
 30
0.0
 11
6.995751163419012
 21
5.621969456571115
 31
0.0
  0
LINE
  5
3AA
330
1F
100
AcDbEntity
  8
4
100
AcDbLine
 10
6.964751163419013
 20
5.683969456571115
 30
0.0
 11
7.026751163419012
 21
5.683969456571115
 31
0.0
  0
LINE
  5
3AB
330
1F
100
AcDbEntity
  8
4
100
AcDbLine
 10
7.277771273316528
 20
5.646969456571115
 30
0.0
 11
7.277771273316528
 21
5.696969456571115
 31
0.0
  0
ARC
  5
3AC
330
1F
100
AcDbEntity
  8
4
100
AcDbCircle
 10
7.252771273316528
 20
5.646969456571115
 30
0.0
 40
0.025
100
AcDbArc
 50
180.0
 51
0.0
  0
ARC
  5
3AD
330
1F
100
AcDbEntity
  8
4
100
AcDbCircle
 10
5.020271273316527
 20
5.646969456571115
 30
0.0
 40
0.025
100
AcDbArc
 50
180.0
 51
0.0
  0
ARC
  5
3AE
330
1F
100
AcDbEntity
  8
4
100
AcDbCircle
 10
4.569271273316527
 20
5.646969456571115
 30
0.0
 40
0.025
100
AcDbArc
 50
180.0
 51
0.0
  0
ARC
  5
3AF
330
1F
100
AcDbEntity
  8
4
100
AcDbCircle
 10
4.395271273316527
 20
5.646969456571115
 30
0.0
 40
0.025
100
AcDbArc
 50
180.0
 51
0.0
  0
ARC
  5
3B0
330
1F
100
AcDbEntity
  8
4
100
AcDbCircle
 10
3.944271273316527
 20
5.646969456571115
 30
0.0
 40
0.025
100
AcDbArc
 50
180.0
 51
0.0
  0
ARC
  5
3B1
330
1F
100
AcDbEntity
  8
4
100
AcDbCircle
 10
3.770271273316527
 20
5.646969456571115
 30
0.0
 40
0.025
100
AcDbArc
 50
180.0
 51
0.0
  0
ARC
  5
3B2
330
1F
100
AcDbEntity
  8
4
100
AcDbCircle
 10
3.319271273316528
 20
5.646969456571115
 30
0.0
 40
0.025
100
AcDbArc
 50
180.0
 51
0.0
  0
LINE
  5
3B3
330
1F
100
AcDbEntity
  8
4
100
AcDbLine
 10
4.762271273316527
 20
5.683969456571115
 30
0.0
 11
4.824271273316528
 21
5.683969456571115
 31
0.0
  0
LINE
  5
3B4
330
1F
100
AcDbEntity
  8
4
100
AcDbLine
 10
4.824271273316528
 20
5.683969456571115
 30
0.0
 11
4.824271273316528
 21
5.621969456571115
 31
0.0
  0
LINE
  5
3B5
330
1F
100
AcDbEntity
  8
4
100
AcDbLine
 10
4.762271273316527
 20
5.683969456571115
 30
0.0
 11
4.762271273316527
 21
5.621969456571115
 31
0.0
  0
LINE
  5
3B6
330
1F
100
AcDbEntity
  8
4
100
AcDbLine
 10
3.512271273316527
 20
5.683969456571115
 30
0.0
 11
3.512271273316527
 21
5.621969456571115
 31
0.0
  0
LINE
  5
3B7
330
1F
100
AcDbEntity
  8
4
100
AcDbLine
 10
3.574271273316528
 20
5.683969456571115
 30
0.0
 11
3.574271273316528
 21
5.621969456571115
 31
0.0
  0
LINE
  5
3B8
330
1F
100
AcDbEntity
  8
4
100
AcDbLine
 10
3.512271273316527
 20
5.683969456571115
 30
0.0
 11
3.574271273316528
 21
5.683969456571115
 31
0.0
  0
LINE
  5
3B9
330
1F
100
AcDbEntity
  8
4
100
AcDbLine
 10
4.544271273316527
 20
5.833969456571115
 30
0.0
 11
5.045271273316527
 21
5.833969456571115
 31
0.0
  0
LINE
  5
3BA
330
1F
100
AcDbEntity
  8
4
100
AcDbLine
 10
4.232271273316527
 20
5.833969456571115
 30
0.0
 11
4.420271273316527
 21
5.833969456571115
 31
0.0
  0
LINE
  5
3BB
330
1F
100
AcDbEntity
  8
4
100
AcDbLine
 10
3.919271273316527
 20
5.833969456571115
 30
0.0
 11
4.107271273316527
 21
5.833969456571115
 31
0.0
  0
LINE
  5
3BC
330
1F
100
AcDbEntity
  8
4
100
AcDbLine
 10
3.294271273316527
 20
5.833969456571115
 30
0.0
 11
3.795271273316527
 21
5.833969456571115
 31
0.0
  0
LINE
  5
3BD
330
1F
100
AcDbEntity
  8
4
100
AcDbLine
 10
4.232271273316527
 20
5.771969456571115
 30
0.0
 11
4.420271273316527
 21
5.771969456571115
 31
0.0
  0
LINE
  5
3BE
330
1F
100
AcDbEntity
  8
4
100
AcDbLine
 10
3.919271273316527
 20
5.771969456571115
 30
0.0
 11
4.107271273316527
 21
5.771969456571115
 31
0.0
  0
LINE
  5
3BF
330
1F
100
AcDbEntity
  8
4
100
AcDbLine
 10
4.544271273316527
 20
5.771969456571115
 30
0.0
 11
5.045271273316527
 21
5.771969456571115
 31
0.0
  0
LINE
  5
3C0
330
1F
100
AcDbEntity
  8
4
100
AcDbLine
 10
3.294271273316527
 20
5.771969456571115
 30
0.0
 11
3.795271273316527
 21
5.771969456571115
 31
0.0
  0
INSERT
  5
3C1
330
1F
100
AcDbEntity
  8
4
100
AcDbBlockReference
  2
ARRO
 10
6.419771273316527
 20
6.208969456571114
 30
0.0
 50
270.0
  0
INSERT
  5
3C2
330
1F
100
AcDbEntity
  8
4
100
AcDbBlockReference
  2
ARRO
 10
6.419771273316527
 20
3.208969456571114
 30
0.0
 50
270.0
  0
INSERT
  5
3C3
330
1F
100
AcDbEntity
  8
4
100
AcDbBlockReference
  2
ARRO
 10
6.419771273316527
 20
3.270969456571115
 30
0.0
 50
90.0
  0
LINE
  5
3C4
330
1F
100
AcDbEntity
  8
4
100
AcDbLine
 10
6.419771273316527
 20
3.270969456571115
 30
0.0
 11
6.357771273316527
 21
3.270969456571115
 31
0.0
  0
LINE
  5
3C5
330
1F
100
AcDbEntity
  8
4
100
AcDbLine
 10
6.609771273316527
 20
3.270969456571115
 30
0.0
 11
6.419771273316527
 21
3.270969456571115
 31
0.0
  0
LINE
  5
3C6
330
1F
100
AcDbEntity
  8
4
100
AcDbLine
 10
6.419771273316527
 20
3.208969456571114
 30
0.0
 11
6.419771273316527
 21
3.083969456571114
 31
0.0
  0
LINE
  5
3C7
330
1F
100
AcDbEntity
  8
4
100
AcDbLine
 10
6.419771273316527
 20
6.208969456571114
 30
0.0
 11
6.419771273316527
 21
3.270969456571115
 31
0.0
  0
INSERT
  5
3C8
330
1F
100
AcDbEntity
  8
8
100
AcDbBlockReference
  2
TEMP2
 10
6.419771273316527
 20
3.270969456571115
 30
0.0
  0
LINE
  5
3C9
330
1F
100
AcDbEntity
  8
1
100
AcDbLine
 10
8.639271273316527
 20
3.208969456571114
 30
0.0
 11
8.639271273316527
 21
6.208969456571114
 31
0.0
  0
MTEXT
  5
3CC
330
1F
100
AcDbEntity
  8
8
100
AcDbMText
 10
6.329793439290565
 20
4.482318960274513
 30
0.0
 40
0.1
 41
0.3094
 71
     5
 72
     5
  1
47"
 11
0.0000000000000001
 21
1.0
 31
0.0
 73
     1
 44
1.0
1001
ACAD
1000
MTEXTBEGIN
1070
    73
1070
     1
1070
    44
1040
1.0
1070
    74
1070
     0
1000
MTEXTEND
  0
MTEXT
  5
3CD
330
1F
100
AcDbEntity
  8
8
100
AcDbMText
 10
6.329793439290565
 20
6.022917308396664
 30
0.0
 40
0.1
 41
0.3094
 71
     5
 72
     5
  1
12"
 11
0.0000000000000001
 21
1.0
 31
0.0
 73
     1
 44
1.0
1001
ACAD
1000
MTEXTBEGIN
1070
    73
1070
     1
1070
    44
1040
1.0
1070
    74
1070
     0
1000
MTEXTEND
  0
ENDSEC
  0
SECTION
  2
OBJECTS
  0
DICTIONARY
  5
C
330
0
100
AcDbDictionary
281
     1
  3
ACAD_COLOR
350
281
  3
ACAD_GROUP
350
D
  3
ACAD_LAYOUT
350
1A
  3
ACAD_MATERIAL
350
280
  3
ACAD_MLINESTYLE
350
17
  3
ACAD_PLOTSETTINGS
350
19
  3
ACAD_PLOTSTYLENAME
350
E
  3
ACDBHEADERROUNDTRIPXREC
350
444
  3
AcDbVariableDictionary
350
3E7
  0
DICTIONARY
  5
281
102
{ACAD_REACTORS
330
C
102
}
330
C
100
AcDbDictionary
281
     1
  0
DICTIONARY
  5
D
102
{ACAD_REACTORS
330
C
102
}
330
C
100
AcDbDictionary
281
     1
  0
DICTIONARY
  5
1A
102
{ACAD_REACTORS
330
C
102
}
330
C
100
AcDbDictionary
281
     1
  3
Layout1
350
1E
  3
Layout2
350
26
  3
Model
350
22
  0
DICTIONARY
  5
280
102
{ACAD_REACTORS
330
C
102
}
330
C
100
AcDbDictionary
281
     1
  0
DICTIONARY
  5
17
102
{ACAD_REACTORS
330
C
102
}
330
C
100
AcDbDictionary
281
     1
  3
Standard
350
18
  0
DICTIONARY
  5
19
102
{ACAD_REACTORS
330
C
102
}
330
C
100
AcDbDictionary
281
     1
  0
ACDBDICTIONARYWDFLT
  5
E
102
{ACAD_REACTORS
330
C
102
}
330
C
100
AcDbDictionary
281
     1
  3
Normal
350
F
100
AcDbDictionaryWithDefault
340
F
  0
DICTIONARY
  5
444
102
{ACAD_REACTORS
330
C
102
}
330
C
100
AcDbDictionary
281
     1
  3
COLORDICT
350
446
  3
MATERIALDICT
350
445
  0
DICTIONARY
  5
3E7
102
{ACAD_REACTORS
330
C
102
}
330
C
100
AcDbDictionary
281
     1
  3
DIMASSOC
350
3E8
  3
PROJECTNAME
350
3E9
  0
LAYOUT
  5
1E
102
{ACAD_XDICTIONARY
360
447
102
}
102
{ACAD_REACTORS
330
1A
102
}
330
1A
100
AcDbPlotSettings
  1

  2
Lexmark E210
  4

  6

 40
0.0
 41
0.0
 42
0.0
 43
0.0
 44
0.0
 45
0.0
 46
0.0
 47
0.0
 48
0.0
 49
0.0
140
0.0
141
0.0
142
1.0
143
1.0
 70
   688
 72
     0
 73
     0
 74
     5
  7
monochrome.ctb
 75
    16
147
1.0
148
0.0
149
0.0
100
AcDbLayout
  1
Layout1
 70
     1
 71
     1
 10
0.0
 20
0.0
 11
12.0
 21
9.0
 12
0.0
 22
0.0
 32
0.0
 14
1.000000000000000E+20
 24
1.000000000000000E+20
 34
1.000000000000000E+20
 15
-1.000000000000000E+20
 25
-1.000000000000000E+20
 35
-1.000000000000000E+20
146
0.0
 13
0.0
 23
0.0
 33
0.0
 16
1.0
 26
0.0
 36
0.0
 17
0.0
 27
1.0
 37
0.0
 76
     0
330
1B
  0
LAYOUT
  5
26
102
{ACAD_XDICTIONARY
360
44B
102
}
102
{ACAD_REACTORS
330
1A
102
}
330
1A
100
AcDbPlotSettings
  1

  2
Lexmark E210
  4

  6

 40
0.0
 41
0.0
 42
0.0
 43
0.0
 44
0.0
 45
0.0
 46
0.0
 47
0.0
 48
0.0
 49
0.0
140
0.0
141
0.0
142
1.0
143
1.0
 70
   688
 72
     0
 73
     0
 74
     5
  7
monochrome.ctb
 75
    16
147
1.0
148
0.0
149
0.0
100
AcDbLayout
  1
Layout2
 70
     1
 71
     2
 10
0.0
 20
0.0
 11
12.0
 21
9.0
 12
0.0
 22
0.0
 32
0.0
 14
0.0
 24
0.0
 34
0.0
 15
0.0
 25
0.0
 35
0.0
146
0.0
 13
0.0
 23
0.0
 33
0.0
 16
1.0
 26
0.0
 36
0.0
 17
0.0
 27
1.0
 37
0.0
 76
     0
330
23
  0
LAYOUT
  5
22
102
{ACAD_XDICTIONARY
360
449
102
}
102
{ACAD_REACTORS
330
1A
102
}
330
1A
100
AcDbPlotSettings
  1

  2
true.pc3
  4
Letter
  6

 40
4.233333110809326
 41
4.233341693878173
 42
8.466659545898437
 43
4.23333740234375
 44
215.8999938964844
 45
279.3999938964844
 46
15.494
 47
0.0
 48
0.0
 49
0.0
140
0.0
141
0.0
142
1.0
143
0.7735920477473758
 70
 11956
 72
     0
 73
     1
 74
     1
  7
monochrome.ctb
 75
     0
147
1.292670992303891
148
-40.80216140169901
149
-43.40316525563035
100
AcDbLayout
  1
Model
 70
     1
 71
     0
 10
0.0
 20
0.0
 11
12.0
 21
9.0
 12
0.0
 22
0.0
 32
0.0
 14
0.0
 24
0.0
 34
0.0
 15
0.0
 25
0.0
 35
0.0
146
0.0
 13
0.0
 23
0.0
 33
0.0
 16
1.0
 26
0.0
 36
0.0
 17
0.0
 27
1.0
 37
0.0
 76
     0
330
1F
  0
MLINESTYLE
  5
18
102
{ACAD_REACTORS
330
17
102
}
330
17
100
AcDbMlineStyle
  2
STANDARD
 70
     0
  3

 62
   256
 51
90.0
 52
90.0
 71
     2
 49
0.5
 62
   256
  6
BYLAYER
 49
-0.5
 62
   256
  6
BYLAYER
  0
ACDBPLACEHOLDER
  5
F
102
{ACAD_REACTORS
330
E
102
}
330
E
  0
XRECORD
  5
446
102
{ACAD_REACTORS
330
444
102
}
330
444
100
AcDbXrecord
280
     1
340
281
  0
XRECORD
  5
445
102
{ACAD_REACTORS
330
444
102
}
330
444
100
AcDbXrecord
280
     1
340
280
  0
DICTIONARYVAR
  5
3E8
102
{ACAD_REACTORS
330
3E7
102
}
330
3E7
100
DictionaryVariables
280
     0
  1
1
  0
DICTIONARYVAR
  5
3E9
102
{ACAD_REACTORS
330
3E7
102
}
330
3E7
100
DictionaryVariables
280
     0
  1

  0
DICTIONARY
  5
447
330
1E
100
AcDbDictionary
280
     1
281
     1
  3
ACAD_XREC_ROUNDTRIP
360
448
  0
DICTIONARY
  5
44B
330
26
100
AcDbDictionary
280
     1
281
     1
  3
ACAD_XREC_ROUNDTRIP
360
44C
  0
DICTIONARY
  5
449
330
22
100
AcDbDictionary
280
     1
281
     1
  3
ACAD_XREC_ROUNDTRIP
360
44A
  0
XRECORD
  5
448
102
{ACAD_REACTORS
330
447
102
}
330
447
100
AcDbXrecord
280
     1
102
SHADEPLOT
 70
     0
102
SHADEPLOTRESLEVEL
 70
     2
102
SHADEPLOTCUSTOMDPI
 70
   300
  0
XRECORD
  5
44C
102
{ACAD_REACTORS
330
44B
102
}
330
44B
100
AcDbXrecord
280
     1
102
SHADEPLOT
 70
     0
102
SHADEPLOTRESLEVEL
 70
     2
102
SHADEPLOTCUSTOMDPI
 70
   300
  0
XRECORD
  5
44A
102
{ACAD_REACTORS
330
449
102
}
330
449
100
AcDbXrecord
280
     1
102
SHADEPLOT
 70
     0
102
SHADEPLOTRESLEVEL
 70
     2
102
SHADEPLOTCUSTOMDPI
 70
   300
  0
ENDSEC
  0
EOF
