  0
SECTION
  2
HEADER
  9
$ACADVER
  1
AC1015
  9
$ACADMAINTVER
 70
    20
  9
$DWGCODEPAGE
  3
ANSI_1252
  9
$INSBASE
 10
0.0
 20
0.0
 30
0.0
  9
$EXTMIN
 10
1.290527373192048
 20
1.151229880693403
 30
-0.000000000000013
  9
$EXTMAX
 10
9.541259790702326
 20
6.402008074570922
 30
0.0000000000000023
  9
$LIMMIN
 10
0.0
 20
0.0
  9
$LIMMAX
 10
12.0
 20
9.0
  9
$ORTHOMODE
 70
     0
  9
$REGENMODE
 70
     1
  9
$FILLMODE
 70
     1
  9
$QTEXTMODE
 70
     0
  9
$MIRRTEXT
 70
     1
  9
$LTSCALE
 40
1.0
  9
$ATTMODE
 70
     1
  9
$TEXTSIZE
 40
0.2
  9
$TRACEWID
 40
0.05
  9
$TEXTSTYLE
  7
Standard
  9
$CLAYER
  8
0
  9
$CELTYPE
  6
ByLayer
  9
$CECOLOR
 62
   256
  9
$CELTSCALE
 40
1.0
  9
$DISPSILH
 70
     0
  9
$DIMSCALE
 40
1.0
  9
$DIMASZ
 40
0.18
  9
$DIMEXO
 40
0.0625
  9
$DIMDLI
 40
0.38
  9
$DIMRND
 40
0.0
  9
$DIMDLE
 40
0.0
  9
$DIMEXE
 40
0.18
  9
$DIMTP
 40
0.0
  9
$DIMTM
 40
0.0
  9
$DIMTXT
 40
0.18
  9
$DIMCEN
 40
0.09
  9
$DIMTSZ
 40
0.0
  9
$DIMTOL
 70
     0
  9
$DIMLIM
 70
     0
  9
$DIMTIH
 70
     1
  9
$DIMTOH
 70
     1
  9
$DIMSE1
 70
     0
  9
$DIMSE2
 70
     0
  9
$DIMTAD
 70
     0
  9
$DIMZIN
 70
     0
  9
$DIMBLK
  1

  9
$DIMASO
 70
     1
  9
$DIMSHO
 70
     1
  9
$DIMPOST
  1

  9
$DIMAPOST
  1

  9
$DIMALT
 70
     0
  9
$DIMALTD
 70
     2
  9
$DIMALTF
 40
25.4
  9
$DIMLFAC
 40
1.0
  9
$DIMTOFL
 70
     0
  9
$DIMTVP
 40
0.0
  9
$DIMTIX
 70
     0
  9
$DIMSOXD
 70
     0
  9
$DIMSAH
 70
     0
  9
$DIMBLK1
  1

  9
$DIMBLK2
  1

  9
$DIMSTYLE
  2
Standard
  9
$DIMCLRD
 70
     0
  9
$DIMCLRE
 70
     0
  9
$DIMCLRT
 70
     0
  9
$DIMTFAC
 40
1.0
  9
$DIMGAP
 40
0.09
  9
$DIMJUST
 70
     0
  9
$DIMSD1
 70
     0
  9
$DIMSD2
 70
     0
  9
$DIMTOLJ
 70
     1
  9
$DIMTZIN
 70
     0
  9
$DIMALTZ
 70
     0
  9
$DIMALTTZ
 70
     0
  9
$DIMUPT
 70
     0
  9
$DIMDEC
 70
     4
  9
$DIMTDEC
 70
     4
  9
$DIMALTU
 70
     2
  9
$DIMALTTD
 70
     2
  9
$DIMTXSTY
  7
Standard
  9
$DIMAUNIT
 70
     0
  9
$DIMADEC
 70
     0
  9
$DIMALTRND
 40
0.0
  9
$DIMAZIN
 70
     0
  9
$DIMDSEP
 70
    46
  9
$DIMATFIT
 70
     3
  9
$DIMFRAC
 70
     0
  9
$DIMLDRBLK
  1

  9
$DIMLUNIT
 70
     2
  9
$DIMLWD
 70
    -2
  9
$DIMLWE
 70
    -2
  9
$DIMTMOVE
 70
     0
  9
$LUNITS
 70
     2
  9
$LUPREC
 70
     4
  9
$SKETCHINC
 40
0.1
  9
$FILLETRAD
 40
0.5
  9
$AUNITS
 70
     0
  9
$AUPREC
 70
     0
  9
$MENU
  1
.
  9
$ELEVATION
 40
0.0
  9
$PELEVATION
 40
0.0
  9
$THICKNESS
 40
0.0
  9
$LIMCHECK
 70
     0
  9
$CHAMFERA
 40
0.5
  9
$CHAMFERB
 40
0.5
  9
$CHAMFERC
 40
1.0
  9
$CHAMFERD
 40
0.0
  9
$SKPOLY
 70
     0
  9
$TDCREATE
 40
2452635.329614572
  9
$TDUCREATE
 40
2452635.537947905
  9
$TDUPDATE
 40
2454728.624476273
  9
$TDUUPDATE
 40
2454728.832809607
  9
$TDINDWG
 40
0.1915420602
  9
$TDUSRTIMER
 40
0.1915420602
  9
$USRTIMER
 70
     1
  9
$ANGBASE
 50
0.0
  9
$ANGDIR
 70
     0
  9
$PDMODE
 70
     0
  9
$PDSIZE
 40
0.0
  9
$PLINEWID
 40
0.0
  9
$SPLFRAME
 70
     0
  9
$SPLINETYPE
 70
     6
  9
$SPLINESEGS
 70
     8
  9
$HANDSEED
  5
726
  9
$SURFTAB1
 70
     6
  9
$SURFTAB2
 70
     6
  9
$SURFTYPE
 70
     6
  9
$SURFU
 70
     6
  9
$SURFV
 70
     6
  9
$UCSBASE
  2

  9
$UCSNAME
  2

  9
$UCSORG
 10
0.0
 20
0.0
 30
0.0
  9
$UCSXDIR
 10
1.0
 20
0.0
 30
0.0
  9
$UCSYDIR
 10
0.0
 20
1.0
 30
0.0
  9
$UCSORTHOREF
  2

  9
$UCSORTHOVIEW
 70
     0
  9
$UCSORGTOP
 10
0.0
 20
0.0
 30
0.0
  9
$UCSORGBOTTOM
 10
0.0
 20
0.0
 30
0.0
  9
$UCSORGLEFT
 10
0.0
 20
0.0
 30
0.0
  9
$UCSORGRIGHT
 10
0.0
 20
0.0
 30
0.0
  9
$UCSORGFRONT
 10
0.0
 20
0.0
 30
0.0
  9
$UCSORGBACK
 10
0.0
 20
0.0
 30
0.0
  9
$PUCSBASE
  2

  9
$PUCSNAME
  2

  9
$PUCSORG
 10
0.0
 20
0.0
 30
0.0
  9
$PUCSXDIR
 10
1.0
 20
0.0
 30
0.0
  9
$PUCSYDIR
 10
0.0
 20
1.0
 30
0.0
  9
$PUCSORTHOREF
  2

  9
$PUCSORTHOVIEW
 70
     0
  9
$PUCSORGTOP
 10
0.0
 20
0.0
 30
0.0
  9
$PUCSORGBOTTOM
 10
0.0
 20
0.0
 30
0.0
  9
$PUCSORGLEFT
 10
0.0
 20
0.0
 30
0.0
  9
$PUCSORGRIGHT
 10
0.0
 20
0.0
 30
0.0
  9
$PUCSORGFRONT
 10
0.0
 20
0.0
 30
0.0
  9
$PUCSORGBACK
 10
0.0
 20
0.0
 30
0.0
  9
$USERI1
 70
     0
  9
$USERI2
 70
     0
  9
$USERI3
 70
     0
  9
$USERI4
 70
     0
  9
$USERI5
 70
     0
  9
$USERR1
 40
0.0
  9
$USERR2
 40
0.0
  9
$USERR3
 40
0.0
  9
$USERR4
 40
0.0
  9
$USERR5
 40
0.0
  9
$WORLDVIEW
 70
     1
  9
$SHADEDGE
 70
     3
  9
$SHADEDIF
 70
    70
  9
$TILEMODE
 70
     1
  9
$MAXACTVP
 70
    64
  9
$PINSBASE
 10
0.0
 20
0.0
 30
0.0
  9
$PLIMCHECK
 70
     0
  9
$PEXTMIN
 10
0.0
 20
0.0
 30
0.0
  9
$PEXTMAX
 10
0.0
 20
0.0
 30
0.0
  9
$PLIMMIN
 10
0.0
 20
0.0
  9
$PLIMMAX
 10
12.0
 20
9.0
  9
$UNITMODE
 70
     0
  9
$VISRETAIN
 70
     1
  9
$PLINEGEN
 70
     0
  9
$PSLTSCALE
 70
     1
  9
$TREEDEPTH
 70
  3020
  9
$CMLSTYLE
  2
Standard
  9
$CMLJUST
 70
     0
  9
$CMLSCALE
 40
1.0
  9
$PROXYGRAPHICS
 70
     1
  9
$MEASUREMENT
 70
     0
  9
$CELWEIGHT
370
    -1
  9
$ENDCAPS
280
     0
  9
$JOINSTYLE
280
     0
  9
$LWDISPLAY
290
     0
  9
$INSUNITS
 70
     1
  9
$HYPERLINKBASE
  1

  9
$STYLESHEET
  1
monochrome.ctb
  9
$XEDIT
290
     1
  9
$CEPSNTYPE
380
     0
  9
$PSTYLEMODE
290
     1
  9
$FINGERPRINTGUID
  2
{FDEAD576-A652-11D2-9A35-0060089B3A3F}
  9
$VERSIONGUID
  2
{F8896B32-96E7-4CC6-A4FB-B489E28CCBB6}
  9
$EXTNAMES
290
     1
  9
$PSVPSCALE
 40
0.0
  9
$OLESTARTUP
290
     0
  0
ENDSEC
  0
SECTION
  2
CLASSES
  0
CLASS
  1
ACDBDICTIONARYWDFLT
  2
AcDbDictionaryWithDefault
  3
ObjectDBX Classes
 90
        0
280
     0
281
     0
  0
CLASS
  1
ACDBPLACEHOLDER
  2
AcDbPlaceHolder
  3
ObjectDBX Classes
 90
        0
280
     0
281
     0
  0
CLASS
  1
LAYOUT
  2
AcDbLayout
  3
ObjectDBX Classes
 90
        0
280
     0
281
     0
  0
CLASS
  1
DICTIONARYVAR
  2
AcDbDictionaryVar
  3
ObjectDBX Classes
 90
        0
280
     0
281
     0
  0
CLASS
  1
MATERIAL
  2
AcDbMaterial
  3
ObjectDBX Classes
 90
        0
280
     0
281
     0
  0
CLASS
  1
VISUALSTYLE
  2
AcDbVisualStyle
  3
ObjectDBX Classes
 90
     4095
280
     0
281
     0
  0
CLASS
  1
TABLESTYLE
  2
AcDbTableStyle
  3
ObjectDBX Classes
 90
     4095
280
     0
281
     0
  0
ENDSEC
  0
SECTION
  2
TABLES
  0
TABLE
  2
VPORT
  5
8
102
{ACAD_XDICTIONARY
360
700
102
}
330
0
100
AcDbSymbolTable
 70
     3
  0
VPORT
  5
71B
330
8
100
AcDbSymbolTableRecord
100
AcDbViewportTableRecord
  2
*Active
 70
     0
 10
0.0
 20
0.0
 11
1.0
 21
1.0
 12
5.415893581947187
 22
3.776618977632163
 13
0.0
 23
0.0
 14
0.5
 24
0.5
 15
0.5
 25
0.5
 16
0.0
 26
0.0
 36
1.0
 17
0.0
 27
0.0
 37
0.0
 40
5.545189497268501
 41
1.495145631067961
 42
50.0
 43
0.0
 44
0.0
 50
0.0
 51
0.0
 71
     0
 72
   100
 73
     1
 74
     3
 75
     0
 76
     0
 77
     0
 78
     0
281
     0
 65
     1
110
0.0
120
0.0
130
0.0
111
1.0
121
0.0
131
0.0
112
0.0
122
1.0
132
0.0
 79
     0
146
0.0
  0
ENDTAB
  0
TABLE
  2
LTYPE
  5
5
330
0
100
AcDbSymbolTable
 70
     2
  0
LTYPE
  5
14
330
5
100
AcDbSymbolTableRecord
100
AcDbLinetypeTableRecord
  2
ByBlock
 70
     0
  3

 72
    65
 73
     0
 40
0.0
  0
LTYPE
  5
15
330
5
100
AcDbSymbolTableRecord
100
AcDbLinetypeTableRecord
  2
ByLayer
 70
     0
  3

 72
    65
 73
     0
 40
0.0
  0
LTYPE
  5
16
330
5
100
AcDbSymbolTableRecord
100
AcDbLinetypeTableRecord
  2
Continuous
 70
     0
  3
Solid line
 72
    65
 73
     0
 40
0.0
  0
LTYPE
  5
365
330
5
100
AcDbSymbolTableRecord
100
AcDbLinetypeTableRecord
  2
CENTER
 70
     0
  3
Center ____ _ ____ _ ____ _ ____ _ ____ _ ____
 72
    65
 73
     4
 40
2.0
 49
1.25
 74
     0
 49
-0.25
 74
     0
 49
0.25
 74
     0
 49
-0.25
 74
     0
  0
ENDTAB
  0
TABLE
  2
LAYER
  5
2
330
0
100
AcDbSymbolTable
 70
     5
  0
LAYER
  5
10
102
{ACAD_XDICTIONARY
360
702
102
}
330
2
100
AcDbSymbolTableRecord
100
AcDbLayerTableRecord
  2
0
 70
     0
 62
     7
  6
Continuous
370
    -3
390
F
  0
LAYER
  5
6D
102
{ACAD_XDICTIONARY
360
704
102
}
330
2
100
AcDbSymbolTableRecord
100
AcDbLayerTableRecord
  2
1
 70
     0
 62
     1
  6
Continuous
370
    -3
390
F
  0
LAYER
  5
6E
102
{ACAD_XDICTIONARY
360
706
102
}
330
2
100
AcDbSymbolTableRecord
100
AcDbLayerTableRecord
  2
4
 70
     0
 62
     4
  6
Continuous
370
    -3
390
F
  0
LAYER
  5
6F
102
{ACAD_XDICTIONARY
360
708
102
}
330
2
100
AcDbSymbolTableRecord
100
AcDbLayerTableRecord
  2
8
 70
     0
 62
     2
  6
Continuous
370
    -3
390
F
  0
LAYER
  5
366
102
{ACAD_XDICTIONARY
360
70A
102
}
330
2
100
AcDbSymbolTableRecord
100
AcDbLayerTableRecord
  2
CONSTRUCTION
 70
     0
 62
     1
  6
Continuous
370
    -3
390
F
  0
ENDTAB
  0
TABLE
  2
STYLE
  5
3
330
0
100
AcDbSymbolTable
 70
     2
  0
STYLE
  5
11
330
3
100
AcDbSymbolTableRecord
100
AcDbTextStyleTableRecord
  2
Standard
 70
     0
 40
0.0
 41
1.0
 50
0.0
 71
     0
 42
0.2
  3
txt
  4

  0
STYLE
  5
70
330
3
100
AcDbSymbolTableRecord
100
AcDbTextStyleTableRecord
  2
ROMANS
 70
     0
 40
0.0
 41
1.0
 50
0.0
 71
     0
 42
0.07
  3
ROMANS
  4

  0
ENDTAB
  0
TABLE
  2
VIEW
  5
6
330
0
100
AcDbSymbolTable
 70
     0
  0
ENDTAB
  0
TABLE
  2
UCS
  5
7
330
0
100
AcDbSymbolTable
 70
     0
  0
ENDTAB
  0
TABLE
  2
APPID
  5
9
330
0
100
AcDbSymbolTable
 70
     2
  0
APPID
  5
12
330
9
100
AcDbSymbolTableRecord
100
AcDbRegAppTableRecord
  2
ACAD
 70
     0
  0
APPID
  5
6FF
330
9
100
AcDbSymbolTableRecord
100
AcDbRegAppTableRecord
  2
ACAD_PSEXT
 70
     0
  0
ENDTAB
  0
TABLE
  2
DIMSTYLE
  5
A
330
0
100
AcDbSymbolTable
 70
     1
100
AcDbDimStyleTable
 71
     1
340
27
  0
DIMSTYLE
105
27
330
A
100
AcDbSymbolTableRecord
100
AcDbDimStyleTableRecord
  2
Standard
 70
     0
340
11
  0
ENDTAB
  0
TABLE
  2
BLOCK_RECORD
  5
1
330
0
100
AcDbSymbolTable
 70
     8
  0
BLOCK_RECORD
  5
1F
330
1
100
AcDbSymbolTableRecord
100
AcDbBlockTableRecord
  2
*Model_Space
340
22
  0
BLOCK_RECORD
  5
58
330
1
100
AcDbSymbolTableRecord
100
AcDbBlockTableRecord
  2
*Paper_Space
340
59
  0
BLOCK_RECORD
  5
5D
330
1
100
AcDbSymbolTableRecord
100
AcDbBlockTableRecord
  2
*Paper_Space0
340
5E
  0
BLOCK_RECORD
  5
65
330
1
100
AcDbSymbolTableRecord
100
AcDbBlockTableRecord
  2
ARRO
340
0
102
{BLKREFS
331
79
331
DC
331
DD
331
DE
331
DF
331
E0
331
E4
331
E5
331
E9
331
EA
331
13B
331
13F
331
37A
331
3DD
331
3DE
331
3DF
331
3E0
331
3E1
331
3E5
331
3E6
331
3EA
331
3EB
102
}
  0
BLOCK_RECORD
  5
71
330
1
100
AcDbSymbolTableRecord
100
AcDbBlockTableRecord
  2
LE1001
340
0
  0
BLOCK_RECORD
  5
131
330
1
100
AcDbSymbolTableRecord
100
AcDbBlockTableRecord
  2
T1
340
0
102
{BLKREFS
331
2F9
331
5E4
102
}
  0
BLOCK_RECORD
  5
135
330
1
100
AcDbSymbolTableRecord
100
AcDbBlockTableRecord
  2
TEMP3
340
0
102
{BLKREFS
331
13C
102
}
  0
BLOCK_RECORD
  5
13A
330
1
100
AcDbSymbolTableRecord
100
AcDbBlockTableRecord
  2
A$C254C497B
340
0
102
{BLKREFS
331
150
331
43B
102
}
  0
BLOCK_RECORD
  5
144
330
1
100
AcDbSymbolTableRecord
100
AcDbBlockTableRecord
  2
SPL2CORRIDOR6H72
340
0
310
28000000200000002000000001000800000000000004000000000000000000000000000000000000000000004000000080000000FF000000002000004020000080200000FF200000004000004040000080400000FF400000006000004060000080600000FF600000008000004080000080800000FF80000000A0000040A000
310
0080A00000FFA0000000C0000040C0000080C00000FFC0000000FF000040FF000080FF0000FFFF0000000020004000200080002000FF002000002020004020200080202000FF202000004020004040200080402000FF402000006020004060200080602000FF602000008020004080200080802000FF80200000A0200040A0
310
200080A02000FFA0200000C0200040C0200080C02000FFC0200000FF200040FF200080FF2000FFFF2000000040004000400080004000FF004000002040004020400080204000FF204000004040004040400080404000FF404000006040004060400080604000FF604000008040004080400080804000FF80400000A0400040
310
A0400080A04000FFA0400000C0400040C0400080C04000FFC0400000FF400040FF400080FF4000FFFF4000000060004000600080006000FF006000002060004020600080206000FF206000004060004040600080406000FF406000006060004060600080606000FF606000008060004080600080806000FF80600000A06000
310
40A0600080A06000FFA0600000C0600040C0600080C06000FFC0600000FF600040FF600080FF6000FFFF6000000080004000800080008000FF008000002080004020800080208000FF208000004080004040800080408000FF408000006080004060800080608000FF608000008080004080800080808000FF80800000A080
310
0040A0800080A08000FFA0800000C0800040C0800080C08000FFC0800000FF800040FF800080FF8000FFFF80000000A0004000A0008000A000FF00A0000020A0004020A0008020A000FF20A0000040A0004040A0008040A000FF40A0000060A0004060A0008060A000FF60A0000080A0004080A0008080A000FF80A00000A0
310
A00040A0A00080A0A000FFA0A00000C0A00040C0A00080C0A000FFC0A00000FFA00040FFA00080FFA000FFFFA0000000C0004000C0008000C000FF00C0000020C0004020C0008020C000FF20C0000040C0004040C0008040C000FF40C0000060C0004060C0008060C000FF60C0000080C0004080C0008080C000FF80C00000
310
A0C00040A0C00080A0C000FFA0C00000C0C00040C0C00080C0C000FFC0C00000FFC00040FFC00080FFC000FFFFC0000000FF004000FF008000FF00FF00FF000020FF004020FF008020FF00FF20FF000040FF004040FF008040FF00FF40FF000060FF004060FF008060FF00FF60FF000080FF004080FF008080FF00FF80FF00
310
00A0FF0040A0FF0080A0FF00FFA0FF0000C0FF0040C0FF0080C0FF00FFC0FF0000FFFF0040FFFF0080FFFF00FFFFFF0000000000000000000000000000000000000000000000000000000000000000000000000000000000000000000000000000000000000000000000000000000000000000000000000000000000000000
310
00000000000000000000000000000000000000000000000000000000000000000000000000000000000000000000000000000000000000000000000000000000000000000000000000000000000000000000000000000000000000000000000000000000000000000000000000000000000000000000000000000000000000
310
000000000000000000000000000000000000001F00000000000000000000000000000000000000000000000000000000000000000000000000FCFCFCFCFCFCFCFCFCFCFCFCFCFCFCFCFCFCFCFC0000000000000000000000000000000000000000000000000000000000000000000000000000000000000000000000000000
310
000000000000000000000000000000000000000000000000000000000000000000000000000000000000000000000000000000000000000000000000000000000000000000000000000000000000000000000000000000001F1F1F0000000000000000000000001F000000001F0000001F1F0000000000001F1F1F00000000
310
00000000000000001F000000001F000000001F0000000000FC1F1F1F1F1F1F1F1F1F1F00000000001F1F1F00001F1F1F1F1F1F0000000000FC1F1F1F00000000000000000000FC001F000000001F000000001F0000000000FC1F1F1F1F1F1F1F1F1F1F00000000001F1F1F00001F1F1F1F1F1F0000000000FC1F1F1F1F1F1F
310
1F1F1F1F00000000001F001F00001F001F001F1F00000000001F1F1F1F1F1F1F1F1F1F1F00000000001F1F1F00001F1F1F1F1F1F00000000001F1F1F1F1F1F1F1F1F1F1F00000000001F1F1F00001F1F1F1F1F1F0000000000FC1F1F1F0000000000000000000000001F000000001F000000001F0000000000FC1F1F1F1F1F
310
1F1F1F1F1F00000000001F1F1F00001F1F1F1F1F1F0000000000FC1F1F1F0000000000000000000000001F000000001F000000001F0000000000001F1F1F0000000000000000000000001F000000001F0000001F1F000000000000000000000000000000000000000000000000000000000000000000000000000000000000
310
00000000000000000000000000000000000000000000000000000000000000000000000000000000000000000000000000000000000000000000000000000000000000000000000000000000000000000000000000000000000000000000000000000000000000000000000000000000000000000000000000000000000000
310
0000000000000000000000000000000000000000000000000000000000000000000000000000000000000000000000000000000000000000
102
{BLKREFS
331
368
102
}
1001
ACAD
1000
DesignCenter Data
1002
{
1070
     1
1070
     1
1002
}
  0
BLOCK_RECORD
  5
367
330
1
100
AcDbSymbolTableRecord
100
AcDbBlockTableRecord
  2
LE1225
340
0
1001
ACAD
1000
DesignCenter Data
1002
{
1070
     1
1070
     1
1002
}
  0
ENDTAB
  0
ENDSEC
  0
SECTION
  2
BLOCKS
  0
BLOCK
  5
20
330
1F
100
AcDbEntity
  8
0
100
AcDbBlockBegin
  2
*Model_Space
 70
     0
 10
0.0
 20
0.0
 30
0.0
  3
*Model_Space
  1

  0
ENDBLK
  5
21
330
1F
100
AcDbEntity
  8
0
100
AcDbBlockEnd
  0
BLOCK
  5
5A
330
58
100
AcDbEntity
 67
     1
  8
0
100
AcDbBlockBegin
  2
*Paper_Space
 70
     0
 10
0.0
 20
0.0
 30
0.0
  3
*Paper_Space
  1

  0
ENDBLK
  5
5B
330
58
100
AcDbEntity
 67
     1
  8
0
100
AcDbBlockEnd
  0
BLOCK
  5
5F
330
5D
100
AcDbEntity
  8
0
100
AcDbBlockBegin
  2
*Paper_Space0
 70
     0
 10
0.0
 20
0.0
 30
0.0
  3
*Paper_Space0
  1

  0
ENDBLK
  5
60
330
5D
100
AcDbEntity
  8
0
100
AcDbBlockEnd
  0
BLOCK
  5
6B
330
65
100
AcDbEntity
  8
4
100
AcDbBlockBegin
  2
ARRO
 70
     0
 10
0.0
 20
0.0
 30
0.0
  3
ARRO
  1

  0
LINE
  5
66
330
65
100
AcDbEntity
  8
4
100
AcDbLine
 10
0.1250000000000018
 20
0.0199999999999996
 30
0.0
 11
0.1250000000000018
 21
-0.0200000000000005
 31
0.0
  0
LINE
  5
67
330
65
100
AcDbEntity
  8
4
100
AcDbLine
 10
0.1250000000000018
 20
-0.0100000000000007
 30
0.0
 11
0.0000000000000009
 21
0.0
 31
0.0
  0
LINE
  5
68
330
65
100
AcDbEntity
  8
4
100
AcDbLine
 10
0.1250000000000018
 20
0.0099999999999989
 30
0.0
 11
0.0000000000000018
 21
0.0
 31
0.0
  0
LINE
  5
69
330
65
100
AcDbEntity
  8
4
100
AcDbLine
 10
0.0000000000000018
 20
0.0
 30
0.0
 11
0.1250000000000018
 21
-0.0200000000000005
 31
0.0
  0
LINE
  5
6A
330
65
100
AcDbEntity
  8
4
100
AcDbLine
 10
0.1250000000000018
 20
0.0199999999999996
 30
0.0
 11
0.0000000000000018
 21
0.0
 31
0.0
  0
ENDBLK
  5
6C
330
65
100
AcDbEntity
  8
4
100
AcDbBlockEnd
  0
BLOCK
  5
12D
330
71
100
AcDbEntity
  8
0
100
AcDbBlockBegin
  2
LE1001
 70
     0
 10
0.0
 20
0.0
 30
0.0
  3
LE1001
  1

  0
TEXT
  5
72
330
71
100
AcDbEntity
  8
8
100
AcDbText
 10
5.2125
 20
1.691660711643185
 30
0.0
 40
0.07
  1
DEPTH
  7
ROMANS
 72
     1
 11
5.3775
 21
1.691660711643185
 31
0.0
100
AcDbText
  0
TEXT
  5
73
330
71
100
AcDbEntity
  8
8
100
AcDbText
 10
6.834999999999999
 20
1.691660711643185
 30
0.0
 40
0.07
  1
DEPTH
  7
ROMANS
 72
     1
 11
7.0
 21
1.691660711643185
 31
0.0
100
AcDbText
  0
TEXT
  5
74
330
71
100
AcDbEntity
  8
8
100
AcDbText
 10
6.899267058502116
 20
0.7466010068253098
 30
0.0
 40
0.1
  1
DR
  7
ROMANS
 72
     1
 11
7.001648010883068
 21
0.7466010068253098
 31
0.0
100
AcDbText
  0
TEXT
  5
75
330
71
100
AcDbEntity
  8
8
100
AcDbText
 10
5.794389324558379
 20
0.5620000000000003
 30
0.0
 40
0.1
  1
SECTIONS
  7
ROMANS
 72
     1
 11
6.146770276939331
 21
0.5620000000000003
 31
0.0
100
AcDbText
  0
TEXT
  5
76
330
71
100
AcDbEntity
  8
8
100
AcDbText
 10
5.302053163126957
 20
0.7466010068253098
 30
0.0
 40
0.1
  1
SR
  7
ROMANS
 72
     1
 11
5.399672210746004
 21
0.7466010068253098
 31
0.0
100
AcDbText
  0
LINE
  5
77
330
71
100
AcDbEntity
  8
4
100
AcDbLine
 10
5.628
 20
4.25
 30
0.0
 11
5.891731602665403
 21
4.25
 31
0.0
  0
LINE
  5
78
330
71
100
AcDbEntity
  8
4
100
AcDbLine
 10
5.93215881233783
 20
4.25
 30
0.0
 11
6.112622609161773
 21
4.25
 31
0.0
  0
INSERT
  5
79
330
71
100
AcDbEntity
  8
4
100
AcDbBlockReference
  2
ARRO
 10
5.93215881233783
 20
4.25
 30
0.0
  0
LINE
  5
7A
330
71
100
AcDbEntity
  8
4
100
AcDbLine
 10
6.112622609161773
 20
4.25
 30
0.0
 11
6.112622609161773
 21
4.047012330209487
 31
0.0
  0
TEXT
  5
7B
330
71
100
AcDbEntity
  8
8
100
AcDbText
 10
6.147622609161773
 20
2.671678996876154
 30
0.0
 40
0.07
  1
ANCHORING BY ERECTOR
 50
90.0
  7
ROMANS
 72
     2
 11
6.147622609161773
 21
3.985012330209487
 31
0.0
100
AcDbText
  0
TEXT
  5
7C
330
71
100
AcDbEntity
  8
8
100
AcDbText
 10
4.500499999999999
 20
2.578333333333333
 30
0.0
 40
0.07
  1
LOCKER HEIGHT
 50
90.0
  7
ROMANS
 72
     1
 11
4.500499999999999
 21
3.0
 31
0.0
100
AcDbText
  0
TEXT
  5
7D
330
71
100
AcDbEntity
  8
8
100
AcDbText
 10
1.344999999999998
 20
1.062
 30
0.0
 40
0.07
  1
LOCKER WIDTH - SEE SCHEDULE
  7
ROMANS
 72
     1
 11
2.249999999999999
 21
1.062
 31
0.0
100
AcDbText
  0
TEXT
  5
7E
330
71
100
AcDbEntity
  8
8
100
AcDbText
 10
1.585714285714285
 20
0.5620000000000003
 30
0.0
 40
0.1
  1
FRONT ELEVATION
  7
ROMANS
 72
     1
 11
2.249999999999999
 21
0.5620000000000003
 31
0.0
100
AcDbText
  0
LINE
  5
7F
330
71
100
AcDbEntity
  8
1
100
AcDbLine
 10
5.203499999999999
 20
1.5625
 30
0.0
 11
5.188499999999999
 21
1.547499999999999
 31
0.0
  0
LINE
  5
80
330
71
100
AcDbEntity
  8
1
100
AcDbLine
 10
5.188499999999999
 20
1.547499999999999
 30
0.0
 11
5.090499999999999
 21
1.547499999999999
 31
0.0
  0
LINE
  5
81
330
71
100
AcDbEntity
  8
1
100
AcDbLine
 10
5.090499999999999
 20
1.547499999999999
 30
0.0
 11
5.090499999999999
 21
1.519253857562439
 31
0.0
  0
LINE
  5
82
330
71
100
AcDbEntity
  8
1
100
AcDbLine
 10
5.265499999999999
 20
1.500499999999999
 30
0.0
 11
5.203499999999999
 21
1.5625
 31
0.0
  0
LINE
  5
83
330
71
100
AcDbEntity
  8
1
100
AcDbLine
 10
5.630499999999999
 20
1.500499999999999
 30
0.0
 11
5.265499999999999
 21
1.500499999999999
 31
0.0
  0
LINE
  5
84
330
71
100
AcDbEntity
  8
1
100
AcDbLine
 10
5.630499999999999
 20
1.5625
 30
0.0
 11
5.630499999999999
 21
1.500499999999999
 31
0.0
  0
LINE
  5
85
330
71
100
AcDbEntity
  8
1
100
AcDbLine
 10
5.670499999999999
 20
1.5625
 30
0.0
 11
5.670499999999999
 21
1.500499999999999
 31
0.0
  0
LINE
  5
86
330
71
100
AcDbEntity
  8
1
100
AcDbLine
 10
5.065499999999999
 20
1.5625
 30
0.0
 11
5.173499999999998
 21
1.5625
 31
0.0
  0
LINE
  5
87
330
71
100
AcDbEntity
  8
1
100
AcDbLine
 10
5.065499999999999
 20
1.500499999999999
 30
0.0
 11
5.065499999999999
 21
1.5625
 31
0.0
  0
LINE
  5
88
330
71
100
AcDbEntity
  8
1
100
AcDbLine
 10
5.127499999999999
 20
1.500499999999999
 30
0.0
 11
5.065499999999999
 21
1.500499999999999
 31
0.0
  0
LINE
  5
89
330
71
100
AcDbEntity
  8
1
100
AcDbLine
 10
5.203499999999999
 20
1.5625
 30
0.0
 11
5.670499999999999
 21
1.5625
 31
0.0
  0
LINE
  5
8A
330
71
100
AcDbEntity
  8
1
100
AcDbLine
 10
6.513499999999998
 20
1.5625
 30
0.0
 11
6.980499999999999
 21
1.5625
 31
0.0
  0
LINE
  5
8B
330
71
100
AcDbEntity
  8
1
100
AcDbLine
 10
6.437499999999999
 20
1.500499999999999
 30
0.0
 11
6.375499999999998
 21
1.500499999999999
 31
0.0
  0
LINE
  5
8C
330
71
100
AcDbEntity
  8
1
100
AcDbLine
 10
6.375499999999998
 20
1.500499999999999
 30
0.0
 11
6.375499999999998
 21
1.5625
 31
0.0
  0
LINE
  5
8D
330
71
100
AcDbEntity
  8
1
100
AcDbLine
 10
6.375499999999998
 20
1.5625
 30
0.0
 11
6.483499999999998
 21
1.5625
 31
0.0
  0
LINE
  5
8E
330
71
100
AcDbEntity
  8
1
100
AcDbLine
 10
6.980499999999999
 20
1.5625
 30
0.0
 11
6.980499999999999
 21
1.500499999999999
 31
0.0
  0
LINE
  5
8F
330
71
100
AcDbEntity
  8
1
100
AcDbLine
 10
6.940499999999999
 20
1.5625
 30
0.0
 11
6.940499999999999
 21
1.500499999999999
 31
0.0
  0
LINE
  5
90
330
71
100
AcDbEntity
  8
1
100
AcDbLine
 10
6.940499999999999
 20
1.500499999999999
 30
0.0
 11
6.575499999999999
 21
1.500499999999999
 31
0.0
  0
LINE
  5
91
330
71
100
AcDbEntity
  8
1
100
AcDbLine
 10
6.575499999999999
 20
1.500499999999999
 30
0.0
 11
6.513499999999998
 21
1.5625
 31
0.0
  0
LINE
  5
92
330
71
100
AcDbEntity
  8
1
100
AcDbLine
 10
6.400499999999999
 20
1.547499999999999
 30
0.0
 11
6.400499999999999
 21
1.519253857562439
 31
0.0
  0
LINE
  5
93
330
71
100
AcDbEntity
  8
1
100
AcDbLine
 10
6.498499999999999
 20
1.547499999999999
 30
0.0
 11
6.400499999999999
 21
1.547499999999999
 31
0.0
  0
LINE
  5
94
330
71
100
AcDbEntity
  8
1
100
AcDbLine
 10
6.513499999999998
 20
1.5625
 30
0.0
 11
6.498499999999999
 21
1.547499999999999
 31
0.0
  0
LINE
  5
95
330
71
100
AcDbEntity
  8
1
100
AcDbLine
 10
7.486500000000001
 20
1.5625
 30
0.0
 11
7.5015
 21
1.547499999999999
 31
0.0
  0
LINE
  5
96
330
71
100
AcDbEntity
  8
1
100
AcDbLine
 10
7.5015
 20
1.547499999999999
 30
0.0
 11
7.5995
 21
1.547499999999999
 31
0.0
  0
LINE
  5
97
330
71
100
AcDbEntity
  8
1
100
AcDbLine
 10
7.5995
 20
1.547499999999999
 30
0.0
 11
7.5995
 21
1.519253857562439
 31
0.0
  0
LINE
  5
98
330
71
100
AcDbEntity
  8
1
100
AcDbLine
 10
7.4245
 20
1.500499999999999
 30
0.0
 11
7.486500000000001
 21
1.5625
 31
0.0
  0
LINE
  5
99
330
71
100
AcDbEntity
  8
1
100
AcDbLine
 10
7.0595
 20
1.500499999999999
 30
0.0
 11
7.4245
 21
1.500499999999999
 31
0.0
  0
LINE
  5
9A
330
71
100
AcDbEntity
  8
1
100
AcDbLine
 10
7.0595
 20
1.5625
 30
0.0
 11
7.0595
 21
1.500499999999999
 31
0.0
  0
LINE
  5
9B
330
71
100
AcDbEntity
  8
1
100
AcDbLine
 10
7.0195
 20
1.5625
 30
0.0
 11
7.0195
 21
1.500499999999999
 31
0.0
  0
LINE
  5
9C
330
71
100
AcDbEntity
  8
1
100
AcDbLine
 10
7.624500000000001
 20
1.5625
 30
0.0
 11
7.516500000000001
 21
1.5625
 31
0.0
  0
LINE
  5
9D
330
71
100
AcDbEntity
  8
1
100
AcDbLine
 10
7.624500000000001
 20
1.500499999999999
 30
0.0
 11
7.624500000000001
 21
1.5625
 31
0.0
  0
LINE
  5
9E
330
71
100
AcDbEntity
  8
1
100
AcDbLine
 10
7.5625
 20
1.500499999999999
 30
0.0
 11
7.624500000000001
 21
1.500499999999999
 31
0.0
  0
LINE
  5
9F
330
71
100
AcDbEntity
  8
1
100
AcDbLine
 10
7.486500000000001
 20
1.5625
 30
0.0
 11
7.0195
 21
1.5625
 31
0.0
  0
LINE
  5
A0
330
71
100
AcDbEntity
  8
1
100
AcDbLine
 10
7.486500000000001
 20
4.5
 30
0.0
 11
7.0195
 21
4.5
 31
0.0
  0
LINE
  5
A1
330
71
100
AcDbEntity
  8
1
100
AcDbLine
 10
7.5625
 20
4.437999999999999
 30
0.0
 11
7.624500000000001
 21
4.437999999999999
 31
0.0
  0
LINE
  5
A2
330
71
100
AcDbEntity
  8
1
100
AcDbLine
 10
7.624500000000001
 20
4.437999999999999
 30
0.0
 11
7.624500000000001
 21
4.5
 31
0.0
  0
LINE
  5
A3
330
71
100
AcDbEntity
  8
1
100
AcDbLine
 10
7.624500000000001
 20
4.5
 30
0.0
 11
7.516500000000001
 21
4.5
 31
0.0
  0
LINE
  5
A4
330
71
100
AcDbEntity
  8
1
100
AcDbLine
 10
7.0195
 20
4.5
 30
0.0
 11
7.0195
 21
4.437999999999999
 31
0.0
  0
LINE
  5
A5
330
71
100
AcDbEntity
  8
1
100
AcDbLine
 10
7.0595
 20
4.5
 30
0.0
 11
7.0595
 21
4.437999999999999
 31
0.0
  0
LINE
  5
A6
330
71
100
AcDbEntity
  8
1
100
AcDbLine
 10
7.0595
 20
4.437999999999999
 30
0.0
 11
7.4245
 21
4.437999999999999
 31
0.0
  0
LINE
  5
A7
330
71
100
AcDbEntity
  8
1
100
AcDbLine
 10
7.4245
 20
4.437999999999999
 30
0.0
 11
7.486500000000001
 21
4.5
 31
0.0
  0
LINE
  5
A8
330
71
100
AcDbEntity
  8
1
100
AcDbLine
 10
7.5995
 20
4.484999999999999
 30
0.0
 11
7.5995
 21
4.456753857562439
 31
0.0
  0
LINE
  5
A9
330
71
100
AcDbEntity
  8
1
100
AcDbLine
 10
7.5015
 20
4.484999999999999
 30
0.0
 11
7.5995
 21
4.484999999999999
 31
0.0
  0
LINE
  5
AA
330
71
100
AcDbEntity
  8
1
100
AcDbLine
 10
7.486500000000001
 20
4.5
 30
0.0
 11
7.5015
 21
4.484999999999999
 31
0.0
  0
LINE
  5
AB
330
71
100
AcDbEntity
  8
1
100
AcDbLine
 10
6.513499999999998
 20
4.5
 30
0.0
 11
6.498499999999999
 21
4.484999999999999
 31
0.0
  0
LINE
  5
AC
330
71
100
AcDbEntity
  8
1
100
AcDbLine
 10
6.498499999999999
 20
4.484999999999999
 30
0.0
 11
6.400499999999999
 21
4.484999999999999
 31
0.0
  0
LINE
  5
AD
330
71
100
AcDbEntity
  8
1
100
AcDbLine
 10
6.400499999999999
 20
4.484999999999999
 30
0.0
 11
6.400499999999999
 21
4.456753857562439
 31
0.0
  0
LINE
  5
AE
330
71
100
AcDbEntity
  8
1
100
AcDbLine
 10
6.575499999999999
 20
4.437999999999999
 30
0.0
 11
6.513499999999998
 21
4.5
 31
0.0
  0
LINE
  5
AF
330
71
100
AcDbEntity
  8
1
100
AcDbLine
 10
6.940499999999999
 20
4.437999999999999
 30
0.0
 11
6.575499999999999
 21
4.437999999999999
 31
0.0
  0
LINE
  5
B0
330
71
100
AcDbEntity
  8
1
100
AcDbLine
 10
6.940499999999999
 20
4.5
 30
0.0
 11
6.940499999999999
 21
4.437999999999999
 31
0.0
  0
LINE
  5
B1
330
71
100
AcDbEntity
  8
1
100
AcDbLine
 10
6.980499999999999
 20
4.5
 30
0.0
 11
6.980499999999999
 21
4.437999999999999
 31
0.0
  0
LINE
  5
B2
330
71
100
AcDbEntity
  8
1
100
AcDbLine
 10
6.375499999999998
 20
4.5
 30
0.0
 11
6.483499999999998
 21
4.5
 31
0.0
  0
LINE
  5
B3
330
71
100
AcDbEntity
  8
1
100
AcDbLine
 10
6.375499999999998
 20
4.437999999999999
 30
0.0
 11
6.375499999999998
 21
4.5
 31
0.0
  0
LINE
  5
B4
330
71
100
AcDbEntity
  8
1
100
AcDbLine
 10
6.437499999999999
 20
4.437999999999999
 30
0.0
 11
6.375499999999998
 21
4.437999999999999
 31
0.0
  0
LINE
  5
B5
330
71
100
AcDbEntity
  8
1
100
AcDbLine
 10
6.513499999999998
 20
4.5
 30
0.0
 11
6.980499999999999
 21
4.5
 31
0.0
  0
LINE
  5
B6
330
71
100
AcDbEntity
  8
1
100
AcDbLine
 10
5.203499999999999
 20
4.5
 30
0.0
 11
5.670499999999999
 21
4.5
 31
0.0
  0
LINE
  5
B7
330
71
100
AcDbEntity
  8
1
100
AcDbLine
 10
5.127499999999999
 20
4.437999999999999
 30
0.0
 11
5.065499999999999
 21
4.437999999999999
 31
0.0
  0
LINE
  5
B8
330
71
100
AcDbEntity
  8
1
100
AcDbLine
 10
5.065499999999999
 20
4.437999999999999
 30
0.0
 11
5.065499999999999
 21
4.5
 31
0.0
  0
LINE
  5
B9
330
71
100
AcDbEntity
  8
1
100
AcDbLine
 10
5.065499999999999
 20
4.5
 30
0.0
 11
5.173499999999998
 21
4.5
 31
0.0
  0
LINE
  5
BA
330
71
100
AcDbEntity
  8
1
100
AcDbLine
 10
5.670499999999999
 20
4.5
 30
0.0
 11
5.670499999999999
 21
4.437999999999999
 31
0.0
  0
LINE
  5
BB
330
71
100
AcDbEntity
  8
1
100
AcDbLine
 10
5.630499999999999
 20
4.5
 30
0.0
 11
5.630499999999999
 21
4.437999999999999
 31
0.0
  0
LINE
  5
BC
330
71
100
AcDbEntity
  8
1
100
AcDbLine
 10
5.630499999999999
 20
4.437999999999999
 30
0.0
 11
5.265499999999999
 21
4.437999999999999
 31
0.0
  0
LINE
  5
BD
330
71
100
AcDbEntity
  8
1
100
AcDbLine
 10
5.265499999999999
 20
4.437999999999999
 30
0.0
 11
5.203499999999999
 21
4.5
 31
0.0
  0
LINE
  5
BE
330
71
100
AcDbEntity
  8
1
100
AcDbLine
 10
5.090499999999999
 20
4.484999999999999
 30
0.0
 11
5.090499999999999
 21
4.456753857562439
 31
0.0
  0
LINE
  5
BF
330
71
100
AcDbEntity
  8
1
100
AcDbLine
 10
5.188499999999999
 20
4.484999999999999
 30
0.0
 11
5.090499999999999
 21
4.484999999999999
 31
0.0
  0
LINE
  5
C0
330
71
100
AcDbEntity
  8
1
100
AcDbLine
 10
5.203499999999999
 20
4.5
 30
0.0
 11
5.188499999999999
 21
4.484999999999999
 31
0.0
  0
LINE
  5
C1
330
71
100
AcDbEntity
  8
1
100
AcDbLine
 10
1.062
 20
1.562
 30
0.0
 11
1.562999999999999
 21
1.562
 31
0.0
  0
LINE
  5
C2
330
71
100
AcDbEntity
  8
4
100
AcDbLine
 10
1.872866710308013
 20
1.373999999999999
 30
0.0
 11
1.934866710308013
 21
1.373999999999999
 31
0.0
  0
CIRCLE
  5
C3
330
71
100
AcDbEntity
  8
4
100
AcDbCircle
 10
2.028866710308013
 20
1.373999999999999
 30
0.0
 40
0.094
  0
LINE
  5
C4
330
71
100
AcDbEntity
  8
4
100
AcDbLine
 10
1.778866710308013
 20
1.467999999999999
 30
0.0
 11
1.778866710308013
 21
1.592999999999999
 31
0.0
  0
CIRCLE
  5
C5
330
71
100
AcDbEntity
  8
4
100
AcDbCircle
 10
1.778866710308013
 20
1.373999999999999
 30
0.0
 40
0.094
  0
CIRCLE
  5
C6
330
71
100
AcDbEntity
  8
4
100
AcDbCircle
 10
1.9375
 20
4.312
 30
0.0
 40
0.094
  0
LINE
  5
C7
330
71
100
AcDbEntity
  8
4
100
AcDbLine
 10
1.9375
 20
4.406
 30
0.0
 11
1.9375
 21
4.531
 31
0.0
  0
LINE
  5
C8
330
71
100
AcDbEntity
  8
1
100
AcDbLine
 10
2.499999999999999
 20
1.562
 30
0.0
 11
2.312
 21
1.562
 31
0.0
  0
LINE
  5
C9
330
71
100
AcDbEntity
  8
1
100
AcDbLine
 10
2.625
 20
4.438
 30
0.0
 11
2.813
 21
4.438
 31
0.0
  0
LINE
  5
CA
330
71
100
AcDbEntity
  8
1
100
AcDbLine
 10
2.875
 20
1.5
 30
0.0
 11
2.875
 21
4.5
 31
0.0
  0
LINE
  5
CB
330
71
100
AcDbEntity
  8
1
100
AcDbLine
 10
2.25
 20
1.5
 30
0.0
 11
2.25
 21
4.5
 31
0.0
  0
LINE
  5
CC
330
71
100
AcDbEntity
  8
1
100
AcDbLine
 10
1.625
 20
1.5
 30
0.0
 11
1.625
 21
4.5
 31
0.0
  0
LINE
  5
CD
330
71
100
AcDbEntity
  8
1
100
AcDbLine
 10
3.437999999999999
 20
1.562
 30
0.0
 11
2.937
 21
1.562
 31
0.0
  0
LINE
  5
CE
330
71
100
AcDbEntity
  8
1
100
AcDbLine
 10
3.438
 20
4.438
 30
0.0
 11
3.437999999999999
 21
1.562
 31
0.0
  0
LINE
  5
CF
330
71
100
AcDbEntity
  8
1
100
AcDbLine
 10
2.937
 20
4.438
 30
0.0
 11
3.438
 21
4.438
 31
0.0
  0
LINE
  5
D0
330
71
100
AcDbEntity
  8
1
100
AcDbLine
 10
2.937
 20
1.562
 30
0.0
 11
2.937
 21
4.438
 31
0.0
  0
LINE
  5
D1
330
71
100
AcDbEntity
  8
1
100
AcDbLine
 10
2.812999999999999
 20
1.562
 30
0.0
 11
2.625
 21
1.562
 31
0.0
  0
LINE
  5
D2
330
71
100
AcDbEntity
  8
1
100
AcDbLine
 10
2.813
 20
4.438
 30
0.0
 11
2.812999999999999
 21
1.562
 31
0.0
  0
LINE
  5
D3
330
71
100
AcDbEntity
  8
1
100
AcDbLine
 10
2.312
 20
4.438
 30
0.0
 11
2.5
 21
4.438
 31
0.0
  0
LINE
  5
D4
330
71
100
AcDbEntity
  8
1
100
AcDbLine
 10
2.312
 20
1.562
 30
0.0
 11
2.312
 21
4.438
 31
0.0
  0
LINE
  5
D5
330
71
100
AcDbEntity
  8
1
100
AcDbLine
 10
2.187999999999999
 20
1.562
 30
0.0
 11
1.687
 21
1.562
 31
0.0
  0
LINE
  5
D6
330
71
100
AcDbEntity
  8
1
100
AcDbLine
 10
2.188
 20
4.438
 30
0.0
 11
2.187999999999999
 21
1.562
 31
0.0
  0
LINE
  5
D7
330
71
100
AcDbEntity
  8
1
100
AcDbLine
 10
1.687
 20
4.438
 30
0.0
 11
2.188
 21
4.438
 31
0.0
  0
LINE
  5
D8
330
71
100
AcDbEntity
  8
1
100
AcDbLine
 10
1.687
 20
1.562
 30
0.0
 11
1.687
 21
4.438
 31
0.0
  0
LINE
  5
D9
330
71
100
AcDbEntity
  8
1
100
AcDbLine
 10
1.563
 20
4.438
 30
0.0
 11
1.562999999999999
 21
1.562
 31
0.0
  0
LINE
  5
DA
330
71
100
AcDbEntity
  8
1
100
AcDbLine
 10
1.062
 20
4.438
 30
0.0
 11
1.563
 21
4.438
 31
0.0
  0
LINE
  5
DB
330
71
100
AcDbEntity
  8
1
100
AcDbLine
 10
1.062
 20
1.562
 30
0.0
 11
1.062
 21
4.438
 31
0.0
  0
INSERT
  5
DC
330
71
100
AcDbEntity
  8
4
100
AcDbBlockReference
  2
ARRO
 10
7.625
 20
1.8125
 30
0.0
 50
180.0
  0
INSERT
  5
DD
330
71
100
AcDbEntity
  8
4
100
AcDbBlockReference
  2
ARRO
 10
6.375
 20
1.8125
 30
0.0
  0
INSERT
  5
DE
330
71
100
AcDbEntity
  8
4
100
AcDbBlockReference
  2
ARRO
 10
5.75
 20
1.8125
 30
0.0
  0
INSERT
  5
DF
330
71
100
AcDbEntity
  8
4
100
AcDbBlockReference
  2
ARRO
 10
5.69
 20
1.8125
 30
0.0
 50
180.0
  0
INSERT
  5
E0
330
71
100
AcDbEntity
  8
4
100
AcDbBlockReference
  2
ARRO
 10
5.065
 20
1.8125
 30
0.0
  0
LINE
  5
E1
330
71
100
AcDbEntity
  8
4
100
AcDbLine
 10
6.375
 20
1.8125
 30
0.0
 11
7.625
 21
1.8125
 31
0.0
  0
LINE
  5
E2
330
71
100
AcDbEntity
  8
4
100
AcDbLine
 10
5.75
 20
1.8125
 30
0.0
 11
6.0
 21
1.8125
 31
0.0
  0
LINE
  5
E3
330
71
100
AcDbEntity
  8
4
100
AcDbLine
 10
5.69
 20
1.8125
 30
0.0
 11
5.065
 21
1.8125
 31
0.0
  0
INSERT
  5
E4
330
71
100
AcDbEntity
  8
4
100
AcDbBlockReference
  2
ARRO
 10
4.5625
 20
1.5
 30
0.0
 50
90.0
  0
INSERT
  5
E5
330
71
100
AcDbEntity
  8
4
100
AcDbBlockReference
  2
ARRO
 10
4.5625
 20
4.5
 30
0.0
 50
270.0
  0
LINE
  5
E6
330
71
100
AcDbEntity
  8
4
100
AcDbLine
 10
5.0025
 20
4.5
 30
0.0
 11
4.5025
 21
4.5
 31
0.0
  0
LINE
  5
E7
330
71
100
AcDbEntity
  8
4
100
AcDbLine
 10
4.5625
 20
1.5
 30
0.0
 11
4.5625
 21
4.5
 31
0.0
  0
LINE
  5
E8
330
71
100
AcDbEntity
  8
4
100
AcDbLine
 10
5.0025
 20
1.5
 30
0.0
 11
4.5025
 21
1.5
 31
0.0
  0
INSERT
  5
E9
330
71
100
AcDbEntity
  8
4
100
AcDbBlockReference
  2
ARRO
 10
3.499999999999999
 20
0.9999999999999998
 30
0.0
 50
180.0
  0
INSERT
  5
EA
330
71
100
AcDbEntity
  8
4
100
AcDbBlockReference
  2
ARRO
 10
0.9999999999999998
 20
1.0
 30
0.0
  0
LINE
  5
EB
330
71
100
AcDbEntity
  8
4
100
AcDbLine
 10
3.499999999999999
 20
1.0
 30
0.0
 11
0.9999999999999998
 21
1.0
 31
0.0
  0
LINE
  5
EC
330
71
100
AcDbEntity
  8
4
100
AcDbLine
 10
3.499999999999999
 20
1.437999999999999
 30
0.0
 11
3.499999999999999
 21
0.9379999999999999
 31
0.0
  0
LINE
  5
ED
330
71
100
AcDbEntity
  8
4
100
AcDbLine
 10
1.0
 20
1.437999999999999
 30
0.0
 11
0.9999999999999998
 21
0.9379999999999999
 31
0.0
  0
LINE
  5
EE
330
71
100
AcDbEntity
  8
1
100
AcDbLine
 10
5.69
 20
1.5
 30
0.0
 11
5.69
 21
4.5
 31
0.0
  0
LINE
  5
EF
330
71
100
AcDbEntity
  8
1
100
AcDbLine
 10
5.75
 20
4.75
 30
0.0
 11
5.875
 21
4.875
 31
0.0
  0
LINE
  5
F0
330
71
100
AcDbEntity
  8
1
100
AcDbLine
 10
5.75
 20
4.625
 30
0.0
 11
5.937999999999999
 21
4.812999999999999
 31
0.0
  0
LINE
  5
F1
330
71
100
AcDbEntity
  8
1
100
AcDbLine
 10
5.75
 20
4.5
 30
0.0
 11
5.937999999999999
 21
4.687999999999999
 31
0.0
  0
LINE
  5
F2
330
71
100
AcDbEntity
  8
1
100
AcDbLine
 10
5.75
 20
4.375
 30
0.0
 11
5.937999999999999
 21
4.562999999999999
 31
0.0
  0
LINE
  5
F3
330
71
100
AcDbEntity
  8
1
100
AcDbLine
 10
5.75
 20
4.25
 30
0.0
 11
5.937999999999999
 21
4.437999999999999
 31
0.0
  0
LINE
  5
F4
330
71
100
AcDbEntity
  8
1
100
AcDbLine
 10
5.75
 20
4.125
 30
0.0
 11
5.937999999999999
 21
4.312999999999999
 31
0.0
  0
LINE
  5
F5
330
71
100
AcDbEntity
  8
1
100
AcDbLine
 10
5.75
 20
4.0
 30
0.0
 11
5.937999999999999
 21
4.187999999999999
 31
0.0
  0
LINE
  5
F6
330
71
100
AcDbEntity
  8
1
100
AcDbLine
 10
5.75
 20
3.875
 30
0.0
 11
5.937999999999999
 21
4.062999999999999
 31
0.0
  0
LINE
  5
F7
330
71
100
AcDbEntity
  8
1
100
AcDbLine
 10
5.75
 20
3.75
 30
0.0
 11
5.937999999999999
 21
3.937999999999999
 31
0.0
  0
LINE
  5
F8
330
71
100
AcDbEntity
  8
1
100
AcDbLine
 10
5.75
 20
3.625
 30
0.0
 11
5.937999999999999
 21
3.812999999999999
 31
0.0
  0
LINE
  5
F9
330
71
100
AcDbEntity
  8
1
100
AcDbLine
 10
5.75
 20
3.5
 30
0.0
 11
5.937999999999999
 21
3.687999999999999
 31
0.0
  0
LINE
  5
FA
330
71
100
AcDbEntity
  8
1
100
AcDbLine
 10
5.75
 20
3.375
 30
0.0
 11
5.937999999999999
 21
3.562999999999999
 31
0.0
  0
LINE
  5
FB
330
71
100
AcDbEntity
  8
1
100
AcDbLine
 10
5.75
 20
3.25
 30
0.0
 11
5.937999999999999
 21
3.437999999999999
 31
0.0
  0
LINE
  5
FC
330
71
100
AcDbEntity
  8
1
100
AcDbLine
 10
5.75
 20
3.125
 30
0.0
 11
5.937999999999999
 21
3.312999999999999
 31
0.0
  0
LINE
  5
FD
330
71
100
AcDbEntity
  8
1
100
AcDbLine
 10
5.75
 20
3.0
 30
0.0
 11
5.937999999999999
 21
3.187999999999999
 31
0.0
  0
LINE
  5
FE
330
71
100
AcDbEntity
  8
1
100
AcDbLine
 10
5.75
 20
2.875
 30
0.0
 11
5.937999999999999
 21
3.062999999999999
 31
0.0
  0
LINE
  5
FF
330
71
100
AcDbEntity
  8
1
100
AcDbLine
 10
5.75
 20
2.75
 30
0.0
 11
5.937999999999999
 21
2.937999999999999
 31
0.0
  0
LINE
  5
100
330
71
100
AcDbEntity
  8
1
100
AcDbLine
 10
5.75
 20
2.625
 30
0.0
 11
5.937999999999999
 21
2.812999999999999
 31
0.0
  0
LINE
  5
101
330
71
100
AcDbEntity
  8
1
100
AcDbLine
 10
5.75
 20
2.5
 30
0.0
 11
5.937999999999999
 21
2.687999999999999
 31
0.0
  0
LINE
  5
102
330
71
100
AcDbEntity
  8
1
100
AcDbLine
 10
5.75
 20
2.375
 30
0.0
 11
5.937999999999999
 21
2.562999999999999
 31
0.0
  0
LINE
  5
103
330
71
100
AcDbEntity
  8
1
100
AcDbLine
 10
5.75
 20
2.25
 30
0.0
 11
5.937999999999999
 21
2.437999999999999
 31
0.0
  0
LINE
  5
104
330
71
100
AcDbEntity
  8
1
100
AcDbLine
 10
5.75
 20
2.125
 30
0.0
 11
5.937999999999999
 21
2.312999999999999
 31
0.0
  0
LINE
  5
105
330
71
100
AcDbEntity
  8
1
100
AcDbLine
 10
5.75
 20
2.0
 30
0.0
 11
5.937999999999999
 21
2.187999999999999
 31
0.0
  0
LINE
  5
106
330
71
100
AcDbEntity
  8
1
100
AcDbLine
 10
5.75
 20
1.625
 30
0.0
 11
5.937999999999999
 21
1.812999999999999
 31
0.0
  0
LINE
  5
107
330
71
100
AcDbEntity
  8
1
100
AcDbLine
 10
5.75
 20
1.5
 30
0.0
 11
5.937999999999999
 21
1.687999999999999
 31
0.0
  0
LINE
  5
108
330
71
100
AcDbEntity
  8
1
100
AcDbLine
 10
2.625
 20
2.379974179311579
 30
0.0
 11
2.624999999999999
 21
1.375
 31
0.0
  0
LINE
  5
109
330
71
100
AcDbEntity
  8
1
100
AcDbLine
 10
2.625
 20
2.782474179311579
 30
0.0
 11
2.625
 21
2.469974179311579
 31
0.0
  0
LINE
  5
10A
330
71
100
AcDbEntity
  8
1
100
AcDbLine
 10
2.625
 20
3.625967704151865
 30
0.0
 11
2.625
 21
2.782474179311579
 31
0.0
  0
LINE
  5
10B
330
71
100
AcDbEntity
  8
1
100
AcDbLine
 10
2.58
 20
3.664974179311579
 30
0.0
 11
2.669999999999999
 21
3.574974179311579
 31
0.0
  0
LINE
  5
10C
330
71
100
AcDbEntity
  8
1
100
AcDbLine
 10
2.669999999999999
 20
3.664974179311579
 30
0.0
 11
2.58
 21
3.664974179311579
 31
0.0
  0
LINE
  5
10D
330
71
100
AcDbEntity
  8
1
100
AcDbLine
 10
2.58
 20
3.754974179311579
 30
0.0
 11
2.669999999999999
 21
3.664974179311579
 31
0.0
  0
LINE
  5
10E
330
71
100
AcDbEntity
  8
1
100
AcDbLine
 10
2.579999999999999
 20
2.424974179311579
 30
0.0
 11
2.669999999999999
 21
2.334974179311579
 31
0.0
  0
LINE
  5
10F
330
71
100
AcDbEntity
  8
1
100
AcDbLine
 10
2.669999999999999
 20
2.424974179311579
 30
0.0
 11
2.579999999999999
 21
2.424974179311579
 31
0.0
  0
LINE
  5
110
330
71
100
AcDbEntity
  8
1
100
AcDbLine
 10
2.579999999999999
 20
2.514974179311579
 30
0.0
 11
2.669999999999999
 21
2.424974179311579
 31
0.0
  0
LINE
  5
111
330
71
100
AcDbEntity
  8
1
100
AcDbLine
 10
2.499999999999999
 20
1.754974179311579
 30
0.0
 11
2.499999999999999
 21
1.375
 31
0.0
  0
LINE
  5
112
330
71
100
AcDbEntity
  8
1
100
AcDbLine
 10
2.5
 20
2.469974179311579
 30
0.0
 11
2.499999999999999
 21
1.844974179311579
 31
0.0
  0
LINE
  5
113
330
71
100
AcDbEntity
  8
1
100
AcDbLine
 10
2.5
 20
3.004974179311579
 30
0.0
 11
2.5
 21
2.469974179311579
 31
0.0
  0
LINE
  5
114
330
71
100
AcDbEntity
  8
1
100
AcDbLine
 10
2.454999999999999
 20
1.889974179311579
 30
0.0
 11
2.544999999999999
 21
1.799974179311579
 31
0.0
  0
LINE
  5
115
330
71
100
AcDbEntity
  8
1
100
AcDbLine
 10
2.544999999999999
 20
1.799974179311579
 30
0.0
 11
2.454999999999999
 21
1.799974179311579
 31
0.0
  0
LINE
  5
116
330
71
100
AcDbEntity
  8
1
100
AcDbLine
 10
2.454999999999999
 20
1.799974179311579
 30
0.0
 11
2.544999999999999
 21
1.709974179311579
 31
0.0
  0
LINE
  5
117
330
71
100
AcDbEntity
  8
1
100
AcDbLine
 10
2.454999999999999
 20
3.139974179311579
 30
0.0
 11
2.544999999999999
 21
3.049974179311579
 31
0.0
  0
LINE
  5
118
330
71
100
AcDbEntity
  8
1
100
AcDbLine
 10
2.544999999999999
 20
3.049974179311579
 30
0.0
 11
2.454999999999999
 21
3.049974179311579
 31
0.0
  0
LINE
  5
119
330
71
100
AcDbEntity
  8
1
100
AcDbLine
 10
2.454999999999999
 20
3.049974179311579
 30
0.0
 11
2.544999999999999
 21
2.959974179311579
 31
0.0
  0
LINE
  5
11A
330
71
100
AcDbEntity
  8
1
100
AcDbLine
 10
2.512196030826982
 20
4.242778148484597
 30
0.0
 11
2.512196030826982
 21
3.07567852914767
 31
0.0
  0
LINE
  5
11B
330
71
100
AcDbEntity
  8
1
100
AcDbLine
 10
2.455
 20
4.299974179311579
 30
0.0
 11
2.544999999999999
 21
4.209974179311579
 31
0.0
  0
LINE
  5
11C
330
71
100
AcDbEntity
  8
1
100
AcDbLine
 10
2.544999999999999
 20
4.299974179311579
 30
0.0
 11
2.455
 21
4.299974179311579
 31
0.0
  0
LINE
  5
11D
330
71
100
AcDbEntity
  8
1
100
AcDbLine
 10
2.455
 20
4.389974179311579
 30
0.0
 11
2.544999999999999
 21
4.299974179311579
 31
0.0
  0
LINE
  5
11E
330
71
100
AcDbEntity
  8
1
100
AcDbLine
 10
2.5
 20
4.625
 30
0.0
 11
2.5
 21
4.344974179311579
 31
0.0
  0
LINE
  5
11F
330
71
100
AcDbEntity
  8
1
100
AcDbLine
 10
2.625
 20
4.625
 30
0.0
 11
2.625
 21
3.709974179311579
 31
0.0
  0
CIRCLE
  5
120
330
71
100
AcDbEntity
  8
1
100
AcDbCircle
 10
4.125
 20
0.5
 30
0.0
 40
0.1875
  0
LINE
  5
121
330
71
100
AcDbEntity
  8
1
100
AcDbLine
 10
5.75
 20
1.5
 30
0.0
 11
5.75
 21
4.875
 31
0.0
  0
LINE
  5
122
330
71
100
AcDbEntity
  8
1
100
AcDbLine
 10
7.0
 20
1.5
 30
0.0
 11
7.0
 21
4.5
 31
0.0
  0
LINE
  5
123
330
71
100
AcDbEntity
  8
1
100
AcDbLine
 10
3.499999999999999
 20
1.5
 30
0.0
 11
2.624999999999999
 21
1.5
 31
0.0
  0
LINE
  5
124
330
71
100
AcDbEntity
  8
1
100
AcDbLine
 10
3.5
 20
4.5
 30
0.0
 11
3.499999999999999
 21
1.5
 31
0.0
  0
LINE
  5
125
330
71
100
AcDbEntity
  8
1
100
AcDbLine
 10
2.625
 20
4.5
 30
0.0
 11
3.5
 21
4.5
 31
0.0
  0
LINE
  5
126
330
71
100
AcDbEntity
  8
1
100
AcDbLine
 10
1.0
 20
4.5
 30
0.0
 11
2.5
 21
4.5
 31
0.0
  0
LINE
  5
127
330
71
100
AcDbEntity
  8
1
100
AcDbLine
 10
1.0
 20
1.5
 30
0.0
 11
1.0
 21
4.5
 31
0.0
  0
LINE
  5
128
330
71
100
AcDbEntity
  8
1
100
AcDbLine
 10
1.0
 20
1.5
 30
0.0
 11
2.5
 21
1.5
 31
0.0
  0
LINE
  5
129
330
71
100
AcDbEntity
  8
1
100
AcDbLine
 10
0.0
 20
5.25
 30
0.0
 11
0.0
 21
0.0
 31
0.0
  0
LINE
  5
12A
330
71
100
AcDbEntity
  8
1
100
AcDbLine
 10
8.25
 20
5.25
 30
0.0
 11
0.0
 21
5.25
 31
0.0
  0
LINE
  5
12B
330
71
100
AcDbEntity
  8
1
100
AcDbLine
 10
8.25
 20
0.0
 30
0.0
 11
8.25
 21
5.25
 31
0.0
  0
LINE
  5
12C
330
71
100
AcDbEntity
  8
1
100
AcDbLine
 10
0.0
 20
0.0
 30
0.0
 11
8.25
 21
0.0
 31
0.0
  0
ENDBLK
  5
12E
330
71
100
AcDbEntity
  8
0
100
AcDbBlockEnd
  0
BLOCK
  5
133
330
131
100
AcDbEntity
  8
8
100
AcDbBlockBegin
  2
T1
 70
     0
 10
0.0
 20
0.0
 30
0.0
  3
T1
  1

  0
TEXT
  5
132
330
131
100
AcDbEntity
  8
8
100
AcDbText
 10
4.499296217575065
 20
2.323758494762563
 30
0.0
 40
0.075
  1
72
 50
90.0
  7
ROMANS
 72
     2
 11
4.499296217575065
 21
2.45590135190542
 31
0.0
100
AcDbText
  0
ENDBLK
  5
134
330
131
100
AcDbEntity
  8
8
100
AcDbBlockEnd
  0
BLOCK
  5
138
330
135
100
AcDbEntity
  8
8
100
AcDbBlockBegin
  2
TEMP3
 70
     0
 10
0.0
 20
0.0
 30
0.0
  3
TEMP3
  1

  0
TEXT
  5
136
330
135
100
AcDbEntity
  8
8
100
AcDbText
 10
0.03
 20
0.0619999999999998
 30
0.0
 40
0.07
  1
HANDLE & P/A
 50
90.0
  7
ROMANS
100
AcDbText
  0
TEXT
  5
137
330
135
100
AcDbEntity
  8
8
100
AcDbText
 10
0.03
 20
-1.33310960351371
 30
0.0
 40
0.07
  1
LOCK ESCUTCHEON
 50
90.0
  7
ROMANS
 72
     2
 11
0.03
 21
-0.3264429368470441
 31
0.0
100
AcDbText
  0
ENDBLK
  5
139
330
135
100
AcDbEntity
  8
8
100
AcDbBlockEnd
  0
BLOCK
  5
142
330
13A
100
AcDbEntity
  8
0
100
AcDbBlockBegin
  2
A$C254C497B
 70
     0
 10
0.0
 20
0.0
 30
0.0
  3
A$C254C497B
  1

  0
INSERT
  5
13B
330
13A
100
AcDbEntity
  8
4
100
AcDbBlockReference
  2
ARRO
 10
0.4283333466609039
 20
1.2577762744405
 30
0.0
 50
180.0
  0
INSERT
  5
13C
330
13A
100
AcDbEntity
  8
8
100
AcDbBlockReference
  2
TEMP3
 10
0.0533333466609038
 20
1.319776274440499
 30
0.0
  0
LINE
  5
13D
330
13A
100
AcDbEntity
  8
4
100
AcDbLine
 10
0.4283333466609039
 20
1.117333337593455
 30
0.0
 11
0.0533333466609038
 21
1.117333337593455
 31
0.0
  0
LINE
  5
13E
330
13A
100
AcDbEntity
  8
4
100
AcDbLine
 10
0.0533333466609038
 20
1.117333337593455
 30
0.0
 11
0.0533333466609038
 21
1.055333337593456
 31
0.0
  0
INSERT
  5
13F
330
13A
100
AcDbEntity
  8
4
100
AcDbBlockReference
  2
ARRO
 10
0.4283333466609039
 20
1.117333337593455
 30
0.0
 50
180.0
  0
LINE
  5
140
330
13A
100
AcDbEntity
  8
4
100
AcDbLine
 10
0.4283333466609039
 20
1.2577762744405
 30
0.0
 11
0.0533333466609038
 21
1.2577762744405
 31
0.0
  0
LINE
  5
141
330
13A
100
AcDbEntity
  8
4
100
AcDbLine
 10
0.0533333466609038
 20
1.2577762744405
 30
0.0
 11
0.0533333466609038
 21
1.319776274440499
 31
0.0
  0
ENDBLK
  5
143
330
13A
100
AcDbEntity
  8
0
100
AcDbBlockEnd
  0
BLOCK
  5
363
330
144
100
AcDbEntity
  8
0
100
AcDbBlockBegin
  2
SPL2CORRIDOR6H72
 70
     0
 10
0.0
 20
0.0
 30
0.0
  3
SPL2CORRIDOR6H72
  1

  4
SPL2 CORRIDOR 6H 72
  0
TEXT
  5
145
330
144
100
AcDbEntity
  8
8
100
AcDbText
 10
1.502976190476192
 20
0.0940144148437496
 30
0.0
 40
0.125
  1
SINGLE POINT 2 CORRIDOR LOCKER - 72" 6-HI BOX
  7
ROMANS
 72
     1
 11
4.124999999999999
 21
0.0940144148437496
 31
0.0
100
AcDbText
  0
LINE
  5
146
330
144
100
AcDbEntity
  8
4
100
AcDbLine
 10
2.937
 20
2.496014414843751
 30
0.0
 11
3.437999999999997
 21
2.496014414843751
 31
0.0
  0
LINE
  5
147
330
144
100
AcDbEntity
  8
4
100
AcDbLine
 10
2.937
 20
2.022014414843751
 30
0.0
 11
3.437999999999997
 21
2.022014414843751
 31
0.0
  0
LINE
  5
148
330
144
100
AcDbEntity
  8
4
100
AcDbLine
 10
2.937
 20
2.084014414843752
 30
0.0
 11
3.437999999999997
 21
2.084014414843752
 31
0.0
  0
LINE
  5
149
330
144
100
AcDbEntity
  8
4
100
AcDbLine
 10
2.937
 20
3.980014414843751
 30
0.0
 11
3.437999999999997
 21
3.980014414843751
 31
0.0
  0
LINE
  5
14A
330
144
100
AcDbEntity
  8
4
100
AcDbLine
 10
2.937
 20
3.918014414843751
 30
0.0
 11
3.437999999999997
 21
3.918014414843751
 31
0.0
  0
LINE
  5
14B
330
144
100
AcDbEntity
  8
4
100
AcDbLine
 10
2.937
 20
3.444014414843751
 30
0.0
 11
3.437999999999997
 21
3.444014414843751
 31
0.0
  0
LINE
  5
14C
330
144
100
AcDbEntity
  8
4
100
AcDbLine
 10
2.937
 20
3.506014414843751
 30
0.0
 11
3.437999999999997
 21
3.506014414843751
 31
0.0
  0
LINE
  5
14D
330
144
100
AcDbEntity
  8
4
100
AcDbLine
 10
2.937
 20
2.970014414843752
 30
0.0
 11
3.437999999999997
 21
2.970014414843752
 31
0.0
  0
LINE
  5
14E
330
144
100
AcDbEntity
  8
4
100
AcDbLine
 10
2.937
 20
3.032014414843751
 30
0.0
 11
3.437999999999997
 21
3.032014414843751
 31
0.0
  0
LINE
  5
14F
330
144
100
AcDbEntity
  8
4
100
AcDbLine
 10
2.937
 20
2.558014414843752
 30
0.0
 11
3.437999999999997
 21
2.558014414843752
 31
0.0
  0
INSERT
  5
150
330
144
100
AcDbEntity
  8
CONSTRUCTION
100
AcDbBlockReference
  2
A$C254C497B
 10
0.5915054301643492
 20
2.030787932018925
 30
0.0
  0
LINE
  5
151
330
144
100
AcDbEntity
  8
4
100
AcDbLine
 10
1.530999999999999
 20
2.62016500546875
 30
0.0
 11
1.530999999999999
 21
2.54198558515625
 31
0.0
  0
LINE
  5
152
330
144
100
AcDbEntity
  8
4
100
AcDbLine
 10
1.094
 20
2.542
 30
0.0
 11
1.094
 21
2.98401441484375
 31
0.0
  0
LINE
  5
153
330
144
100
AcDbEntity
  8
4
100
AcDbLine
 10
1.530999999999999
 20
2.06798558515625
 30
0.0
 11
1.094
 21
2.068
 31
0.0
  0
LINE
  5
154
330
144
100
AcDbEntity
  8
4
100
AcDbLine
 10
1.530999999999999
 20
2.51
 30
0.0
 11
1.094
 21
2.51001441484375
 31
0.0
  0
LINE
  5
155
330
144
100
AcDbEntity
  8
4
100
AcDbLine
 10
1.530999999999999
 20
1.59398558515625
 30
0.0
 11
1.094
 21
1.594
 31
0.0
  0
LINE
  5
156
330
144
100
AcDbEntity
  8
4
100
AcDbLine
 10
1.530999999999999
 20
2.036
 30
0.0
 11
1.094
 21
2.03601441484375
 31
0.0
  0
LINE
  5
157
330
144
100
AcDbEntity
  8
4
100
AcDbLine
 10
1.530999999999999
 20
2.54198558515625
 30
0.0
 11
1.094
 21
2.542
 31
0.0
  0
POINT
  5
158
330
144
100
AcDbEntity
  8
4
100
AcDbPoint
 10
0.0
 20
0.0
 30
0.0
  0
ARC
  5
159
330
144
100
AcDbEntity
  8
4
100
AcDbCircle
 10
1.137938301032199
 20
1.887774206328125
 30
0.0
 40
0.019244165
100
AcDbArc
 50
90.0
 51
183.5763343749981
  0
ARC
  5
15A
330
144
100
AcDbEntity
  8
4
100
AcDbCircle
 10
1.132516492219463
 20
1.897396288828125
 30
0.0
 40
0.0288662475
100
AcDbArc
 50
90.0
 51
183.5763343749981
  0
LINE
  5
15B
330
144
100
AcDbEntity
  8
4
100
AcDbLine
 10
1.094
 20
1.594
 30
0.0
 11
1.094
 21
2.03601441484375
 31
0.0
  0
ARC
  5
15C
330
144
100
AcDbEntity
  8
4
100
AcDbCircle
 10
1.235897554655539
 20
1.897396288828125
 30
0.0
 40
0.0288662475
100
AcDbArc
 50
356.4236656250018
 51
90.0
  0
ARC
  5
15D
330
144
100
AcDbEntity
  8
4
100
AcDbCircle
 10
1.230475745842801
 20
1.887774206328125
 30
0.0
 40
0.019244165
100
AcDbArc
 50
356.4236656250018
 51
90.0
  0
ARC
  5
15E
330
144
100
AcDbEntity
  8
4
100
AcDbCircle
 10
1.138899115824751
 20
1.737429167265625
 30
0.0
 40
0.0252579665625
100
AcDbArc
 50
183.5763343749981
 51
270.0
  0
CIRCLE
  5
15F
330
144
100
AcDbEntity
  8
4
100
AcDbCircle
 10
1.1842070234375
 20
1.722996043515629
 30
0.0
 40
0.006924050567
  0
ARC
  5
160
330
144
100
AcDbEntity
  8
4
100
AcDbCircle
 10
1.229514931050247
 20
1.737429167265625
 30
0.0
 40
0.0252579665625
100
AcDbArc
 50
270.0
 51
356.4236656250018
  0
LINE
  5
161
330
144
100
AcDbEntity
  8
4
100
AcDbLine
 10
1.1842070234375
 20
1.712171200703125
 30
0.0
 11
1.138899115824751
 21
1.712171200703125
 31
0.0
  0
LINE
  5
162
330
144
100
AcDbEntity
  8
4
100
AcDbLine
 10
1.1842070234375
 20
1.712171200703125
 30
0.0
 11
1.229514931050247
 21
1.712171200703125
 31
0.0
  0
LINE
  5
163
330
144
100
AcDbEntity
  8
4
 62
   130
100
AcDbLine
 10
1.143223695894216
 20
1.892490420975791
 30
0.0
 11
1.163660999124217
 21
1.872053117745793
 31
0.0
  0
LINE
  5
164
330
144
100
AcDbEntity
  8
4
 62
   130
100
AcDbLine
 10
1.13473250384268
 20
1.883999228924256
 30
0.0
 11
1.155169807072678
 21
1.863561925694254
 31
0.0
  0
LINE
  5
165
330
144
100
AcDbEntity
  8
4
100
AcDbLine
 10
1.136460650096981
 20
1.887388943569868
 30
0.0
 11
1.158559521718291
 21
1.865290071948559
 31
0.0
  0
LINE
  5
166
330
144
100
AcDbEntity
  8
4
100
AcDbLine
 10
1.139862569989424
 20
1.890790863462313
 30
0.0
 11
1.161961441610734
 21
1.868691991841002
 31
0.0
  0
LINE
  5
167
330
144
100
AcDbEntity
  8
4
100
AcDbLine
 10
1.1842070234375
 20
1.738477974258124
 30
0.0
 11
1.146067687784369
 21
1.738477974258128
 31
0.0
  0
LINE
  5
168
330
144
100
AcDbEntity
  8
4
100
AcDbLine
 10
1.144979057507657
 20
1.885674375944081
 30
0.0
 11
1.141577137615214
 21
1.882272456051638
 31
0.0
  0
LINE
  5
169
330
144
100
AcDbEntity
  8
4
100
AcDbLine
 10
1.139862569989424
 20
1.890790863462313
 30
0.0
 11
1.136460650096981
 21
1.887388943569868
 31
0.0
  0
ARC
  5
16A
330
144
100
AcDbEntity
  8
4
 62
   130
100
AcDbCircle
 10
1.138978099868448
 20
1.888244824950024
 30
0.0
 40
0.00600417948
100
AcDbArc
 50
45.00000000000024
 51
225.0000000000002
  0
ARC
  5
16B
330
144
100
AcDbEntity
  8
4
100
AcDbCircle
 10
1.146067687784369
 20
1.757722139258128
 30
0.0
 40
0.019244165
100
AcDbArc
 50
183.5763343749981
 51
270.0
  0
LINE
  5
16C
330
144
100
AcDbEntity
  8
4
100
AcDbLine
 10
1.118731612533198
 20
1.88657378829694
 30
0.0
 11
1.126860999285368
 21
1.756503600262233
 31
0.0
  0
LINE
  5
16D
330
144
100
AcDbEntity
  8
4
100
AcDbLine
 10
1.103706459470962
 20
1.895595661781345
 30
0.0
 11
1.113690337169816
 21
1.735853618599695
 31
0.0
  0
LINE
  5
16E
330
144
100
AcDbEntity
  8
4
100
AcDbLine
 10
1.264707587404038
 20
1.895595661781345
 30
0.0
 11
1.254723709705184
 21
1.735853618599695
 31
0.0
  0
ARC
  5
16F
330
144
100
AcDbEntity
  8
4
 62
   130
100
AcDbCircle
 10
1.159415403098448
 20
1.867807521720026
 30
0.0
 40
0.00600417948
100
AcDbArc
 50
225.0000000000002
 51
45.00000000000024
  0
LINE
  5
170
330
144
100
AcDbEntity
  8
4
100
AcDbLine
 10
1.156844954092499
 20
1.873808479359237
 30
0.0
 11
1.153443034200058
 21
1.870406559466794
 31
0.0
  0
CIRCLE
  5
171
330
144
100
AcDbEntity
  8
4
100
AcDbCircle
 10
1.1842070234375
 20
1.855872191799377
 30
0.0
 40
0.00419522797
  0
LINE
  5
172
330
144
100
AcDbEntity
  8
4
100
AcDbLine
 10
1.158559521718291
 20
1.865290071948559
 30
0.0
 11
1.161961441610734
 21
1.868691991841002
 31
0.0
  0
ARC
  5
173
330
144
100
AcDbEntity
  8
4
100
AcDbCircle
 10
1.222346359090631
 20
1.757722139258128
 30
0.0
 40
0.019244165
100
AcDbArc
 50
270.0
 51
356.4236656250018
  0
LINE
  5
174
330
144
100
AcDbEntity
  8
4
100
AcDbLine
 10
1.1842070234375
 20
1.738477974258124
 30
0.0
 11
1.222346359090631
 21
1.738477974258128
 31
0.0
  0
CIRCLE
  5
175
330
144
100
AcDbEntity
  8
4
100
AcDbCircle
 10
1.1842070234375
 20
1.771736702419376
 30
0.0
 40
0.00419522797
  0
CIRCLE
  5
176
330
144
100
AcDbEntity
  8
4
100
AcDbCircle
 10
1.1842070234375
 20
1.813804447109375
 30
0.0
 40
0.01262898328125
  0
LINE
  5
177
330
144
100
AcDbEntity
  8
4
100
AcDbLine
 10
1.249682434341802
 20
1.88657378829694
 30
0.0
 11
1.241553047589632
 21
1.756521721226938
 31
0.0
  0
LINE
  5
178
330
144
100
AcDbEntity
  8
4
100
AcDbLine
 10
1.118731612533198
 20
2.36057378829694
 30
0.0
 11
1.126860999285368
 21
2.230503600262233
 31
0.0
  0
LINE
  5
179
330
144
100
AcDbEntity
  8
4
100
AcDbLine
 10
1.103706459470962
 20
2.369595661781345
 30
0.0
 11
1.113690337169816
 21
2.209853618599695
 31
0.0
  0
LINE
  5
17A
330
144
100
AcDbEntity
  8
4
100
AcDbLine
 10
1.094
 20
2.068
 30
0.0
 11
1.094
 21
2.51001441484375
 31
0.0
  0
LINE
  5
17B
330
144
100
AcDbEntity
  8
4
100
AcDbLine
 10
1.249682434341802
 20
2.36057378829694
 30
0.0
 11
1.241553047589632
 21
2.230521721226939
 31
0.0
  0
LINE
  5
17C
330
144
100
AcDbEntity
  8
4
100
AcDbLine
 10
1.264707587404038
 20
2.369595661781345
 30
0.0
 11
1.254723709705184
 21
2.209853618599695
 31
0.0
  0
ARC
  5
17D
330
144
100
AcDbEntity
  8
4
100
AcDbCircle
 10
1.282231988906249
 20
1.740140189009997
 30
0.0
 40
0.26941831
100
AcDbArc
 50
81.40466153831981
 51
98.59533846168009
  0
ARC
  5
17E
330
144
100
AcDbEntity
  8
4
100
AcDbCircle
 10
1.282231988906249
 20
2.239285718697497
 30
0.0
 40
0.26941831
100
AcDbArc
 50
261.4046615383198
 51
278.5953384616802
  0
LINE
  5
17F
330
144
100
AcDbEntity
  8
4
100
AcDbLine
 10
1.1842070234375
 20
1.926262536328125
 30
0.0
 11
1.132516492219463
 21
1.926262536328125
 31
0.0
  0
LINE
  5
180
330
144
100
AcDbEntity
  8
4
100
AcDbLine
 10
1.1842070234375
 20
1.907018371328125
 30
0.0
 11
1.137938301032199
 21
1.907018371328125
 31
0.0
  0
LINE
  5
181
330
144
100
AcDbEntity
  8
4
100
AcDbLine
 10
1.1842070234375
 20
1.907018371328125
 30
0.0
 11
1.230475745842801
 21
1.907018371328125
 31
0.0
  0
LINE
  5
182
330
144
100
AcDbEntity
  8
4
100
AcDbLine
 10
1.1842070234375
 20
1.926262536328125
 30
0.0
 11
1.235897554655539
 21
1.926262536328125
 31
0.0
  0
ARC
  5
183
330
144
100
AcDbEntity
  8
4
100
AcDbCircle
 10
1.318314798281249
 20
1.989712953853747
 30
0.0
 40
0.0781794203125
100
AcDbArc
 50
167.5762104955835
 51
192.4237895044164
  0
CIRCLE
  5
184
330
144
100
AcDbEntity
  8
4
100
AcDbCircle
 10
1.24614917953125
 20
1.989712953853747
 30
0.0
 40
0.00261720644
  0
LINE
  5
185
330
144
100
AcDbEntity
  8
4
100
AcDbLine
 10
1.242685229831249
 20
1.989712953853747
 30
0.0
 11
1.24961312923125
 21
1.989712953853747
 31
0.0
  0
LINE
  5
186
330
144
100
AcDbEntity
  8
4
100
AcDbLine
 10
1.24614917953125
 20
1.98624900415375
 30
0.0
 11
1.24614917953125
 21
1.993176903553748
 31
0.0
  0
LINE
  5
187
330
144
100
AcDbEntity
  8
4
100
AcDbLine
 10
1.1842070234375
 20
2.212477974258124
 30
0.0
 11
1.146067687784369
 21
2.212477974258129
 31
0.0
  0
LINE
  5
188
330
144
100
AcDbEntity
  8
4
100
AcDbLine
 10
1.1842070234375
 20
2.186171200703125
 30
0.0
 11
1.138899115824751
 21
2.186171200703125
 31
0.0
  0
ARC
  5
189
330
144
100
AcDbEntity
  8
4
100
AcDbCircle
 10
1.146067687784369
 20
2.231722139258129
 30
0.0
 40
0.019244165
100
AcDbArc
 50
183.5763343749981
 51
270.0
  0
ARC
  5
18A
330
144
100
AcDbEntity
  8
4
100
AcDbCircle
 10
1.138899115824751
 20
2.211429167265625
 30
0.0
 40
0.0252579665625
100
AcDbArc
 50
183.5763343749981
 51
270.0
  0
ARC
  5
18B
330
144
100
AcDbEntity
  8
4
100
AcDbCircle
 10
1.222346359090631
 20
2.231722139258129
 30
0.0
 40
0.019244165
100
AcDbArc
 50
270.0
 51
356.4236656250017
  0
LINE
  5
18C
330
144
100
AcDbEntity
  8
4
100
AcDbLine
 10
1.1842070234375
 20
2.212477974258124
 30
0.0
 11
1.222346359090631
 21
2.212477974258129
 31
0.0
  0
CIRCLE
  5
18D
330
144
100
AcDbEntity
  8
4
100
AcDbCircle
 10
1.1842070234375
 20
2.196996043515629
 30
0.0
 40
0.006924050567
  0
CIRCLE
  5
18E
330
144
100
AcDbEntity
  8
4
100
AcDbCircle
 10
1.1842070234375
 20
2.245736702419376
 30
0.0
 40
0.00419522797
  0
LINE
  5
18F
330
144
100
AcDbEntity
  8
4
100
AcDbLine
 10
1.1842070234375
 20
2.186171200703125
 30
0.0
 11
1.229514931050247
 21
2.186171200703125
 31
0.0
  0
ARC
  5
190
330
144
100
AcDbEntity
  8
4
100
AcDbCircle
 10
1.229514931050247
 20
2.211429167265625
 30
0.0
 40
0.0252579665625
100
AcDbArc
 50
270.0
 51
356.4236656250017
  0
CIRCLE
  5
191
330
144
100
AcDbEntity
  8
4
100
AcDbCircle
 10
1.318314798281249
 20
1.989712953853747
 30
0.0
 40
0.00261720644
  0
LINE
  5
192
330
144
100
AcDbEntity
  8
4
100
AcDbLine
 10
1.31485084858125
 20
1.989712953853747
 30
0.0
 11
1.321778747981251
 21
1.989712953853747
 31
0.0
  0
LINE
  5
193
330
144
100
AcDbEntity
  8
4
100
AcDbLine
 10
1.318314798281249
 20
1.98624900415375
 30
0.0
 11
1.318314798281249
 21
1.993176903553748
 31
0.0
  0
ARC
  5
194
330
144
100
AcDbEntity
  8
4
100
AcDbCircle
 10
1.24614917953125
 20
1.989712953853747
 30
0.0
 40
0.0781794203125
100
AcDbArc
 50
347.5762104955836
 51
12.42378950441644
  0
ARC
  5
195
330
144
100
AcDbEntity
  8
4
100
AcDbCircle
 10
1.282231988906249
 20
2.214140189009997
 30
0.0
 40
0.26941831
100
AcDbArc
 50
81.40466153831981
 51
98.59533846168009
  0
ARC
  5
196
330
144
100
AcDbEntity
  8
4
100
AcDbCircle
 10
1.282231988906249
 20
2.713285718697497
 30
0.0
 40
0.26941831
100
AcDbArc
 50
261.4046615383198
 51
278.5953384616802
  0
ARC
  5
197
330
144
100
AcDbEntity
  8
4
100
AcDbCircle
 10
1.235897554655539
 20
2.371396288828125
 30
0.0
 40
0.0288662475
100
AcDbArc
 50
356.4236656250017
 51
90.0
  0
LINE
  5
198
330
144
100
AcDbEntity
  8
4
100
AcDbLine
 10
1.1842070234375
 20
2.400262536328125
 30
0.0
 11
1.132516492219463
 21
2.400262536328125
 31
0.0
  0
LINE
  5
199
330
144
100
AcDbEntity
  8
4
100
AcDbLine
 10
1.1842070234375
 20
2.381018371328125
 30
0.0
 11
1.137938301032199
 21
2.381018371328125
 31
0.0
  0
LINE
  5
19A
330
144
100
AcDbEntity
  8
4
 62
   130
100
AcDbLine
 10
1.13473250384268
 20
2.357999228924256
 30
0.0
 11
1.155169807072678
 21
2.337561925694254
 31
0.0
  0
LINE
  5
19B
330
144
100
AcDbEntity
  8
4
100
AcDbLine
 10
1.136460650096981
 20
2.361388943569869
 30
0.0
 11
1.158559521718291
 21
2.339290071948559
 31
0.0
  0
LINE
  5
19C
330
144
100
AcDbEntity
  8
4
 62
   130
100
AcDbLine
 10
1.143223695894216
 20
2.366490420975791
 30
0.0
 11
1.163660999124217
 21
2.346053117745793
 31
0.0
  0
LINE
  5
19D
330
144
100
AcDbEntity
  8
4
100
AcDbLine
 10
1.139862569989424
 20
2.364790863462313
 30
0.0
 11
1.161961441610734
 21
2.342691991841002
 31
0.0
  0
ARC
  5
19E
330
144
100
AcDbEntity
  8
4
100
AcDbCircle
 10
1.132516492219463
 20
2.371396288828125
 30
0.0
 40
0.0288662475
100
AcDbArc
 50
90.0
 51
183.5763343749981
  0
LINE
  5
19F
330
144
100
AcDbEntity
  8
4
100
AcDbLine
 10
1.144979057507657
 20
2.359674375944082
 30
0.0
 11
1.141577137615214
 21
2.356272456051638
 31
0.0
  0
LINE
  5
1A0
330
144
100
AcDbEntity
  8
4
100
AcDbLine
 10
1.139862569989424
 20
2.364790863462313
 30
0.0
 11
1.136460650096981
 21
2.361388943569869
 31
0.0
  0
ARC
  5
1A1
330
144
100
AcDbEntity
  8
4
100
AcDbCircle
 10
1.137938301032199
 20
2.361774206328125
 30
0.0
 40
0.019244165
100
AcDbArc
 50
90.0
 51
183.5763343749981
  0
ARC
  5
1A2
330
144
100
AcDbEntity
  8
4
 62
   130
100
AcDbCircle
 10
1.138978099868448
 20
2.362244824950024
 30
0.0
 40
0.00600417948
100
AcDbArc
 50
45.00000000000024
 51
225.0000000000002
  0
LINE
  5
1A3
330
144
100
AcDbEntity
  8
4
100
AcDbLine
 10
1.1842070234375
 20
2.381018371328125
 30
0.0
 11
1.230475745842801
 21
2.381018371328125
 31
0.0
  0
LINE
  5
1A4
330
144
100
AcDbEntity
  8
4
100
AcDbLine
 10
1.1842070234375
 20
2.400262536328125
 30
0.0
 11
1.235897554655539
 21
2.400262536328125
 31
0.0
  0
ARC
  5
1A5
330
144
100
AcDbEntity
  8
4
 62
   130
100
AcDbCircle
 10
1.159415403098448
 20
2.341807521720026
 30
0.0
 40
0.00600417948
100
AcDbArc
 50
225.0000000000002
 51
45.00000000000024
  0
LINE
  5
1A6
330
144
100
AcDbEntity
  8
4
100
AcDbLine
 10
1.156844954092499
 20
2.347808479359238
 30
0.0
 11
1.153443034200058
 21
2.344406559466794
 31
0.0
  0
CIRCLE
  5
1A7
330
144
100
AcDbEntity
  8
4
100
AcDbCircle
 10
1.1842070234375
 20
2.329872191799378
 30
0.0
 40
0.00419522797
  0
LINE
  5
1A8
330
144
100
AcDbEntity
  8
4
100
AcDbLine
 10
1.158559521718291
 20
2.339290071948559
 30
0.0
 11
1.161961441610734
 21
2.342691991841002
 31
0.0
  0
CIRCLE
  5
1A9
330
144
100
AcDbEntity
  8
4
100
AcDbCircle
 10
1.1842070234375
 20
2.287804447109375
 30
0.0
 40
0.01262898328125
  0
ARC
  5
1AA
330
144
100
AcDbEntity
  8
4
100
AcDbCircle
 10
1.230475745842801
 20
2.361774206328125
 30
0.0
 40
0.019244165
100
AcDbArc
 50
356.4236656250017
 51
90.0
  0
ARC
  5
1AB
330
144
100
AcDbEntity
  8
4
100
AcDbCircle
 10
1.318314798281249
 20
2.463712953853748
 30
0.0
 40
0.0781794203125
100
AcDbArc
 50
167.5762104955835
 51
192.4237895044164
  0
CIRCLE
  5
1AC
330
144
100
AcDbEntity
  8
4
100
AcDbCircle
 10
1.24614917953125
 20
2.463712953853748
 30
0.0
 40
0.00261720644
  0
LINE
  5
1AD
330
144
100
AcDbEntity
  8
4
100
AcDbLine
 10
1.242685229831249
 20
2.463712953853748
 30
0.0
 11
1.24961312923125
 21
2.463712953853748
 31
0.0
  0
LINE
  5
1AE
330
144
100
AcDbEntity
  8
4
100
AcDbLine
 10
1.24614917953125
 20
2.46024900415375
 30
0.0
 11
1.24614917953125
 21
2.467176903553748
 31
0.0
  0
CIRCLE
  5
1AF
330
144
100
AcDbEntity
  8
4
100
AcDbCircle
 10
1.318314798281249
 20
2.463712953853748
 30
0.0
 40
0.00261720644
  0
LINE
  5
1B0
330
144
100
AcDbEntity
  8
4
100
AcDbLine
 10
1.31485084858125
 20
2.463712953853748
 30
0.0
 11
1.321778747981251
 21
2.463712953853748
 31
0.0
  0
LINE
  5
1B1
330
144
100
AcDbEntity
  8
4
100
AcDbLine
 10
1.318314798281249
 20
2.46024900415375
 30
0.0
 11
1.318314798281249
 21
2.467176903553748
 31
0.0
  0
ARC
  5
1B2
330
144
100
AcDbEntity
  8
4
100
AcDbCircle
 10
1.24614917953125
 20
2.463712953853748
 30
0.0
 40
0.0781794203125
100
AcDbArc
 50
347.5762104955836
 51
12.42378950441644
  0
LINE
  5
1B3
330
144
100
AcDbEntity
  8
4
100
AcDbLine
 10
2.312
 20
2.496014414843751
 30
0.0
 11
2.499999999999999
 21
2.496014414843751
 31
0.0
  0
LINE
  5
1B4
330
144
100
AcDbEntity
  8
4
100
AcDbLine
 10
2.312
 20
2.022014414843751
 30
0.0
 11
2.499999999999999
 21
2.022014414843751
 31
0.0
  0
LINE
  5
1B5
330
144
100
AcDbEntity
  8
4
100
AcDbLine
 10
2.312
 20
2.084014414843752
 30
0.0
 11
2.499999999999999
 21
2.084014414843752
 31
0.0
  0
LINE
  5
1B6
330
144
100
AcDbEntity
  8
4
100
AcDbLine
 10
2.312
 20
2.558014414843752
 30
0.0
 11
2.499999999999999
 21
2.558014414843752
 31
0.0
  0
LINE
  5
1B7
330
144
100
AcDbEntity
  8
4
100
AcDbLine
 10
1.525587578593749
 20
1.877235638750001
 30
0.0
 11
1.525587578593749
 21
1.9578205796875
 31
0.0
  0
LINE
  5
1B8
330
144
100
AcDbEntity
  8
4
100
AcDbLine
 10
1.530999999999999
 20
1.9578205796875
 30
0.0
 11
1.530999999999999
 21
1.877235638750001
 31
0.0
  0
LINE
  5
1B9
330
144
100
AcDbEntity
  8
4
100
AcDbLine
 10
1.530999999999999
 20
1.67216500546875
 30
0.0
 11
1.530999999999999
 21
1.75274994640625
 31
0.0
  0
LINE
  5
1BA
330
144
100
AcDbEntity
  8
4
100
AcDbLine
 10
1.525587578593749
 20
1.75274994640625
 30
0.0
 11
1.525587578593749
 21
1.67216500546875
 31
0.0
  0
LINE
  5
1BB
330
144
100
AcDbEntity
  8
4
100
AcDbLine
 10
1.530999999999999
 20
1.67216500546875
 30
0.0
 11
1.530999999999999
 21
1.59398558515625
 31
0.0
  0
LINE
  5
1BC
330
144
100
AcDbEntity
  8
4
  6
CENTER
100
AcDbLine
 10
1.533140761503458
 20
1.7124574759375
 30
0.0
 11
1.541450016142824
 21
1.7124574759375
 31
0.0
  0
LINE
  5
1BD
330
144
100
AcDbEntity
  8
4
  6
CENTER
100
AcDbLine
 10
1.515196315496658
 20
1.7124574759375
 30
0.0
 11
1.522975181704761
 21
1.7124574759375
 31
0.0
  0
LINE
  5
1BE
330
144
100
AcDbEntity
  8
4
100
AcDbLine
 10
1.525587578593749
 20
1.67216500546875
 30
0.0
 11
1.530999999999999
 21
1.67216500546875
 31
0.0
  0
LINE
  5
1BF
330
144
100
AcDbEntity
  8
4
100
AcDbLine
 10
1.526953026239058
 20
1.7124574759375
 30
0.0
 11
1.52933971692959
 21
1.7124574759375
 31
0.0
  0
LINE
  5
1C0
330
144
100
AcDbEntity
  8
4
100
AcDbLine
 10
1.530999999999999
 20
1.877235638750001
 30
0.0
 11
1.530999999999999
 21
1.75274994640625
 31
0.0
  0
LINE
  5
1C1
330
144
100
AcDbEntity
  8
4
100
AcDbLine
 10
1.530999999999999
 20
1.877235638750001
 30
0.0
 11
1.525587578593749
 21
1.877235638750001
 31
0.0
  0
LINE
  5
1C2
330
144
100
AcDbEntity
  8
4
100
AcDbLine
 10
1.530999999999999
 20
1.75274994640625
 30
0.0
 11
1.525587578593749
 21
1.75274994640625
 31
0.0
  0
LINE
  5
1C3
330
144
100
AcDbEntity
  8
4
100
AcDbLine
 10
1.687
 20
2.558014414843752
 30
0.0
 11
2.187999999999997
 21
2.558014414843752
 31
0.0
  0
LINE
  5
1C4
330
144
100
AcDbEntity
  8
4
100
AcDbLine
 10
1.687
 20
2.496014414843751
 30
0.0
 11
2.187999999999997
 21
2.496014414843751
 31
0.0
  0
LINE
  5
1C5
330
144
100
AcDbEntity
  8
4
100
AcDbLine
 10
1.687
 20
2.022014414843751
 30
0.0
 11
2.187999999999997
 21
2.022014414843751
 31
0.0
  0
LINE
  5
1C6
330
144
100
AcDbEntity
  8
4
100
AcDbLine
 10
1.687
 20
2.084014414843752
 30
0.0
 11
2.187999999999997
 21
2.084014414843752
 31
0.0
  0
LINE
  5
1C7
330
144
100
AcDbEntity
  8
4
100
AcDbLine
 10
1.530999999999999
 20
2.351235638750001
 30
0.0
 11
1.530999999999999
 21
2.226749946406251
 31
0.0
  0
LINE
  5
1C8
330
144
100
AcDbEntity
  8
4
100
AcDbLine
 10
1.530999999999999
 20
2.14616500546875
 30
0.0
 11
1.530999999999999
 21
2.06798558515625
 31
0.0
  0
LINE
  5
1C9
330
144
100
AcDbEntity
  8
4
  6
CENTER
100
AcDbLine
 10
1.515196315496658
 20
1.91752810921875
 30
0.0
 11
1.522975181704761
 21
1.91752810921875
 31
0.0
  0
LINE
  5
1CA
330
144
100
AcDbEntity
  8
4
100
AcDbLine
 10
1.526953026239058
 20
1.91752810921875
 30
0.0
 11
1.52933971692959
 21
1.91752810921875
 31
0.0
  0
LINE
  5
1CB
330
144
100
AcDbEntity
  8
4
100
AcDbLine
 10
1.525587578593749
 20
1.9578205796875
 30
0.0
 11
1.530999999999999
 21
1.9578205796875
 31
0.0
  0
LINE
  5
1CC
330
144
100
AcDbEntity
  8
4
100
AcDbLine
 10
1.530999999999999
 20
1.9578205796875
 30
0.0
 11
1.530999999999999
 21
2.036
 31
0.0
  0
LINE
  5
1CD
330
144
100
AcDbEntity
  8
4
  6
CENTER
100
AcDbLine
 10
1.533140761503458
 20
1.91752810921875
 30
0.0
 11
1.541450016142824
 21
1.91752810921875
 31
0.0
  0
LINE
  5
1CE
330
144
100
AcDbEntity
  8
4
100
AcDbLine
 10
1.530999999999999
 20
2.226749946406251
 30
0.0
 11
1.525587578593749
 21
2.226749946406251
 31
0.0
  0
LINE
  5
1CF
330
144
100
AcDbEntity
  8
4
  6
CENTER
100
AcDbLine
 10
1.515196315496658
 20
2.1864574759375
 30
0.0
 11
1.522975181704761
 21
2.1864574759375
 31
0.0
  0
LINE
  5
1D0
330
144
100
AcDbEntity
  8
4
100
AcDbLine
 10
1.525587578593749
 20
2.14616500546875
 30
0.0
 11
1.530999999999999
 21
2.14616500546875
 31
0.0
  0
LINE
  5
1D1
330
144
100
AcDbEntity
  8
4
100
AcDbLine
 10
1.526953026239058
 20
2.1864574759375
 30
0.0
 11
1.52933971692959
 21
2.1864574759375
 31
0.0
  0
LINE
  5
1D2
330
144
100
AcDbEntity
  8
4
  6
CENTER
100
AcDbLine
 10
1.533140761503458
 20
2.1864574759375
 30
0.0
 11
1.541450016142824
 21
2.1864574759375
 31
0.0
  0
LINE
  5
1D3
330
144
100
AcDbEntity
  8
4
100
AcDbLine
 10
1.530999999999999
 20
2.14616500546875
 30
0.0
 11
1.530999999999999
 21
2.226749946406251
 31
0.0
  0
LINE
  5
1D4
330
144
100
AcDbEntity
  8
4
100
AcDbLine
 10
1.525587578593749
 20
2.226749946406251
 30
0.0
 11
1.525587578593749
 21
2.14616500546875
 31
0.0
  0
LINE
  5
1D5
330
144
100
AcDbEntity
  8
4
100
AcDbLine
 10
1.525587578593749
 20
2.351235638750001
 30
0.0
 11
1.525587578593749
 21
2.4318205796875
 31
0.0
  0
LINE
  5
1D6
330
144
100
AcDbEntity
  8
4
100
AcDbLine
 10
1.530999999999999
 20
2.4318205796875
 30
0.0
 11
1.530999999999999
 21
2.351235638750001
 31
0.0
  0
LINE
  5
1D7
330
144
100
AcDbEntity
  8
4
  6
CENTER
100
AcDbLine
 10
1.515196315496658
 20
2.39152810921875
 30
0.0
 11
1.522975181704761
 21
2.39152810921875
 31
0.0
  0
LINE
  5
1D8
330
144
100
AcDbEntity
  8
4
100
AcDbLine
 10
1.526953026239058
 20
2.39152810921875
 30
0.0
 11
1.52933971692959
 21
2.39152810921875
 31
0.0
  0
LINE
  5
1D9
330
144
100
AcDbEntity
  8
4
100
AcDbLine
 10
1.530999999999999
 20
2.351235638750001
 30
0.0
 11
1.525587578593749
 21
2.351235638750001
 31
0.0
  0
LINE
  5
1DA
330
144
100
AcDbEntity
  8
4
  6
CENTER
100
AcDbLine
 10
1.533140761503458
 20
2.39152810921875
 30
0.0
 11
1.541450016142824
 21
2.39152810921875
 31
0.0
  0
LINE
  5
1DB
330
144
100
AcDbEntity
  8
4
100
AcDbLine
 10
1.530999999999999
 20
2.4318205796875
 30
0.0
 11
1.530999999999999
 21
2.51
 31
0.0
  0
LINE
  5
1DC
330
144
100
AcDbEntity
  8
4
100
AcDbLine
 10
1.525587578593749
 20
2.4318205796875
 30
0.0
 11
1.530999999999999
 21
2.4318205796875
 31
0.0
  0
LINE
  5
1DD
330
144
100
AcDbEntity
  8
4
100
AcDbLine
 10
2.624999999999999
 20
2.022014414843751
 30
0.0
 11
2.812999999999997
 21
2.022014414843751
 31
0.0
  0
LINE
  5
1DE
330
144
100
AcDbEntity
  8
4
100
AcDbLine
 10
2.624999999999999
 20
2.084014414843752
 30
0.0
 11
2.812999999999997
 21
2.084014414843752
 31
0.0
  0
LINE
  5
1DF
330
144
100
AcDbEntity
  8
4
100
AcDbLine
 10
2.624999999999999
 20
2.496014414843751
 30
0.0
 11
2.812999999999997
 21
2.496014414843751
 31
0.0
  0
LINE
  5
1E0
330
144
100
AcDbEntity
  8
4
100
AcDbLine
 10
2.624999999999999
 20
2.558014414843752
 30
0.0
 11
2.812999999999997
 21
2.558014414843752
 31
0.0
  0
LINE
  5
1E1
330
144
100
AcDbEntity
  8
4
100
AcDbLine
 10
1.530999999999999
 20
3.48998558515625
 30
0.0
 11
1.094
 21
3.49
 31
0.0
  0
LINE
  5
1E2
330
144
100
AcDbEntity
  8
4
100
AcDbLine
 10
1.530999999999999
 20
3.932
 30
0.0
 11
1.094
 21
3.93201441484375
 31
0.0
  0
LINE
  5
1E3
330
144
100
AcDbEntity
  8
4
100
AcDbLine
 10
1.530999999999999
 20
3.01598558515625
 30
0.0
 11
1.094
 21
3.016
 31
0.0
  0
LINE
  5
1E4
330
144
100
AcDbEntity
  8
4
100
AcDbLine
 10
1.530999999999999
 20
3.458
 30
0.0
 11
1.094
 21
3.458014414843749
 31
0.0
  0
LINE
  5
1E5
330
144
100
AcDbEntity
  8
4
100
AcDbLine
 10
1.530999999999999
 20
2.984
 30
0.0
 11
1.094
 21
2.98401441484375
 31
0.0
  0
LINE
  5
1E6
330
144
100
AcDbEntity
  8
4
100
AcDbLine
 10
1.530999999999999
 20
3.96398558515625
 30
0.0
 11
1.094
 21
3.964
 31
0.0
  0
LINE
  5
1E7
330
144
100
AcDbEntity
  8
4
100
AcDbLine
 10
1.530999999999999
 20
4.406
 30
0.0
 11
1.094
 21
4.40601441484375
 31
0.0
  0
LINE
  5
1E8
330
144
100
AcDbEntity
  8
4
100
AcDbLine
 10
1.094
 20
3.964
 30
0.0
 11
1.094
 21
4.40601441484375
 31
0.0
  0
LINE
  5
1E9
330
144
100
AcDbEntity
  8
4
100
AcDbLine
 10
1.264707587404038
 20
3.317595661781345
 30
0.0
 11
1.254723709705184
 21
3.157853618599695
 31
0.0
  0
LINE
  5
1EA
330
144
100
AcDbEntity
  8
4
 62
   130
100
AcDbLine
 10
1.143223695894216
 20
3.314490420975791
 30
0.0
 11
1.163660999124217
 21
3.294053117745793
 31
0.0
  0
LINE
  5
1EB
330
144
100
AcDbEntity
  8
4
 62
   130
100
AcDbLine
 10
1.13473250384268
 20
3.305999228924256
 30
0.0
 11
1.155169807072678
 21
3.285561925694254
 31
0.0
  0
LINE
  5
1EC
330
144
100
AcDbEntity
  8
4
100
AcDbLine
 10
1.136460650096981
 20
3.309388943569868
 30
0.0
 11
1.158559521718291
 21
3.287290071948558
 31
0.0
  0
LINE
  5
1ED
330
144
100
AcDbEntity
  8
4
100
AcDbLine
 10
1.139862569989424
 20
3.312790863462312
 30
0.0
 11
1.161961441610734
 21
3.290691991841002
 31
0.0
  0
LINE
  5
1EE
330
144
100
AcDbEntity
  8
4
100
AcDbLine
 10
1.144979057507657
 20
3.307674375944081
 30
0.0
 11
1.141577137615214
 21
3.304272456051638
 31
0.0
  0
LINE
  5
1EF
330
144
100
AcDbEntity
  8
4
100
AcDbLine
 10
1.094
 20
3.016
 30
0.0
 11
1.094
 21
3.458014414843749
 31
0.0
  0
LINE
  5
1F0
330
144
100
AcDbEntity
  8
4
100
AcDbLine
 10
1.118731612533198
 20
3.308573788296939
 30
0.0
 11
1.126860999285368
 21
3.178503600262232
 31
0.0
  0
LINE
  5
1F1
330
144
100
AcDbEntity
  8
4
100
AcDbLine
 10
1.103706459470962
 20
3.317595661781345
 30
0.0
 11
1.113690337169816
 21
3.157853618599695
 31
0.0
  0
LINE
  5
1F2
330
144
100
AcDbEntity
  8
4
100
AcDbLine
 10
1.249682434341802
 20
3.308573788296939
 30
0.0
 11
1.241553047589632
 21
3.178521721226938
 31
0.0
  0
ARC
  5
1F3
330
144
100
AcDbEntity
  8
4
100
AcDbCircle
 10
1.24614917953125
 20
2.937712953853748
 30
0.0
 40
0.0781794203125
100
AcDbArc
 50
347.5762104955836
 51
12.42378950441644
  0
ARC
  5
1F4
330
144
100
AcDbEntity
  8
4
100
AcDbCircle
 10
1.318314798281249
 20
2.937712953853748
 30
0.0
 40
0.0781794203125
100
AcDbArc
 50
167.5762104955835
 51
192.4237895044164
  0
ARC
  5
1F5
330
144
100
AcDbEntity
  8
4
100
AcDbCircle
 10
1.282231988906249
 20
3.187285718697498
 30
0.0
 40
0.26941831
100
AcDbArc
 50
261.4046615383198
 51
278.5953384616802
  0
ARC
  5
1F6
330
144
100
AcDbEntity
  8
4
100
AcDbCircle
 10
1.235897554655539
 20
2.845396288828125
 30
0.0
 40
0.0288662475
100
AcDbArc
 50
356.4236656250017
 51
90.0
  0
LINE
  5
1F7
330
144
100
AcDbEntity
  8
4
100
AcDbLine
 10
1.264707587404038
 20
2.843595661781345
 30
0.0
 11
1.254723709705184
 21
2.683853618599695
 31
0.0
  0
LINE
  5
1F8
330
144
100
AcDbEntity
  8
4
100
AcDbLine
 10
1.118731612533198
 20
2.83457378829694
 30
0.0
 11
1.126860999285368
 21
2.704503600262233
 31
0.0
  0
LINE
  5
1F9
330
144
100
AcDbEntity
  8
4
100
AcDbLine
 10
1.103706459470962
 20
2.843595661781345
 30
0.0
 11
1.113690337169816
 21
2.683853618599695
 31
0.0
  0
LINE
  5
1FA
330
144
100
AcDbEntity
  8
4
100
AcDbLine
 10
1.249682434341802
 20
2.83457378829694
 30
0.0
 11
1.241553047589632
 21
2.704521721226939
 31
0.0
  0
LINE
  5
1FB
330
144
100
AcDbEntity
  8
4
100
AcDbLine
 10
1.1842070234375
 20
2.686477974258124
 30
0.0
 11
1.146067687784369
 21
2.686477974258129
 31
0.0
  0
LINE
  5
1FC
330
144
100
AcDbEntity
  8
4
100
AcDbLine
 10
1.1842070234375
 20
2.660171200703126
 30
0.0
 11
1.138899115824751
 21
2.660171200703126
 31
0.0
  0
ARC
  5
1FD
330
144
100
AcDbEntity
  8
4
100
AcDbCircle
 10
1.146067687784369
 20
2.705722139258129
 30
0.0
 40
0.019244165
100
AcDbArc
 50
183.5763343749981
 51
270.0
  0
ARC
  5
1FE
330
144
100
AcDbEntity
  8
4
100
AcDbCircle
 10
1.138899115824751
 20
2.685429167265625
 30
0.0
 40
0.0252579665625
100
AcDbArc
 50
183.5763343749981
 51
270.0
  0
CIRCLE
  5
1FF
330
144
100
AcDbEntity
  8
4
100
AcDbCircle
 10
1.1842070234375
 20
2.761804447109375
 30
0.0
 40
0.01262898328125
  0
ARC
  5
200
330
144
100
AcDbEntity
  8
4
100
AcDbCircle
 10
1.222346359090631
 20
2.705722139258129
 30
0.0
 40
0.019244165
100
AcDbArc
 50
270.0
 51
356.4236656250017
  0
LINE
  5
201
330
144
100
AcDbEntity
  8
4
100
AcDbLine
 10
1.1842070234375
 20
2.660171200703126
 30
0.0
 11
1.229514931050247
 21
2.660171200703126
 31
0.0
  0
LINE
  5
202
330
144
100
AcDbEntity
  8
4
100
AcDbLine
 10
1.1842070234375
 20
2.686477974258124
 30
0.0
 11
1.222346359090631
 21
2.686477974258129
 31
0.0
  0
CIRCLE
  5
203
330
144
100
AcDbEntity
  8
4
100
AcDbCircle
 10
1.1842070234375
 20
2.670996043515629
 30
0.0
 40
0.006924050567
  0
CIRCLE
  5
204
330
144
100
AcDbEntity
  8
4
100
AcDbCircle
 10
1.1842070234375
 20
2.719736702419377
 30
0.0
 40
0.00419522797
  0
ARC
  5
205
330
144
100
AcDbEntity
  8
4
100
AcDbCircle
 10
1.229514931050247
 20
2.685429167265625
 30
0.0
 40
0.0252579665625
100
AcDbArc
 50
270.0
 51
356.4236656250017
  0
LINE
  5
206
330
144
100
AcDbEntity
  8
4
 62
   130
100
AcDbLine
 10
1.143223695894216
 20
2.840490420975791
 30
0.0
 11
1.163660999124217
 21
2.820053117745794
 31
0.0
  0
LINE
  5
207
330
144
100
AcDbEntity
  8
4
100
AcDbLine
 10
1.1842070234375
 20
2.874262536328125
 30
0.0
 11
1.132516492219463
 21
2.874262536328125
 31
0.0
  0
LINE
  5
208
330
144
100
AcDbEntity
  8
4
100
AcDbLine
 10
1.1842070234375
 20
2.855018371328125
 30
0.0
 11
1.137938301032199
 21
2.855018371328125
 31
0.0
  0
LINE
  5
209
330
144
100
AcDbEntity
  8
4
 62
   130
100
AcDbLine
 10
1.13473250384268
 20
2.831999228924257
 30
0.0
 11
1.155169807072678
 21
2.811561925694254
 31
0.0
  0
LINE
  5
20A
330
144
100
AcDbEntity
  8
4
100
AcDbLine
 10
1.136460650096981
 20
2.835388943569869
 30
0.0
 11
1.158559521718291
 21
2.813290071948559
 31
0.0
  0
LINE
  5
20B
330
144
100
AcDbEntity
  8
4
100
AcDbLine
 10
1.139862569989424
 20
2.838790863462313
 30
0.0
 11
1.161961441610734
 21
2.816691991841002
 31
0.0
  0
LINE
  5
20C
330
144
100
AcDbEntity
  8
4
100
AcDbLine
 10
1.144979057507657
 20
2.833674375944082
 30
0.0
 11
1.141577137615214
 21
2.830272456051639
 31
0.0
  0
LINE
  5
20D
330
144
100
AcDbEntity
  8
4
100
AcDbLine
 10
1.139862569989424
 20
2.838790863462313
 30
0.0
 11
1.136460650096981
 21
2.835388943569869
 31
0.0
  0
ARC
  5
20E
330
144
100
AcDbEntity
  8
4
100
AcDbCircle
 10
1.137938301032199
 20
2.835774206328125
 30
0.0
 40
0.019244165
100
AcDbArc
 50
90.0
 51
183.5763343749981
  0
ARC
  5
20F
330
144
100
AcDbEntity
  8
4
 62
   130
100
AcDbCircle
 10
1.138978099868448
 20
2.836244824950024
 30
0.0
 40
0.00600417948
100
AcDbArc
 50
45.00000000000024
 51
225.0000000000002
  0
ARC
  5
210
330
144
100
AcDbEntity
  8
4
100
AcDbCircle
 10
1.132516492219463
 20
2.845396288828125
 30
0.0
 40
0.0288662475
100
AcDbArc
 50
90.0
 51
183.5763343749981
  0
LINE
  5
211
330
144
100
AcDbEntity
  8
4
100
AcDbLine
 10
1.24614917953125
 20
2.93424900415375
 30
0.0
 11
1.24614917953125
 21
2.941176903553748
 31
0.0
  0
ARC
  5
212
330
144
100
AcDbEntity
  8
4
 62
   130
100
AcDbCircle
 10
1.159415403098448
 20
2.815807521720026
 30
0.0
 40
0.00600417948
100
AcDbArc
 50
225.0000000000002
 51
45.00000000000024
  0
LINE
  5
213
330
144
100
AcDbEntity
  8
4
100
AcDbLine
 10
1.156844954092499
 20
2.821808479359238
 30
0.0
 11
1.153443034200058
 21
2.818406559466795
 31
0.0
  0
LINE
  5
214
330
144
100
AcDbEntity
  8
4
100
AcDbLine
 10
1.1842070234375
 20
2.855018371328125
 30
0.0
 11
1.230475745842801
 21
2.855018371328125
 31
0.0
  0
LINE
  5
215
330
144
100
AcDbEntity
  8
4
100
AcDbLine
 10
1.1842070234375
 20
2.874262536328125
 30
0.0
 11
1.235897554655539
 21
2.874262536328125
 31
0.0
  0
CIRCLE
  5
216
330
144
100
AcDbEntity
  8
4
100
AcDbCircle
 10
1.1842070234375
 20
2.803872191799378
 30
0.0
 40
0.00419522797
  0
LINE
  5
217
330
144
100
AcDbEntity
  8
4
100
AcDbLine
 10
1.158559521718291
 20
2.813290071948559
 30
0.0
 11
1.161961441610734
 21
2.816691991841002
 31
0.0
  0
CIRCLE
  5
218
330
144
100
AcDbEntity
  8
4
100
AcDbCircle
 10
1.24614917953125
 20
2.937712953853748
 30
0.0
 40
0.00261720644
  0
ARC
  5
219
330
144
100
AcDbEntity
  8
4
100
AcDbCircle
 10
1.230475745842801
 20
2.835774206328125
 30
0.0
 40
0.019244165
100
AcDbArc
 50
356.4236656250017
 51
90.0
  0
LINE
  5
21A
330
144
100
AcDbEntity
  8
4
100
AcDbLine
 10
1.242685229831249
 20
2.937712953853748
 30
0.0
 11
1.24961312923125
 21
2.937712953853748
 31
0.0
  0
CIRCLE
  5
21B
330
144
100
AcDbEntity
  8
4
100
AcDbCircle
 10
1.318314798281249
 20
2.937712953853748
 30
0.0
 40
0.00261720644
  0
LINE
  5
21C
330
144
100
AcDbEntity
  8
4
100
AcDbLine
 10
1.31485084858125
 20
2.937712953853748
 30
0.0
 11
1.321778747981251
 21
2.937712953853748
 31
0.0
  0
LINE
  5
21D
330
144
100
AcDbEntity
  8
4
100
AcDbLine
 10
1.318314798281249
 20
2.93424900415375
 30
0.0
 11
1.318314798281249
 21
2.941176903553748
 31
0.0
  0
ARC
  5
21E
330
144
100
AcDbEntity
  8
4
100
AcDbCircle
 10
1.282231988906249
 20
2.688140189009997
 30
0.0
 40
0.26941831
100
AcDbArc
 50
81.40466153831981
 51
98.59533846168009
  0
ARC
  5
21F
330
144
100
AcDbEntity
  8
4
100
AcDbCircle
 10
1.138899115824751
 20
3.159429167265624
 30
0.0
 40
0.0252579665625
100
AcDbArc
 50
183.5763343749981
 51
270.0
  0
ARC
  5
220
330
144
100
AcDbEntity
  8
4
100
AcDbCircle
 10
1.229514931050247
 20
3.159429167265624
 30
0.0
 40
0.0252579665625
100
AcDbArc
 50
270.0
 51
356.4236656250017
  0
LINE
  5
221
330
144
100
AcDbEntity
  8
4
100
AcDbLine
 10
1.1842070234375
 20
3.160477974258124
 30
0.0
 11
1.146067687784369
 21
3.160477974258128
 31
0.0
  0
LINE
  5
222
330
144
100
AcDbEntity
  8
4
100
AcDbLine
 10
1.1842070234375
 20
3.134171200703125
 30
0.0
 11
1.138899115824751
 21
3.134171200703125
 31
0.0
  0
ARC
  5
223
330
144
100
AcDbEntity
  8
4
100
AcDbCircle
 10
1.146067687784369
 20
3.179722139258128
 30
0.0
 40
0.019244165
100
AcDbArc
 50
183.5763343749981
 51
270.0
  0
ARC
  5
224
330
144
100
AcDbEntity
  8
4
 62
   130
100
AcDbCircle
 10
1.159415403098448
 20
3.289807521720025
 30
0.0
 40
0.00600417948
100
AcDbArc
 50
225.0000000000002
 51
45.00000000000024
  0
LINE
  5
225
330
144
100
AcDbEntity
  8
4
100
AcDbLine
 10
1.156844954092499
 20
3.295808479359237
 30
0.0
 11
1.153443034200058
 21
3.292406559466794
 31
0.0
  0
CIRCLE
  5
226
330
144
100
AcDbEntity
  8
4
100
AcDbCircle
 10
1.1842070234375
 20
3.277872191799377
 30
0.0
 40
0.00419522797
  0
LINE
  5
227
330
144
100
AcDbEntity
  8
4
100
AcDbLine
 10
1.158559521718291
 20
3.287290071948558
 30
0.0
 11
1.161961441610734
 21
3.290691991841002
 31
0.0
  0
ARC
  5
228
330
144
100
AcDbEntity
  8
4
100
AcDbCircle
 10
1.222346359090631
 20
3.179722139258128
 30
0.0
 40
0.019244165
100
AcDbArc
 50
270.0
 51
356.4236656250017
  0
LINE
  5
229
330
144
100
AcDbEntity
  8
4
100
AcDbLine
 10
1.1842070234375
 20
3.134171200703125
 30
0.0
 11
1.229514931050247
 21
3.134171200703125
 31
0.0
  0
LINE
  5
22A
330
144
100
AcDbEntity
  8
4
100
AcDbLine
 10
1.1842070234375
 20
3.160477974258124
 30
0.0
 11
1.222346359090631
 21
3.160477974258128
 31
0.0
  0
CIRCLE
  5
22B
330
144
100
AcDbEntity
  8
4
100
AcDbCircle
 10
1.1842070234375
 20
3.144996043515629
 30
0.0
 40
0.006924050567
  0
CIRCLE
  5
22C
330
144
100
AcDbEntity
  8
4
100
AcDbCircle
 10
1.1842070234375
 20
3.193736702419376
 30
0.0
 40
0.00419522797
  0
CIRCLE
  5
22D
330
144
100
AcDbEntity
  8
4
100
AcDbCircle
 10
1.1842070234375
 20
3.235804447109375
 30
0.0
 40
0.01262898328125
  0
LINE
  5
22E
330
144
100
AcDbEntity
  8
4
100
AcDbLine
 10
1.118731612533198
 20
3.782573788296939
 30
0.0
 11
1.126860999285368
 21
3.652503600262233
 31
0.0
  0
LINE
  5
22F
330
144
100
AcDbEntity
  8
4
100
AcDbLine
 10
1.103706459470962
 20
3.791595661781345
 30
0.0
 11
1.113690337169816
 21
3.631853618599695
 31
0.0
  0
LINE
  5
230
330
144
100
AcDbEntity
  8
4
100
AcDbLine
 10
1.094
 20
3.49
 30
0.0
 11
1.094
 21
3.93201441484375
 31
0.0
  0
LINE
  5
231
330
144
100
AcDbEntity
  8
4
100
AcDbLine
 10
1.249682434341802
 20
3.782573788296939
 30
0.0
 11
1.241553047589632
 21
3.652521721226938
 31
0.0
  0
LINE
  5
232
330
144
100
AcDbEntity
  8
4
100
AcDbLine
 10
1.264707587404038
 20
3.791595661781345
 30
0.0
 11
1.254723709705184
 21
3.631853618599695
 31
0.0
  0
ARC
  5
233
330
144
100
AcDbEntity
  8
4
100
AcDbCircle
 10
1.282231988906249
 20
3.162140189009996
 30
0.0
 40
0.26941831
100
AcDbArc
 50
81.40466153831981
 51
98.59533846168009
  0
ARC
  5
234
330
144
100
AcDbEntity
  8
4
100
AcDbCircle
 10
1.282231988906249
 20
3.661285718697497
 30
0.0
 40
0.26941831
100
AcDbArc
 50
261.4046615383198
 51
278.5953384616802
  0
ARC
  5
235
330
144
100
AcDbEntity
  8
4
100
AcDbCircle
 10
1.235897554655539
 20
3.319396288828125
 30
0.0
 40
0.0288662475
100
AcDbArc
 50
356.4236656250017
 51
90.0
  0
LINE
  5
236
330
144
100
AcDbEntity
  8
4
100
AcDbLine
 10
1.1842070234375
 20
3.348262536328125
 30
0.0
 11
1.132516492219463
 21
3.348262536328125
 31
0.0
  0
LINE
  5
237
330
144
100
AcDbEntity
  8
4
100
AcDbLine
 10
1.1842070234375
 20
3.329018371328125
 30
0.0
 11
1.137938301032199
 21
3.329018371328125
 31
0.0
  0
LINE
  5
238
330
144
100
AcDbEntity
  8
4
100
AcDbLine
 10
1.139862569989424
 20
3.312790863462312
 30
0.0
 11
1.136460650096981
 21
3.309388943569868
 31
0.0
  0
ARC
  5
239
330
144
100
AcDbEntity
  8
4
100
AcDbCircle
 10
1.137938301032199
 20
3.309774206328125
 30
0.0
 40
0.019244165
100
AcDbArc
 50
90.0
 51
183.5763343749981
  0
ARC
  5
23A
330
144
100
AcDbEntity
  8
4
 62
   130
100
AcDbCircle
 10
1.138978099868448
 20
3.310244824950023
 30
0.0
 40
0.00600417948
100
AcDbArc
 50
45.00000000000024
 51
225.0000000000002
  0
ARC
  5
23B
330
144
100
AcDbEntity
  8
4
100
AcDbCircle
 10
1.132516492219463
 20
3.319396288828125
 30
0.0
 40
0.0288662475
100
AcDbArc
 50
90.0
 51
183.5763343749981
  0
LINE
  5
23C
330
144
100
AcDbEntity
  8
4
100
AcDbLine
 10
1.1842070234375
 20
3.329018371328125
 30
0.0
 11
1.230475745842801
 21
3.329018371328125
 31
0.0
  0
LINE
  5
23D
330
144
100
AcDbEntity
  8
4
100
AcDbLine
 10
1.1842070234375
 20
3.348262536328125
 30
0.0
 11
1.235897554655539
 21
3.348262536328125
 31
0.0
  0
ARC
  5
23E
330
144
100
AcDbEntity
  8
4
100
AcDbCircle
 10
1.318314798281249
 20
3.411712953853747
 30
0.0
 40
0.0781794203125
100
AcDbArc
 50
167.5762104955835
 51
192.4237895044164
  0
CIRCLE
  5
23F
330
144
100
AcDbEntity
  8
4
100
AcDbCircle
 10
1.24614917953125
 20
3.411712953853747
 30
0.0
 40
0.00261720644
  0
ARC
  5
240
330
144
100
AcDbEntity
  8
4
100
AcDbCircle
 10
1.230475745842801
 20
3.309774206328125
 30
0.0
 40
0.019244165
100
AcDbArc
 50
356.4236656250017
 51
90.0
  0
LINE
  5
241
330
144
100
AcDbEntity
  8
4
100
AcDbLine
 10
1.242685229831249
 20
3.411712953853747
 30
0.0
 11
1.24961312923125
 21
3.411712953853747
 31
0.0
  0
LINE
  5
242
330
144
100
AcDbEntity
  8
4
100
AcDbLine
 10
1.24614917953125
 20
3.408249004153749
 30
0.0
 11
1.24614917953125
 21
3.415176903553748
 31
0.0
  0
LINE
  5
243
330
144
100
AcDbEntity
  8
4
100
AcDbLine
 10
1.1842070234375
 20
3.634477974258124
 30
0.0
 11
1.146067687784369
 21
3.634477974258128
 31
0.0
  0
LINE
  5
244
330
144
100
AcDbEntity
  8
4
100
AcDbLine
 10
1.1842070234375
 20
3.608171200703125
 30
0.0
 11
1.138899115824751
 21
3.608171200703125
 31
0.0
  0
ARC
  5
245
330
144
100
AcDbEntity
  8
4
100
AcDbCircle
 10
1.146067687784369
 20
3.653722139258128
 30
0.0
 40
0.019244165
100
AcDbArc
 50
183.5763343749981
 51
270.0
  0
ARC
  5
246
330
144
100
AcDbEntity
  8
4
100
AcDbCircle
 10
1.138899115824751
 20
3.633429167265624
 30
0.0
 40
0.0252579665625
100
AcDbArc
 50
183.5763343749981
 51
270.0
  0
ARC
  5
247
330
144
100
AcDbEntity
  8
4
100
AcDbCircle
 10
1.222346359090631
 20
3.653722139258128
 30
0.0
 40
0.019244165
100
AcDbArc
 50
270.0
 51
356.4236656250017
  0
LINE
  5
248
330
144
100
AcDbEntity
  8
4
100
AcDbLine
 10
1.1842070234375
 20
3.608171200703125
 30
0.0
 11
1.229514931050247
 21
3.608171200703125
 31
0.0
  0
LINE
  5
249
330
144
100
AcDbEntity
  8
4
100
AcDbLine
 10
1.1842070234375
 20
3.634477974258124
 30
0.0
 11
1.222346359090631
 21
3.634477974258128
 31
0.0
  0
CIRCLE
  5
24A
330
144
100
AcDbEntity
  8
4
100
AcDbCircle
 10
1.1842070234375
 20
3.618996043515629
 30
0.0
 40
0.006924050567
  0
ARC
  5
24B
330
144
100
AcDbEntity
  8
4
100
AcDbCircle
 10
1.229514931050247
 20
3.633429167265624
 30
0.0
 40
0.0252579665625
100
AcDbArc
 50
270.0
 51
356.4236656250017
  0
CIRCLE
  5
24C
330
144
100
AcDbEntity
  8
4
100
AcDbCircle
 10
1.318314798281249
 20
3.411712953853747
 30
0.0
 40
0.00261720644
  0
LINE
  5
24D
330
144
100
AcDbEntity
  8
4
100
AcDbLine
 10
1.31485084858125
 20
3.411712953853747
 30
0.0
 11
1.321778747981251
 21
3.411712953853747
 31
0.0
  0
LINE
  5
24E
330
144
100
AcDbEntity
  8
4
100
AcDbLine
 10
1.318314798281249
 20
3.408249004153749
 30
0.0
 11
1.318314798281249
 21
3.415176903553748
 31
0.0
  0
ARC
  5
24F
330
144
100
AcDbEntity
  8
4
100
AcDbCircle
 10
1.24614917953125
 20
3.411712953853747
 30
0.0
 40
0.0781794203125
100
AcDbArc
 50
347.5762104955836
 51
12.42378950441644
  0
ARC
  5
250
330
144
100
AcDbEntity
  8
4
100
AcDbCircle
 10
1.282231988906249
 20
3.636140189009997
 30
0.0
 40
0.26941831
100
AcDbArc
 50
81.40466153831981
 51
98.59533846168009
  0
ARC
  5
251
330
144
100
AcDbEntity
  8
4
100
AcDbCircle
 10
1.282231988906249
 20
4.135285718697497
 30
0.0
 40
0.26941831
100
AcDbArc
 50
261.4046615383198
 51
278.5953384616802
  0
ARC
  5
252
330
144
100
AcDbEntity
  8
4
100
AcDbCircle
 10
1.235897554655539
 20
3.793396288828125
 30
0.0
 40
0.0288662475
100
AcDbArc
 50
356.4236656250017
 51
90.0
  0
LINE
  5
253
330
144
100
AcDbEntity
  8
4
100
AcDbLine
 10
1.1842070234375
 20
3.822262536328125
 30
0.0
 11
1.132516492219463
 21
3.822262536328125
 31
0.0
  0
LINE
  5
254
330
144
100
AcDbEntity
  8
4
100
AcDbLine
 10
1.1842070234375
 20
3.803018371328125
 30
0.0
 11
1.137938301032199
 21
3.803018371328125
 31
0.0
  0
LINE
  5
255
330
144
100
AcDbEntity
  8
4
 62
   130
100
AcDbLine
 10
1.143223695894216
 20
3.788490420975791
 30
0.0
 11
1.163660999124217
 21
3.768053117745793
 31
0.0
  0
LINE
  5
256
330
144
100
AcDbEntity
  8
4
 62
   130
100
AcDbLine
 10
1.13473250384268
 20
3.779999228924256
 30
0.0
 11
1.155169807072678
 21
3.759561925694254
 31
0.0
  0
LINE
  5
257
330
144
100
AcDbEntity
  8
4
100
AcDbLine
 10
1.136460650096981
 20
3.783388943569868
 30
0.0
 11
1.158559521718291
 21
3.761290071948558
 31
0.0
  0
LINE
  5
258
330
144
100
AcDbEntity
  8
4
100
AcDbLine
 10
1.139862569989424
 20
3.786790863462313
 30
0.0
 11
1.161961441610734
 21
3.764691991841002
 31
0.0
  0
LINE
  5
259
330
144
100
AcDbEntity
  8
4
100
AcDbLine
 10
1.144979057507657
 20
3.781674375944081
 30
0.0
 11
1.141577137615214
 21
3.778272456051638
 31
0.0
  0
LINE
  5
25A
330
144
100
AcDbEntity
  8
4
100
AcDbLine
 10
1.139862569989424
 20
3.786790863462313
 30
0.0
 11
1.136460650096981
 21
3.783388943569868
 31
0.0
  0
ARC
  5
25B
330
144
100
AcDbEntity
  8
4
100
AcDbCircle
 10
1.137938301032199
 20
3.783774206328125
 30
0.0
 40
0.019244165
100
AcDbArc
 50
90.0
 51
183.5763343749981
  0
ARC
  5
25C
330
144
100
AcDbEntity
  8
4
 62
   130
100
AcDbCircle
 10
1.138978099868448
 20
3.784244824950024
 30
0.0
 40
0.00600417948
100
AcDbArc
 50
45.00000000000024
 51
225.0000000000002
  0
ARC
  5
25D
330
144
100
AcDbEntity
  8
4
100
AcDbCircle
 10
1.132516492219463
 20
3.793396288828125
 30
0.0
 40
0.0288662475
100
AcDbArc
 50
90.0
 51
183.5763343749981
  0
LINE
  5
25E
330
144
100
AcDbEntity
  8
4
100
AcDbLine
 10
1.1842070234375
 20
3.803018371328125
 30
0.0
 11
1.230475745842801
 21
3.803018371328125
 31
0.0
  0
LINE
  5
25F
330
144
100
AcDbEntity
  8
4
100
AcDbLine
 10
1.1842070234375
 20
3.822262536328125
 30
0.0
 11
1.235897554655539
 21
3.822262536328125
 31
0.0
  0
ARC
  5
260
330
144
100
AcDbEntity
  8
4
 62
   130
100
AcDbCircle
 10
1.159415403098448
 20
3.763807521720026
 30
0.0
 40
0.00600417948
100
AcDbArc
 50
225.0000000000002
 51
45.00000000000024
  0
LINE
  5
261
330
144
100
AcDbEntity
  8
4
100
AcDbLine
 10
1.156844954092499
 20
3.769808479359237
 30
0.0
 11
1.153443034200058
 21
3.766406559466794
 31
0.0
  0
CIRCLE
  5
262
330
144
100
AcDbEntity
  8
4
100
AcDbCircle
 10
1.1842070234375
 20
3.751872191799377
 30
0.0
 40
0.00419522797
  0
LINE
  5
263
330
144
100
AcDbEntity
  8
4
100
AcDbLine
 10
1.158559521718291
 20
3.761290071948558
 30
0.0
 11
1.161961441610734
 21
3.764691991841002
 31
0.0
  0
CIRCLE
  5
264
330
144
100
AcDbEntity
  8
4
100
AcDbCircle
 10
1.1842070234375
 20
3.667736702419376
 30
0.0
 40
0.00419522797
  0
CIRCLE
  5
265
330
144
100
AcDbEntity
  8
4
100
AcDbCircle
 10
1.1842070234375
 20
3.709804447109375
 30
0.0
 40
0.01262898328125
  0
ARC
  5
266
330
144
100
AcDbEntity
  8
4
100
AcDbCircle
 10
1.230475745842801
 20
3.783774206328125
 30
0.0
 40
0.019244165
100
AcDbArc
 50
356.4236656250017
 51
90.0
  0
ARC
  5
267
330
144
100
AcDbEntity
  8
4
100
AcDbCircle
 10
1.318314798281249
 20
3.885712953853747
 30
0.0
 40
0.0781794203125
100
AcDbArc
 50
167.5762104955835
 51
192.4237895044164
  0
CIRCLE
  5
268
330
144
100
AcDbEntity
  8
4
100
AcDbCircle
 10
1.24614917953125
 20
3.885712953853747
 30
0.0
 40
0.00261720644
  0
LINE
  5
269
330
144
100
AcDbEntity
  8
4
100
AcDbLine
 10
1.242685229831249
 20
3.885712953853747
 30
0.0
 11
1.24961312923125
 21
3.885712953853747
 31
0.0
  0
LINE
  5
26A
330
144
100
AcDbEntity
  8
4
100
AcDbLine
 10
1.24614917953125
 20
3.88224900415375
 30
0.0
 11
1.24614917953125
 21
3.889176903553748
 31
0.0
  0
CIRCLE
  5
26B
330
144
100
AcDbEntity
  8
4
100
AcDbCircle
 10
1.318314798281249
 20
3.885712953853747
 30
0.0
 40
0.00261720644
  0
LINE
  5
26C
330
144
100
AcDbEntity
  8
4
100
AcDbLine
 10
1.31485084858125
 20
3.885712953853747
 30
0.0
 11
1.321778747981251
 21
3.885712953853747
 31
0.0
  0
LINE
  5
26D
330
144
100
AcDbEntity
  8
4
100
AcDbLine
 10
1.318314798281249
 20
3.88224900415375
 30
0.0
 11
1.318314798281249
 21
3.889176903553748
 31
0.0
  0
ARC
  5
26E
330
144
100
AcDbEntity
  8
4
100
AcDbCircle
 10
1.24614917953125
 20
3.885712953853747
 30
0.0
 40
0.0781794203125
100
AcDbArc
 50
347.5762104955836
 51
12.42378950441644
  0
LINE
  5
26F
330
144
100
AcDbEntity
  8
4
100
AcDbLine
 10
1.24614917953125
 20
4.35624900415375
 30
0.0
 11
1.24614917953125
 21
4.363176903553748
 31
0.0
  0
CIRCLE
  5
270
330
144
100
AcDbEntity
  8
4
100
AcDbCircle
 10
1.318314798281249
 20
4.359712953853748
 30
0.0
 40
0.00261720644
  0
LINE
  5
271
330
144
100
AcDbEntity
  8
4
100
AcDbLine
 10
1.318314798281249
 20
4.35624900415375
 30
0.0
 11
1.318314798281249
 21
4.363176903553748
 31
0.0
  0
ARC
  5
272
330
144
100
AcDbEntity
  8
4
100
AcDbCircle
 10
1.24614917953125
 20
4.359712953853748
 30
0.0
 40
0.0781794203125
100
AcDbArc
 50
347.5762104955836
 51
12.42378950441644
  0
ARC
  5
273
330
144
100
AcDbEntity
  8
4
100
AcDbCircle
 10
1.318314798281249
 20
4.359712953853748
 30
0.0
 40
0.0781794203125
100
AcDbArc
 50
167.5762104955835
 51
192.4237895044164
  0
CIRCLE
  5
274
330
144
100
AcDbEntity
  8
4
100
AcDbCircle
 10
1.24614917953125
 20
4.359712953853748
 30
0.0
 40
0.00261720644
  0
ARC
  5
275
330
144
100
AcDbEntity
  8
4
100
AcDbCircle
 10
1.282231988906249
 20
4.609285718697497
 30
0.0
 40
0.26941831
100
AcDbArc
 50
261.4046615383198
 51
278.5953384616802
  0
ARC
  5
276
330
144
100
AcDbEntity
  8
4
100
AcDbCircle
 10
1.235897554655539
 20
4.267396288828125
 30
0.0
 40
0.0288662475
100
AcDbArc
 50
356.4236656250017
 51
90.0
  0
LINE
  5
277
330
144
100
AcDbEntity
  8
4
100
AcDbLine
 10
1.264707587404038
 20
4.265595661781345
 30
0.0
 11
1.254723709705184
 21
4.105853618599695
 31
0.0
  0
LINE
  5
278
330
144
100
AcDbEntity
  8
4
100
AcDbLine
 10
1.118731612533198
 20
4.25657378829694
 30
0.0
 11
1.126860999285368
 21
4.126503600262233
 31
0.0
  0
CIRCLE
  5
279
330
144
100
AcDbEntity
  8
4
100
AcDbCircle
 10
1.1842070234375
 20
4.183804447109375
 30
0.0
 40
0.01262898328125
  0
LINE
  5
27A
330
144
100
AcDbEntity
  8
4
100
AcDbLine
 10
1.103706459470962
 20
4.265595661781345
 30
0.0
 11
1.113690337169816
 21
4.105853618599695
 31
0.0
  0
LINE
  5
27B
330
144
100
AcDbEntity
  8
4
100
AcDbLine
 10
1.249682434341802
 20
4.25657378829694
 30
0.0
 11
1.241553047589632
 21
4.126521721226938
 31
0.0
  0
LINE
  5
27C
330
144
100
AcDbEntity
  8
4
100
AcDbLine
 10
1.1842070234375
 20
4.108477974258124
 30
0.0
 11
1.146067687784369
 21
4.108477974258128
 31
0.0
  0
LINE
  5
27D
330
144
100
AcDbEntity
  8
4
100
AcDbLine
 10
1.1842070234375
 20
4.082171200703125
 30
0.0
 11
1.138899115824751
 21
4.082171200703125
 31
0.0
  0
ARC
  5
27E
330
144
100
AcDbEntity
  8
4
100
AcDbCircle
 10
1.138899115824751
 20
4.107429167265625
 30
0.0
 40
0.0252579665625
100
AcDbArc
 50
183.5763343749981
 51
270.0
  0
ARC
  5
27F
330
144
100
AcDbEntity
  8
4
100
AcDbCircle
 10
1.146067687784369
 20
4.127722139258128
 30
0.0
 40
0.019244165
100
AcDbArc
 50
183.5763343749981
 51
270.0
  0
CIRCLE
  5
280
330
144
100
AcDbEntity
  8
4
100
AcDbCircle
 10
1.1842070234375
 20
4.141736702419376
 30
0.0
 40
0.00419522797
  0
LINE
  5
281
330
144
100
AcDbEntity
  8
4
100
AcDbLine
 10
1.1842070234375
 20
4.082171200703125
 30
0.0
 11
1.229514931050247
 21
4.082171200703125
 31
0.0
  0
LINE
  5
282
330
144
100
AcDbEntity
  8
4
100
AcDbLine
 10
1.1842070234375
 20
4.108477974258124
 30
0.0
 11
1.222346359090631
 21
4.108477974258128
 31
0.0
  0
CIRCLE
  5
283
330
144
100
AcDbEntity
  8
4
100
AcDbCircle
 10
1.1842070234375
 20
4.092996043515629
 30
0.0
 40
0.006924050567
  0
ARC
  5
284
330
144
100
AcDbEntity
  8
4
100
AcDbCircle
 10
1.222346359090631
 20
4.127722139258128
 30
0.0
 40
0.019244165
100
AcDbArc
 50
270.0
 51
356.4236656250017
  0
ARC
  5
285
330
144
100
AcDbEntity
  8
4
100
AcDbCircle
 10
1.229514931050247
 20
4.107429167265625
 30
0.0
 40
0.0252579665625
100
AcDbArc
 50
270.0
 51
356.4236656250017
  0
LINE
  5
286
330
144
100
AcDbEntity
  8
4
 62
   130
100
AcDbLine
 10
1.143223695894216
 20
4.262490420975791
 30
0.0
 11
1.163660999124217
 21
4.242053117745793
 31
0.0
  0
LINE
  5
287
330
144
100
AcDbEntity
  8
4
100
AcDbLine
 10
1.1842070234375
 20
4.296262536328125
 30
0.0
 11
1.132516492219463
 21
4.296262536328125
 31
0.0
  0
LINE
  5
288
330
144
100
AcDbEntity
  8
4
100
AcDbLine
 10
1.1842070234375
 20
4.277018371328125
 30
0.0
 11
1.137938301032199
 21
4.277018371328125
 31
0.0
  0
LINE
  5
289
330
144
100
AcDbEntity
  8
4
 62
   130
100
AcDbLine
 10
1.13473250384268
 20
4.253999228924256
 30
0.0
 11
1.155169807072678
 21
4.233561925694254
 31
0.0
  0
LINE
  5
28A
330
144
100
AcDbEntity
  8
4
100
AcDbLine
 10
1.136460650096981
 20
4.257388943569869
 30
0.0
 11
1.158559521718291
 21
4.235290071948559
 31
0.0
  0
LINE
  5
28B
330
144
100
AcDbEntity
  8
4
100
AcDbLine
 10
1.139862569989424
 20
4.260790863462313
 30
0.0
 11
1.161961441610734
 21
4.238691991841002
 31
0.0
  0
LINE
  5
28C
330
144
100
AcDbEntity
  8
4
100
AcDbLine
 10
1.144979057507657
 20
4.255674375944082
 30
0.0
 11
1.141577137615214
 21
4.252272456051638
 31
0.0
  0
LINE
  5
28D
330
144
100
AcDbEntity
  8
4
100
AcDbLine
 10
1.139862569989424
 20
4.260790863462313
 30
0.0
 11
1.136460650096981
 21
4.257388943569869
 31
0.0
  0
ARC
  5
28E
330
144
100
AcDbEntity
  8
4
100
AcDbCircle
 10
1.137938301032199
 20
4.257774206328125
 30
0.0
 40
0.019244165
100
AcDbArc
 50
90.0
 51
183.5763343749981
  0
ARC
  5
28F
330
144
100
AcDbEntity
  8
4
 62
   130
100
AcDbCircle
 10
1.138978099868448
 20
4.258244824950024
 30
0.0
 40
0.00600417948
100
AcDbArc
 50
45.00000000000024
 51
225.0000000000002
  0
ARC
  5
290
330
144
100
AcDbEntity
  8
4
100
AcDbCircle
 10
1.132516492219463
 20
4.267396288828125
 30
0.0
 40
0.0288662475
100
AcDbArc
 50
90.0
 51
183.5763343749981
  0
ARC
  5
291
330
144
100
AcDbEntity
  8
4
 62
   130
100
AcDbCircle
 10
1.159415403098448
 20
4.237807521720026
 30
0.0
 40
0.00600417948
100
AcDbArc
 50
225.0000000000002
 51
45.00000000000024
  0
LINE
  5
292
330
144
100
AcDbEntity
  8
4
100
AcDbLine
 10
1.156844954092499
 20
4.243808479359238
 30
0.0
 11
1.153443034200058
 21
4.240406559466794
 31
0.0
  0
LINE
  5
293
330
144
100
AcDbEntity
  8
4
100
AcDbLine
 10
1.1842070234375
 20
4.277018371328125
 30
0.0
 11
1.230475745842801
 21
4.277018371328125
 31
0.0
  0
LINE
  5
294
330
144
100
AcDbEntity
  8
4
100
AcDbLine
 10
1.1842070234375
 20
4.296262536328125
 30
0.0
 11
1.235897554655539
 21
4.296262536328125
 31
0.0
  0
CIRCLE
  5
295
330
144
100
AcDbEntity
  8
4
100
AcDbCircle
 10
1.1842070234375
 20
4.225872191799378
 30
0.0
 40
0.00419522797
  0
LINE
  5
296
330
144
100
AcDbEntity
  8
4
100
AcDbLine
 10
1.158559521718291
 20
4.235290071948559
 30
0.0
 11
1.161961441610734
 21
4.238691991841002
 31
0.0
  0
ARC
  5
297
330
144
100
AcDbEntity
  8
4
100
AcDbCircle
 10
1.230475745842801
 20
4.257774206328125
 30
0.0
 40
0.019244165
100
AcDbArc
 50
356.4236656250017
 51
90.0
  0
LINE
  5
298
330
144
100
AcDbEntity
  8
4
100
AcDbLine
 10
1.242685229831249
 20
4.359712953853748
 30
0.0
 11
1.24961312923125
 21
4.359712953853748
 31
0.0
  0
LINE
  5
299
330
144
100
AcDbEntity
  8
4
100
AcDbLine
 10
1.31485084858125
 20
4.359712953853748
 30
0.0
 11
1.321778747981251
 21
4.359712953853748
 31
0.0
  0
ARC
  5
29A
330
144
100
AcDbEntity
  8
4
100
AcDbCircle
 10
1.282231988906249
 20
4.110140189009997
 30
0.0
 40
0.26941831
100
AcDbArc
 50
81.40466153831981
 51
98.59533846168009
  0
LINE
  5
29B
330
144
100
AcDbEntity
  8
4
100
AcDbLine
 10
1.530999999999999
 20
4.04216500546875
 30
0.0
 11
1.530999999999999
 21
3.96398558515625
 31
0.0
  0
LINE
  5
29C
330
144
100
AcDbEntity
  8
4
100
AcDbLine
 10
2.312
 20
3.980014414843751
 30
0.0
 11
2.499999999999999
 21
3.980014414843751
 31
0.0
  0
LINE
  5
29D
330
144
100
AcDbEntity
  8
4
100
AcDbLine
 10
2.312
 20
3.918014414843751
 30
0.0
 11
2.499999999999999
 21
3.918014414843751
 31
0.0
  0
LINE
  5
29E
330
144
100
AcDbEntity
  8
4
100
AcDbLine
 10
2.312
 20
3.444014414843751
 30
0.0
 11
2.499999999999999
 21
3.444014414843751
 31
0.0
  0
LINE
  5
29F
330
144
100
AcDbEntity
  8
4
100
AcDbLine
 10
2.312
 20
3.506014414843751
 30
0.0
 11
2.499999999999999
 21
3.506014414843751
 31
0.0
  0
LINE
  5
2A0
330
144
100
AcDbEntity
  8
4
100
AcDbLine
 10
2.312
 20
2.970014414843752
 30
0.0
 11
2.499999999999999
 21
2.970014414843752
 31
0.0
  0
LINE
  5
2A1
330
144
100
AcDbEntity
  8
4
100
AcDbLine
 10
2.312
 20
3.032014414843751
 30
0.0
 11
2.499999999999999
 21
3.032014414843751
 31
0.0
  0
LINE
  5
2A2
330
144
100
AcDbEntity
  8
4
100
AcDbLine
 10
1.525587578593749
 20
3.29923563875
 30
0.0
 11
1.525587578593749
 21
3.3798205796875
 31
0.0
  0
LINE
  5
2A3
330
144
100
AcDbEntity
  8
4
100
AcDbLine
 10
1.530999999999999
 20
3.3798205796875
 30
0.0
 11
1.530999999999999
 21
3.29923563875
 31
0.0
  0
LINE
  5
2A4
330
144
100
AcDbEntity
  8
4
100
AcDbLine
 10
1.687
 20
2.970014414843752
 30
0.0
 11
2.187999999999997
 21
2.970014414843752
 31
0.0
  0
LINE
  5
2A5
330
144
100
AcDbEntity
  8
4
100
AcDbLine
 10
1.687
 20
3.032014414843751
 30
0.0
 11
2.187999999999997
 21
3.032014414843751
 31
0.0
  0
LINE
  5
2A6
330
144
100
AcDbEntity
  8
4
100
AcDbLine
 10
1.530999999999999
 20
2.9058205796875
 30
0.0
 11
1.530999999999999
 21
2.984
 31
0.0
  0
LINE
  5
2A7
330
144
100
AcDbEntity
  8
4
100
AcDbLine
 10
1.530999999999999
 20
2.825235638750001
 30
0.0
 11
1.530999999999999
 21
2.700749946406251
 31
0.0
  0
LINE
  5
2A8
330
144
100
AcDbEntity
  8
4
100
AcDbLine
 10
1.530999999999999
 20
2.700749946406251
 30
0.0
 11
1.525587578593749
 21
2.700749946406251
 31
0.0
  0
LINE
  5
2A9
330
144
100
AcDbEntity
  8
4
  6
CENTER
100
AcDbLine
 10
1.515196315496658
 20
2.660457475937501
 30
0.0
 11
1.522975181704761
 21
2.660457475937501
 31
0.0
  0
LINE
  5
2AA
330
144
100
AcDbEntity
  8
4
100
AcDbLine
 10
1.525587578593749
 20
2.62016500546875
 30
0.0
 11
1.530999999999999
 21
2.62016500546875
 31
0.0
  0
LINE
  5
2AB
330
144
100
AcDbEntity
  8
4
100
AcDbLine
 10
1.526953026239058
 20
2.660457475937501
 30
0.0
 11
1.52933971692959
 21
2.660457475937501
 31
0.0
  0
LINE
  5
2AC
330
144
100
AcDbEntity
  8
4
100
AcDbLine
 10
1.530999999999999
 20
2.62016500546875
 30
0.0
 11
1.530999999999999
 21
2.700749946406251
 31
0.0
  0
LINE
  5
2AD
330
144
100
AcDbEntity
  8
4
100
AcDbLine
 10
1.525587578593749
 20
2.700749946406251
 30
0.0
 11
1.525587578593749
 21
2.62016500546875
 31
0.0
  0
LINE
  5
2AE
330
144
100
AcDbEntity
  8
4
  6
CENTER
100
AcDbLine
 10
1.533140761503458
 20
2.660457475937501
 30
0.0
 11
1.541450016142824
 21
2.660457475937501
 31
0.0
  0
LINE
  5
2AF
330
144
100
AcDbEntity
  8
4
100
AcDbLine
 10
1.525587578593749
 20
2.9058205796875
 30
0.0
 11
1.530999999999999
 21
2.9058205796875
 31
0.0
  0
LINE
  5
2B0
330
144
100
AcDbEntity
  8
4
  6
CENTER
100
AcDbLine
 10
1.515196315496658
 20
2.86552810921875
 30
0.0
 11
1.522975181704761
 21
2.86552810921875
 31
0.0
  0
LINE
  5
2B1
330
144
100
AcDbEntity
  8
4
100
AcDbLine
 10
1.530999999999999
 20
2.825235638750001
 30
0.0
 11
1.525587578593749
 21
2.825235638750001
 31
0.0
  0
LINE
  5
2B2
330
144
100
AcDbEntity
  8
4
100
AcDbLine
 10
1.526953026239058
 20
2.86552810921875
 30
0.0
 11
1.52933971692959
 21
2.86552810921875
 31
0.0
  0
LINE
  5
2B3
330
144
100
AcDbEntity
  8
4
  6
CENTER
100
AcDbLine
 10
1.533140761503458
 20
2.86552810921875
 30
0.0
 11
1.541450016142824
 21
2.86552810921875
 31
0.0
  0
LINE
  5
2B4
330
144
100
AcDbEntity
  8
4
100
AcDbLine
 10
1.525587578593749
 20
2.825235638750001
 30
0.0
 11
1.525587578593749
 21
2.9058205796875
 31
0.0
  0
LINE
  5
2B5
330
144
100
AcDbEntity
  8
4
100
AcDbLine
 10
1.530999999999999
 20
2.9058205796875
 30
0.0
 11
1.530999999999999
 21
2.825235638750001
 31
0.0
  0
LINE
  5
2B6
330
144
100
AcDbEntity
  8
4
100
AcDbLine
 10
1.530999999999999
 20
3.09416500546875
 30
0.0
 11
1.530999999999999
 21
3.17474994640625
 31
0.0
  0
LINE
  5
2B7
330
144
100
AcDbEntity
  8
4
100
AcDbLine
 10
1.525587578593749
 20
3.17474994640625
 30
0.0
 11
1.525587578593749
 21
3.09416500546875
 31
0.0
  0
LINE
  5
2B8
330
144
100
AcDbEntity
  8
4
100
AcDbLine
 10
1.525587578593749
 20
3.09416500546875
 30
0.0
 11
1.530999999999999
 21
3.09416500546875
 31
0.0
  0
LINE
  5
2B9
330
144
100
AcDbEntity
  8
4
100
AcDbLine
 10
1.530999999999999
 20
3.09416500546875
 30
0.0
 11
1.530999999999999
 21
3.01598558515625
 31
0.0
  0
LINE
  5
2BA
330
144
100
AcDbEntity
  8
4
100
AcDbLine
 10
1.530999999999999
 20
3.17474994640625
 30
0.0
 11
1.525587578593749
 21
3.17474994640625
 31
0.0
  0
LINE
  5
2BB
330
144
100
AcDbEntity
  8
4
  6
CENTER
100
AcDbLine
 10
1.515196315496658
 20
3.1344574759375
 30
0.0
 11
1.522975181704761
 21
3.1344574759375
 31
0.0
  0
LINE
  5
2BC
330
144
100
AcDbEntity
  8
4
100
AcDbLine
 10
1.526953026239058
 20
3.1344574759375
 30
0.0
 11
1.52933971692959
 21
3.1344574759375
 31
0.0
  0
LINE
  5
2BD
330
144
100
AcDbEntity
  8
4
  6
CENTER
100
AcDbLine
 10
1.533140761503458
 20
3.1344574759375
 30
0.0
 11
1.541450016142824
 21
3.1344574759375
 31
0.0
  0
LINE
  5
2BE
330
144
100
AcDbEntity
  8
4
100
AcDbLine
 10
1.530999999999999
 20
3.29923563875
 30
0.0
 11
1.530999999999999
 21
3.17474994640625
 31
0.0
  0
LINE
  5
2BF
330
144
100
AcDbEntity
  8
4
100
AcDbLine
 10
1.530999999999999
 20
3.29923563875
 30
0.0
 11
1.525587578593749
 21
3.29923563875
 31
0.0
  0
LINE
  5
2C0
330
144
100
AcDbEntity
  8
4
100
AcDbLine
 10
1.687
 20
3.918014414843751
 30
0.0
 11
2.187999999999997
 21
3.918014414843751
 31
0.0
  0
LINE
  5
2C1
330
144
100
AcDbEntity
  8
4
100
AcDbLine
 10
1.687
 20
3.444014414843751
 30
0.0
 11
2.187999999999997
 21
3.444014414843751
 31
0.0
  0
LINE
  5
2C2
330
144
100
AcDbEntity
  8
4
100
AcDbLine
 10
1.687
 20
3.506014414843751
 30
0.0
 11
2.187999999999997
 21
3.506014414843751
 31
0.0
  0
LINE
  5
2C3
330
144
100
AcDbEntity
  8
4
100
AcDbLine
 10
1.687
 20
3.980014414843751
 30
0.0
 11
2.187999999999997
 21
3.980014414843751
 31
0.0
  0
LINE
  5
2C4
330
144
100
AcDbEntity
  8
4
100
AcDbLine
 10
1.530999999999999
 20
3.773235638750001
 30
0.0
 11
1.530999999999999
 21
3.64874994640625
 31
0.0
  0
LINE
  5
2C5
330
144
100
AcDbEntity
  8
4
  6
CENTER
100
AcDbLine
 10
1.515196315496658
 20
3.33952810921875
 30
0.0
 11
1.522975181704761
 21
3.33952810921875
 31
0.0
  0
LINE
  5
2C6
330
144
100
AcDbEntity
  8
4
100
AcDbLine
 10
1.526953026239058
 20
3.33952810921875
 30
0.0
 11
1.52933971692959
 21
3.33952810921875
 31
0.0
  0
LINE
  5
2C7
330
144
100
AcDbEntity
  8
4
100
AcDbLine
 10
1.525587578593749
 20
3.3798205796875
 30
0.0
 11
1.530999999999999
 21
3.3798205796875
 31
0.0
  0
LINE
  5
2C8
330
144
100
AcDbEntity
  8
4
100
AcDbLine
 10
1.530999999999999
 20
3.3798205796875
 30
0.0
 11
1.530999999999999
 21
3.458
 31
0.0
  0
LINE
  5
2C9
330
144
100
AcDbEntity
  8
4
  6
CENTER
100
AcDbLine
 10
1.533140761503458
 20
3.33952810921875
 30
0.0
 11
1.541450016142824
 21
3.33952810921875
 31
0.0
  0
LINE
  5
2CA
330
144
100
AcDbEntity
  8
4
100
AcDbLine
 10
1.530999999999999
 20
3.64874994640625
 30
0.0
 11
1.525587578593749
 21
3.64874994640625
 31
0.0
  0
LINE
  5
2CB
330
144
100
AcDbEntity
  8
4
  6
CENTER
100
AcDbLine
 10
1.515196315496658
 20
3.6084574759375
 30
0.0
 11
1.522975181704761
 21
3.6084574759375
 31
0.0
  0
LINE
  5
2CC
330
144
100
AcDbEntity
  8
4
100
AcDbLine
 10
1.526953026239058
 20
3.6084574759375
 30
0.0
 11
1.52933971692959
 21
3.6084574759375
 31
0.0
  0
LINE
  5
2CD
330
144
100
AcDbEntity
  8
4
  6
CENTER
100
AcDbLine
 10
1.533140761503458
 20
3.6084574759375
 30
0.0
 11
1.541450016142824
 21
3.6084574759375
 31
0.0
  0
LINE
  5
2CE
330
144
100
AcDbEntity
  8
4
100
AcDbLine
 10
1.530999999999999
 20
3.56816500546875
 30
0.0
 11
1.530999999999999
 21
3.48998558515625
 31
0.0
  0
LINE
  5
2CF
330
144
100
AcDbEntity
  8
4
100
AcDbLine
 10
1.525587578593749
 20
3.56816500546875
 30
0.0
 11
1.530999999999999
 21
3.56816500546875
 31
0.0
  0
LINE
  5
2D0
330
144
100
AcDbEntity
  8
4
100
AcDbLine
 10
1.530999999999999
 20
3.56816500546875
 30
0.0
 11
1.530999999999999
 21
3.64874994640625
 31
0.0
  0
LINE
  5
2D1
330
144
100
AcDbEntity
  8
4
100
AcDbLine
 10
1.525587578593749
 20
3.64874994640625
 30
0.0
 11
1.525587578593749
 21
3.56816500546875
 31
0.0
  0
LINE
  5
2D2
330
144
100
AcDbEntity
  8
4
100
AcDbLine
 10
1.525587578593749
 20
3.773235638750001
 30
0.0
 11
1.525587578593749
 21
3.8538205796875
 31
0.0
  0
LINE
  5
2D3
330
144
100
AcDbEntity
  8
4
100
AcDbLine
 10
1.530999999999999
 20
3.8538205796875
 30
0.0
 11
1.530999999999999
 21
3.773235638750001
 31
0.0
  0
LINE
  5
2D4
330
144
100
AcDbEntity
  8
4
  6
CENTER
100
AcDbLine
 10
1.515196315496658
 20
3.81352810921875
 30
0.0
 11
1.522975181704761
 21
3.81352810921875
 31
0.0
  0
LINE
  5
2D5
330
144
100
AcDbEntity
  8
4
100
AcDbLine
 10
1.530999999999999
 20
3.773235638750001
 30
0.0
 11
1.525587578593749
 21
3.773235638750001
 31
0.0
  0
LINE
  5
2D6
330
144
100
AcDbEntity
  8
4
100
AcDbLine
 10
1.526953026239058
 20
3.81352810921875
 30
0.0
 11
1.52933971692959
 21
3.81352810921875
 31
0.0
  0
LINE
  5
2D7
330
144
100
AcDbEntity
  8
4
  6
CENTER
100
AcDbLine
 10
1.533140761503458
 20
3.81352810921875
 30
0.0
 11
1.541450016142824
 21
3.81352810921875
 31
0.0
  0
LINE
  5
2D8
330
144
100
AcDbEntity
  8
4
100
AcDbLine
 10
1.530999999999999
 20
3.8538205796875
 30
0.0
 11
1.530999999999999
 21
3.932
 31
0.0
  0
LINE
  5
2D9
330
144
100
AcDbEntity
  8
4
100
AcDbLine
 10
1.525587578593749
 20
3.8538205796875
 30
0.0
 11
1.530999999999999
 21
3.8538205796875
 31
0.0
  0
LINE
  5
2DA
330
144
100
AcDbEntity
  8
4
100
AcDbLine
 10
2.624999999999999
 20
2.970014414843752
 30
0.0
 11
2.812999999999997
 21
2.970014414843752
 31
0.0
  0
LINE
  5
2DB
330
144
100
AcDbEntity
  8
4
100
AcDbLine
 10
2.624999999999999
 20
3.032014414843751
 30
0.0
 11
2.812999999999997
 21
3.032014414843751
 31
0.0
  0
LINE
  5
2DC
330
144
100
AcDbEntity
  8
4
100
AcDbLine
 10
2.624999999999999
 20
3.444014414843751
 30
0.0
 11
2.812999999999997
 21
3.444014414843751
 31
0.0
  0
LINE
  5
2DD
330
144
100
AcDbEntity
  8
4
100
AcDbLine
 10
2.624999999999999
 20
3.506014414843751
 30
0.0
 11
2.812999999999997
 21
3.506014414843751
 31
0.0
  0
LINE
  5
2DE
330
144
100
AcDbEntity
  8
4
100
AcDbLine
 10
2.624999999999999
 20
3.980014414843751
 30
0.0
 11
2.812999999999997
 21
3.980014414843751
 31
0.0
  0
LINE
  5
2DF
330
144
100
AcDbEntity
  8
4
100
AcDbLine
 10
2.624999999999999
 20
3.918014414843751
 30
0.0
 11
2.812999999999997
 21
3.918014414843751
 31
0.0
  0
LINE
  5
2E0
330
144
100
AcDbEntity
  8
4
100
AcDbLine
 10
1.530999999999999
 20
4.3278205796875
 30
0.0
 11
1.530999999999999
 21
4.406
 31
0.0
  0
LINE
  5
2E1
330
144
100
AcDbEntity
  8
4
100
AcDbLine
 10
1.530999999999999
 20
4.247235638750001
 30
0.0
 11
1.530999999999999
 21
4.12274994640625
 31
0.0
  0
LINE
  5
2E2
330
144
100
AcDbEntity
  8
4
100
AcDbLine
 10
1.530999999999999
 20
4.12274994640625
 30
0.0
 11
1.525587578593749
 21
4.12274994640625
 31
0.0
  0
LINE
  5
2E3
330
144
100
AcDbEntity
  8
4
  6
CENTER
100
AcDbLine
 10
1.515196315496658
 20
4.0824574759375
 30
0.0
 11
1.522975181704761
 21
4.0824574759375
 31
0.0
  0
LINE
  5
2E4
330
144
100
AcDbEntity
  8
4
100
AcDbLine
 10
1.525587578593749
 20
4.04216500546875
 30
0.0
 11
1.530999999999999
 21
4.04216500546875
 31
0.0
  0
LINE
  5
2E5
330
144
100
AcDbEntity
  8
4
100
AcDbLine
 10
1.526953026239058
 20
4.0824574759375
 30
0.0
 11
1.52933971692959
 21
4.0824574759375
 31
0.0
  0
LINE
  5
2E6
330
144
100
AcDbEntity
  8
4
100
AcDbLine
 10
1.530999999999999
 20
4.04216500546875
 30
0.0
 11
1.530999999999999
 21
4.12274994640625
 31
0.0
  0
LINE
  5
2E7
330
144
100
AcDbEntity
  8
4
100
AcDbLine
 10
1.525587578593749
 20
4.12274994640625
 30
0.0
 11
1.525587578593749
 21
4.04216500546875
 31
0.0
  0
LINE
  5
2E8
330
144
100
AcDbEntity
  8
4
  6
CENTER
100
AcDbLine
 10
1.533140761503458
 20
4.0824574759375
 30
0.0
 11
1.541450016142824
 21
4.0824574759375
 31
0.0
  0
LINE
  5
2E9
330
144
100
AcDbEntity
  8
4
100
AcDbLine
 10
1.525587578593749
 20
4.3278205796875
 30
0.0
 11
1.530999999999999
 21
4.3278205796875
 31
0.0
  0
LINE
  5
2EA
330
144
100
AcDbEntity
  8
4
  6
CENTER
100
AcDbLine
 10
1.515196315496658
 20
4.28752810921875
 30
0.0
 11
1.522975181704761
 21
4.28752810921875
 31
0.0
  0
LINE
  5
2EB
330
144
100
AcDbEntity
  8
4
100
AcDbLine
 10
1.530999999999999
 20
4.247235638750001
 30
0.0
 11
1.525587578593749
 21
4.247235638750001
 31
0.0
  0
LINE
  5
2EC
330
144
100
AcDbEntity
  8
4
100
AcDbLine
 10
1.526953026239058
 20
4.28752810921875
 30
0.0
 11
1.52933971692959
 21
4.28752810921875
 31
0.0
  0
LINE
  5
2ED
330
144
100
AcDbEntity
  8
4
  6
CENTER
100
AcDbLine
 10
1.533140761503458
 20
4.28752810921875
 30
0.0
 11
1.541450016142824
 21
4.28752810921875
 31
0.0
  0
LINE
  5
2EE
330
144
100
AcDbEntity
  8
4
100
AcDbLine
 10
1.525587578593749
 20
4.247235638750001
 30
0.0
 11
1.525587578593749
 21
4.3278205796875
 31
0.0
  0
LINE
  5
2EF
330
144
100
AcDbEntity
  8
4
100
AcDbLine
 10
1.530999999999999
 20
4.3278205796875
 30
0.0
 11
1.530999999999999
 21
4.247235638750001
 31
0.0
  0
LINE
  5
2F0
330
144
100
AcDbEntity
  8
4
100
AcDbLine
 10
7.624500000000001
 20
2.984014414843751
 30
0.0
 11
7.624500000000001
 21
2.542014414843752
 31
0.0
  0
LINE
  5
2F1
330
144
100
AcDbEntity
  8
4
100
AcDbLine
 10
6.375499999999998
 20
2.984014414843751
 30
0.0
 11
6.375499999999998
 21
2.542014414843752
 31
0.0
  0
LINE
  5
2F2
330
144
100
AcDbEntity
  8
4
100
AcDbLine
 10
5.065499999999999
 20
2.984014414843751
 30
0.0
 11
5.065499999999999
 21
2.542014414843752
 31
0.0
  0
LINE
  5
2F3
330
144
100
AcDbEntity
  8
4
100
AcDbLine
 10
7.0195
 20
2.084014414843752
 30
0.0
 11
7.5625
 21
2.084014414843752
 31
0.0
  0
LINE
  5
2F4
330
144
100
AcDbEntity
  8
4
100
AcDbLine
 10
7.0195
 20
2.558014414843753
 30
0.0
 11
7.5625
 21
2.558014414843753
 31
0.0
  0
LINE
  5
2F5
330
144
100
AcDbEntity
  8
4
100
AcDbLine
 10
5.6705
 20
2.084014414843752
 30
0.0
 11
5.127499999999998
 21
2.084014414843752
 31
0.0
  0
LINE
  5
2F6
330
144
100
AcDbEntity
  8
4
100
AcDbLine
 10
5.6705
 20
2.558014414843753
 30
0.0
 11
5.127499999999998
 21
2.558014414843753
 31
0.0
  0
LINE
  5
2F7
330
144
100
AcDbEntity
  8
4
100
AcDbLine
 10
5.065499999999999
 20
2.036014414843752
 30
0.0
 11
5.065499999999999
 21
1.59401441484375
 31
0.0
  0
LINE
  5
2F8
330
144
100
AcDbEntity
  8
4
100
AcDbLine
 10
5.065499999999999
 20
1.59401441484375
 30
0.0
 11
5.1275
 21
1.59401441484375
 31
0.0
  0
INSERT
  5
2F9
330
144
100
AcDbEntity
  8
8
100
AcDbBlockReference
  2
T1
 10
-0.0000000000000009
 20
0.0000144148437498
 30
0.0
  0
LINE
  5
2FA
330
144
100
AcDbEntity
  8
4
100
AcDbLine
 10
5.065499999999999
 20
2.510014414843752
 30
0.0
 11
5.065499999999999
 21
2.068014414843752
 31
0.0
  0
LINE
  5
2FB
330
144
100
AcDbEntity
  8
4
100
AcDbLine
 10
5.127499999999998
 20
2.084014414843752
 30
0.0
 11
5.127499999999998
 21
2.022014414843752
 31
0.0
  0
LINE
  5
2FC
330
144
100
AcDbEntity
  8
4
100
AcDbLine
 10
5.127499999999998
 20
2.022014414843752
 30
0.0
 11
5.158499999999999
 21
2.053014414843752
 31
0.0
  0
LINE
  5
2FD
330
144
100
AcDbEntity
  8
4
100
AcDbLine
 10
5.065499999999999
 20
2.036014414843752
 30
0.0
 11
5.127499999999998
 21
2.036014414843752
 31
0.0
  0
LINE
  5
2FE
330
144
100
AcDbEntity
  8
4
100
AcDbLine
 10
5.065499999999999
 20
2.068014414843752
 30
0.0
 11
5.127499999999998
 21
2.068014414843752
 31
0.0
  0
LINE
  5
2FF
330
144
100
AcDbEntity
  8
4
100
AcDbLine
 10
5.127499999999998
 20
2.496014414843751
 30
0.0
 11
5.158499999999999
 21
2.527014414843752
 31
0.0
  0
LINE
  5
300
330
144
100
AcDbEntity
  8
4
100
AcDbLine
 10
5.127499999999998
 20
2.558014414843753
 30
0.0
 11
5.127499999999998
 21
2.496014414843751
 31
0.0
  0
LINE
  5
301
330
144
100
AcDbEntity
  8
4
100
AcDbLine
 10
5.065499999999999
 20
2.510014414843752
 30
0.0
 11
5.127499999999998
 21
2.510014414843752
 31
0.0
  0
LINE
  5
302
330
144
100
AcDbEntity
  8
4
100
AcDbLine
 10
5.065499999999999
 20
2.542014414843752
 30
0.0
 11
5.127499999999998
 21
2.542014414843752
 31
0.0
  0
LINE
  5
303
330
144
100
AcDbEntity
  8
4
100
AcDbLine
 10
5.6705
 20
2.022014414843752
 30
0.0
 11
5.6705
 21
2.084014414843752
 31
0.0
  0
LINE
  5
304
330
144
100
AcDbEntity
  8
4
100
AcDbLine
 10
5.6705
 20
2.496014414843751
 30
0.0
 11
5.6705
 21
2.558014414843753
 31
0.0
  0
LINE
  5
305
330
144
100
AcDbEntity
  8
4
100
AcDbLine
 10
6.375499999999998
 20
2.036014414843752
 30
0.0
 11
6.375499999999998
 21
1.59401441484375
 31
0.0
  0
LINE
  5
306
330
144
100
AcDbEntity
  8
4
100
AcDbLine
 10
6.375499999999998
 20
1.59401441484375
 30
0.0
 11
6.4375
 21
1.59401441484375
 31
0.0
  0
LINE
  5
307
330
144
100
AcDbEntity
  8
4
100
AcDbLine
 10
6.980499999999999
 20
2.084014414843752
 30
0.0
 11
6.437499999999996
 21
2.084014414843752
 31
0.0
  0
LINE
  5
308
330
144
100
AcDbEntity
  8
4
100
AcDbLine
 10
6.980499999999999
 20
2.558014414843753
 30
0.0
 11
6.437499999999996
 21
2.558014414843753
 31
0.0
  0
LINE
  5
309
330
144
100
AcDbEntity
  8
4
100
AcDbLine
 10
6.375499999999998
 20
2.510014414843752
 30
0.0
 11
6.375499999999998
 21
2.068014414843752
 31
0.0
  0
LINE
  5
30A
330
144
100
AcDbEntity
  8
4
100
AcDbLine
 10
6.375499999999998
 20
2.036014414843752
 30
0.0
 11
6.437499999999996
 21
2.036014414843752
 31
0.0
  0
LINE
  5
30B
330
144
100
AcDbEntity
  8
4
100
AcDbLine
 10
6.375499999999998
 20
2.068014414843752
 30
0.0
 11
6.437499999999996
 21
2.068014414843752
 31
0.0
  0
LINE
  5
30C
330
144
100
AcDbEntity
  8
4
100
AcDbLine
 10
6.437499999999996
 20
2.084014414843752
 30
0.0
 11
6.437499999999996
 21
2.022014414843752
 31
0.0
  0
LINE
  5
30D
330
144
100
AcDbEntity
  8
4
100
AcDbLine
 10
6.437499999999996
 20
2.022014414843752
 30
0.0
 11
6.468499999999998
 21
2.053014414843752
 31
0.0
  0
LINE
  5
30E
330
144
100
AcDbEntity
  8
4
100
AcDbLine
 10
6.375499999999998
 20
2.510014414843752
 30
0.0
 11
6.437499999999996
 21
2.510014414843752
 31
0.0
  0
LINE
  5
30F
330
144
100
AcDbEntity
  8
4
100
AcDbLine
 10
6.375499999999998
 20
2.542014414843752
 30
0.0
 11
6.437499999999996
 21
2.542014414843752
 31
0.0
  0
LINE
  5
310
330
144
100
AcDbEntity
  8
4
100
AcDbLine
 10
6.437499999999996
 20
2.558014414843753
 30
0.0
 11
6.437499999999996
 21
2.496014414843751
 31
0.0
  0
LINE
  5
311
330
144
100
AcDbEntity
  8
4
100
AcDbLine
 10
6.437499999999996
 20
2.496014414843751
 30
0.0
 11
6.468499999999998
 21
2.527014414843752
 31
0.0
  0
LINE
  5
312
330
144
100
AcDbEntity
  8
4
100
AcDbLine
 10
7.0195
 20
2.022014414843752
 30
0.0
 11
7.0195
 21
2.084014414843752
 31
0.0
  0
LINE
  5
313
330
144
100
AcDbEntity
  8
4
100
AcDbLine
 10
6.980499999999999
 20
2.022014414843752
 30
0.0
 11
6.980499999999999
 21
2.084014414843752
 31
0.0
  0
LINE
  5
314
330
144
100
AcDbEntity
  8
4
100
AcDbLine
 10
6.980499999999999
 20
2.496014414843751
 30
0.0
 11
6.980499999999999
 21
2.558014414843753
 31
0.0
  0
LINE
  5
315
330
144
100
AcDbEntity
  8
4
100
AcDbLine
 10
7.0195
 20
2.496014414843751
 30
0.0
 11
7.0195
 21
2.558014414843753
 31
0.0
  0
LINE
  5
316
330
144
100
AcDbEntity
  8
4
100
AcDbLine
 10
7.624500000000001
 20
2.036014414843752
 30
0.0
 11
7.624500000000001
 21
1.59401441484375
 31
0.0
  0
LINE
  5
317
330
144
100
AcDbEntity
  8
4
100
AcDbLine
 10
7.624500000000001
 20
1.59401441484375
 30
0.0
 11
7.5625
 21
1.59401441484375
 31
0.0
  0
LINE
  5
318
330
144
100
AcDbEntity
  8
4
100
AcDbLine
 10
7.5625
 20
2.510014414843752
 30
0.0
 11
7.624499999999997
 21
2.510014414843752
 31
0.0
  0
LINE
  5
319
330
144
100
AcDbEntity
  8
4
100
AcDbLine
 10
7.5625
 20
2.036014414843752
 30
0.0
 11
7.624499999999997
 21
2.036014414843752
 31
0.0
  0
LINE
  5
31A
330
144
100
AcDbEntity
  8
4
100
AcDbLine
 10
7.5625
 20
2.068014414843752
 30
0.0
 11
7.624499999999997
 21
2.068014414843752
 31
0.0
  0
LINE
  5
31B
330
144
100
AcDbEntity
  8
4
100
AcDbLine
 10
7.5625
 20
2.542014414843752
 30
0.0
 11
7.624499999999997
 21
2.542014414843752
 31
0.0
  0
LINE
  5
31C
330
144
100
AcDbEntity
  8
4
100
AcDbLine
 10
7.5625
 20
2.084014414843752
 30
0.0
 11
7.5625
 21
2.022014414843752
 31
0.0
  0
LINE
  5
31D
330
144
100
AcDbEntity
  8
4
100
AcDbLine
 10
7.5625
 20
2.022014414843752
 30
0.0
 11
7.531500000000001
 21
2.053014414843752
 31
0.0
  0
LINE
  5
31E
330
144
100
AcDbEntity
  8
4
100
AcDbLine
 10
7.5625
 20
2.558014414843753
 30
0.0
 11
7.5625
 21
2.496014414843751
 31
0.0
  0
LINE
  5
31F
330
144
100
AcDbEntity
  8
4
100
AcDbLine
 10
7.5625
 20
2.496014414843751
 30
0.0
 11
7.531500000000001
 21
2.527014414843752
 31
0.0
  0
LINE
  5
320
330
144
100
AcDbEntity
  8
4
100
AcDbLine
 10
7.624500000000001
 20
2.510014414843752
 30
0.0
 11
7.624500000000001
 21
2.068014414843752
 31
0.0
  0
LINE
  5
321
330
144
100
AcDbEntity
  8
4
100
AcDbLine
 10
7.0195
 20
3.032014414843752
 30
0.0
 11
7.5625
 21
3.032014414843752
 31
0.0
  0
LINE
  5
322
330
144
100
AcDbEntity
  8
4
100
AcDbLine
 10
7.019499999999997
 20
3.980014414843751
 30
0.0
 11
7.5625
 21
3.980014414843751
 31
0.0
  0
LINE
  5
323
330
144
100
AcDbEntity
  8
4
100
AcDbLine
 10
7.0195
 20
3.506014414843752
 30
0.0
 11
7.5625
 21
3.506014414843752
 31
0.0
  0
LINE
  5
324
330
144
100
AcDbEntity
  8
4
100
AcDbLine
 10
5.670499999999996
 20
3.980014414843751
 30
0.0
 11
5.127499999999996
 21
3.980014414843751
 31
0.0
  0
LINE
  5
325
330
144
100
AcDbEntity
  8
4
100
AcDbLine
 10
5.6705
 20
3.506014414843752
 30
0.0
 11
5.1275
 21
3.506014414843752
 31
0.0
  0
LINE
  5
326
330
144
100
AcDbEntity
  8
4
100
AcDbLine
 10
5.6705
 20
3.032014414843752
 30
0.0
 11
5.127499999999998
 21
3.032014414843752
 31
0.0
  0
LINE
  5
327
330
144
100
AcDbEntity
  8
4
100
AcDbLine
 10
5.065499999999999
 20
4.40601441484375
 30
0.0
 11
5.065499999999997
 21
3.964014414843751
 31
0.0
  0
LINE
  5
328
330
144
100
AcDbEntity
  8
4
100
AcDbLine
 10
5.065499999999999
 20
3.458014414843751
 30
0.0
 11
5.065499999999999
 21
3.016014414843751
 31
0.0
  0
LINE
  5
329
330
144
100
AcDbEntity
  8
4
100
AcDbLine
 10
5.127499999999998
 20
2.970014414843752
 30
0.0
 11
5.158499999999999
 21
3.001014414843751
 31
0.0
  0
LINE
  5
32A
330
144
100
AcDbEntity
  8
4
100
AcDbLine
 10
5.127499999999998
 20
3.032014414843752
 30
0.0
 11
5.127499999999998
 21
2.970014414843752
 31
0.0
  0
LINE
  5
32B
330
144
100
AcDbEntity
  8
4
100
AcDbLine
 10
5.065499999999999
 20
3.016014414843751
 30
0.0
 11
5.127499999999998
 21
3.016014414843751
 31
0.0
  0
LINE
  5
32C
330
144
100
AcDbEntity
  8
4
100
AcDbLine
 10
5.065499999999999
 20
2.984014414843751
 30
0.0
 11
5.127499999999998
 21
2.984014414843751
 31
0.0
  0
LINE
  5
32D
330
144
100
AcDbEntity
  8
4
100
AcDbLine
 10
5.065499999999997
 20
3.932014414843751
 30
0.0
 11
5.065499999999999
 21
3.490014414843751
 31
0.0
  0
LINE
  5
32E
330
144
100
AcDbEntity
  8
4
100
AcDbLine
 10
5.1275
 20
3.506014414843752
 30
0.0
 11
5.1275
 21
3.444014414843752
 31
0.0
  0
LINE
  5
32F
330
144
100
AcDbEntity
  8
4
100
AcDbLine
 10
5.1275
 20
3.444014414843752
 30
0.0
 11
5.158499999999999
 21
3.475014414843752
 31
0.0
  0
LINE
  5
330
330
144
100
AcDbEntity
  8
4
100
AcDbLine
 10
5.065499999999999
 20
3.458014414843751
 30
0.0
 11
5.1275
 21
3.458014414843751
 31
0.0
  0
LINE
  5
331
330
144
100
AcDbEntity
  8
4
100
AcDbLine
 10
5.065499999999999
 20
3.490014414843751
 30
0.0
 11
5.1275
 21
3.490014414843751
 31
0.0
  0
LINE
  5
332
330
144
100
AcDbEntity
  8
4
100
AcDbLine
 10
5.127499999999996
 20
3.918014414843752
 30
0.0
 11
5.158499999999995
 21
3.949014414843751
 31
0.0
  0
LINE
  5
333
330
144
100
AcDbEntity
  8
4
100
AcDbLine
 10
5.065499999999997
 20
3.964014414843751
 30
0.0
 11
5.127499999999996
 21
3.964014414843751
 31
0.0
  0
LINE
  5
334
330
144
100
AcDbEntity
  8
4
100
AcDbLine
 10
5.065499999999997
 20
3.932014414843751
 30
0.0
 11
5.127499999999996
 21
3.932014414843751
 31
0.0
  0
LINE
  5
335
330
144
100
AcDbEntity
  8
4
100
AcDbLine
 10
5.127499999999996
 20
3.980014414843751
 30
0.0
 11
5.127499999999996
 21
3.918014414843752
 31
0.0
  0
LINE
  5
336
330
144
100
AcDbEntity
  8
4
100
AcDbLine
 10
5.065499999999999
 20
4.40601441484375
 30
0.0
 11
5.127499999999998
 21
4.40601441484375
 31
0.0
  0
LINE
  5
337
330
144
100
AcDbEntity
  8
4
100
AcDbLine
 10
6.375499999999998
 20
4.40601441484375
 30
0.0
 11
6.375499999999998
 21
3.964014414843751
 31
0.0
  0
LINE
  5
338
330
144
100
AcDbEntity
  8
4
100
AcDbLine
 10
5.6705
 20
2.970014414843752
 30
0.0
 11
5.6705
 21
3.032014414843752
 31
0.0
  0
LINE
  5
339
330
144
100
AcDbEntity
  8
4
100
AcDbLine
 10
5.6705
 20
3.444014414843752
 30
0.0
 11
5.6705
 21
3.506014414843752
 31
0.0
  0
LINE
  5
33A
330
144
100
AcDbEntity
  8
4
100
AcDbLine
 10
5.670499999999996
 20
3.918014414843752
 30
0.0
 11
5.670499999999996
 21
3.980014414843751
 31
0.0
  0
LINE
  5
33B
330
144
100
AcDbEntity
  8
4
100
AcDbLine
 10
6.375499999999998
 20
3.458014414843751
 30
0.0
 11
6.375499999999998
 21
3.016014414843751
 31
0.0
  0
LINE
  5
33C
330
144
100
AcDbEntity
  8
4
100
AcDbLine
 10
6.980499999999999
 20
3.032014414843752
 30
0.0
 11
6.437499999999996
 21
3.032014414843752
 31
0.0
  0
LINE
  5
33D
330
144
100
AcDbEntity
  8
4
100
AcDbLine
 10
6.375499999999998
 20
3.016014414843751
 30
0.0
 11
6.437499999999996
 21
3.016014414843751
 31
0.0
  0
LINE
  5
33E
330
144
100
AcDbEntity
  8
4
100
AcDbLine
 10
6.375499999999998
 20
2.984014414843751
 30
0.0
 11
6.437499999999996
 21
2.984014414843751
 31
0.0
  0
LINE
  5
33F
330
144
100
AcDbEntity
  8
4
100
AcDbLine
 10
6.437499999999996
 20
2.970014414843752
 30
0.0
 11
6.468499999999998
 21
3.001014414843751
 31
0.0
  0
LINE
  5
340
330
144
100
AcDbEntity
  8
4
100
AcDbLine
 10
6.437499999999996
 20
3.032014414843752
 30
0.0
 11
6.437499999999996
 21
2.970014414843752
 31
0.0
  0
LINE
  5
341
330
144
100
AcDbEntity
  8
4
100
AcDbLine
 10
6.980499999999999
 20
2.970014414843752
 30
0.0
 11
6.980499999999999
 21
3.032014414843752
 31
0.0
  0
LINE
  5
342
330
144
100
AcDbEntity
  8
4
100
AcDbLine
 10
7.0195
 20
2.970014414843752
 30
0.0
 11
7.0195
 21
3.032014414843752
 31
0.0
  0
LINE
  5
343
330
144
100
AcDbEntity
  8
4
100
AcDbLine
 10
6.980499999999999
 20
3.980014414843751
 30
0.0
 11
6.437499999999996
 21
3.980014414843751
 31
0.0
  0
LINE
  5
344
330
144
100
AcDbEntity
  8
4
100
AcDbLine
 10
6.980499999999999
 20
3.506014414843752
 30
0.0
 11
6.4375
 21
3.506014414843752
 31
0.0
  0
LINE
  5
345
330
144
100
AcDbEntity
  8
4
100
AcDbLine
 10
6.375499999999998
 20
3.932014414843751
 30
0.0
 11
6.375499999999998
 21
3.490014414843751
 31
0.0
  0
LINE
  5
346
330
144
100
AcDbEntity
  8
4
100
AcDbLine
 10
6.375499999999998
 20
3.490014414843751
 30
0.0
 11
6.4375
 21
3.490014414843751
 31
0.0
  0
LINE
  5
347
330
144
100
AcDbEntity
  8
4
100
AcDbLine
 10
6.375499999999998
 20
3.458014414843751
 30
0.0
 11
6.4375
 21
3.458014414843751
 31
0.0
  0
LINE
  5
348
330
144
100
AcDbEntity
  8
4
100
AcDbLine
 10
6.4375
 20
3.506014414843752
 30
0.0
 11
6.4375
 21
3.444014414843752
 31
0.0
  0
LINE
  5
349
330
144
100
AcDbEntity
  8
4
100
AcDbLine
 10
6.4375
 20
3.444014414843752
 30
0.0
 11
6.468499999999998
 21
3.475014414843752
 31
0.0
  0
LINE
  5
34A
330
144
100
AcDbEntity
  8
4
100
AcDbLine
 10
6.375499999999998
 20
3.964014414843751
 30
0.0
 11
6.437499999999996
 21
3.964014414843751
 31
0.0
  0
LINE
  5
34B
330
144
100
AcDbEntity
  8
4
100
AcDbLine
 10
6.375499999999998
 20
3.932014414843751
 30
0.0
 11
6.437499999999996
 21
3.932014414843751
 31
0.0
  0
LINE
  5
34C
330
144
100
AcDbEntity
  8
4
100
AcDbLine
 10
6.437499999999996
 20
3.980014414843751
 30
0.0
 11
6.437499999999996
 21
3.918014414843752
 31
0.0
  0
LINE
  5
34D
330
144
100
AcDbEntity
  8
4
100
AcDbLine
 10
6.437499999999996
 20
3.918014414843752
 30
0.0
 11
6.468499999999995
 21
3.949014414843751
 31
0.0
  0
LINE
  5
34E
330
144
100
AcDbEntity
  8
4
100
AcDbLine
 10
7.0195
 20
3.444014414843752
 30
0.0
 11
7.0195
 21
3.506014414843752
 31
0.0
  0
LINE
  5
34F
330
144
100
AcDbEntity
  8
4
100
AcDbLine
 10
6.980499999999999
 20
3.444014414843752
 30
0.0
 11
6.980499999999999
 21
3.506014414843752
 31
0.0
  0
LINE
  5
350
330
144
100
AcDbEntity
  8
4
100
AcDbLine
 10
6.980499999999999
 20
3.918014414843752
 30
0.0
 11
6.980499999999999
 21
3.980014414843751
 31
0.0
  0
LINE
  5
351
330
144
100
AcDbEntity
  8
4
100
AcDbLine
 10
7.019499999999997
 20
3.918014414843752
 30
0.0
 11
7.019499999999997
 21
3.980014414843751
 31
0.0
  0
LINE
  5
352
330
144
100
AcDbEntity
  8
4
100
AcDbLine
 10
6.375499999999998
 20
4.40601441484375
 30
0.0
 11
6.4375
 21
4.40601441484375
 31
0.0
  0
LINE
  5
353
330
144
100
AcDbEntity
  8
4
100
AcDbLine
 10
7.624500000000001
 20
4.40601441484375
 30
0.0
 11
7.624499999999997
 21
3.964014414843751
 31
0.0
  0
LINE
  5
354
330
144
100
AcDbEntity
  8
4
100
AcDbLine
 10
7.624500000000001
 20
3.458014414843751
 30
0.0
 11
7.624500000000001
 21
3.016014414843751
 31
0.0
  0
LINE
  5
355
330
144
100
AcDbEntity
  8
4
100
AcDbLine
 10
7.5625
 20
3.016014414843751
 30
0.0
 11
7.624499999999997
 21
3.016014414843751
 31
0.0
  0
LINE
  5
356
330
144
100
AcDbEntity
  8
4
100
AcDbLine
 10
7.5625
 20
2.984014414843751
 30
0.0
 11
7.624499999999997
 21
2.984014414843751
 31
0.0
  0
LINE
  5
357
330
144
100
AcDbEntity
  8
4
100
AcDbLine
 10
7.5625
 20
3.032014414843752
 30
0.0
 11
7.5625
 21
2.970014414843752
 31
0.0
  0
LINE
  5
358
330
144
100
AcDbEntity
  8
4
100
AcDbLine
 10
7.5625
 20
2.970014414843752
 30
0.0
 11
7.531500000000001
 21
3.001014414843751
 31
0.0
  0
LINE
  5
359
330
144
100
AcDbEntity
  8
4
100
AcDbLine
 10
7.5625
 20
3.964014414843751
 30
0.0
 11
7.624499999999997
 21
3.964014414843751
 31
0.0
  0
LINE
  5
35A
330
144
100
AcDbEntity
  8
4
100
AcDbLine
 10
7.5625
 20
3.932014414843751
 30
0.0
 11
7.624499999999997
 21
3.932014414843751
 31
0.0
  0
LINE
  5
35B
330
144
100
AcDbEntity
  8
4
100
AcDbLine
 10
7.5625
 20
3.490014414843751
 30
0.0
 11
7.624500000000001
 21
3.490014414843751
 31
0.0
  0
LINE
  5
35C
330
144
100
AcDbEntity
  8
4
100
AcDbLine
 10
7.5625
 20
3.458014414843751
 30
0.0
 11
7.624500000000001
 21
3.458014414843751
 31
0.0
  0
LINE
  5
35D
330
144
100
AcDbEntity
  8
4
100
AcDbLine
 10
7.5625
 20
3.506014414843752
 30
0.0
 11
7.5625
 21
3.444014414843752
 31
0.0
  0
LINE
  5
35E
330
144
100
AcDbEntity
  8
4
100
AcDbLine
 10
7.5625
 20
3.444014414843752
 30
0.0
 11
7.531500000000001
 21
3.475014414843752
 31
0.0
  0
LINE
  5
35F
330
144
100
AcDbEntity
  8
4
100
AcDbLine
 10
7.5625
 20
3.918014414843752
 30
0.0
 11
7.531499999999997
 21
3.949014414843751
 31
0.0
  0
LINE
  5
360
330
144
100
AcDbEntity
  8
4
100
AcDbLine
 10
7.5625
 20
3.980014414843751
 30
0.0
 11
7.5625
 21
3.918014414843752
 31
0.0
  0
LINE
  5
361
330
144
100
AcDbEntity
  8
4
100
AcDbLine
 10
7.624499999999997
 20
3.932014414843751
 30
0.0
 11
7.624500000000001
 21
3.490014414843751
 31
0.0
  0
LINE
  5
362
330
144
100
AcDbEntity
  8
4
100
AcDbLine
 10
7.624500000000001
 20
4.40601441484375
 30
0.0
 11
7.5625
 21
4.40601441484375
 31
0.0
  0
ENDBLK
  5
364
330
144
100
AcDbEntity
  8
0
100
AcDbBlockEnd
  0
BLOCK
  5
369
330
367
100
AcDbEntity
  8
0
100
AcDbBlockBegin
  2
LE1225
 70
     0
 10
0.0
 20
0.0
 30
0.0
  3
LE1225
  1

  0
INSERT
  5
368
330
367
100
AcDbEntity
  8
0
100
AcDbBlockReference
  2
SPL2CORRIDOR6H72
 10
0.0
 20
0.0
 30
0.0
  0
ENDBLK
  5
36A
330
367
100
AcDbEntity
  8
0
100
AcDbBlockEnd
  0
ENDSEC
  0
SECTION
  2
ENTITIES
  0
TEXT
  5
373
330
1F
100
AcDbEntity
  8
8
100
AcDbText
 10
6.503400300173227
 20
2.843492796321471
 30
0.0
 40
0.07
  1
DEPTH
  7
ROMANS
 72
     1
 11
6.668400300173227
 21
2.843492796321471
 31
0.0
100
AcDbText
  0
TEXT
  5
374
330
1F
100
AcDbEntity
  8
8
100
AcDbText
 10
8.125900300173228
 20
2.843492796321471
 30
0.0
 40
0.07
  1
DEPTH
  7
ROMANS
 72
     1
 11
8.290900300173227
 21
2.843492796321471
 31
0.0
100
AcDbText
  0
TEXT
  5
375
330
1F
100
AcDbEntity
  8
8
100
AcDbText
 10
7.568738787246771
 20
1.898433091503596
 30
0.0
 40
0.1
  1
SR BACK TO BACK
  7
ROMANS
 72
     1
 11
8.292548311056295
 21
1.898433091503596
 31
0.0
100
AcDbText
  0
TEXT
  5
376
330
1F
100
AcDbEntity
  8
8
100
AcDbText
 10
7.085289624731607
 20
1.713832084678286
 30
0.0
 40
0.1
  1
SECTIONS
  7
ROMANS
 72
     1
 11
7.437670577112559
 21
1.713832084678286
 31
0.0
100
AcDbText
  0
TEXT
  5
377
330
1F
100
AcDbEntity
  8
8
100
AcDbText
 10
6.592953463300184
 20
1.898433091503596
 30
0.0
 40
0.1
  1
SR
  7
ROMANS
 72
     1
 11
6.690572510919231
 21
1.898433091503596
 31
0.0
100
AcDbText
  0
LINE
  5
378
330
1F
100
AcDbEntity
  8
4
100
AcDbLine
 10
6.918900300173227
 20
5.401832084678286
 30
0.0
 11
7.182631902838631
 21
5.401832084678286
 31
0.0
  0
LINE
  5
379
330
1F
100
AcDbEntity
  8
4
100
AcDbLine
 10
7.223059112511057
 20
5.401832084678286
 30
0.0
 11
7.403522909335
 21
5.401832084678286
 31
0.0
  0
INSERT
  5
37A
330
1F
100
AcDbEntity
  8
4
100
AcDbBlockReference
  2
ARRO
 10
7.223059112511057
 20
5.401832084678286
 30
0.0
  0
LINE
  5
37B
330
1F
100
AcDbEntity
  8
4
100
AcDbLine
 10
7.403522909335
 20
5.401832084678286
 30
0.0
 11
7.403522909335
 21
5.198844414887774
 31
0.0
  0
TEXT
  5
37C
330
1F
100
AcDbEntity
  8
8
100
AcDbText
 10
7.438522909335
 20
3.82351108155444
 30
0.0
 40
0.07
  1
ANCHORING BY ERECTOR
 50
90.0
  7
ROMANS
 72
     2
 11
7.438522909335
 21
5.136844414887773
 31
0.0
100
AcDbText
  0
TEXT
  5
37D
330
1F
100
AcDbEntity
  8
8
100
AcDbText
 10
5.791400300173227
 20
3.730165418011619
 30
0.0
 40
0.07
  1
LOCKER HEIGHT
 50
90.0
  7
ROMANS
 72
     1
 11
5.791400300173227
 21
4.151832084678286
 31
0.0
100
AcDbText
  0
TEXT
  5
37E
330
1F
100
AcDbEntity
  8
8
100
AcDbText
 10
2.635900300173226
 20
2.213832084678286
 30
0.0
 40
0.07
  1
LOCKER WIDTH - SEE SCHEDULE
  7
ROMANS
 72
     1
 11
3.540900300173226
 21
2.213832084678286
 31
0.0
100
AcDbText
  0
TEXT
  5
37F
330
1F
100
AcDbEntity
  8
8
100
AcDbText
 10
2.876614585887512
 20
1.713832084678286
 30
0.0
 40
0.1
  1
FRONT ELEVATION
  7
ROMANS
 72
     1
 11
3.540900300173226
 21
1.713832084678286
 31
0.0
100
AcDbText
  0
LINE
  5
380
330
1F
100
AcDbEntity
  8
1
100
AcDbLine
 10
6.494400300173226
 20
2.714332084678286
 30
0.0
 11
6.479400300173226
 21
2.699332084678285
 31
0.0
  0
LINE
  5
381
330
1F
100
AcDbEntity
  8
1
100
AcDbLine
 10
6.479400300173226
 20
2.699332084678285
 30
0.0
 11
6.381400300173226
 21
2.699332084678285
 31
0.0
  0
LINE
  5
382
330
1F
100
AcDbEntity
  8
1
100
AcDbLine
 10
6.381400300173226
 20
2.699332084678285
 30
0.0
 11
6.381400300173226
 21
2.671085942240726
 31
0.0
  0
LINE
  5
383
330
1F
100
AcDbEntity
  8
1
100
AcDbLine
 10
6.556400300173226
 20
2.652332084678286
 30
0.0
 11
6.494400300173226
 21
2.714332084678286
 31
0.0
  0
LINE
  5
384
330
1F
100
AcDbEntity
  8
1
100
AcDbLine
 10
6.921400300173226
 20
2.652332084678286
 30
0.0
 11
6.556400300173226
 21
2.652332084678286
 31
0.0
  0
LINE
  5
385
330
1F
100
AcDbEntity
  8
1
100
AcDbLine
 10
6.921400300173226
 20
2.714332084678286
 30
0.0
 11
6.921400300173226
 21
2.652332084678286
 31
0.0
  0
LINE
  5
386
330
1F
100
AcDbEntity
  8
1
100
AcDbLine
 10
6.961400300173226
 20
2.714332084678286
 30
0.0
 11
6.961400300173226
 21
2.652332084678286
 31
0.0
  0
LINE
  5
387
330
1F
100
AcDbEntity
  8
1
100
AcDbLine
 10
6.356400300173226
 20
2.714332084678286
 30
0.0
 11
6.464400300173226
 21
2.714332084678286
 31
0.0
  0
LINE
  5
388
330
1F
100
AcDbEntity
  8
1
100
AcDbLine
 10
6.356400300173226
 20
2.652332084678286
 30
0.0
 11
6.356400300173226
 21
2.714332084678286
 31
0.0
  0
LINE
  5
389
330
1F
100
AcDbEntity
  8
1
100
AcDbLine
 10
6.418400300173226
 20
2.652332084678286
 30
0.0
 11
6.356400300173226
 21
2.652332084678286
 31
0.0
  0
LINE
  5
38A
330
1F
100
AcDbEntity
  8
1
100
AcDbLine
 10
6.494400300173226
 20
2.714332084678286
 30
0.0
 11
6.961400300173226
 21
2.714332084678286
 31
0.0
  0
LINE
  5
38B
330
1F
100
AcDbEntity
  8
1
100
AcDbLine
 10
7.804400300173226
 20
2.714332084678286
 30
0.0
 11
8.271400300173226
 21
2.714332084678286
 31
0.0
  0
LINE
  5
38C
330
1F
100
AcDbEntity
  8
1
100
AcDbLine
 10
7.728400300173226
 20
2.652332084678286
 30
0.0
 11
7.666400300173226
 21
2.652332084678286
 31
0.0
  0
LINE
  5
38D
330
1F
100
AcDbEntity
  8
1
100
AcDbLine
 10
7.666400300173226
 20
2.652332084678286
 30
0.0
 11
7.666400300173226
 21
2.714332084678286
 31
0.0
  0
LINE
  5
38E
330
1F
100
AcDbEntity
  8
1
100
AcDbLine
 10
7.666400300173226
 20
2.714332084678286
 30
0.0
 11
7.774400300173225
 21
2.714332084678286
 31
0.0
  0
LINE
  5
38F
330
1F
100
AcDbEntity
  8
1
100
AcDbLine
 10
8.271400300173226
 20
2.714332084678286
 30
0.0
 11
8.271400300173226
 21
2.652332084678286
 31
0.0
  0
LINE
  5
390
330
1F
100
AcDbEntity
  8
1
100
AcDbLine
 10
8.231400300173227
 20
2.714332084678286
 30
0.0
 11
8.231400300173227
 21
2.652332084678286
 31
0.0
  0
LINE
  5
391
330
1F
100
AcDbEntity
  8
1
100
AcDbLine
 10
8.231400300173227
 20
2.652332084678286
 30
0.0
 11
7.866400300173226
 21
2.652332084678286
 31
0.0
  0
LINE
  5
392
330
1F
100
AcDbEntity
  8
1
100
AcDbLine
 10
7.866400300173226
 20
2.652332084678286
 30
0.0
 11
7.804400300173226
 21
2.714332084678286
 31
0.0
  0
LINE
  5
393
330
1F
100
AcDbEntity
  8
1
100
AcDbLine
 10
7.691400300173226
 20
2.699332084678285
 30
0.0
 11
7.691400300173226
 21
2.671085942240726
 31
0.0
  0
LINE
  5
394
330
1F
100
AcDbEntity
  8
1
100
AcDbLine
 10
7.789400300173226
 20
2.699332084678285
 30
0.0
 11
7.691400300173226
 21
2.699332084678285
 31
0.0
  0
LINE
  5
395
330
1F
100
AcDbEntity
  8
1
100
AcDbLine
 10
7.804400300173226
 20
2.714332084678286
 30
0.0
 11
7.789400300173226
 21
2.699332084678285
 31
0.0
  0
LINE
  5
396
330
1F
100
AcDbEntity
  8
1
100
AcDbLine
 10
8.809200443972157
 20
2.714332084678286
 30
0.0
 11
8.824200443972156
 21
2.699332084678285
 31
0.0
  0
LINE
  5
397
330
1F
100
AcDbEntity
  8
1
100
AcDbLine
 10
8.824200443972156
 20
2.699332084678285
 30
0.0
 11
8.922200443972156
 21
2.699332084678285
 31
0.0
  0
LINE
  5
398
330
1F
100
AcDbEntity
  8
1
100
AcDbLine
 10
8.922200443972156
 20
2.699332084678285
 30
0.0
 11
8.922200443972156
 21
2.671085942240726
 31
0.0
  0
LINE
  5
399
330
1F
100
AcDbEntity
  8
1
100
AcDbLine
 10
8.747200443972158
 20
2.652332084678286
 30
0.0
 11
8.809200443972157
 21
2.714332084678286
 31
0.0
  0
LINE
  5
39A
330
1F
100
AcDbEntity
  8
1
100
AcDbLine
 10
8.382200443972156
 20
2.652332084678286
 30
0.0
 11
8.747200443972158
 21
2.652332084678286
 31
0.0
  0
LINE
  5
39B
330
1F
100
AcDbEntity
  8
1
100
AcDbLine
 10
8.382200443972156
 20
2.714332084678286
 30
0.0
 11
8.382200443972156
 21
2.652332084678286
 31
0.0
  0
LINE
  5
39C
330
1F
100
AcDbEntity
  8
1
100
AcDbLine
 10
8.342200443972156
 20
2.714332084678286
 30
0.0
 11
8.342200443972156
 21
2.652332084678286
 31
0.0
  0
LINE
  5
39D
330
1F
100
AcDbEntity
  8
1
100
AcDbLine
 10
8.947200443972157
 20
2.714332084678286
 30
0.0
 11
8.839200443972156
 21
2.714332084678286
 31
0.0
  0
LINE
  5
39E
330
1F
100
AcDbEntity
  8
1
100
AcDbLine
 10
8.947200443972157
 20
2.652332084678286
 30
0.0
 11
8.947200443972157
 21
2.714332084678286
 31
0.0
  0
LINE
  5
39F
330
1F
100
AcDbEntity
  8
1
100
AcDbLine
 10
8.885200443972156
 20
2.652332084678286
 30
0.0
 11
8.947200443972157
 21
2.652332084678286
 31
0.0
  0
LINE
  5
3A0
330
1F
100
AcDbEntity
  8
1
100
AcDbLine
 10
8.809200443972157
 20
2.714332084678286
 30
0.0
 11
8.342200443972156
 21
2.714332084678286
 31
0.0
  0
LINE
  5
3A1
330
1F
100
AcDbEntity
  8
1
100
AcDbLine
 10
8.809400300173228
 20
5.651832084678286
 30
0.0
 11
8.342400300173228
 21
5.651832084678286
 31
0.0
  0
LINE
  5
3A2
330
1F
100
AcDbEntity
  8
1
100
AcDbLine
 10
8.885400300173227
 20
5.589832084678286
 30
0.0
 11
8.947400300173228
 21
5.589832084678286
 31
0.0
  0
LINE
  5
3A3
330
1F
100
AcDbEntity
  8
1
100
AcDbLine
 10
8.947400300173228
 20
5.589832084678286
 30
0.0
 11
8.947400300173228
 21
5.651832084678286
 31
0.0
  0
LINE
  5
3A4
330
1F
100
AcDbEntity
  8
1
100
AcDbLine
 10
8.947400300173228
 20
5.651832084678286
 30
0.0
 11
8.839400300173227
 21
5.651832084678286
 31
0.0
  0
LINE
  5
3A5
330
1F
100
AcDbEntity
  8
1
100
AcDbLine
 10
8.342400300173228
 20
5.651832084678286
 30
0.0
 11
8.342400300173228
 21
5.589832084678286
 31
0.0
  0
LINE
  5
3A6
330
1F
100
AcDbEntity
  8
1
100
AcDbLine
 10
8.382400300173227
 20
5.651832084678286
 30
0.0
 11
8.382400300173227
 21
5.589832084678286
 31
0.0
  0
LINE
  5
3A7
330
1F
100
AcDbEntity
  8
1
100
AcDbLine
 10
8.382400300173227
 20
5.589832084678286
 30
0.0
 11
8.747400300173229
 21
5.589832084678286
 31
0.0
  0
LINE
  5
3A8
330
1F
100
AcDbEntity
  8
1
100
AcDbLine
 10
8.747400300173229
 20
5.589832084678286
 30
0.0
 11
8.809400300173228
 21
5.651832084678286
 31
0.0
  0
LINE
  5
3A9
330
1F
100
AcDbEntity
  8
1
100
AcDbLine
 10
8.922400300173228
 20
5.636832084678285
 30
0.0
 11
8.922400300173228
 21
5.608585942240726
 31
0.0
  0
LINE
  5
3AA
330
1F
100
AcDbEntity
  8
1
100
AcDbLine
 10
8.824400300173227
 20
5.636832084678285
 30
0.0
 11
8.922400300173228
 21
5.636832084678285
 31
0.0
  0
LINE
  5
3AB
330
1F
100
AcDbEntity
  8
1
100
AcDbLine
 10
8.809400300173228
 20
5.651832084678286
 30
0.0
 11
8.824400300173227
 21
5.636832084678285
 31
0.0
  0
LINE
  5
3AC
330
1F
100
AcDbEntity
  8
1
100
AcDbLine
 10
7.804400300173226
 20
5.651832084678286
 30
0.0
 11
7.789400300173226
 21
5.636832084678285
 31
0.0
  0
LINE
  5
3AD
330
1F
100
AcDbEntity
  8
1
100
AcDbLine
 10
7.789400300173226
 20
5.636832084678285
 30
0.0
 11
7.691400300173226
 21
5.636832084678285
 31
0.0
  0
LINE
  5
3AE
330
1F
100
AcDbEntity
  8
1
100
AcDbLine
 10
7.691400300173226
 20
5.636832084678285
 30
0.0
 11
7.691400300173226
 21
5.608585942240726
 31
0.0
  0
LINE
  5
3AF
330
1F
100
AcDbEntity
  8
1
100
AcDbLine
 10
7.866400300173226
 20
5.589832084678286
 30
0.0
 11
7.804400300173226
 21
5.651832084678286
 31
0.0
  0
LINE
  5
3B0
330
1F
100
AcDbEntity
  8
1
100
AcDbLine
 10
8.231400300173227
 20
5.589832084678286
 30
0.0
 11
7.866400300173226
 21
5.589832084678286
 31
0.0
  0
LINE
  5
3B1
330
1F
100
AcDbEntity
  8
1
100
AcDbLine
 10
8.231400300173227
 20
5.651832084678286
 30
0.0
 11
8.231400300173227
 21
5.589832084678286
 31
0.0
  0
LINE
  5
3B2
330
1F
100
AcDbEntity
  8
1
100
AcDbLine
 10
8.271400300173226
 20
5.651832084678286
 30
0.0
 11
8.271400300173226
 21
5.589832084678286
 31
0.0
  0
LINE
  5
3B3
330
1F
100
AcDbEntity
  8
1
100
AcDbLine
 10
7.666400300173226
 20
5.651832084678286
 30
0.0
 11
7.774400300173225
 21
5.651832084678286
 31
0.0
  0
LINE
  5
3B4
330
1F
100
AcDbEntity
  8
1
100
AcDbLine
 10
7.666400300173226
 20
5.589832084678286
 30
0.0
 11
7.666400300173226
 21
5.651832084678286
 31
0.0
  0
LINE
  5
3B5
330
1F
100
AcDbEntity
  8
1
100
AcDbLine
 10
7.728400300173226
 20
5.589832084678286
 30
0.0
 11
7.666400300173226
 21
5.589832084678286
 31
0.0
  0
LINE
  5
3B6
330
1F
100
AcDbEntity
  8
1
100
AcDbLine
 10
7.804400300173226
 20
5.651832084678286
 30
0.0
 11
8.271400300173226
 21
5.651832084678286
 31
0.0
  0
LINE
  5
3B7
330
1F
100
AcDbEntity
  8
1
100
AcDbLine
 10
6.494400300173226
 20
5.651832084678286
 30
0.0
 11
6.961400300173226
 21
5.651832084678286
 31
0.0
  0
LINE
  5
3B8
330
1F
100
AcDbEntity
  8
1
100
AcDbLine
 10
6.418400300173226
 20
5.589832084678286
 30
0.0
 11
6.356400300173226
 21
5.589832084678286
 31
0.0
  0
LINE
  5
3B9
330
1F
100
AcDbEntity
  8
1
100
AcDbLine
 10
6.356400300173226
 20
5.589832084678286
 30
0.0
 11
6.356400300173226
 21
5.651832084678286
 31
0.0
  0
LINE
  5
3BA
330
1F
100
AcDbEntity
  8
1
100
AcDbLine
 10
6.356400300173226
 20
5.651832084678286
 30
0.0
 11
6.464400300173226
 21
5.651832084678286
 31
0.0
  0
LINE
  5
3BB
330
1F
100
AcDbEntity
  8
1
100
AcDbLine
 10
6.961400300173226
 20
5.651832084678286
 30
0.0
 11
6.961400300173226
 21
5.589832084678286
 31
0.0
  0
LINE
  5
3BC
330
1F
100
AcDbEntity
  8
1
100
AcDbLine
 10
6.921400300173226
 20
5.651832084678286
 30
0.0
 11
6.921400300173226
 21
5.589832084678286
 31
0.0
  0
LINE
  5
3BD
330
1F
100
AcDbEntity
  8
1
100
AcDbLine
 10
6.921400300173226
 20
5.589832084678286
 30
0.0
 11
6.556400300173226
 21
5.589832084678286
 31
0.0
  0
LINE
  5
3BE
330
1F
100
AcDbEntity
  8
1
100
AcDbLine
 10
6.556400300173226
 20
5.589832084678286
 30
0.0
 11
6.494400300173226
 21
5.651832084678286
 31
0.0
  0
LINE
  5
3BF
330
1F
100
AcDbEntity
  8
1
100
AcDbLine
 10
6.381400300173226
 20
5.636832084678285
 30
0.0
 11
6.381400300173226
 21
5.608585942240726
 31
0.0
  0
LINE
  5
3C0
330
1F
100
AcDbEntity
  8
1
100
AcDbLine
 10
6.479400300173226
 20
5.636832084678285
 30
0.0
 11
6.381400300173226
 21
5.636832084678285
 31
0.0
  0
LINE
  5
3C1
330
1F
100
AcDbEntity
  8
1
100
AcDbLine
 10
6.494400300173226
 20
5.651832084678286
 30
0.0
 11
6.479400300173226
 21
5.636832084678285
 31
0.0
  0
LINE
  5
3C2
330
1F
100
AcDbEntity
  8
1
100
AcDbLine
 10
2.352900300173227
 20
2.713832084678286
 30
0.0
 11
2.853900300173227
 21
2.713832084678286
 31
0.0
  0
LINE
  5
3C3
330
1F
100
AcDbEntity
  8
4
100
AcDbLine
 10
3.16376701048124
 20
2.525832084678286
 30
0.0
 11
3.22576701048124
 21
2.525832084678286
 31
0.0
  0
CIRCLE
  5
3C4
330
1F
100
AcDbEntity
  8
4
100
AcDbCircle
 10
3.31976701048124
 20
2.525832084678286
 30
0.0
 40
0.094
  0
LINE
  5
3C5
330
1F
100
AcDbEntity
  8
4
100
AcDbLine
 10
3.06976701048124
 20
2.619832084678286
 30
0.0
 11
3.06976701048124
 21
2.744832084678286
 31
0.0
  0
CIRCLE
  5
3C6
330
1F
100
AcDbEntity
  8
4
100
AcDbCircle
 10
3.06976701048124
 20
2.525832084678286
 30
0.0
 40
0.094
  0
CIRCLE
  5
3C7
330
1F
100
AcDbEntity
  8
4
100
AcDbCircle
 10
3.228400300173227
 20
5.463832084678286
 30
0.0
 40
0.094
  0
LINE
  5
3C8
330
1F
100
AcDbEntity
  8
4
100
AcDbLine
 10
3.228400300173227
 20
5.557832084678286
 30
0.0
 11
3.228400300173227
 21
5.682832084678286
 31
0.0
  0
LINE
  5
3C9
330
1F
100
AcDbEntity
  8
1
100
AcDbLine
 10
3.790900300173226
 20
2.713832084678286
 30
0.0
 11
3.602900300173227
 21
2.713832084678286
 31
0.0
  0
LINE
  5
3CA
330
1F
100
AcDbEntity
  8
1
100
AcDbLine
 10
3.915900300173227
 20
5.589832084678286
 30
0.0
 11
4.103900300173227
 21
5.589832084678286
 31
0.0
  0
LINE
  5
3CB
330
1F
100
AcDbEntity
  8
1
100
AcDbLine
 10
4.165900300173227
 20
2.651832084678286
 30
0.0
 11
4.165900300173227
 21
5.651832084678286
 31
0.0
  0
LINE
  5
3CC
330
1F
100
AcDbEntity
  8
1
100
AcDbLine
 10
3.540900300173227
 20
2.651832084678286
 30
0.0
 11
3.540900300173227
 21
5.651832084678286
 31
0.0
  0
LINE
  5
3CD
330
1F
100
AcDbEntity
  8
1
100
AcDbLine
 10
2.915900300173227
 20
2.651832084678286
 30
0.0
 11
2.915900300173227
 21
5.651832084678286
 31
0.0
  0
LINE
  5
3CE
330
1F
100
AcDbEntity
  8
1
100
AcDbLine
 10
4.728900300173227
 20
2.713832084678286
 30
0.0
 11
4.227900300173227
 21
2.713832084678286
 31
0.0
  0
LINE
  5
3CF
330
1F
100
AcDbEntity
  8
1
100
AcDbLine
 10
4.728900300173227
 20
5.589832084678286
 30
0.0
 11
4.728900300173227
 21
2.713832084678286
 31
0.0
  0
LINE
  5
3D0
330
1F
100
AcDbEntity
  8
1
100
AcDbLine
 10
4.227900300173227
 20
5.589832084678286
 30
0.0
 11
4.728900300173227
 21
5.589832084678286
 31
0.0
  0
LINE
  5
3D1
330
1F
100
AcDbEntity
  8
1
100
AcDbLine
 10
4.227900300173227
 20
2.713832084678286
 30
0.0
 11
4.227900300173227
 21
5.589832084678286
 31
0.0
  0
LINE
  5
3D2
330
1F
100
AcDbEntity
  8
1
100
AcDbLine
 10
4.103900300173227
 20
2.713832084678286
 30
0.0
 11
3.915900300173227
 21
2.713832084678286
 31
0.0
  0
LINE
  5
3D3
330
1F
100
AcDbEntity
  8
1
100
AcDbLine
 10
4.103900300173227
 20
5.589832084678286
 30
0.0
 11
4.103900300173227
 21
2.713832084678286
 31
0.0
  0
LINE
  5
3D4
330
1F
100
AcDbEntity
  8
1
100
AcDbLine
 10
3.602900300173227
 20
5.589832084678286
 30
0.0
 11
3.790900300173227
 21
5.589832084678286
 31
0.0
  0
LINE
  5
3D5
330
1F
100
AcDbEntity
  8
1
100
AcDbLine
 10
3.602900300173227
 20
2.713832084678286
 30
0.0
 11
3.602900300173227
 21
5.589832084678286
 31
0.0
  0
LINE
  5
3D6
330
1F
100
AcDbEntity
  8
1
100
AcDbLine
 10
3.478900300173227
 20
2.713832084678286
 30
0.0
 11
2.977900300173227
 21
2.713832084678286
 31
0.0
  0
LINE
  5
3D7
330
1F
100
AcDbEntity
  8
1
100
AcDbLine
 10
3.478900300173227
 20
5.589832084678286
 30
0.0
 11
3.478900300173227
 21
2.713832084678286
 31
0.0
  0
LINE
  5
3D8
330
1F
100
AcDbEntity
  8
1
100
AcDbLine
 10
2.977900300173227
 20
5.589832084678286
 30
0.0
 11
3.478900300173227
 21
5.589832084678286
 31
0.0
  0
LINE
  5
3D9
330
1F
100
AcDbEntity
  8
1
100
AcDbLine
 10
2.977900300173227
 20
2.713832084678286
 30
0.0
 11
2.977900300173227
 21
5.589832084678286
 31
0.0
  0
LINE
  5
3DA
330
1F
100
AcDbEntity
  8
1
100
AcDbLine
 10
2.853900300173227
 20
5.589832084678286
 30
0.0
 11
2.853900300173227
 21
2.713832084678286
 31
0.0
  0
LINE
  5
3DB
330
1F
100
AcDbEntity
  8
1
100
AcDbLine
 10
2.352900300173227
 20
5.589832084678286
 30
0.0
 11
2.853900300173227
 21
5.589832084678286
 31
0.0
  0
LINE
  5
3DC
330
1F
100
AcDbEntity
  8
1
100
AcDbLine
 10
2.352900300173227
 20
2.713832084678286
 30
0.0
 11
2.352900300173227
 21
5.589832084678286
 31
0.0
  0
INSERT
  5
3DD
330
1F
100
AcDbEntity
  8
4
100
AcDbBlockReference
  2
ARRO
 10
8.915900300173227
 20
2.964332084678286
 30
0.0
 50
180.0
  0
INSERT
  5
3DE
330
1F
100
AcDbEntity
  8
4
100
AcDbBlockReference
  2
ARRO
 10
7.665900300173227
 20
2.964332084678286
 30
0.0
  0
INSERT
  5
3DF
330
1F
100
AcDbEntity
  8
4
100
AcDbBlockReference
  2
ARRO
 10
7.040900300173227
 20
2.964332084678286
 30
0.0
  0
INSERT
  5
3E0
330
1F
100
AcDbEntity
  8
4
100
AcDbBlockReference
  2
ARRO
 10
6.980900300173227
 20
2.964332084678286
 30
0.0
 50
180.0
  0
INSERT
  5
3E1
330
1F
100
AcDbEntity
  8
4
100
AcDbBlockReference
  2
ARRO
 10
6.355900300173227
 20
2.964332084678286
 30
0.0
  0
LINE
  5
3E2
330
1F
100
AcDbEntity
  8
4
100
AcDbLine
 10
7.665900300173227
 20
2.964332084678286
 30
0.0
 11
8.915900300173227
 21
2.964332084678286
 31
0.0
  0
LINE
  5
3E3
330
1F
100
AcDbEntity
  8
4
100
AcDbLine
 10
7.040900300173227
 20
2.964332084678286
 30
0.0
 11
7.290900300173227
 21
2.964332084678286
 31
0.0
  0
LINE
  5
3E4
330
1F
100
AcDbEntity
  8
4
100
AcDbLine
 10
6.980900300173227
 20
2.964332084678286
 30
0.0
 11
6.355900300173227
 21
2.964332084678286
 31
0.0
  0
INSERT
  5
3E5
330
1F
100
AcDbEntity
  8
4
100
AcDbBlockReference
  2
ARRO
 10
5.853400300173227
 20
2.651832084678286
 30
0.0
 50
90.0
  0
INSERT
  5
3E6
330
1F
100
AcDbEntity
  8
4
100
AcDbBlockReference
  2
ARRO
 10
5.853400300173227
 20
5.651832084678286
 30
0.0
 50
270.0
  0
LINE
  5
3E7
330
1F
100
AcDbEntity
  8
4
100
AcDbLine
 10
6.293400300173227
 20
5.651832084678286
 30
0.0
 11
5.793400300173227
 21
5.651832084678286
 31
0.0
  0
LINE
  5
3E8
330
1F
100
AcDbEntity
  8
4
100
AcDbLine
 10
5.853400300173227
 20
2.651832084678286
 30
0.0
 11
5.853400300173227
 21
5.651832084678286
 31
0.0
  0
LINE
  5
3E9
330
1F
100
AcDbEntity
  8
4
100
AcDbLine
 10
6.293400300173227
 20
2.651832084678286
 30
0.0
 11
5.793400300173227
 21
2.651832084678286
 31
0.0
  0
INSERT
  5
3EA
330
1F
100
AcDbEntity
  8
4
100
AcDbBlockReference
  2
ARRO
 10
4.790900300173227
 20
2.151832084678286
 30
0.0
 50
180.0
  0
INSERT
  5
3EB
330
1F
100
AcDbEntity
  8
4
100
AcDbBlockReference
  2
ARRO
 10
2.290900300173227
 20
2.151832084678286
 30
0.0
  0
LINE
  5
3EC
330
1F
100
AcDbEntity
  8
4
100
AcDbLine
 10
4.790900300173227
 20
2.151832084678286
 30
0.0
 11
2.290900300173227
 21
2.151832084678286
 31
0.0
  0
LINE
  5
3ED
330
1F
100
AcDbEntity
  8
4
100
AcDbLine
 10
4.790900300173227
 20
2.589832084678286
 30
0.0
 11
4.790900300173227
 21
2.089832084678286
 31
0.0
  0
LINE
  5
3EE
330
1F
100
AcDbEntity
  8
4
100
AcDbLine
 10
2.290900300173227
 20
2.589832084678286
 30
0.0
 11
2.290900300173227
 21
2.089832084678286
 31
0.0
  0
LINE
  5
3EF
330
1F
100
AcDbEntity
  8
1
100
AcDbLine
 10
6.980900300173227
 20
2.651832084678286
 30
0.0
 11
6.980900300173227
 21
5.651832084678286
 31
0.0
  0
LINE
  5
3F0
330
1F
100
AcDbEntity
  8
1
100
AcDbLine
 10
7.040900300173227
 20
5.901832084678286
 30
0.0
 11
7.165900300173227
 21
6.026832084678286
 31
0.0
  0
LINE
  5
3F1
330
1F
100
AcDbEntity
  8
1
100
AcDbLine
 10
7.040900300173227
 20
5.776832084678286
 30
0.0
 11
7.228900300173227
 21
5.964832084678286
 31
0.0
  0
LINE
  5
3F2
330
1F
100
AcDbEntity
  8
1
100
AcDbLine
 10
7.040900300173227
 20
5.651832084678286
 30
0.0
 11
7.228900300173227
 21
5.839832084678286
 31
0.0
  0
LINE
  5
3F3
330
1F
100
AcDbEntity
  8
1
100
AcDbLine
 10
7.040900300173227
 20
5.526832084678286
 30
0.0
 11
7.228900300173227
 21
5.714832084678286
 31
0.0
  0
LINE
  5
3F4
330
1F
100
AcDbEntity
  8
1
100
AcDbLine
 10
7.040900300173227
 20
5.401832084678286
 30
0.0
 11
7.228900300173227
 21
5.589832084678286
 31
0.0
  0
LINE
  5
3F5
330
1F
100
AcDbEntity
  8
1
100
AcDbLine
 10
7.040900300173227
 20
5.276832084678286
 30
0.0
 11
7.228900300173227
 21
5.464832084678286
 31
0.0
  0
LINE
  5
3F6
330
1F
100
AcDbEntity
  8
1
100
AcDbLine
 10
7.040900300173227
 20
5.151832084678286
 30
0.0
 11
7.228900300173227
 21
5.339832084678286
 31
0.0
  0
LINE
  5
3F7
330
1F
100
AcDbEntity
  8
1
100
AcDbLine
 10
7.040900300173227
 20
5.026832084678286
 30
0.0
 11
7.228900300173227
 21
5.214832084678286
 31
0.0
  0
LINE
  5
3F8
330
1F
100
AcDbEntity
  8
1
100
AcDbLine
 10
7.040900300173227
 20
4.901832084678286
 30
0.0
 11
7.228900300173227
 21
5.089832084678286
 31
0.0
  0
LINE
  5
3F9
330
1F
100
AcDbEntity
  8
1
100
AcDbLine
 10
7.040900300173227
 20
4.776832084678286
 30
0.0
 11
7.228900300173227
 21
4.964832084678286
 31
0.0
  0
LINE
  5
3FA
330
1F
100
AcDbEntity
  8
1
100
AcDbLine
 10
7.040900300173227
 20
4.651832084678286
 30
0.0
 11
7.228900300173227
 21
4.839832084678286
 31
0.0
  0
LINE
  5
3FB
330
1F
100
AcDbEntity
  8
1
100
AcDbLine
 10
7.040900300173227
 20
4.526832084678286
 30
0.0
 11
7.228900300173227
 21
4.714832084678286
 31
0.0
  0
LINE
  5
3FC
330
1F
100
AcDbEntity
  8
1
100
AcDbLine
 10
7.040900300173227
 20
4.401832084678286
 30
0.0
 11
7.228900300173227
 21
4.589832084678286
 31
0.0
  0
LINE
  5
3FD
330
1F
100
AcDbEntity
  8
1
100
AcDbLine
 10
7.040900300173227
 20
4.276832084678286
 30
0.0
 11
7.228900300173227
 21
4.464832084678286
 31
0.0
  0
LINE
  5
3FE
330
1F
100
AcDbEntity
  8
1
100
AcDbLine
 10
7.040900300173227
 20
4.151832084678286
 30
0.0
 11
7.228900300173227
 21
4.339832084678286
 31
0.0
  0
LINE
  5
3FF
330
1F
100
AcDbEntity
  8
1
100
AcDbLine
 10
7.040900300173227
 20
4.026832084678286
 30
0.0
 11
7.228900300173227
 21
4.214832084678286
 31
0.0
  0
LINE
  5
400
330
1F
100
AcDbEntity
  8
1
100
AcDbLine
 10
7.040900300173227
 20
3.901832084678286
 30
0.0
 11
7.228900300173227
 21
4.089832084678286
 31
0.0
  0
LINE
  5
401
330
1F
100
AcDbEntity
  8
1
100
AcDbLine
 10
7.040900300173227
 20
3.776832084678286
 30
0.0
 11
7.228900300173227
 21
3.964832084678286
 31
0.0
  0
LINE
  5
402
330
1F
100
AcDbEntity
  8
1
100
AcDbLine
 10
7.040900300173227
 20
3.651832084678286
 30
0.0
 11
7.228900300173227
 21
3.839832084678286
 31
0.0
  0
LINE
  5
403
330
1F
100
AcDbEntity
  8
1
100
AcDbLine
 10
7.040900300173227
 20
3.526832084678286
 30
0.0
 11
7.228900300173227
 21
3.714832084678286
 31
0.0
  0
LINE
  5
404
330
1F
100
AcDbEntity
  8
1
100
AcDbLine
 10
7.040900300173227
 20
3.401832084678286
 30
0.0
 11
7.228900300173227
 21
3.589832084678286
 31
0.0
  0
LINE
  5
405
330
1F
100
AcDbEntity
  8
1
100
AcDbLine
 10
7.040900300173227
 20
3.276832084678286
 30
0.0
 11
7.228900300173227
 21
3.464832084678286
 31
0.0
  0
LINE
  5
406
330
1F
100
AcDbEntity
  8
1
100
AcDbLine
 10
7.040900300173227
 20
3.151832084678286
 30
0.0
 11
7.228900300173227
 21
3.339832084678286
 31
0.0
  0
LINE
  5
407
330
1F
100
AcDbEntity
  8
1
100
AcDbLine
 10
7.040900300173227
 20
2.776832084678286
 30
0.0
 11
7.228900300173227
 21
2.964832084678286
 31
0.0
  0
LINE
  5
408
330
1F
100
AcDbEntity
  8
1
100
AcDbLine
 10
7.040900300173227
 20
2.651832084678286
 30
0.0
 11
7.228900300173227
 21
2.839832084678286
 31
0.0
  0
LINE
  5
409
330
1F
100
AcDbEntity
  8
1
100
AcDbLine
 10
3.915900300173227
 20
3.531806263989865
 30
0.0
 11
3.915900300173226
 21
2.526832084678286
 31
0.0
  0
LINE
  5
40A
330
1F
100
AcDbEntity
  8
1
100
AcDbLine
 10
3.915900300173227
 20
3.934306263989865
 30
0.0
 11
3.915900300173227
 21
3.621806263989865
 31
0.0
  0
LINE
  5
40B
330
1F
100
AcDbEntity
  8
1
100
AcDbLine
 10
3.915900300173227
 20
4.777799788830152
 30
0.0
 11
3.915900300173227
 21
3.934306263989865
 31
0.0
  0
LINE
  5
40C
330
1F
100
AcDbEntity
  8
1
100
AcDbLine
 10
3.870900300173227
 20
4.816806263989866
 30
0.0
 11
3.960900300173227
 21
4.726806263989866
 31
0.0
  0
LINE
  5
40D
330
1F
100
AcDbEntity
  8
1
100
AcDbLine
 10
3.960900300173227
 20
4.816806263989866
 30
0.0
 11
3.870900300173227
 21
4.816806263989866
 31
0.0
  0
LINE
  5
40E
330
1F
100
AcDbEntity
  8
1
100
AcDbLine
 10
3.870900300173227
 20
4.906806263989865
 30
0.0
 11
3.960900300173227
 21
4.816806263989866
 31
0.0
  0
LINE
  5
40F
330
1F
100
AcDbEntity
  8
1
100
AcDbLine
 10
3.870900300173227
 20
3.576806263989865
 30
0.0
 11
3.960900300173226
 21
3.486806263989866
 31
0.0
  0
LINE
  5
410
330
1F
100
AcDbEntity
  8
1
100
AcDbLine
 10
3.960900300173226
 20
3.576806263989865
 30
0.0
 11
3.870900300173227
 21
3.576806263989865
 31
0.0
  0
LINE
  5
411
330
1F
100
AcDbEntity
  8
1
100
AcDbLine
 10
3.870900300173227
 20
3.666806263989865
 30
0.0
 11
3.960900300173226
 21
3.576806263989865
 31
0.0
  0
LINE
  5
412
330
1F
100
AcDbEntity
  8
1
100
AcDbLine
 10
3.790900300173226
 20
2.906806263989865
 30
0.0
 11
3.790900300173226
 21
2.526832084678286
 31
0.0
  0
LINE
  5
413
330
1F
100
AcDbEntity
  8
1
100
AcDbLine
 10
3.790900300173227
 20
3.621806263989865
 30
0.0
 11
3.790900300173226
 21
2.996806263989865
 31
0.0
  0
LINE
  5
414
330
1F
100
AcDbEntity
  8
1
100
AcDbLine
 10
3.790900300173227
 20
4.156806263989865
 30
0.0
 11
3.790900300173227
 21
3.621806263989865
 31
0.0
  0
LINE
  5
415
330
1F
100
AcDbEntity
  8
1
100
AcDbLine
 10
3.745900300173226
 20
3.041806263989865
 30
0.0
 11
3.835900300173226
 21
2.951806263989865
 31
0.0
  0
LINE
  5
416
330
1F
100
AcDbEntity
  8
1
100
AcDbLine
 10
3.835900300173226
 20
2.951806263989865
 30
0.0
 11
3.745900300173226
 21
2.951806263989865
 31
0.0
  0
LINE
  5
417
330
1F
100
AcDbEntity
  8
1
100
AcDbLine
 10
3.745900300173226
 20
2.951806263989865
 30
0.0
 11
3.835900300173226
 21
2.861806263989866
 31
0.0
  0
LINE
  5
418
330
1F
100
AcDbEntity
  8
1
100
AcDbLine
 10
3.745900300173226
 20
4.291806263989865
 30
0.0
 11
3.835900300173226
 21
4.201806263989865
 31
0.0
  0
LINE
  5
419
330
1F
100
AcDbEntity
  8
1
100
AcDbLine
 10
3.835900300173226
 20
4.201806263989865
 30
0.0
 11
3.745900300173226
 21
4.201806263989865
 31
0.0
  0
LINE
  5
41A
330
1F
100
AcDbEntity
  8
1
100
AcDbLine
 10
3.745900300173226
 20
4.201806263989865
 30
0.0
 11
3.835900300173226
 21
4.111806263989866
 31
0.0
  0
LINE
  5
41B
330
1F
100
AcDbEntity
  8
1
100
AcDbLine
 10
3.803096331000209
 20
5.394610233162883
 30
0.0
 11
3.803096331000209
 21
4.227510613825955
 31
0.0
  0
LINE
  5
41C
330
1F
100
AcDbEntity
  8
1
100
AcDbLine
 10
3.745900300173227
 20
5.451806263989865
 30
0.0
 11
3.835900300173227
 21
5.361806263989866
 31
0.0
  0
LINE
  5
41D
330
1F
100
AcDbEntity
  8
1
100
AcDbLine
 10
3.835900300173227
 20
5.451806263989865
 30
0.0
 11
3.745900300173227
 21
5.451806263989865
 31
0.0
  0
LINE
  5
41E
330
1F
100
AcDbEntity
  8
1
100
AcDbLine
 10
3.745900300173227
 20
5.541806263989865
 30
0.0
 11
3.835900300173227
 21
5.451806263989865
 31
0.0
  0
LINE
  5
41F
330
1F
100
AcDbEntity
  8
1
100
AcDbLine
 10
3.790900300173227
 20
5.776832084678286
 30
0.0
 11
3.790900300173227
 21
5.496806263989865
 31
0.0
  0
LINE
  5
420
330
1F
100
AcDbEntity
  8
1
100
AcDbLine
 10
3.915900300173227
 20
5.776832084678286
 30
0.0
 11
3.915900300173227
 21
4.861806263989866
 31
0.0
  0
CIRCLE
  5
421
330
1F
100
AcDbEntity
  8
1
100
AcDbCircle
 10
5.415900300173227
 20
1.651832084678286
 30
0.0
 40
0.1875
  0
LINE
  5
422
330
1F
100
AcDbEntity
  8
1
100
AcDbLine
 10
7.040900300173227
 20
2.651832084678286
 30
0.0
 11
7.040900300173227
 21
6.026832084678286
 31
0.0
  0
LINE
  5
423
330
1F
100
AcDbEntity
  8
1
100
AcDbLine
 10
8.290900300173227
 20
2.651832084678286
 30
0.0
 11
8.290900300173227
 21
5.651832084678286
 31
0.0
  0
LINE
  5
424
330
1F
100
AcDbEntity
  8
1
100
AcDbLine
 10
4.790900300173227
 20
2.651832084678286
 30
0.0
 11
3.915900300173226
 21
2.651832084678286
 31
0.0
  0
LINE
  5
425
330
1F
100
AcDbEntity
  8
1
100
AcDbLine
 10
4.790900300173227
 20
5.651832084678286
 30
0.0
 11
4.790900300173227
 21
2.651832084678286
 31
0.0
  0
LINE
  5
426
330
1F
100
AcDbEntity
  8
1
100
AcDbLine
 10
3.915900300173227
 20
5.651832084678286
 30
0.0
 11
4.790900300173227
 21
5.651832084678286
 31
0.0
  0
LINE
  5
427
330
1F
100
AcDbEntity
  8
1
100
AcDbLine
 10
2.290900300173227
 20
5.651832084678286
 30
0.0
 11
3.790900300173227
 21
5.651832084678286
 31
0.0
  0
LINE
  5
428
330
1F
100
AcDbEntity
  8
1
100
AcDbLine
 10
2.290900300173227
 20
2.651832084678286
 30
0.0
 11
2.290900300173227
 21
5.651832084678286
 31
0.0
  0
LINE
  5
429
330
1F
100
AcDbEntity
  8
1
100
AcDbLine
 10
2.290900300173227
 20
2.651832084678286
 30
0.0
 11
3.790900300173227
 21
2.651832084678286
 31
0.0
  0
LINE
  5
42A
330
1F
100
AcDbEntity
  8
1
100
AcDbLine
 10
1.290900300173227
 20
6.401832084678286
 30
0.0
 11
1.290900300173227
 21
1.151832084678286
 31
0.0
  0
LINE
  5
42B
330
1F
100
AcDbEntity
  8
1
100
AcDbLine
 10
9.540900300173227
 20
6.401832084678286
 30
0.0
 11
1.290900300173227
 21
6.401832084678286
 31
0.0
  0
LINE
  5
42C
330
1F
100
AcDbEntity
  8
1
100
AcDbLine
 10
9.540900300173227
 20
1.151832084678286
 30
0.0
 11
9.540900300173227
 21
6.401832084678286
 31
0.0
  0
LINE
  5
42D
330
1F
100
AcDbEntity
  8
1
100
AcDbLine
 10
1.290900300173227
 20
1.151832084678286
 30
0.0
 11
9.540900300173227
 21
1.151832084678286
 31
0.0
  0
TEXT
  5
430
330
1F
100
AcDbEntity
  8
8
100
AcDbText
 10
2.79387649064942
 20
1.245846499522035
 30
0.0
 40
0.125
  1
SINGLE POINT 2 CORRIDOR LOCKER - 72" 6-HI BOX
  7
ROMANS
 72
     1
 11
5.415900300173226
 21
1.245846499522035
 31
0.0
100
AcDbText
  0
LINE
  5
431
330
1F
100
AcDbEntity
  8
4
100
AcDbLine
 10
4.227900300173227
 20
3.647846499522038
 30
0.0
 11
4.728900300173225
 21
3.647846499522038
 31
0.0
  0
LINE
  5
432
330
1F
100
AcDbEntity
  8
4
100
AcDbLine
 10
4.227900300173227
 20
3.173846499522038
 30
0.0
 11
4.728900300173225
 21
3.173846499522038
 31
0.0
  0
LINE
  5
433
330
1F
100
AcDbEntity
  8
4
100
AcDbLine
 10
4.227900300173227
 20
3.235846499522038
 30
0.0
 11
4.728900300173225
 21
3.235846499522038
 31
0.0
  0
LINE
  5
434
330
1F
100
AcDbEntity
  8
4
100
AcDbLine
 10
4.227900300173227
 20
5.131846499522038
 30
0.0
 11
4.728900300173225
 21
5.131846499522038
 31
0.0
  0
LINE
  5
435
330
1F
100
AcDbEntity
  8
4
100
AcDbLine
 10
4.227900300173227
 20
5.069846499522038
 30
0.0
 11
4.728900300173225
 21
5.069846499522038
 31
0.0
  0
LINE
  5
436
330
1F
100
AcDbEntity
  8
4
100
AcDbLine
 10
4.227900300173227
 20
4.595846499522037
 30
0.0
 11
4.728900300173225
 21
4.595846499522037
 31
0.0
  0
LINE
  5
437
330
1F
100
AcDbEntity
  8
4
100
AcDbLine
 10
4.227900300173227
 20
4.657846499522038
 30
0.0
 11
4.728900300173225
 21
4.657846499522038
 31
0.0
  0
LINE
  5
438
330
1F
100
AcDbEntity
  8
4
100
AcDbLine
 10
4.227900300173227
 20
4.121846499522038
 30
0.0
 11
4.728900300173225
 21
4.121846499522038
 31
0.0
  0
LINE
  5
439
330
1F
100
AcDbEntity
  8
4
100
AcDbLine
 10
4.227900300173227
 20
4.183846499522037
 30
0.0
 11
4.728900300173225
 21
4.183846499522037
 31
0.0
  0
LINE
  5
43A
330
1F
100
AcDbEntity
  8
4
100
AcDbLine
 10
4.227900300173227
 20
3.709846499522038
 30
0.0
 11
4.728900300173225
 21
3.709846499522038
 31
0.0
  0
INSERT
  5
43B
330
1F
100
AcDbEntity
  8
CONSTRUCTION
100
AcDbBlockReference
  2
A$C254C497B
 10
1.882405730337576
 20
3.182620016697211
 30
0.0
  0
LINE
  5
43C
330
1F
100
AcDbEntity
  8
4
100
AcDbLine
 10
2.821900300173227
 20
3.771997090147037
 30
0.0
 11
2.821900300173227
 21
3.693817669834537
 31
0.0
  0
LINE
  5
43D
330
1F
100
AcDbEntity
  8
4
100
AcDbLine
 10
2.384900300173227
 20
3.693832084678287
 30
0.0
 11
2.384900300173227
 21
4.135846499522036
 31
0.0
  0
LINE
  5
43E
330
1F
100
AcDbEntity
  8
4
100
AcDbLine
 10
2.821900300173227
 20
3.219817669834537
 30
0.0
 11
2.384900300173227
 21
3.219832084678286
 31
0.0
  0
LINE
  5
43F
330
1F
100
AcDbEntity
  8
4
100
AcDbLine
 10
2.821900300173227
 20
3.661832084678287
 30
0.0
 11
2.384900300173227
 21
3.661846499522036
 31
0.0
  0
LINE
  5
440
330
1F
100
AcDbEntity
  8
4
100
AcDbLine
 10
2.821900300173227
 20
2.745817669834536
 30
0.0
 11
2.384900300173227
 21
2.745832084678286
 31
0.0
  0
LINE
  5
441
330
1F
100
AcDbEntity
  8
4
100
AcDbLine
 10
2.821900300173227
 20
3.187832084678286
 30
0.0
 11
2.384900300173227
 21
3.187846499522036
 31
0.0
  0
LINE
  5
442
330
1F
100
AcDbEntity
  8
4
100
AcDbLine
 10
2.821900300173227
 20
3.693817669834537
 30
0.0
 11
2.384900300173227
 21
3.693832084678287
 31
0.0
  0
POINT
  5
443
330
1F
100
AcDbEntity
  8
4
100
AcDbPoint
 10
1.290900300173227
 20
1.151832084678286
 30
0.0
  0
ARC
  5
444
330
1F
100
AcDbEntity
  8
4
100
AcDbCircle
 10
2.428838601205426
 20
3.039606291006411
 30
0.0
 40
0.019244165
100
AcDbArc
 50
90.0
 51
183.5763343749981
  0
ARC
  5
445
330
1F
100
AcDbEntity
  8
4
100
AcDbCircle
 10
2.42341679239269
 20
3.049228373506411
 30
0.0
 40
0.0288662475
100
AcDbArc
 50
90.0
 51
183.5763343749981
  0
LINE
  5
446
330
1F
100
AcDbEntity
  8
4
100
AcDbLine
 10
2.384900300173227
 20
2.745832084678286
 30
0.0
 11
2.384900300173227
 21
3.187846499522036
 31
0.0
  0
ARC
  5
447
330
1F
100
AcDbEntity
  8
4
100
AcDbCircle
 10
2.526797854828767
 20
3.049228373506411
 30
0.0
 40
0.0288662475
100
AcDbArc
 50
356.4236656250018
 51
90.0
  0
ARC
  5
448
330
1F
100
AcDbEntity
  8
4
100
AcDbCircle
 10
2.521376046016029
 20
3.039606291006411
 30
0.0
 40
0.019244165
100
AcDbArc
 50
356.4236656250018
 51
90.0
  0
ARC
  5
449
330
1F
100
AcDbEntity
  8
4
100
AcDbCircle
 10
2.429799415997979
 20
2.889261251943911
 30
0.0
 40
0.0252579665625
100
AcDbArc
 50
183.5763343749981
 51
270.0
  0
CIRCLE
  5
44A
330
1F
100
AcDbEntity
  8
4
100
AcDbCircle
 10
2.475107323610727
 20
2.874828128193915
 30
0.0
 40
0.006924050567
  0
ARC
  5
44B
330
1F
100
AcDbEntity
  8
4
100
AcDbCircle
 10
2.520415231223474
 20
2.889261251943911
 30
0.0
 40
0.0252579665625
100
AcDbArc
 50
270.0
 51
356.4236656250018
  0
LINE
  5
44C
330
1F
100
AcDbEntity
  8
4
100
AcDbLine
 10
2.475107323610727
 20
2.864003285381412
 30
0.0
 11
2.429799415997979
 21
2.864003285381412
 31
0.0
  0
LINE
  5
44D
330
1F
100
AcDbEntity
  8
4
100
AcDbLine
 10
2.475107323610727
 20
2.864003285381412
 30
0.0
 11
2.520415231223474
 21
2.864003285381412
 31
0.0
  0
LINE
  5
44E
330
1F
100
AcDbEntity
  8
4
 62
   130
100
AcDbLine
 10
2.434123996067444
 20
3.044322505654077
 30
0.0
 11
2.454561299297444
 21
3.02388520242408
 31
0.0
  0
LINE
  5
44F
330
1F
100
AcDbEntity
  8
4
 62
   130
100
AcDbLine
 10
2.425632804015907
 20
3.035831313602542
 30
0.0
 11
2.446070107245906
 21
3.01539401037254
 31
0.0
  0
LINE
  5
450
330
1F
100
AcDbEntity
  8
4
100
AcDbLine
 10
2.427360950270208
 20
3.039221028248155
 30
0.0
 11
2.449459821891518
 21
3.017122156626845
 31
0.0
  0
LINE
  5
451
330
1F
100
AcDbEntity
  8
4
100
AcDbLine
 10
2.430762870162651
 20
3.042622948140599
 30
0.0
 11
2.452861741783961
 21
3.020524076519288
 31
0.0
  0
LINE
  5
452
330
1F
100
AcDbEntity
  8
4
100
AcDbLine
 10
2.475107323610727
 20
2.89031005893641
 30
0.0
 11
2.436967987957596
 21
2.890310058936415
 31
0.0
  0
LINE
  5
453
330
1F
100
AcDbEntity
  8
4
100
AcDbLine
 10
2.435879357680884
 20
3.037506460622368
 30
0.0
 11
2.432477437788441
 21
3.034104540729924
 31
0.0
  0
LINE
  5
454
330
1F
100
AcDbEntity
  8
4
100
AcDbLine
 10
2.430762870162651
 20
3.042622948140599
 30
0.0
 11
2.427360950270208
 21
3.039221028248155
 31
0.0
  0
ARC
  5
455
330
1F
100
AcDbEntity
  8
4
 62
   130
100
AcDbCircle
 10
2.429878400041675
 20
3.04007690962831
 30
0.0
 40
0.00600417948
100
AcDbArc
 50
45.00000000000024
 51
225.0000000000002
  0
ARC
  5
456
330
1F
100
AcDbEntity
  8
4
100
AcDbCircle
 10
2.436967987957596
 20
2.909554223936415
 30
0.0
 40
0.019244165
100
AcDbArc
 50
183.5763343749981
 51
270.0
  0
LINE
  5
457
330
1F
100
AcDbEntity
  8
4
100
AcDbLine
 10
2.409631912706426
 20
3.038405872975226
 30
0.0
 11
2.417761299458596
 21
2.908335684940519
 31
0.0
  0
LINE
  5
458
330
1F
100
AcDbEntity
  8
4
100
AcDbLine
 10
2.394606759644189
 20
3.047427746459631
 30
0.0
 11
2.404590637343043
 21
2.887685703277981
 31
0.0
  0
LINE
  5
459
330
1F
100
AcDbEntity
  8
4
100
AcDbLine
 10
2.555607887577266
 20
3.047427746459631
 30
0.0
 11
2.545624009878411
 21
2.887685703277981
 31
0.0
  0
ARC
  5
45A
330
1F
100
AcDbEntity
  8
4
 62
   130
100
AcDbCircle
 10
2.450315703271676
 20
3.019639606398312
 30
0.0
 40
0.00600417948
100
AcDbArc
 50
225.0000000000002
 51
45.00000000000024
  0
LINE
  5
45B
330
1F
100
AcDbEntity
  8
4
100
AcDbLine
 10
2.447745254265726
 20
3.025640564037524
 30
0.0
 11
2.444343334373285
 21
3.022238644145081
 31
0.0
  0
CIRCLE
  5
45C
330
1F
100
AcDbEntity
  8
4
100
AcDbCircle
 10
2.475107323610727
 20
3.007704276477664
 30
0.0
 40
0.00419522797
  0
LINE
  5
45D
330
1F
100
AcDbEntity
  8
4
100
AcDbLine
 10
2.449459821891518
 20
3.017122156626845
 30
0.0
 11
2.452861741783961
 21
3.020524076519288
 31
0.0
  0
ARC
  5
45E
330
1F
100
AcDbEntity
  8
4
100
AcDbCircle
 10
2.513246659263859
 20
2.909554223936415
 30
0.0
 40
0.019244165
100
AcDbArc
 50
270.0
 51
356.4236656250018
  0
LINE
  5
45F
330
1F
100
AcDbEntity
  8
4
100
AcDbLine
 10
2.475107323610727
 20
2.89031005893641
 30
0.0
 11
2.513246659263859
 21
2.890310058936415
 31
0.0
  0
CIRCLE
  5
460
330
1F
100
AcDbEntity
  8
4
100
AcDbCircle
 10
2.475107323610727
 20
2.923568787097662
 30
0.0
 40
0.00419522797
  0
CIRCLE
  5
461
330
1F
100
AcDbEntity
  8
4
100
AcDbCircle
 10
2.475107323610727
 20
2.965636531787661
 30
0.0
 40
0.01262898328125
  0
LINE
  5
462
330
1F
100
AcDbEntity
  8
4
100
AcDbLine
 10
2.540582734515029
 20
3.038405872975226
 30
0.0
 11
2.532453347762859
 21
2.908353805905225
 31
0.0
  0
LINE
  5
463
330
1F
100
AcDbEntity
  8
4
100
AcDbLine
 10
2.409631912706426
 20
3.512405872975226
 30
0.0
 11
2.417761299458596
 21
3.382335684940519
 31
0.0
  0
LINE
  5
464
330
1F
100
AcDbEntity
  8
4
100
AcDbLine
 10
2.394606759644189
 20
3.521427746459631
 30
0.0
 11
2.404590637343043
 21
3.361685703277982
 31
0.0
  0
LINE
  5
465
330
1F
100
AcDbEntity
  8
4
100
AcDbLine
 10
2.384900300173227
 20
3.219832084678286
 30
0.0
 11
2.384900300173227
 21
3.661846499522036
 31
0.0
  0
LINE
  5
466
330
1F
100
AcDbEntity
  8
4
100
AcDbLine
 10
2.540582734515029
 20
3.512405872975226
 30
0.0
 11
2.532453347762859
 21
3.382353805905225
 31
0.0
  0
LINE
  5
467
330
1F
100
AcDbEntity
  8
4
100
AcDbLine
 10
2.555607887577266
 20
3.521427746459631
 30
0.0
 11
2.545624009878411
 21
3.361685703277982
 31
0.0
  0
ARC
  5
468
330
1F
100
AcDbEntity
  8
4
100
AcDbCircle
 10
2.573132289079476
 20
2.891972273688283
 30
0.0
 40
0.26941831
100
AcDbArc
 50
81.40466153831981
 51
98.59533846168009
  0
ARC
  5
469
330
1F
100
AcDbEntity
  8
4
100
AcDbCircle
 10
2.573132289079476
 20
3.391117803375784
 30
0.0
 40
0.26941831
100
AcDbArc
 50
261.4046615383198
 51
278.5953384616802
  0
LINE
  5
46A
330
1F
100
AcDbEntity
  8
4
100
AcDbLine
 10
2.475107323610727
 20
3.078094621006411
 30
0.0
 11
2.42341679239269
 21
3.078094621006411
 31
0.0
  0
LINE
  5
46B
330
1F
100
AcDbEntity
  8
4
100
AcDbLine
 10
2.475107323610727
 20
3.058850456006411
 30
0.0
 11
2.428838601205426
 21
3.058850456006411
 31
0.0
  0
LINE
  5
46C
330
1F
100
AcDbEntity
  8
4
100
AcDbLine
 10
2.475107323610727
 20
3.058850456006411
 30
0.0
 11
2.521376046016029
 21
3.058850456006411
 31
0.0
  0
LINE
  5
46D
330
1F
100
AcDbEntity
  8
4
100
AcDbLine
 10
2.475107323610727
 20
3.078094621006411
 30
0.0
 11
2.526797854828767
 21
3.078094621006411
 31
0.0
  0
ARC
  5
46E
330
1F
100
AcDbEntity
  8
4
100
AcDbCircle
 10
2.609215098454476
 20
3.141545038532034
 30
0.0
 40
0.0781794203125
100
AcDbArc
 50
167.5762104955835
 51
192.4237895044164
  0
CIRCLE
  5
46F
330
1F
100
AcDbEntity
  8
4
100
AcDbCircle
 10
2.537049479704477
 20
3.141545038532034
 30
0.0
 40
0.00261720644
  0
LINE
  5
470
330
1F
100
AcDbEntity
  8
4
100
AcDbLine
 10
2.533585530004477
 20
3.141545038532034
 30
0.0
 11
2.540513429404477
 21
3.141545038532034
 31
0.0
  0
LINE
  5
471
330
1F
100
AcDbEntity
  8
4
100
AcDbLine
 10
2.537049479704477
 20
3.138081088832036
 30
0.0
 11
2.537049479704477
 21
3.145008988232034
 31
0.0
  0
LINE
  5
472
330
1F
100
AcDbEntity
  8
4
100
AcDbLine
 10
2.475107323610727
 20
3.36431005893641
 30
0.0
 11
2.436967987957596
 21
3.364310058936415
 31
0.0
  0
LINE
  5
473
330
1F
100
AcDbEntity
  8
4
100
AcDbLine
 10
2.475107323610727
 20
3.338003285381412
 30
0.0
 11
2.429799415997979
 21
3.338003285381412
 31
0.0
  0
ARC
  5
474
330
1F
100
AcDbEntity
  8
4
100
AcDbCircle
 10
2.436967987957596
 20
3.383554223936415
 30
0.0
 40
0.019244165
100
AcDbArc
 50
183.5763343749981
 51
270.0
  0
ARC
  5
475
330
1F
100
AcDbEntity
  8
4
100
AcDbCircle
 10
2.429799415997979
 20
3.363261251943911
 30
0.0
 40
0.0252579665625
100
AcDbArc
 50
183.5763343749981
 51
270.0
  0
ARC
  5
476
330
1F
100
AcDbEntity
  8
4
100
AcDbCircle
 10
2.513246659263859
 20
3.383554223936415
 30
0.0
 40
0.019244165
100
AcDbArc
 50
270.0
 51
356.4236656250017
  0
LINE
  5
477
330
1F
100
AcDbEntity
  8
4
100
AcDbLine
 10
2.475107323610727
 20
3.36431005893641
 30
0.0
 11
2.513246659263859
 21
3.364310058936415
 31
0.0
  0
CIRCLE
  5
478
330
1F
100
AcDbEntity
  8
4
100
AcDbCircle
 10
2.475107323610727
 20
3.348828128193916
 30
0.0
 40
0.006924050567
  0
CIRCLE
  5
479
330
1F
100
AcDbEntity
  8
4
100
AcDbCircle
 10
2.475107323610727
 20
3.397568787097663
 30
0.0
 40
0.00419522797
  0
LINE
  5
47A
330
1F
100
AcDbEntity
  8
4
100
AcDbLine
 10
2.475107323610727
 20
3.338003285381412
 30
0.0
 11
2.520415231223474
 21
3.338003285381412
 31
0.0
  0
ARC
  5
47B
330
1F
100
AcDbEntity
  8
4
100
AcDbCircle
 10
2.520415231223474
 20
3.363261251943911
 30
0.0
 40
0.0252579665625
100
AcDbArc
 50
270.0
 51
356.4236656250017
  0
CIRCLE
  5
47C
330
1F
100
AcDbEntity
  8
4
100
AcDbCircle
 10
2.609215098454476
 20
3.141545038532034
 30
0.0
 40
0.00261720644
  0
LINE
  5
47D
330
1F
100
AcDbEntity
  8
4
100
AcDbLine
 10
2.605751148754477
 20
3.141545038532034
 30
0.0
 11
2.612679048154478
 21
3.141545038532034
 31
0.0
  0
LINE
  5
47E
330
1F
100
AcDbEntity
  8
4
100
AcDbLine
 10
2.609215098454476
 20
3.138081088832036
 30
0.0
 11
2.609215098454476
 21
3.145008988232034
 31
0.0
  0
ARC
  5
47F
330
1F
100
AcDbEntity
  8
4
100
AcDbCircle
 10
2.537049479704477
 20
3.141545038532034
 30
0.0
 40
0.0781794203125
100
AcDbArc
 50
347.5762104955836
 51
12.42378950441644
  0
ARC
  5
480
330
1F
100
AcDbEntity
  8
4
100
AcDbCircle
 10
2.573132289079476
 20
3.365972273688283
 30
0.0
 40
0.26941831
100
AcDbArc
 50
81.40466153831981
 51
98.59533846168009
  0
ARC
  5
481
330
1F
100
AcDbEntity
  8
4
100
AcDbCircle
 10
2.573132289079476
 20
3.865117803375784
 30
0.0
 40
0.26941831
100
AcDbArc
 50
261.4046615383198
 51
278.5953384616802
  0
ARC
  5
482
330
1F
100
AcDbEntity
  8
4
100
AcDbCircle
 10
2.526797854828767
 20
3.523228373506412
 30
0.0
 40
0.0288662475
100
AcDbArc
 50
356.4236656250017
 51
90.0
  0
LINE
  5
483
330
1F
100
AcDbEntity
  8
4
100
AcDbLine
 10
2.475107323610727
 20
3.552094621006411
 30
0.0
 11
2.42341679239269
 21
3.552094621006411
 31
0.0
  0
LINE
  5
484
330
1F
100
AcDbEntity
  8
4
100
AcDbLine
 10
2.475107323610727
 20
3.532850456006412
 30
0.0
 11
2.428838601205426
 21
3.532850456006412
 31
0.0
  0
LINE
  5
485
330
1F
100
AcDbEntity
  8
4
 62
   130
100
AcDbLine
 10
2.425632804015907
 20
3.509831313602543
 30
0.0
 11
2.446070107245906
 21
3.48939401037254
 31
0.0
  0
LINE
  5
486
330
1F
100
AcDbEntity
  8
4
100
AcDbLine
 10
2.427360950270208
 20
3.513221028248155
 30
0.0
 11
2.449459821891518
 21
3.491122156626845
 31
0.0
  0
LINE
  5
487
330
1F
100
AcDbEntity
  8
4
 62
   130
100
AcDbLine
 10
2.434123996067444
 20
3.518322505654078
 30
0.0
 11
2.454561299297444
 21
3.49788520242408
 31
0.0
  0
LINE
  5
488
330
1F
100
AcDbEntity
  8
4
100
AcDbLine
 10
2.430762870162651
 20
3.516622948140599
 30
0.0
 11
2.452861741783961
 21
3.494524076519288
 31
0.0
  0
ARC
  5
489
330
1F
100
AcDbEntity
  8
4
100
AcDbCircle
 10
2.42341679239269
 20
3.523228373506412
 30
0.0
 40
0.0288662475
100
AcDbArc
 50
90.0
 51
183.5763343749981
  0
LINE
  5
48A
330
1F
100
AcDbEntity
  8
4
100
AcDbLine
 10
2.435879357680884
 20
3.511506460622368
 30
0.0
 11
2.432477437788441
 21
3.508104540729925
 31
0.0
  0
LINE
  5
48B
330
1F
100
AcDbEntity
  8
4
100
AcDbLine
 10
2.430762870162651
 20
3.516622948140599
 30
0.0
 11
2.427360950270208
 21
3.513221028248155
 31
0.0
  0
ARC
  5
48C
330
1F
100
AcDbEntity
  8
4
100
AcDbCircle
 10
2.428838601205426
 20
3.513606291006412
 30
0.0
 40
0.019244165
100
AcDbArc
 50
90.0
 51
183.5763343749981
  0
ARC
  5
48D
330
1F
100
AcDbEntity
  8
4
 62
   130
100
AcDbCircle
 10
2.429878400041675
 20
3.51407690962831
 30
0.0
 40
0.00600417948
100
AcDbArc
 50
45.00000000000024
 51
225.0000000000002
  0
LINE
  5
48E
330
1F
100
AcDbEntity
  8
4
100
AcDbLine
 10
2.475107323610727
 20
3.532850456006412
 30
0.0
 11
2.521376046016029
 21
3.532850456006412
 31
0.0
  0
LINE
  5
48F
330
1F
100
AcDbEntity
  8
4
100
AcDbLine
 10
2.475107323610727
 20
3.552094621006411
 30
0.0
 11
2.526797854828767
 21
3.552094621006411
 31
0.0
  0
ARC
  5
490
330
1F
100
AcDbEntity
  8
4
 62
   130
100
AcDbCircle
 10
2.450315703271676
 20
3.493639606398312
 30
0.0
 40
0.00600417948
100
AcDbArc
 50
225.0000000000002
 51
45.00000000000024
  0
LINE
  5
491
330
1F
100
AcDbEntity
  8
4
100
AcDbLine
 10
2.447745254265726
 20
3.499640564037524
 30
0.0
 11
2.444343334373285
 21
3.496238644145081
 31
0.0
  0
CIRCLE
  5
492
330
1F
100
AcDbEntity
  8
4
100
AcDbCircle
 10
2.475107323610727
 20
3.481704276477664
 30
0.0
 40
0.00419522797
  0
LINE
  5
493
330
1F
100
AcDbEntity
  8
4
100
AcDbLine
 10
2.449459821891518
 20
3.491122156626845
 30
0.0
 11
2.452861741783961
 21
3.494524076519288
 31
0.0
  0
CIRCLE
  5
494
330
1F
100
AcDbEntity
  8
4
100
AcDbCircle
 10
2.475107323610727
 20
3.439636531787662
 30
0.0
 40
0.01262898328125
  0
ARC
  5
495
330
1F
100
AcDbEntity
  8
4
100
AcDbCircle
 10
2.521376046016029
 20
3.513606291006412
 30
0.0
 40
0.019244165
100
AcDbArc
 50
356.4236656250017
 51
90.0
  0
ARC
  5
496
330
1F
100
AcDbEntity
  8
4
100
AcDbCircle
 10
2.609215098454476
 20
3.615545038532034
 30
0.0
 40
0.0781794203125
100
AcDbArc
 50
167.5762104955835
 51
192.4237895044164
  0
CIRCLE
  5
497
330
1F
100
AcDbEntity
  8
4
100
AcDbCircle
 10
2.537049479704477
 20
3.615545038532034
 30
0.0
 40
0.00261720644
  0
LINE
  5
498
330
1F
100
AcDbEntity
  8
4
100
AcDbLine
 10
2.533585530004477
 20
3.615545038532034
 30
0.0
 11
2.540513429404477
 21
3.615545038532034
 31
0.0
  0
LINE
  5
499
330
1F
100
AcDbEntity
  8
4
100
AcDbLine
 10
2.537049479704477
 20
3.612081088832036
 30
0.0
 11
2.537049479704477
 21
3.619008988232034
 31
0.0
  0
CIRCLE
  5
49A
330
1F
100
AcDbEntity
  8
4
100
AcDbCircle
 10
2.609215098454476
 20
3.615545038532034
 30
0.0
 40
0.00261720644
  0
LINE
  5
49B
330
1F
100
AcDbEntity
  8
4
100
AcDbLine
 10
2.605751148754477
 20
3.615545038532034
 30
0.0
 11
2.612679048154478
 21
3.615545038532034
 31
0.0
  0
LINE
  5
49C
330
1F
100
AcDbEntity
  8
4
100
AcDbLine
 10
2.609215098454476
 20
3.612081088832036
 30
0.0
 11
2.609215098454476
 21
3.619008988232034
 31
0.0
  0
ARC
  5
49D
330
1F
100
AcDbEntity
  8
4
100
AcDbCircle
 10
2.537049479704477
 20
3.615545038532034
 30
0.0
 40
0.0781794203125
100
AcDbArc
 50
347.5762104955836
 51
12.42378950441644
  0
LINE
  5
49E
330
1F
100
AcDbEntity
  8
4
100
AcDbLine
 10
3.602900300173227
 20
3.647846499522038
 30
0.0
 11
3.790900300173226
 21
3.647846499522038
 31
0.0
  0
LINE
  5
49F
330
1F
100
AcDbEntity
  8
4
100
AcDbLine
 10
3.602900300173227
 20
3.173846499522038
 30
0.0
 11
3.790900300173226
 21
3.173846499522038
 31
0.0
  0
LINE
  5
4A0
330
1F
100
AcDbEntity
  8
4
100
AcDbLine
 10
3.602900300173227
 20
3.235846499522038
 30
0.0
 11
3.790900300173226
 21
3.235846499522038
 31
0.0
  0
LINE
  5
4A1
330
1F
100
AcDbEntity
  8
4
100
AcDbLine
 10
3.602900300173227
 20
3.709846499522038
 30
0.0
 11
3.790900300173226
 21
3.709846499522038
 31
0.0
  0
LINE
  5
4A2
330
1F
100
AcDbEntity
  8
4
100
AcDbLine
 10
2.816487878766976
 20
3.029067723428287
 30
0.0
 11
2.816487878766976
 21
3.109652664365786
 31
0.0
  0
LINE
  5
4A3
330
1F
100
AcDbEntity
  8
4
100
AcDbLine
 10
2.821900300173227
 20
3.109652664365786
 30
0.0
 11
2.821900300173227
 21
3.029067723428287
 31
0.0
  0
LINE
  5
4A4
330
1F
100
AcDbEntity
  8
4
100
AcDbLine
 10
2.821900300173227
 20
2.823997090147036
 30
0.0
 11
2.821900300173227
 21
2.904582031084537
 31
0.0
  0
LINE
  5
4A5
330
1F
100
AcDbEntity
  8
4
100
AcDbLine
 10
2.816487878766976
 20
2.904582031084537
 30
0.0
 11
2.816487878766976
 21
2.823997090147036
 31
0.0
  0
LINE
  5
4A6
330
1F
100
AcDbEntity
  8
4
100
AcDbLine
 10
2.821900300173227
 20
2.823997090147036
 30
0.0
 11
2.821900300173227
 21
2.745817669834536
 31
0.0
  0
LINE
  5
4A7
330
1F
100
AcDbEntity
  8
4
  6
CENTER
100
AcDbLine
 10
2.824041061676685
 20
2.864289560615786
 30
0.0
 11
2.832350316316051
 21
2.864289560615786
 31
0.0
  0
LINE
  5
4A8
330
1F
100
AcDbEntity
  8
4
  6
CENTER
100
AcDbLine
 10
2.806096615669885
 20
2.864289560615786
 30
0.0
 11
2.813875481877988
 21
2.864289560615786
 31
0.0
  0
LINE
  5
4A9
330
1F
100
AcDbEntity
  8
4
100
AcDbLine
 10
2.816487878766976
 20
2.823997090147036
 30
0.0
 11
2.821900300173227
 21
2.823997090147036
 31
0.0
  0
LINE
  5
4AA
330
1F
100
AcDbEntity
  8
4
100
AcDbLine
 10
2.817853326412286
 20
2.864289560615786
 30
0.0
 11
2.820240017102817
 21
2.864289560615786
 31
0.0
  0
LINE
  5
4AB
330
1F
100
AcDbEntity
  8
4
100
AcDbLine
 10
2.821900300173227
 20
3.029067723428287
 30
0.0
 11
2.821900300173227
 21
2.904582031084537
 31
0.0
  0
LINE
  5
4AC
330
1F
100
AcDbEntity
  8
4
100
AcDbLine
 10
2.821900300173227
 20
3.029067723428287
 30
0.0
 11
2.816487878766976
 21
3.029067723428287
 31
0.0
  0
LINE
  5
4AD
330
1F
100
AcDbEntity
  8
4
100
AcDbLine
 10
2.821900300173227
 20
2.904582031084537
 30
0.0
 11
2.816487878766976
 21
2.904582031084537
 31
0.0
  0
LINE
  5
4AE
330
1F
100
AcDbEntity
  8
4
100
AcDbLine
 10
2.977900300173227
 20
3.709846499522038
 30
0.0
 11
3.478900300173225
 21
3.709846499522038
 31
0.0
  0
LINE
  5
4AF
330
1F
100
AcDbEntity
  8
4
100
AcDbLine
 10
2.977900300173227
 20
3.647846499522038
 30
0.0
 11
3.478900300173225
 21
3.647846499522038
 31
0.0
  0
LINE
  5
4B0
330
1F
100
AcDbEntity
  8
4
100
AcDbLine
 10
2.977900300173227
 20
3.173846499522038
 30
0.0
 11
3.478900300173225
 21
3.173846499522038
 31
0.0
  0
LINE
  5
4B1
330
1F
100
AcDbEntity
  8
4
100
AcDbLine
 10
2.977900300173227
 20
3.235846499522038
 30
0.0
 11
3.478900300173225
 21
3.235846499522038
 31
0.0
  0
LINE
  5
4B2
330
1F
100
AcDbEntity
  8
4
100
AcDbLine
 10
2.821900300173227
 20
3.503067723428287
 30
0.0
 11
2.821900300173227
 21
3.378582031084537
 31
0.0
  0
LINE
  5
4B3
330
1F
100
AcDbEntity
  8
4
100
AcDbLine
 10
2.821900300173227
 20
3.297997090147037
 30
0.0
 11
2.821900300173227
 21
3.219817669834537
 31
0.0
  0
LINE
  5
4B4
330
1F
100
AcDbEntity
  8
4
  6
CENTER
100
AcDbLine
 10
2.806096615669885
 20
3.069360193897036
 30
0.0
 11
2.813875481877988
 21
3.069360193897036
 31
0.0
  0
LINE
  5
4B5
330
1F
100
AcDbEntity
  8
4
100
AcDbLine
 10
2.817853326412286
 20
3.069360193897036
 30
0.0
 11
2.820240017102817
 21
3.069360193897036
 31
0.0
  0
LINE
  5
4B6
330
1F
100
AcDbEntity
  8
4
100
AcDbLine
 10
2.816487878766976
 20
3.109652664365786
 30
0.0
 11
2.821900300173227
 21
3.109652664365786
 31
0.0
  0
LINE
  5
4B7
330
1F
100
AcDbEntity
  8
4
100
AcDbLine
 10
2.821900300173227
 20
3.109652664365786
 30
0.0
 11
2.821900300173227
 21
3.187832084678286
 31
0.0
  0
LINE
  5
4B8
330
1F
100
AcDbEntity
  8
4
  6
CENTER
100
AcDbLine
 10
2.824041061676685
 20
3.069360193897036
 30
0.0
 11
2.832350316316051
 21
3.069360193897036
 31
0.0
  0
LINE
  5
4B9
330
1F
100
AcDbEntity
  8
4
100
AcDbLine
 10
2.821900300173227
 20
3.378582031084537
 30
0.0
 11
2.816487878766976
 21
3.378582031084537
 31
0.0
  0
LINE
  5
4BA
330
1F
100
AcDbEntity
  8
4
  6
CENTER
100
AcDbLine
 10
2.806096615669885
 20
3.338289560615787
 30
0.0
 11
2.813875481877988
 21
3.338289560615787
 31
0.0
  0
LINE
  5
4BB
330
1F
100
AcDbEntity
  8
4
100
AcDbLine
 10
2.816487878766976
 20
3.297997090147037
 30
0.0
 11
2.821900300173227
 21
3.297997090147037
 31
0.0
  0
LINE
  5
4BC
330
1F
100
AcDbEntity
  8
4
100
AcDbLine
 10
2.817853326412286
 20
3.338289560615787
 30
0.0
 11
2.820240017102817
 21
3.338289560615787
 31
0.0
  0
LINE
  5
4BD
330
1F
100
AcDbEntity
  8
4
  6
CENTER
100
AcDbLine
 10
2.824041061676685
 20
3.338289560615787
 30
0.0
 11
2.832350316316051
 21
3.338289560615787
 31
0.0
  0
LINE
  5
4BE
330
1F
100
AcDbEntity
  8
4
100
AcDbLine
 10
2.821900300173227
 20
3.297997090147037
 30
0.0
 11
2.821900300173227
 21
3.378582031084537
 31
0.0
  0
LINE
  5
4BF
330
1F
100
AcDbEntity
  8
4
100
AcDbLine
 10
2.816487878766976
 20
3.378582031084537
 30
0.0
 11
2.816487878766976
 21
3.297997090147037
 31
0.0
  0
LINE
  5
4C0
330
1F
100
AcDbEntity
  8
4
100
AcDbLine
 10
2.816487878766976
 20
3.503067723428287
 30
0.0
 11
2.816487878766976
 21
3.583652664365787
 31
0.0
  0
LINE
  5
4C1
330
1F
100
AcDbEntity
  8
4
100
AcDbLine
 10
2.821900300173227
 20
3.583652664365787
 30
0.0
 11
2.821900300173227
 21
3.503067723428287
 31
0.0
  0
LINE
  5
4C2
330
1F
100
AcDbEntity
  8
4
  6
CENTER
100
AcDbLine
 10
2.806096615669885
 20
3.543360193897036
 30
0.0
 11
2.813875481877988
 21
3.543360193897036
 31
0.0
  0
LINE
  5
4C3
330
1F
100
AcDbEntity
  8
4
100
AcDbLine
 10
2.817853326412286
 20
3.543360193897036
 30
0.0
 11
2.820240017102817
 21
3.543360193897036
 31
0.0
  0
LINE
  5
4C4
330
1F
100
AcDbEntity
  8
4
100
AcDbLine
 10
2.821900300173227
 20
3.503067723428287
 30
0.0
 11
2.816487878766976
 21
3.503067723428287
 31
0.0
  0
LINE
  5
4C5
330
1F
100
AcDbEntity
  8
4
  6
CENTER
100
AcDbLine
 10
2.824041061676685
 20
3.543360193897036
 30
0.0
 11
2.832350316316051
 21
3.543360193897036
 31
0.0
  0
LINE
  5
4C6
330
1F
100
AcDbEntity
  8
4
100
AcDbLine
 10
2.821900300173227
 20
3.583652664365787
 30
0.0
 11
2.821900300173227
 21
3.661832084678287
 31
0.0
  0
LINE
  5
4C7
330
1F
100
AcDbEntity
  8
4
100
AcDbLine
 10
2.816487878766976
 20
3.583652664365787
 30
0.0
 11
2.821900300173227
 21
3.583652664365787
 31
0.0
  0
LINE
  5
4C8
330
1F
100
AcDbEntity
  8
4
100
AcDbLine
 10
3.915900300173226
 20
3.173846499522038
 30
0.0
 11
4.103900300173225
 21
3.173846499522038
 31
0.0
  0
LINE
  5
4C9
330
1F
100
AcDbEntity
  8
4
100
AcDbLine
 10
3.915900300173226
 20
3.235846499522038
 30
0.0
 11
4.103900300173225
 21
3.235846499522038
 31
0.0
  0
LINE
  5
4CA
330
1F
100
AcDbEntity
  8
4
100
AcDbLine
 10
3.915900300173226
 20
3.647846499522038
 30
0.0
 11
4.103900300173225
 21
3.647846499522038
 31
0.0
  0
LINE
  5
4CB
330
1F
100
AcDbEntity
  8
4
100
AcDbLine
 10
3.915900300173226
 20
3.709846499522038
 30
0.0
 11
4.103900300173225
 21
3.709846499522038
 31
0.0
  0
LINE
  5
4CC
330
1F
100
AcDbEntity
  8
4
100
AcDbLine
 10
2.821900300173227
 20
4.641817669834536
 30
0.0
 11
2.384900300173227
 21
4.641832084678286
 31
0.0
  0
LINE
  5
4CD
330
1F
100
AcDbEntity
  8
4
100
AcDbLine
 10
2.821900300173227
 20
5.083832084678286
 30
0.0
 11
2.384900300173227
 21
5.083846499522036
 31
0.0
  0
LINE
  5
4CE
330
1F
100
AcDbEntity
  8
4
100
AcDbLine
 10
2.821900300173227
 20
4.167817669834536
 30
0.0
 11
2.384900300173227
 21
4.167832084678286
 31
0.0
  0
LINE
  5
4CF
330
1F
100
AcDbEntity
  8
4
100
AcDbLine
 10
2.821900300173227
 20
4.609832084678286
 30
0.0
 11
2.384900300173227
 21
4.609846499522036
 31
0.0
  0
LINE
  5
4D0
330
1F
100
AcDbEntity
  8
4
100
AcDbLine
 10
2.821900300173227
 20
4.135832084678287
 30
0.0
 11
2.384900300173227
 21
4.135846499522036
 31
0.0
  0
LINE
  5
4D1
330
1F
100
AcDbEntity
  8
4
100
AcDbLine
 10
2.821900300173227
 20
5.115817669834537
 30
0.0
 11
2.384900300173227
 21
5.115832084678286
 31
0.0
  0
LINE
  5
4D2
330
1F
100
AcDbEntity
  8
4
100
AcDbLine
 10
2.821900300173227
 20
5.557832084678286
 30
0.0
 11
2.384900300173227
 21
5.557846499522036
 31
0.0
  0
LINE
  5
4D3
330
1F
100
AcDbEntity
  8
4
100
AcDbLine
 10
2.384900300173227
 20
5.115832084678286
 30
0.0
 11
2.384900300173227
 21
5.557846499522036
 31
0.0
  0
LINE
  5
4D4
330
1F
100
AcDbEntity
  8
4
100
AcDbLine
 10
2.555607887577266
 20
4.469427746459631
 30
0.0
 11
2.545624009878411
 21
4.309685703277981
 31
0.0
  0
LINE
  5
4D5
330
1F
100
AcDbEntity
  8
4
 62
   130
100
AcDbLine
 10
2.434123996067444
 20
4.466322505654077
 30
0.0
 11
2.454561299297444
 21
4.445885202424079
 31
0.0
  0
LINE
  5
4D6
330
1F
100
AcDbEntity
  8
4
 62
   130
100
AcDbLine
 10
2.425632804015907
 20
4.457831313602542
 30
0.0
 11
2.446070107245906
 21
4.43739401037254
 31
0.0
  0
LINE
  5
4D7
330
1F
100
AcDbEntity
  8
4
100
AcDbLine
 10
2.427360950270208
 20
4.461221028248155
 30
0.0
 11
2.449459821891518
 21
4.439122156626845
 31
0.0
  0
LINE
  5
4D8
330
1F
100
AcDbEntity
  8
4
100
AcDbLine
 10
2.430762870162651
 20
4.464622948140599
 30
0.0
 11
2.452861741783961
 21
4.442524076519288
 31
0.0
  0
LINE
  5
4D9
330
1F
100
AcDbEntity
  8
4
100
AcDbLine
 10
2.435879357680884
 20
4.459506460622367
 30
0.0
 11
2.432477437788441
 21
4.456104540729924
 31
0.0
  0
LINE
  5
4DA
330
1F
100
AcDbEntity
  8
4
100
AcDbLine
 10
2.384900300173227
 20
4.167832084678286
 30
0.0
 11
2.384900300173227
 21
4.609846499522036
 31
0.0
  0
LINE
  5
4DB
330
1F
100
AcDbEntity
  8
4
100
AcDbLine
 10
2.409631912706426
 20
4.460405872975226
 30
0.0
 11
2.417761299458596
 21
4.330335684940519
 31
0.0
  0
LINE
  5
4DC
330
1F
100
AcDbEntity
  8
4
100
AcDbLine
 10
2.394606759644189
 20
4.469427746459631
 30
0.0
 11
2.404590637343043
 21
4.309685703277981
 31
0.0
  0
LINE
  5
4DD
330
1F
100
AcDbEntity
  8
4
100
AcDbLine
 10
2.540582734515029
 20
4.460405872975226
 30
0.0
 11
2.532453347762859
 21
4.330353805905224
 31
0.0
  0
ARC
  5
4DE
330
1F
100
AcDbEntity
  8
4
100
AcDbCircle
 10
2.537049479704477
 20
4.089545038532034
 30
0.0
 40
0.0781794203125
100
AcDbArc
 50
347.5762104955836
 51
12.42378950441644
  0
ARC
  5
4DF
330
1F
100
AcDbEntity
  8
4
100
AcDbCircle
 10
2.609215098454476
 20
4.089545038532034
 30
0.0
 40
0.0781794203125
100
AcDbArc
 50
167.5762104955835
 51
192.4237895044164
  0
ARC
  5
4E0
330
1F
100
AcDbEntity
  8
4
100
AcDbCircle
 10
2.573132289079476
 20
4.339117803375784
 30
0.0
 40
0.26941831
100
AcDbArc
 50
261.4046615383198
 51
278.5953384616802
  0
ARC
  5
4E1
330
1F
100
AcDbEntity
  8
4
100
AcDbCircle
 10
2.526797854828767
 20
3.997228373506412
 30
0.0
 40
0.0288662475
100
AcDbArc
 50
356.4236656250017
 51
90.0
  0
LINE
  5
4E2
330
1F
100
AcDbEntity
  8
4
100
AcDbLine
 10
2.555607887577266
 20
3.995427746459632
 30
0.0
 11
2.545624009878411
 21
3.835685703277982
 31
0.0
  0
LINE
  5
4E3
330
1F
100
AcDbEntity
  8
4
100
AcDbLine
 10
2.409631912706426
 20
3.986405872975226
 30
0.0
 11
2.417761299458596
 21
3.856335684940519
 31
0.0
  0
LINE
  5
4E4
330
1F
100
AcDbEntity
  8
4
100
AcDbLine
 10
2.394606759644189
 20
3.995427746459632
 30
0.0
 11
2.404590637343043
 21
3.835685703277982
 31
0.0
  0
LINE
  5
4E5
330
1F
100
AcDbEntity
  8
4
100
AcDbLine
 10
2.540582734515029
 20
3.986405872975226
 30
0.0
 11
2.532453347762859
 21
3.856353805905225
 31
0.0
  0
LINE
  5
4E6
330
1F
100
AcDbEntity
  8
4
100
AcDbLine
 10
2.475107323610727
 20
3.838310058936411
 30
0.0
 11
2.436967987957596
 21
3.838310058936415
 31
0.0
  0
LINE
  5
4E7
330
1F
100
AcDbEntity
  8
4
100
AcDbLine
 10
2.475107323610727
 20
3.812003285381412
 30
0.0
 11
2.429799415997979
 21
3.812003285381412
 31
0.0
  0
ARC
  5
4E8
330
1F
100
AcDbEntity
  8
4
100
AcDbCircle
 10
2.436967987957596
 20
3.857554223936415
 30
0.0
 40
0.019244165
100
AcDbArc
 50
183.5763343749981
 51
270.0
  0
ARC
  5
4E9
330
1F
100
AcDbEntity
  8
4
100
AcDbCircle
 10
2.429799415997979
 20
3.837261251943911
 30
0.0
 40
0.0252579665625
100
AcDbArc
 50
183.5763343749981
 51
270.0
  0
CIRCLE
  5
4EA
330
1F
100
AcDbEntity
  8
4
100
AcDbCircle
 10
2.475107323610727
 20
3.913636531787662
 30
0.0
 40
0.01262898328125
  0
ARC
  5
4EB
330
1F
100
AcDbEntity
  8
4
100
AcDbCircle
 10
2.513246659263859
 20
3.857554223936415
 30
0.0
 40
0.019244165
100
AcDbArc
 50
270.0
 51
356.4236656250017
  0
LINE
  5
4EC
330
1F
100
AcDbEntity
  8
4
100
AcDbLine
 10
2.475107323610727
 20
3.812003285381412
 30
0.0
 11
2.520415231223474
 21
3.812003285381412
 31
0.0
  0
LINE
  5
4ED
330
1F
100
AcDbEntity
  8
4
100
AcDbLine
 10
2.475107323610727
 20
3.838310058936411
 30
0.0
 11
2.513246659263859
 21
3.838310058936415
 31
0.0
  0
CIRCLE
  5
4EE
330
1F
100
AcDbEntity
  8
4
100
AcDbCircle
 10
2.475107323610727
 20
3.822828128193916
 30
0.0
 40
0.006924050567
  0
CIRCLE
  5
4EF
330
1F
100
AcDbEntity
  8
4
100
AcDbCircle
 10
2.475107323610727
 20
3.871568787097663
 30
0.0
 40
0.00419522797
  0
ARC
  5
4F0
330
1F
100
AcDbEntity
  8
4
100
AcDbCircle
 10
2.520415231223474
 20
3.837261251943911
 30
0.0
 40
0.0252579665625
100
AcDbArc
 50
270.0
 51
356.4236656250017
  0
LINE
  5
4F1
330
1F
100
AcDbEntity
  8
4
 62
   130
100
AcDbLine
 10
2.434123996067444
 20
3.992322505654078
 30
0.0
 11
2.454561299297444
 21
3.97188520242408
 31
0.0
  0
LINE
  5
4F2
330
1F
100
AcDbEntity
  8
4
100
AcDbLine
 10
2.475107323610727
 20
4.026094621006412
 30
0.0
 11
2.42341679239269
 21
4.026094621006412
 31
0.0
  0
LINE
  5
4F3
330
1F
100
AcDbEntity
  8
4
100
AcDbLine
 10
2.475107323610727
 20
4.006850456006412
 30
0.0
 11
2.428838601205426
 21
4.006850456006412
 31
0.0
  0
LINE
  5
4F4
330
1F
100
AcDbEntity
  8
4
 62
   130
100
AcDbLine
 10
2.425632804015907
 20
3.983831313602543
 30
0.0
 11
2.446070107245906
 21
3.963394010372541
 31
0.0
  0
LINE
  5
4F5
330
1F
100
AcDbEntity
  8
4
100
AcDbLine
 10
2.427360950270208
 20
3.987221028248155
 30
0.0
 11
2.449459821891518
 21
3.965122156626845
 31
0.0
  0
LINE
  5
4F6
330
1F
100
AcDbEntity
  8
4
100
AcDbLine
 10
2.430762870162651
 20
3.990622948140599
 30
0.0
 11
2.452861741783961
 21
3.968524076519289
 31
0.0
  0
LINE
  5
4F7
330
1F
100
AcDbEntity
  8
4
100
AcDbLine
 10
2.435879357680884
 20
3.985506460622368
 30
0.0
 11
2.432477437788441
 21
3.982104540729925
 31
0.0
  0
LINE
  5
4F8
330
1F
100
AcDbEntity
  8
4
100
AcDbLine
 10
2.430762870162651
 20
3.990622948140599
 30
0.0
 11
2.427360950270208
 21
3.987221028248155
 31
0.0
  0
ARC
  5
4F9
330
1F
100
AcDbEntity
  8
4
100
AcDbCircle
 10
2.428838601205426
 20
3.987606291006412
 30
0.0
 40
0.019244165
100
AcDbArc
 50
90.0
 51
183.5763343749981
  0
ARC
  5
4FA
330
1F
100
AcDbEntity
  8
4
 62
   130
100
AcDbCircle
 10
2.429878400041675
 20
3.98807690962831
 30
0.0
 40
0.00600417948
100
AcDbArc
 50
45.00000000000024
 51
225.0000000000002
  0
ARC
  5
4FB
330
1F
100
AcDbEntity
  8
4
100
AcDbCircle
 10
2.42341679239269
 20
3.997228373506412
 30
0.0
 40
0.0288662475
100
AcDbArc
 50
90.0
 51
183.5763343749981
  0
LINE
  5
4FC
330
1F
100
AcDbEntity
  8
4
100
AcDbLine
 10
2.537049479704477
 20
4.086081088832036
 30
0.0
 11
2.537049479704477
 21
4.093008988232035
 31
0.0
  0
ARC
  5
4FD
330
1F
100
AcDbEntity
  8
4
 62
   130
100
AcDbCircle
 10
2.450315703271676
 20
3.967639606398313
 30
0.0
 40
0.00600417948
100
AcDbArc
 50
225.0000000000002
 51
45.00000000000024
  0
LINE
  5
4FE
330
1F
100
AcDbEntity
  8
4
100
AcDbLine
 10
2.447745254265726
 20
3.973640564037524
 30
0.0
 11
2.444343334373285
 21
3.970238644145081
 31
0.0
  0
LINE
  5
4FF
330
1F
100
AcDbEntity
  8
4
100
AcDbLine
 10
2.475107323610727
 20
4.006850456006412
 30
0.0
 11
2.521376046016029
 21
4.006850456006412
 31
0.0
  0
LINE
  5
500
330
1F
100
AcDbEntity
  8
4
100
AcDbLine
 10
2.475107323610727
 20
4.026094621006412
 30
0.0
 11
2.526797854828767
 21
4.026094621006412
 31
0.0
  0
CIRCLE
  5
501
330
1F
100
AcDbEntity
  8
4
100
AcDbCircle
 10
2.475107323610727
 20
3.955704276477664
 30
0.0
 40
0.00419522797
  0
LINE
  5
502
330
1F
100
AcDbEntity
  8
4
100
AcDbLine
 10
2.449459821891518
 20
3.965122156626845
 30
0.0
 11
2.452861741783961
 21
3.968524076519289
 31
0.0
  0
CIRCLE
  5
503
330
1F
100
AcDbEntity
  8
4
100
AcDbCircle
 10
2.537049479704477
 20
4.089545038532034
 30
0.0
 40
0.00261720644
  0
ARC
  5
504
330
1F
100
AcDbEntity
  8
4
100
AcDbCircle
 10
2.521376046016029
 20
3.987606291006412
 30
0.0
 40
0.019244165
100
AcDbArc
 50
356.4236656250017
 51
90.0
  0
LINE
  5
505
330
1F
100
AcDbEntity
  8
4
100
AcDbLine
 10
2.533585530004477
 20
4.089545038532034
 30
0.0
 11
2.540513429404477
 21
4.089545038532034
 31
0.0
  0
CIRCLE
  5
506
330
1F
100
AcDbEntity
  8
4
100
AcDbCircle
 10
2.609215098454476
 20
4.089545038532034
 30
0.0
 40
0.00261720644
  0
LINE
  5
507
330
1F
100
AcDbEntity
  8
4
100
AcDbLine
 10
2.605751148754477
 20
4.089545038532034
 30
0.0
 11
2.612679048154478
 21
4.089545038532034
 31
0.0
  0
LINE
  5
508
330
1F
100
AcDbEntity
  8
4
100
AcDbLine
 10
2.609215098454476
 20
4.086081088832036
 30
0.0
 11
2.609215098454476
 21
4.093008988232035
 31
0.0
  0
ARC
  5
509
330
1F
100
AcDbEntity
  8
4
100
AcDbCircle
 10
2.573132289079476
 20
3.839972273688283
 30
0.0
 40
0.26941831
100
AcDbArc
 50
81.40466153831981
 51
98.59533846168009
  0
ARC
  5
50A
330
1F
100
AcDbEntity
  8
4
100
AcDbCircle
 10
2.429799415997979
 20
4.311261251943911
 30
0.0
 40
0.0252579665625
100
AcDbArc
 50
183.5763343749981
 51
270.0
  0
ARC
  5
50B
330
1F
100
AcDbEntity
  8
4
100
AcDbCircle
 10
2.520415231223474
 20
4.311261251943911
 30
0.0
 40
0.0252579665625
100
AcDbArc
 50
270.0
 51
356.4236656250017
  0
LINE
  5
50C
330
1F
100
AcDbEntity
  8
4
100
AcDbLine
 10
2.475107323610727
 20
4.31231005893641
 30
0.0
 11
2.436967987957596
 21
4.312310058936414
 31
0.0
  0
LINE
  5
50D
330
1F
100
AcDbEntity
  8
4
100
AcDbLine
 10
2.475107323610727
 20
4.286003285381411
 30
0.0
 11
2.429799415997979
 21
4.286003285381411
 31
0.0
  0
ARC
  5
50E
330
1F
100
AcDbEntity
  8
4
100
AcDbCircle
 10
2.436967987957596
 20
4.331554223936414
 30
0.0
 40
0.019244165
100
AcDbArc
 50
183.5763343749981
 51
270.0
  0
ARC
  5
50F
330
1F
100
AcDbEntity
  8
4
 62
   130
100
AcDbCircle
 10
2.450315703271676
 20
4.441639606398312
 30
0.0
 40
0.00600417948
100
AcDbArc
 50
225.0000000000002
 51
45.00000000000024
  0
LINE
  5
510
330
1F
100
AcDbEntity
  8
4
100
AcDbLine
 10
2.447745254265726
 20
4.447640564037524
 30
0.0
 11
2.444343334373285
 21
4.44423864414508
 31
0.0
  0
CIRCLE
  5
511
330
1F
100
AcDbEntity
  8
4
100
AcDbCircle
 10
2.475107323610727
 20
4.429704276477663
 30
0.0
 40
0.00419522797
  0
LINE
  5
512
330
1F
100
AcDbEntity
  8
4
100
AcDbLine
 10
2.449459821891518
 20
4.439122156626845
 30
0.0
 11
2.452861741783961
 21
4.442524076519288
 31
0.0
  0
ARC
  5
513
330
1F
100
AcDbEntity
  8
4
100
AcDbCircle
 10
2.513246659263859
 20
4.331554223936414
 30
0.0
 40
0.019244165
100
AcDbArc
 50
270.0
 51
356.4236656250017
  0
LINE
  5
514
330
1F
100
AcDbEntity
  8
4
100
AcDbLine
 10
2.475107323610727
 20
4.286003285381411
 30
0.0
 11
2.520415231223474
 21
4.286003285381411
 31
0.0
  0
LINE
  5
515
330
1F
100
AcDbEntity
  8
4
100
AcDbLine
 10
2.475107323610727
 20
4.31231005893641
 30
0.0
 11
2.513246659263859
 21
4.312310058936414
 31
0.0
  0
CIRCLE
  5
516
330
1F
100
AcDbEntity
  8
4
100
AcDbCircle
 10
2.475107323610727
 20
4.296828128193915
 30
0.0
 40
0.006924050567
  0
CIRCLE
  5
517
330
1F
100
AcDbEntity
  8
4
100
AcDbCircle
 10
2.475107323610727
 20
4.345568787097662
 30
0.0
 40
0.00419522797
  0
CIRCLE
  5
518
330
1F
100
AcDbEntity
  8
4
100
AcDbCircle
 10
2.475107323610727
 20
4.387636531787661
 30
0.0
 40
0.01262898328125
  0
LINE
  5
519
330
1F
100
AcDbEntity
  8
4
100
AcDbLine
 10
2.409631912706426
 20
4.934405872975226
 30
0.0
 11
2.417761299458596
 21
4.804335684940519
 31
0.0
  0
LINE
  5
51A
330
1F
100
AcDbEntity
  8
4
100
AcDbLine
 10
2.394606759644189
 20
4.943427746459631
 30
0.0
 11
2.404590637343043
 21
4.783685703277981
 31
0.0
  0
LINE
  5
51B
330
1F
100
AcDbEntity
  8
4
100
AcDbLine
 10
2.384900300173227
 20
4.641832084678286
 30
0.0
 11
2.384900300173227
 21
5.083846499522036
 31
0.0
  0
LINE
  5
51C
330
1F
100
AcDbEntity
  8
4
100
AcDbLine
 10
2.540582734515029
 20
4.934405872975226
 30
0.0
 11
2.532453347762859
 21
4.804353805905225
 31
0.0
  0
LINE
  5
51D
330
1F
100
AcDbEntity
  8
4
100
AcDbLine
 10
2.555607887577266
 20
4.943427746459631
 30
0.0
 11
2.545624009878411
 21
4.783685703277981
 31
0.0
  0
ARC
  5
51E
330
1F
100
AcDbEntity
  8
4
100
AcDbCircle
 10
2.573132289079476
 20
4.313972273688283
 30
0.0
 40
0.26941831
100
AcDbArc
 50
81.40466153831981
 51
98.59533846168009
  0
ARC
  5
51F
330
1F
100
AcDbEntity
  8
4
100
AcDbCircle
 10
2.573132289079476
 20
4.813117803375783
 30
0.0
 40
0.26941831
100
AcDbArc
 50
261.4046615383198
 51
278.5953384616802
  0
ARC
  5
520
330
1F
100
AcDbEntity
  8
4
100
AcDbCircle
 10
2.526797854828767
 20
4.471228373506411
 30
0.0
 40
0.0288662475
100
AcDbArc
 50
356.4236656250017
 51
90.0
  0
LINE
  5
521
330
1F
100
AcDbEntity
  8
4
100
AcDbLine
 10
2.475107323610727
 20
4.500094621006411
 30
0.0
 11
2.42341679239269
 21
4.500094621006411
 31
0.0
  0
LINE
  5
522
330
1F
100
AcDbEntity
  8
4
100
AcDbLine
 10
2.475107323610727
 20
4.480850456006411
 30
0.0
 11
2.428838601205426
 21
4.480850456006411
 31
0.0
  0
LINE
  5
523
330
1F
100
AcDbEntity
  8
4
100
AcDbLine
 10
2.430762870162651
 20
4.464622948140599
 30
0.0
 11
2.427360950270208
 21
4.461221028248155
 31
0.0
  0
ARC
  5
524
330
1F
100
AcDbEntity
  8
4
100
AcDbCircle
 10
2.428838601205426
 20
4.461606291006411
 30
0.0
 40
0.019244165
100
AcDbArc
 50
90.0
 51
183.5763343749981
  0
ARC
  5
525
330
1F
100
AcDbEntity
  8
4
 62
   130
100
AcDbCircle
 10
2.429878400041675
 20
4.46207690962831
 30
0.0
 40
0.00600417948
100
AcDbArc
 50
45.00000000000024
 51
225.0000000000002
  0
ARC
  5
526
330
1F
100
AcDbEntity
  8
4
100
AcDbCircle
 10
2.42341679239269
 20
4.471228373506411
 30
0.0
 40
0.0288662475
100
AcDbArc
 50
90.0
 51
183.5763343749981
  0
LINE
  5
527
330
1F
100
AcDbEntity
  8
4
100
AcDbLine
 10
2.475107323610727
 20
4.480850456006411
 30
0.0
 11
2.521376046016029
 21
4.480850456006411
 31
0.0
  0
LINE
  5
528
330
1F
100
AcDbEntity
  8
4
100
AcDbLine
 10
2.475107323610727
 20
4.500094621006411
 30
0.0
 11
2.526797854828767
 21
4.500094621006411
 31
0.0
  0
ARC
  5
529
330
1F
100
AcDbEntity
  8
4
100
AcDbCircle
 10
2.609215098454476
 20
4.563545038532033
 30
0.0
 40
0.0781794203125
100
AcDbArc
 50
167.5762104955835
 51
192.4237895044164
  0
CIRCLE
  5
52A
330
1F
100
AcDbEntity
  8
4
100
AcDbCircle
 10
2.537049479704477
 20
4.563545038532033
 30
0.0
 40
0.00261720644
  0
ARC
  5
52B
330
1F
100
AcDbEntity
  8
4
100
AcDbCircle
 10
2.521376046016029
 20
4.461606291006411
 30
0.0
 40
0.019244165
100
AcDbArc
 50
356.4236656250017
 51
90.0
  0
LINE
  5
52C
330
1F
100
AcDbEntity
  8
4
100
AcDbLine
 10
2.533585530004477
 20
4.563545038532033
 30
0.0
 11
2.540513429404477
 21
4.563545038532033
 31
0.0
  0
LINE
  5
52D
330
1F
100
AcDbEntity
  8
4
100
AcDbLine
 10
2.537049479704477
 20
4.560081088832036
 30
0.0
 11
2.537049479704477
 21
4.567008988232034
 31
0.0
  0
LINE
  5
52E
330
1F
100
AcDbEntity
  8
4
100
AcDbLine
 10
2.475107323610727
 20
4.78631005893641
 30
0.0
 11
2.436967987957596
 21
4.786310058936415
 31
0.0
  0
LINE
  5
52F
330
1F
100
AcDbEntity
  8
4
100
AcDbLine
 10
2.475107323610727
 20
4.760003285381412
 30
0.0
 11
2.429799415997979
 21
4.760003285381412
 31
0.0
  0
ARC
  5
530
330
1F
100
AcDbEntity
  8
4
100
AcDbCircle
 10
2.436967987957596
 20
4.805554223936415
 30
0.0
 40
0.019244165
100
AcDbArc
 50
183.5763343749981
 51
270.0
  0
ARC
  5
531
330
1F
100
AcDbEntity
  8
4
100
AcDbCircle
 10
2.429799415997979
 20
4.785261251943911
 30
0.0
 40
0.0252579665625
100
AcDbArc
 50
183.5763343749981
 51
270.0
  0
ARC
  5
532
330
1F
100
AcDbEntity
  8
4
100
AcDbCircle
 10
2.513246659263859
 20
4.805554223936415
 30
0.0
 40
0.019244165
100
AcDbArc
 50
270.0
 51
356.4236656250017
  0
LINE
  5
533
330
1F
100
AcDbEntity
  8
4
100
AcDbLine
 10
2.475107323610727
 20
4.760003285381412
 30
0.0
 11
2.520415231223474
 21
4.760003285381412
 31
0.0
  0
LINE
  5
534
330
1F
100
AcDbEntity
  8
4
100
AcDbLine
 10
2.475107323610727
 20
4.78631005893641
 30
0.0
 11
2.513246659263859
 21
4.786310058936415
 31
0.0
  0
CIRCLE
  5
535
330
1F
100
AcDbEntity
  8
4
100
AcDbCircle
 10
2.475107323610727
 20
4.770828128193915
 30
0.0
 40
0.006924050567
  0
ARC
  5
536
330
1F
100
AcDbEntity
  8
4
100
AcDbCircle
 10
2.520415231223474
 20
4.785261251943911
 30
0.0
 40
0.0252579665625
100
AcDbArc
 50
270.0
 51
356.4236656250017
  0
CIRCLE
  5
537
330
1F
100
AcDbEntity
  8
4
100
AcDbCircle
 10
2.609215098454476
 20
4.563545038532033
 30
0.0
 40
0.00261720644
  0
LINE
  5
538
330
1F
100
AcDbEntity
  8
4
100
AcDbLine
 10
2.605751148754477
 20
4.563545038532033
 30
0.0
 11
2.612679048154478
 21
4.563545038532033
 31
0.0
  0
LINE
  5
539
330
1F
100
AcDbEntity
  8
4
100
AcDbLine
 10
2.609215098454476
 20
4.560081088832036
 30
0.0
 11
2.609215098454476
 21
4.567008988232034
 31
0.0
  0
ARC
  5
53A
330
1F
100
AcDbEntity
  8
4
100
AcDbCircle
 10
2.537049479704477
 20
4.563545038532033
 30
0.0
 40
0.0781794203125
100
AcDbArc
 50
347.5762104955836
 51
12.42378950441644
  0
ARC
  5
53B
330
1F
100
AcDbEntity
  8
4
100
AcDbCircle
 10
2.573132289079476
 20
4.787972273688283
 30
0.0
 40
0.26941831
100
AcDbArc
 50
81.40466153831981
 51
98.59533846168009
  0
ARC
  5
53C
330
1F
100
AcDbEntity
  8
4
100
AcDbCircle
 10
2.573132289079476
 20
5.287117803375783
 30
0.0
 40
0.26941831
100
AcDbArc
 50
261.4046615383198
 51
278.5953384616802
  0
ARC
  5
53D
330
1F
100
AcDbEntity
  8
4
100
AcDbCircle
 10
2.526797854828767
 20
4.945228373506411
 30
0.0
 40
0.0288662475
100
AcDbArc
 50
356.4236656250017
 51
90.0
  0
LINE
  5
53E
330
1F
100
AcDbEntity
  8
4
100
AcDbLine
 10
2.475107323610727
 20
4.974094621006411
 30
0.0
 11
2.42341679239269
 21
4.974094621006411
 31
0.0
  0
LINE
  5
53F
330
1F
100
AcDbEntity
  8
4
100
AcDbLine
 10
2.475107323610727
 20
4.954850456006411
 30
0.0
 11
2.428838601205426
 21
4.954850456006411
 31
0.0
  0
LINE
  5
540
330
1F
100
AcDbEntity
  8
4
 62
   130
100
AcDbLine
 10
2.434123996067444
 20
4.940322505654077
 30
0.0
 11
2.454561299297444
 21
4.91988520242408
 31
0.0
  0
LINE
  5
541
330
1F
100
AcDbEntity
  8
4
 62
   130
100
AcDbLine
 10
2.425632804015907
 20
4.931831313602542
 30
0.0
 11
2.446070107245906
 21
4.91139401037254
 31
0.0
  0
LINE
  5
542
330
1F
100
AcDbEntity
  8
4
100
AcDbLine
 10
2.427360950270208
 20
4.935221028248155
 30
0.0
 11
2.449459821891518
 21
4.913122156626845
 31
0.0
  0
LINE
  5
543
330
1F
100
AcDbEntity
  8
4
100
AcDbLine
 10
2.430762870162651
 20
4.938622948140599
 30
0.0
 11
2.452861741783961
 21
4.916524076519288
 31
0.0
  0
LINE
  5
544
330
1F
100
AcDbEntity
  8
4
100
AcDbLine
 10
2.435879357680884
 20
4.933506460622368
 30
0.0
 11
2.432477437788441
 21
4.930104540729924
 31
0.0
  0
LINE
  5
545
330
1F
100
AcDbEntity
  8
4
100
AcDbLine
 10
2.430762870162651
 20
4.938622948140599
 30
0.0
 11
2.427360950270208
 21
4.935221028248155
 31
0.0
  0
ARC
  5
546
330
1F
100
AcDbEntity
  8
4
100
AcDbCircle
 10
2.428838601205426
 20
4.935606291006411
 30
0.0
 40
0.019244165
100
AcDbArc
 50
90.0
 51
183.5763343749981
  0
ARC
  5
547
330
1F
100
AcDbEntity
  8
4
 62
   130
100
AcDbCircle
 10
2.429878400041675
 20
4.93607690962831
 30
0.0
 40
0.00600417948
100
AcDbArc
 50
45.00000000000024
 51
225.0000000000002
  0
ARC
  5
548
330
1F
100
AcDbEntity
  8
4
100
AcDbCircle
 10
2.42341679239269
 20
4.945228373506411
 30
0.0
 40
0.0288662475
100
AcDbArc
 50
90.0
 51
183.5763343749981
  0
LINE
  5
549
330
1F
100
AcDbEntity
  8
4
100
AcDbLine
 10
2.475107323610727
 20
4.954850456006411
 30
0.0
 11
2.521376046016029
 21
4.954850456006411
 31
0.0
  0
LINE
  5
54A
330
1F
100
AcDbEntity
  8
4
100
AcDbLine
 10
2.475107323610727
 20
4.974094621006411
 30
0.0
 11
2.526797854828767
 21
4.974094621006411
 31
0.0
  0
ARC
  5
54B
330
1F
100
AcDbEntity
  8
4
 62
   130
100
AcDbCircle
 10
2.450315703271676
 20
4.915639606398312
 30
0.0
 40
0.00600417948
100
AcDbArc
 50
225.0000000000002
 51
45.00000000000024
  0
LINE
  5
54C
330
1F
100
AcDbEntity
  8
4
100
AcDbLine
 10
2.447745254265726
 20
4.921640564037524
 30
0.0
 11
2.444343334373285
 21
4.91823864414508
 31
0.0
  0
CIRCLE
  5
54D
330
1F
100
AcDbEntity
  8
4
100
AcDbCircle
 10
2.475107323610727
 20
4.903704276477664
 30
0.0
 40
0.00419522797
  0
LINE
  5
54E
330
1F
100
AcDbEntity
  8
4
100
AcDbLine
 10
2.449459821891518
 20
4.913122156626845
 30
0.0
 11
2.452861741783961
 21
4.916524076519288
 31
0.0
  0
CIRCLE
  5
54F
330
1F
100
AcDbEntity
  8
4
100
AcDbCircle
 10
2.475107323610727
 20
4.819568787097662
 30
0.0
 40
0.00419522797
  0
CIRCLE
  5
550
330
1F
100
AcDbEntity
  8
4
100
AcDbCircle
 10
2.475107323610727
 20
4.861636531787661
 30
0.0
 40
0.01262898328125
  0
ARC
  5
551
330
1F
100
AcDbEntity
  8
4
100
AcDbCircle
 10
2.521376046016029
 20
4.935606291006411
 30
0.0
 40
0.019244165
100
AcDbArc
 50
356.4236656250017
 51
90.0
  0
ARC
  5
552
330
1F
100
AcDbEntity
  8
4
100
AcDbCircle
 10
2.609215098454476
 20
5.037545038532034
 30
0.0
 40
0.0781794203125
100
AcDbArc
 50
167.5762104955835
 51
192.4237895044164
  0
CIRCLE
  5
553
330
1F
100
AcDbEntity
  8
4
100
AcDbCircle
 10
2.537049479704477
 20
5.037545038532034
 30
0.0
 40
0.00261720644
  0
LINE
  5
554
330
1F
100
AcDbEntity
  8
4
100
AcDbLine
 10
2.533585530004477
 20
5.037545038532034
 30
0.0
 11
2.540513429404477
 21
5.037545038532034
 31
0.0
  0
LINE
  5
555
330
1F
100
AcDbEntity
  8
4
100
AcDbLine
 10
2.537049479704477
 20
5.034081088832036
 30
0.0
 11
2.537049479704477
 21
5.041008988232034
 31
0.0
  0
CIRCLE
  5
556
330
1F
100
AcDbEntity
  8
4
100
AcDbCircle
 10
2.609215098454476
 20
5.037545038532034
 30
0.0
 40
0.00261720644
  0
LINE
  5
557
330
1F
100
AcDbEntity
  8
4
100
AcDbLine
 10
2.605751148754477
 20
5.037545038532034
 30
0.0
 11
2.612679048154478
 21
5.037545038532034
 31
0.0
  0
LINE
  5
558
330
1F
100
AcDbEntity
  8
4
100
AcDbLine
 10
2.609215098454476
 20
5.034081088832036
 30
0.0
 11
2.609215098454476
 21
5.041008988232034
 31
0.0
  0
ARC
  5
559
330
1F
100
AcDbEntity
  8
4
100
AcDbCircle
 10
2.537049479704477
 20
5.037545038532034
 30
0.0
 40
0.0781794203125
100
AcDbArc
 50
347.5762104955836
 51
12.42378950441644
  0
LINE
  5
55A
330
1F
100
AcDbEntity
  8
4
100
AcDbLine
 10
2.537049479704477
 20
5.508081088832036
 30
0.0
 11
2.537049479704477
 21
5.515008988232034
 31
0.0
  0
CIRCLE
  5
55B
330
1F
100
AcDbEntity
  8
4
100
AcDbCircle
 10
2.609215098454476
 20
5.511545038532034
 30
0.0
 40
0.00261720644
  0
LINE
  5
55C
330
1F
100
AcDbEntity
  8
4
100
AcDbLine
 10
2.609215098454476
 20
5.508081088832036
 30
0.0
 11
2.609215098454476
 21
5.515008988232034
 31
0.0
  0
ARC
  5
55D
330
1F
100
AcDbEntity
  8
4
100
AcDbCircle
 10
2.537049479704477
 20
5.511545038532034
 30
0.0
 40
0.0781794203125
100
AcDbArc
 50
347.5762104955836
 51
12.42378950441644
  0
ARC
  5
55E
330
1F
100
AcDbEntity
  8
4
100
AcDbCircle
 10
2.609215098454476
 20
5.511545038532034
 30
0.0
 40
0.0781794203125
100
AcDbArc
 50
167.5762104955835
 51
192.4237895044164
  0
CIRCLE
  5
55F
330
1F
100
AcDbEntity
  8
4
100
AcDbCircle
 10
2.537049479704477
 20
5.511545038532034
 30
0.0
 40
0.00261720644
  0
ARC
  5
560
330
1F
100
AcDbEntity
  8
4
100
AcDbCircle
 10
2.573132289079476
 20
5.761117803375784
 30
0.0
 40
0.26941831
100
AcDbArc
 50
261.4046615383198
 51
278.5953384616802
  0
ARC
  5
561
330
1F
100
AcDbEntity
  8
4
100
AcDbCircle
 10
2.526797854828767
 20
5.419228373506411
 30
0.0
 40
0.0288662475
100
AcDbArc
 50
356.4236656250017
 51
90.0
  0
LINE
  5
562
330
1F
100
AcDbEntity
  8
4
100
AcDbLine
 10
2.555607887577266
 20
5.417427746459631
 30
0.0
 11
2.545624009878411
 21
5.257685703277982
 31
0.0
  0
LINE
  5
563
330
1F
100
AcDbEntity
  8
4
100
AcDbLine
 10
2.409631912706426
 20
5.408405872975226
 30
0.0
 11
2.417761299458596
 21
5.278335684940519
 31
0.0
  0
CIRCLE
  5
564
330
1F
100
AcDbEntity
  8
4
100
AcDbCircle
 10
2.475107323610727
 20
5.335636531787661
 30
0.0
 40
0.01262898328125
  0
LINE
  5
565
330
1F
100
AcDbEntity
  8
4
100
AcDbLine
 10
2.394606759644189
 20
5.417427746459631
 30
0.0
 11
2.404590637343043
 21
5.257685703277982
 31
0.0
  0
LINE
  5
566
330
1F
100
AcDbEntity
  8
4
100
AcDbLine
 10
2.540582734515029
 20
5.408405872975226
 30
0.0
 11
2.532453347762859
 21
5.278353805905225
 31
0.0
  0
LINE
  5
567
330
1F
100
AcDbEntity
  8
4
100
AcDbLine
 10
2.475107323610727
 20
5.26031005893641
 30
0.0
 11
2.436967987957596
 21
5.260310058936415
 31
0.0
  0
LINE
  5
568
330
1F
100
AcDbEntity
  8
4
100
AcDbLine
 10
2.475107323610727
 20
5.234003285381412
 30
0.0
 11
2.429799415997979
 21
5.234003285381412
 31
0.0
  0
ARC
  5
569
330
1F
100
AcDbEntity
  8
4
100
AcDbCircle
 10
2.429799415997979
 20
5.259261251943911
 30
0.0
 40
0.0252579665625
100
AcDbArc
 50
183.5763343749981
 51
270.0
  0
ARC
  5
56A
330
1F
100
AcDbEntity
  8
4
100
AcDbCircle
 10
2.436967987957596
 20
5.279554223936415
 30
0.0
 40
0.019244165
100
AcDbArc
 50
183.5763343749981
 51
270.0
  0
CIRCLE
  5
56B
330
1F
100
AcDbEntity
  8
4
100
AcDbCircle
 10
2.475107323610727
 20
5.293568787097663
 30
0.0
 40
0.00419522797
  0
LINE
  5
56C
330
1F
100
AcDbEntity
  8
4
100
AcDbLine
 10
2.475107323610727
 20
5.234003285381412
 30
0.0
 11
2.520415231223474
 21
5.234003285381412
 31
0.0
  0
LINE
  5
56D
330
1F
100
AcDbEntity
  8
4
100
AcDbLine
 10
2.475107323610727
 20
5.26031005893641
 30
0.0
 11
2.513246659263859
 21
5.260310058936415
 31
0.0
  0
CIRCLE
  5
56E
330
1F
100
AcDbEntity
  8
4
100
AcDbCircle
 10
2.475107323610727
 20
5.244828128193915
 30
0.0
 40
0.006924050567
  0
ARC
  5
56F
330
1F
100
AcDbEntity
  8
4
100
AcDbCircle
 10
2.513246659263859
 20
5.279554223936415
 30
0.0
 40
0.019244165
100
AcDbArc
 50
270.0
 51
356.4236656250017
  0
ARC
  5
570
330
1F
100
AcDbEntity
  8
4
100
AcDbCircle
 10
2.520415231223474
 20
5.259261251943911
 30
0.0
 40
0.0252579665625
100
AcDbArc
 50
270.0
 51
356.4236656250017
  0
LINE
  5
571
330
1F
100
AcDbEntity
  8
4
 62
   130
100
AcDbLine
 10
2.434123996067444
 20
5.414322505654078
 30
0.0
 11
2.454561299297444
 21
5.39388520242408
 31
0.0
  0
LINE
  5
572
330
1F
100
AcDbEntity
  8
4
100
AcDbLine
 10
2.475107323610727
 20
5.448094621006411
 30
0.0
 11
2.42341679239269
 21
5.448094621006411
 31
0.0
  0
LINE
  5
573
330
1F
100
AcDbEntity
  8
4
100
AcDbLine
 10
2.475107323610727
 20
5.428850456006411
 30
0.0
 11
2.428838601205426
 21
5.428850456006411
 31
0.0
  0
LINE
  5
574
330
1F
100
AcDbEntity
  8
4
 62
   130
100
AcDbLine
 10
2.425632804015907
 20
5.405831313602543
 30
0.0
 11
2.446070107245906
 21
5.38539401037254
 31
0.0
  0
LINE
  5
575
330
1F
100
AcDbEntity
  8
4
100
AcDbLine
 10
2.427360950270208
 20
5.409221028248155
 30
0.0
 11
2.449459821891518
 21
5.387122156626845
 31
0.0
  0
LINE
  5
576
330
1F
100
AcDbEntity
  8
4
100
AcDbLine
 10
2.430762870162651
 20
5.412622948140599
 30
0.0
 11
2.452861741783961
 21
5.390524076519288
 31
0.0
  0
LINE
  5
577
330
1F
100
AcDbEntity
  8
4
100
AcDbLine
 10
2.435879357680884
 20
5.407506460622368
 30
0.0
 11
2.432477437788441
 21
5.404104540729925
 31
0.0
  0
LINE
  5
578
330
1F
100
AcDbEntity
  8
4
100
AcDbLine
 10
2.430762870162651
 20
5.412622948140599
 30
0.0
 11
2.427360950270208
 21
5.409221028248155
 31
0.0
  0
ARC
  5
579
330
1F
100
AcDbEntity
  8
4
100
AcDbCircle
 10
2.428838601205426
 20
5.409606291006411
 30
0.0
 40
0.019244165
100
AcDbArc
 50
90.0
 51
183.5763343749981
  0
ARC
  5
57A
330
1F
100
AcDbEntity
  8
4
 62
   130
100
AcDbCircle
 10
2.429878400041675
 20
5.41007690962831
 30
0.0
 40
0.00600417948
100
AcDbArc
 50
45.00000000000024
 51
225.0000000000002
  0
ARC
  5
57B
330
1F
100
AcDbEntity
  8
4
100
AcDbCircle
 10
2.42341679239269
 20
5.419228373506411
 30
0.0
 40
0.0288662475
100
AcDbArc
 50
90.0
 51
183.5763343749981
  0
ARC
  5
57C
330
1F
100
AcDbEntity
  8
4
 62
   130
100
AcDbCircle
 10
2.450315703271676
 20
5.389639606398312
 30
0.0
 40
0.00600417948
100
AcDbArc
 50
225.0000000000002
 51
45.00000000000024
  0
LINE
  5
57D
330
1F
100
AcDbEntity
  8
4
100
AcDbLine
 10
2.447745254265726
 20
5.395640564037524
 30
0.0
 11
2.444343334373285
 21
5.392238644145081
 31
0.0
  0
LINE
  5
57E
330
1F
100
AcDbEntity
  8
4
100
AcDbLine
 10
2.475107323610727
 20
5.428850456006411
 30
0.0
 11
2.521376046016029
 21
5.428850456006411
 31
0.0
  0
LINE
  5
57F
330
1F
100
AcDbEntity
  8
4
100
AcDbLine
 10
2.475107323610727
 20
5.448094621006411
 30
0.0
 11
2.526797854828767
 21
5.448094621006411
 31
0.0
  0
CIRCLE
  5
580
330
1F
100
AcDbEntity
  8
4
100
AcDbCircle
 10
2.475107323610727
 20
5.377704276477664
 30
0.0
 40
0.00419522797
  0
LINE
  5
581
330
1F
100
AcDbEntity
  8
4
100
AcDbLine
 10
2.449459821891518
 20
5.387122156626845
 30
0.0
 11
2.452861741783961
 21
5.390524076519288
 31
0.0
  0
ARC
  5
582
330
1F
100
AcDbEntity
  8
4
100
AcDbCircle
 10
2.521376046016029
 20
5.409606291006411
 30
0.0
 40
0.019244165
100
AcDbArc
 50
356.4236656250017
 51
90.0
  0
LINE
  5
583
330
1F
100
AcDbEntity
  8
4
100
AcDbLine
 10
2.533585530004477
 20
5.511545038532034
 30
0.0
 11
2.540513429404477
 21
5.511545038532034
 31
0.0
  0
LINE
  5
584
330
1F
100
AcDbEntity
  8
4
100
AcDbLine
 10
2.605751148754477
 20
5.511545038532034
 30
0.0
 11
2.612679048154478
 21
5.511545038532034
 31
0.0
  0
ARC
  5
585
330
1F
100
AcDbEntity
  8
4
100
AcDbCircle
 10
2.573132289079476
 20
5.261972273688283
 30
0.0
 40
0.26941831
100
AcDbArc
 50
81.40466153831981
 51
98.59533846168009
  0
LINE
  5
586
330
1F
100
AcDbEntity
  8
4
100
AcDbLine
 10
2.821900300173227
 20
5.193997090147036
 30
0.0
 11
2.821900300173227
 21
5.115817669834537
 31
0.0
  0
LINE
  5
587
330
1F
100
AcDbEntity
  8
4
100
AcDbLine
 10
3.602900300173227
 20
5.131846499522038
 30
0.0
 11
3.790900300173226
 21
5.131846499522038
 31
0.0
  0
LINE
  5
588
330
1F
100
AcDbEntity
  8
4
100
AcDbLine
 10
3.602900300173227
 20
5.069846499522038
 30
0.0
 11
3.790900300173226
 21
5.069846499522038
 31
0.0
  0
LINE
  5
589
330
1F
100
AcDbEntity
  8
4
100
AcDbLine
 10
3.602900300173227
 20
4.595846499522037
 30
0.0
 11
3.790900300173226
 21
4.595846499522037
 31
0.0
  0
LINE
  5
58A
330
1F
100
AcDbEntity
  8
4
100
AcDbLine
 10
3.602900300173227
 20
4.657846499522038
 30
0.0
 11
3.790900300173226
 21
4.657846499522038
 31
0.0
  0
LINE
  5
58B
330
1F
100
AcDbEntity
  8
4
100
AcDbLine
 10
3.602900300173227
 20
4.121846499522038
 30
0.0
 11
3.790900300173226
 21
4.121846499522038
 31
0.0
  0
LINE
  5
58C
330
1F
100
AcDbEntity
  8
4
100
AcDbLine
 10
3.602900300173227
 20
4.183846499522037
 30
0.0
 11
3.790900300173226
 21
4.183846499522037
 31
0.0
  0
LINE
  5
58D
330
1F
100
AcDbEntity
  8
4
100
AcDbLine
 10
2.816487878766976
 20
4.451067723428287
 30
0.0
 11
2.816487878766976
 21
4.531652664365786
 31
0.0
  0
LINE
  5
58E
330
1F
100
AcDbEntity
  8
4
100
AcDbLine
 10
2.821900300173227
 20
4.531652664365786
 30
0.0
 11
2.821900300173227
 21
4.451067723428287
 31
0.0
  0
LINE
  5
58F
330
1F
100
AcDbEntity
  8
4
100
AcDbLine
 10
2.977900300173227
 20
4.121846499522038
 30
0.0
 11
3.478900300173225
 21
4.121846499522038
 31
0.0
  0
LINE
  5
590
330
1F
100
AcDbEntity
  8
4
100
AcDbLine
 10
2.977900300173227
 20
4.183846499522037
 30
0.0
 11
3.478900300173225
 21
4.183846499522037
 31
0.0
  0
LINE
  5
591
330
1F
100
AcDbEntity
  8
4
100
AcDbLine
 10
2.821900300173227
 20
4.057652664365787
 30
0.0
 11
2.821900300173227
 21
4.135832084678287
 31
0.0
  0
LINE
  5
592
330
1F
100
AcDbEntity
  8
4
100
AcDbLine
 10
2.821900300173227
 20
3.977067723428287
 30
0.0
 11
2.821900300173227
 21
3.852582031084537
 31
0.0
  0
LINE
  5
593
330
1F
100
AcDbEntity
  8
4
100
AcDbLine
 10
2.821900300173227
 20
3.852582031084537
 30
0.0
 11
2.816487878766976
 21
3.852582031084537
 31
0.0
  0
LINE
  5
594
330
1F
100
AcDbEntity
  8
4
  6
CENTER
100
AcDbLine
 10
2.806096615669885
 20
3.812289560615787
 30
0.0
 11
2.813875481877988
 21
3.812289560615787
 31
0.0
  0
LINE
  5
595
330
1F
100
AcDbEntity
  8
4
100
AcDbLine
 10
2.816487878766976
 20
3.771997090147037
 30
0.0
 11
2.821900300173227
 21
3.771997090147037
 31
0.0
  0
LINE
  5
596
330
1F
100
AcDbEntity
  8
4
100
AcDbLine
 10
2.817853326412286
 20
3.812289560615787
 30
0.0
 11
2.820240017102817
 21
3.812289560615787
 31
0.0
  0
LINE
  5
597
330
1F
100
AcDbEntity
  8
4
100
AcDbLine
 10
2.821900300173227
 20
3.771997090147037
 30
0.0
 11
2.821900300173227
 21
3.852582031084537
 31
0.0
  0
LINE
  5
598
330
1F
100
AcDbEntity
  8
4
100
AcDbLine
 10
2.816487878766976
 20
3.852582031084537
 30
0.0
 11
2.816487878766976
 21
3.771997090147037
 31
0.0
  0
LINE
  5
599
330
1F
100
AcDbEntity
  8
4
  6
CENTER
100
AcDbLine
 10
2.824041061676685
 20
3.812289560615787
 30
0.0
 11
2.832350316316051
 21
3.812289560615787
 31
0.0
  0
LINE
  5
59A
330
1F
100
AcDbEntity
  8
4
100
AcDbLine
 10
2.816487878766976
 20
4.057652664365787
 30
0.0
 11
2.821900300173227
 21
4.057652664365787
 31
0.0
  0
LINE
  5
59B
330
1F
100
AcDbEntity
  8
4
  6
CENTER
100
AcDbLine
 10
2.806096615669885
 20
4.017360193897037
 30
0.0
 11
2.813875481877988
 21
4.017360193897037
 31
0.0
  0
LINE
  5
59C
330
1F
100
AcDbEntity
  8
4
100
AcDbLine
 10
2.821900300173227
 20
3.977067723428287
 30
0.0
 11
2.816487878766976
 21
3.977067723428287
 31
0.0
  0
LINE
  5
59D
330
1F
100
AcDbEntity
  8
4
100
AcDbLine
 10
2.817853326412286
 20
4.017360193897037
 30
0.0
 11
2.820240017102817
 21
4.017360193897037
 31
0.0
  0
LINE
  5
59E
330
1F
100
AcDbEntity
  8
4
  6
CENTER
100
AcDbLine
 10
2.824041061676685
 20
4.017360193897037
 30
0.0
 11
2.832350316316051
 21
4.017360193897037
 31
0.0
  0
LINE
  5
59F
330
1F
100
AcDbEntity
  8
4
100
AcDbLine
 10
2.816487878766976
 20
3.977067723428287
 30
0.0
 11
2.816487878766976
 21
4.057652664365787
 31
0.0
  0
LINE
  5
5A0
330
1F
100
AcDbEntity
  8
4
100
AcDbLine
 10
2.821900300173227
 20
4.057652664365787
 30
0.0
 11
2.821900300173227
 21
3.977067723428287
 31
0.0
  0
LINE
  5
5A1
330
1F
100
AcDbEntity
  8
4
100
AcDbLine
 10
2.821900300173227
 20
4.245997090147036
 30
0.0
 11
2.821900300173227
 21
4.326582031084536
 31
0.0
  0
LINE
  5
5A2
330
1F
100
AcDbEntity
  8
4
100
AcDbLine
 10
2.816487878766976
 20
4.326582031084536
 30
0.0
 11
2.816487878766976
 21
4.245997090147036
 31
0.0
  0
LINE
  5
5A3
330
1F
100
AcDbEntity
  8
4
100
AcDbLine
 10
2.816487878766976
 20
4.245997090147036
 30
0.0
 11
2.821900300173227
 21
4.245997090147036
 31
0.0
  0
LINE
  5
5A4
330
1F
100
AcDbEntity
  8
4
100
AcDbLine
 10
2.821900300173227
 20
4.245997090147036
 30
0.0
 11
2.821900300173227
 21
4.167817669834536
 31
0.0
  0
LINE
  5
5A5
330
1F
100
AcDbEntity
  8
4
100
AcDbLine
 10
2.821900300173227
 20
4.326582031084536
 30
0.0
 11
2.816487878766976
 21
4.326582031084536
 31
0.0
  0
LINE
  5
5A6
330
1F
100
AcDbEntity
  8
4
  6
CENTER
100
AcDbLine
 10
2.806096615669885
 20
4.286289560615786
 30
0.0
 11
2.813875481877988
 21
4.286289560615786
 31
0.0
  0
LINE
  5
5A7
330
1F
100
AcDbEntity
  8
4
100
AcDbLine
 10
2.817853326412286
 20
4.286289560615786
 30
0.0
 11
2.820240017102817
 21
4.286289560615786
 31
0.0
  0
LINE
  5
5A8
330
1F
100
AcDbEntity
  8
4
  6
CENTER
100
AcDbLine
 10
2.824041061676685
 20
4.286289560615786
 30
0.0
 11
2.832350316316051
 21
4.286289560615786
 31
0.0
  0
LINE
  5
5A9
330
1F
100
AcDbEntity
  8
4
100
AcDbLine
 10
2.821900300173227
 20
4.451067723428287
 30
0.0
 11
2.821900300173227
 21
4.326582031084536
 31
0.0
  0
LINE
  5
5AA
330
1F
100
AcDbEntity
  8
4
100
AcDbLine
 10
2.821900300173227
 20
4.451067723428287
 30
0.0
 11
2.816487878766976
 21
4.451067723428287
 31
0.0
  0
LINE
  5
5AB
330
1F
100
AcDbEntity
  8
4
100
AcDbLine
 10
2.977900300173227
 20
5.069846499522038
 30
0.0
 11
3.478900300173225
 21
5.069846499522038
 31
0.0
  0
LINE
  5
5AC
330
1F
100
AcDbEntity
  8
4
100
AcDbLine
 10
2.977900300173227
 20
4.595846499522037
 30
0.0
 11
3.478900300173225
 21
4.595846499522037
 31
0.0
  0
LINE
  5
5AD
330
1F
100
AcDbEntity
  8
4
100
AcDbLine
 10
2.977900300173227
 20
4.657846499522038
 30
0.0
 11
3.478900300173225
 21
4.657846499522038
 31
0.0
  0
LINE
  5
5AE
330
1F
100
AcDbEntity
  8
4
100
AcDbLine
 10
2.977900300173227
 20
5.131846499522038
 30
0.0
 11
3.478900300173225
 21
5.131846499522038
 31
0.0
  0
LINE
  5
5AF
330
1F
100
AcDbEntity
  8
4
100
AcDbLine
 10
2.821900300173227
 20
4.925067723428287
 30
0.0
 11
2.821900300173227
 21
4.800582031084537
 31
0.0
  0
LINE
  5
5B0
330
1F
100
AcDbEntity
  8
4
  6
CENTER
100
AcDbLine
 10
2.806096615669885
 20
4.491360193897036
 30
0.0
 11
2.813875481877988
 21
4.491360193897036
 31
0.0
  0
LINE
  5
5B1
330
1F
100
AcDbEntity
  8
4
100
AcDbLine
 10
2.817853326412286
 20
4.491360193897036
 30
0.0
 11
2.820240017102817
 21
4.491360193897036
 31
0.0
  0
LINE
  5
5B2
330
1F
100
AcDbEntity
  8
4
100
AcDbLine
 10
2.816487878766976
 20
4.531652664365786
 30
0.0
 11
2.821900300173227
 21
4.531652664365786
 31
0.0
  0
LINE
  5
5B3
330
1F
100
AcDbEntity
  8
4
100
AcDbLine
 10
2.821900300173227
 20
4.531652664365786
 30
0.0
 11
2.821900300173227
 21
4.609832084678286
 31
0.0
  0
LINE
  5
5B4
330
1F
100
AcDbEntity
  8
4
  6
CENTER
100
AcDbLine
 10
2.824041061676685
 20
4.491360193897036
 30
0.0
 11
2.832350316316051
 21
4.491360193897036
 31
0.0
  0
LINE
  5
5B5
330
1F
100
AcDbEntity
  8
4
100
AcDbLine
 10
2.821900300173227
 20
4.800582031084537
 30
0.0
 11
2.816487878766976
 21
4.800582031084537
 31
0.0
  0
LINE
  5
5B6
330
1F
100
AcDbEntity
  8
4
  6
CENTER
100
AcDbLine
 10
2.806096615669885
 20
4.760289560615786
 30
0.0
 11
2.813875481877988
 21
4.760289560615786
 31
0.0
  0
LINE
  5
5B7
330
1F
100
AcDbEntity
  8
4
100
AcDbLine
 10
2.817853326412286
 20
4.760289560615786
 30
0.0
 11
2.820240017102817
 21
4.760289560615786
 31
0.0
  0
LINE
  5
5B8
330
1F
100
AcDbEntity
  8
4
  6
CENTER
100
AcDbLine
 10
2.824041061676685
 20
4.760289560615786
 30
0.0
 11
2.832350316316051
 21
4.760289560615786
 31
0.0
  0
LINE
  5
5B9
330
1F
100
AcDbEntity
  8
4
100
AcDbLine
 10
2.821900300173227
 20
4.719997090147036
 30
0.0
 11
2.821900300173227
 21
4.641817669834536
 31
0.0
  0
LINE
  5
5BA
330
1F
100
AcDbEntity
  8
4
100
AcDbLine
 10
2.816487878766976
 20
4.719997090147036
 30
0.0
 11
2.821900300173227
 21
4.719997090147036
 31
0.0
  0
LINE
  5
5BB
330
1F
100
AcDbEntity
  8
4
100
AcDbLine
 10
2.821900300173227
 20
4.719997090147036
 30
0.0
 11
2.821900300173227
 21
4.800582031084537
 31
0.0
  0
LINE
  5
5BC
330
1F
100
AcDbEntity
  8
4
100
AcDbLine
 10
2.816487878766976
 20
4.800582031084537
 30
0.0
 11
2.816487878766976
 21
4.719997090147036
 31
0.0
  0
LINE
  5
5BD
330
1F
100
AcDbEntity
  8
4
100
AcDbLine
 10
2.816487878766976
 20
4.925067723428287
 30
0.0
 11
2.816487878766976
 21
5.005652664365786
 31
0.0
  0
LINE
  5
5BE
330
1F
100
AcDbEntity
  8
4
100
AcDbLine
 10
2.821900300173227
 20
5.005652664365786
 30
0.0
 11
2.821900300173227
 21
4.925067723428287
 31
0.0
  0
LINE
  5
5BF
330
1F
100
AcDbEntity
  8
4
  6
CENTER
100
AcDbLine
 10
2.806096615669885
 20
4.965360193897036
 30
0.0
 11
2.813875481877988
 21
4.965360193897036
 31
0.0
  0
LINE
  5
5C0
330
1F
100
AcDbEntity
  8
4
100
AcDbLine
 10
2.821900300173227
 20
4.925067723428287
 30
0.0
 11
2.816487878766976
 21
4.925067723428287
 31
0.0
  0
LINE
  5
5C1
330
1F
100
AcDbEntity
  8
4
100
AcDbLine
 10
2.817853326412286
 20
4.965360193897036
 30
0.0
 11
2.820240017102817
 21
4.965360193897036
 31
0.0
  0
LINE
  5
5C2
330
1F
100
AcDbEntity
  8
4
  6
CENTER
100
AcDbLine
 10
2.824041061676685
 20
4.965360193897036
 30
0.0
 11
2.832350316316051
 21
4.965360193897036
 31
0.0
  0
LINE
  5
5C3
330
1F
100
AcDbEntity
  8
4
100
AcDbLine
 10
2.821900300173227
 20
5.005652664365786
 30
0.0
 11
2.821900300173227
 21
5.083832084678286
 31
0.0
  0
LINE
  5
5C4
330
1F
100
AcDbEntity
  8
4
100
AcDbLine
 10
2.816487878766976
 20
5.005652664365786
 30
0.0
 11
2.821900300173227
 21
5.005652664365786
 31
0.0
  0
LINE
  5
5C5
330
1F
100
AcDbEntity
  8
4
100
AcDbLine
 10
3.915900300173226
 20
4.121846499522038
 30
0.0
 11
4.103900300173225
 21
4.121846499522038
 31
0.0
  0
LINE
  5
5C6
330
1F
100
AcDbEntity
  8
4
100
AcDbLine
 10
3.915900300173226
 20
4.183846499522037
 30
0.0
 11
4.103900300173225
 21
4.183846499522037
 31
0.0
  0
LINE
  5
5C7
330
1F
100
AcDbEntity
  8
4
100
AcDbLine
 10
3.915900300173226
 20
4.595846499522037
 30
0.0
 11
4.103900300173225
 21
4.595846499522037
 31
0.0
  0
LINE
  5
5C8
330
1F
100
AcDbEntity
  8
4
100
AcDbLine
 10
3.915900300173226
 20
4.657846499522038
 30
0.0
 11
4.103900300173225
 21
4.657846499522038
 31
0.0
  0
LINE
  5
5C9
330
1F
100
AcDbEntity
  8
4
100
AcDbLine
 10
3.915900300173226
 20
5.131846499522038
 30
0.0
 11
4.103900300173225
 21
5.131846499522038
 31
0.0
  0
LINE
  5
5CA
330
1F
100
AcDbEntity
  8
4
100
AcDbLine
 10
3.915900300173226
 20
5.069846499522038
 30
0.0
 11
4.103900300173225
 21
5.069846499522038
 31
0.0
  0
LINE
  5
5CB
330
1F
100
AcDbEntity
  8
4
100
AcDbLine
 10
2.821900300173227
 20
5.479652664365787
 30
0.0
 11
2.821900300173227
 21
5.557832084678286
 31
0.0
  0
LINE
  5
5CC
330
1F
100
AcDbEntity
  8
4
100
AcDbLine
 10
2.821900300173227
 20
5.399067723428287
 30
0.0
 11
2.821900300173227
 21
5.274582031084537
 31
0.0
  0
LINE
  5
5CD
330
1F
100
AcDbEntity
  8
4
100
AcDbLine
 10
2.821900300173227
 20
5.274582031084537
 30
0.0
 11
2.816487878766976
 21
5.274582031084537
 31
0.0
  0
LINE
  5
5CE
330
1F
100
AcDbEntity
  8
4
  6
CENTER
100
AcDbLine
 10
2.806096615669885
 20
5.234289560615787
 30
0.0
 11
2.813875481877988
 21
5.234289560615787
 31
0.0
  0
LINE
  5
5CF
330
1F
100
AcDbEntity
  8
4
100
AcDbLine
 10
2.816487878766976
 20
5.193997090147036
 30
0.0
 11
2.821900300173227
 21
5.193997090147036
 31
0.0
  0
LINE
  5
5D0
330
1F
100
AcDbEntity
  8
4
100
AcDbLine
 10
2.817853326412286
 20
5.234289560615787
 30
0.0
 11
2.820240017102817
 21
5.234289560615787
 31
0.0
  0
LINE
  5
5D1
330
1F
100
AcDbEntity
  8
4
100
AcDbLine
 10
2.821900300173227
 20
5.193997090147036
 30
0.0
 11
2.821900300173227
 21
5.274582031084537
 31
0.0
  0
LINE
  5
5D2
330
1F
100
AcDbEntity
  8
4
100
AcDbLine
 10
2.816487878766976
 20
5.274582031084537
 30
0.0
 11
2.816487878766976
 21
5.193997090147036
 31
0.0
  0
LINE
  5
5D3
330
1F
100
AcDbEntity
  8
4
  6
CENTER
100
AcDbLine
 10
2.824041061676685
 20
5.234289560615787
 30
0.0
 11
2.832350316316051
 21
5.234289560615787
 31
0.0
  0
LINE
  5
5D4
330
1F
100
AcDbEntity
  8
4
100
AcDbLine
 10
2.816487878766976
 20
5.479652664365787
 30
0.0
 11
2.821900300173227
 21
5.479652664365787
 31
0.0
  0
LINE
  5
5D5
330
1F
100
AcDbEntity
  8
4
  6
CENTER
100
AcDbLine
 10
2.806096615669885
 20
5.439360193897036
 30
0.0
 11
2.813875481877988
 21
5.439360193897036
 31
0.0
  0
LINE
  5
5D6
330
1F
100
AcDbEntity
  8
4
100
AcDbLine
 10
2.821900300173227
 20
5.399067723428287
 30
0.0
 11
2.816487878766976
 21
5.399067723428287
 31
0.0
  0
LINE
  5
5D7
330
1F
100
AcDbEntity
  8
4
100
AcDbLine
 10
2.817853326412286
 20
5.439360193897036
 30
0.0
 11
2.820240017102817
 21
5.439360193897036
 31
0.0
  0
LINE
  5
5D8
330
1F
100
AcDbEntity
  8
4
  6
CENTER
100
AcDbLine
 10
2.824041061676685
 20
5.439360193897036
 30
0.0
 11
2.832350316316051
 21
5.439360193897036
 31
0.0
  0
LINE
  5
5D9
330
1F
100
AcDbEntity
  8
4
100
AcDbLine
 10
2.816487878766976
 20
5.399067723428287
 30
0.0
 11
2.816487878766976
 21
5.479652664365787
 31
0.0
  0
LINE
  5
5DA
330
1F
100
AcDbEntity
  8
4
100
AcDbLine
 10
2.821900300173227
 20
5.479652664365787
 30
0.0
 11
2.821900300173227
 21
5.399067723428287
 31
0.0
  0
LINE
  5
5DB
330
1F
100
AcDbEntity
  8
4
100
AcDbLine
 10
8.947400300173228
 20
4.135846499522037
 30
0.0
 11
8.947400300173228
 21
3.693846499522038
 31
0.0
  0
LINE
  5
5DC
330
1F
100
AcDbEntity
  8
4
100
AcDbLine
 10
7.666400300173226
 20
4.135846499522037
 30
0.0
 11
7.666400300173226
 21
3.693846499522038
 31
0.0
  0
LINE
  5
5DD
330
1F
100
AcDbEntity
  8
4
100
AcDbLine
 10
6.356400300173226
 20
4.135846499522037
 30
0.0
 11
6.356400300173226
 21
3.693846499522038
 31
0.0
  0
LINE
  5
5DE
330
1F
100
AcDbEntity
  8
4
100
AcDbLine
 10
8.342400300173231
 20
3.235846499522039
 30
0.0
 11
8.88540030017323
 21
3.235846499522039
 31
0.0
  0
LINE
  5
5DF
330
1F
100
AcDbEntity
  8
4
100
AcDbLine
 10
8.342400300173231
 20
3.709846499522039
 30
0.0
 11
8.88540030017323
 21
3.709846499522039
 31
0.0
  0
LINE
  5
5E0
330
1F
100
AcDbEntity
  8
4
100
AcDbLine
 10
6.961400300173227
 20
3.235846499522039
 30
0.0
 11
6.418400300173225
 21
3.235846499522039
 31
0.0
  0
LINE
  5
5E1
330
1F
100
AcDbEntity
  8
4
100
AcDbLine
 10
6.961400300173227
 20
3.709846499522039
 30
0.0
 11
6.418400300173225
 21
3.709846499522039
 31
0.0
  0
LINE
  5
5E2
330
1F
100
AcDbEntity
  8
4
100
AcDbLine
 10
6.356400300173226
 20
3.187846499522038
 30
0.0
 11
6.356400300173226
 21
2.745846499522036
 31
0.0
  0
LINE
  5
5E3
330
1F
100
AcDbEntity
  8
4
100
AcDbLine
 10
6.356400300173226
 20
2.745846499522036
 30
0.0
 11
6.418400300173227
 21
2.745846499522036
 31
0.0
  0
INSERT
  5
5E4
330
1F
100
AcDbEntity
  8
8
100
AcDbBlockReference
  2
T1
 10
1.290900300173226
 20
1.151846499522036
 30
0.0
  0
LINE
  5
5E5
330
1F
100
AcDbEntity
  8
4
100
AcDbLine
 10
6.356400300173226
 20
3.661846499522038
 30
0.0
 11
6.356400300173226
 21
3.219846499522039
 31
0.0
  0
LINE
  5
5E6
330
1F
100
AcDbEntity
  8
4
100
AcDbLine
 10
6.418400300173225
 20
3.235846499522039
 30
0.0
 11
6.418400300173225
 21
3.173846499522039
 31
0.0
  0
LINE
  5
5E7
330
1F
100
AcDbEntity
  8
4
100
AcDbLine
 10
6.418400300173225
 20
3.173846499522039
 30
0.0
 11
6.449400300173226
 21
3.204846499522038
 31
0.0
  0
LINE
  5
5E8
330
1F
100
AcDbEntity
  8
4
100
AcDbLine
 10
6.356400300173226
 20
3.187846499522038
 30
0.0
 11
6.418400300173225
 21
3.187846499522038
 31
0.0
  0
LINE
  5
5E9
330
1F
100
AcDbEntity
  8
4
100
AcDbLine
 10
6.356400300173226
 20
3.219846499522039
 30
0.0
 11
6.418400300173225
 21
3.219846499522039
 31
0.0
  0
LINE
  5
5EA
330
1F
100
AcDbEntity
  8
4
100
AcDbLine
 10
6.418400300173225
 20
3.647846499522038
 30
0.0
 11
6.449400300173226
 21
3.678846499522038
 31
0.0
  0
LINE
  5
5EB
330
1F
100
AcDbEntity
  8
4
100
AcDbLine
 10
6.418400300173225
 20
3.709846499522039
 30
0.0
 11
6.418400300173225
 21
3.647846499522038
 31
0.0
  0
LINE
  5
5EC
330
1F
100
AcDbEntity
  8
4
100
AcDbLine
 10
6.356400300173226
 20
3.661846499522038
 30
0.0
 11
6.418400300173225
 21
3.661846499522038
 31
0.0
  0
LINE
  5
5ED
330
1F
100
AcDbEntity
  8
4
100
AcDbLine
 10
6.356400300173226
 20
3.693846499522038
 30
0.0
 11
6.418400300173225
 21
3.693846499522038
 31
0.0
  0
LINE
  5
5EE
330
1F
100
AcDbEntity
  8
4
100
AcDbLine
 10
6.961400300173227
 20
3.173846499522039
 30
0.0
 11
6.961400300173227
 21
3.235846499522039
 31
0.0
  0
LINE
  5
5EF
330
1F
100
AcDbEntity
  8
4
100
AcDbLine
 10
6.961400300173227
 20
3.647846499522038
 30
0.0
 11
6.961400300173227
 21
3.709846499522039
 31
0.0
  0
LINE
  5
5F0
330
1F
100
AcDbEntity
  8
4
100
AcDbLine
 10
7.666400300173226
 20
3.187846499522038
 30
0.0
 11
7.666400300173226
 21
2.745846499522036
 31
0.0
  0
LINE
  5
5F1
330
1F
100
AcDbEntity
  8
4
100
AcDbLine
 10
7.666400300173226
 20
2.745846499522036
 30
0.0
 11
7.728400300173227
 21
2.745846499522036
 31
0.0
  0
LINE
  5
5F2
330
1F
100
AcDbEntity
  8
4
100
AcDbLine
 10
8.271400300173226
 20
3.235846499522039
 30
0.0
 11
7.728400300173223
 21
3.235846499522039
 31
0.0
  0
LINE
  5
5F3
330
1F
100
AcDbEntity
  8
4
100
AcDbLine
 10
8.271400300173226
 20
3.709846499522039
 30
0.0
 11
7.728400300173223
 21
3.709846499522039
 31
0.0
  0
LINE
  5
5F4
330
1F
100
AcDbEntity
  8
4
100
AcDbLine
 10
7.666400300173226
 20
3.661846499522038
 30
0.0
 11
7.666400300173226
 21
3.219846499522039
 31
0.0
  0
LINE
  5
5F5
330
1F
100
AcDbEntity
  8
4
100
AcDbLine
 10
7.666400300173226
 20
3.187846499522038
 30
0.0
 11
7.728400300173223
 21
3.187846499522038
 31
0.0
  0
LINE
  5
5F6
330
1F
100
AcDbEntity
  8
4
100
AcDbLine
 10
7.666400300173226
 20
3.219846499522039
 30
0.0
 11
7.728400300173223
 21
3.219846499522039
 31
0.0
  0
LINE
  5
5F7
330
1F
100
AcDbEntity
  8
4
100
AcDbLine
 10
7.728400300173223
 20
3.235846499522039
 30
0.0
 11
7.728400300173223
 21
3.173846499522039
 31
0.0
  0
LINE
  5
5F8
330
1F
100
AcDbEntity
  8
4
100
AcDbLine
 10
7.728400300173223
 20
3.173846499522039
 30
0.0
 11
7.759400300173226
 21
3.204846499522038
 31
0.0
  0
LINE
  5
5F9
330
1F
100
AcDbEntity
  8
4
100
AcDbLine
 10
7.666400300173226
 20
3.661846499522038
 30
0.0
 11
7.728400300173223
 21
3.661846499522038
 31
0.0
  0
LINE
  5
5FA
330
1F
100
AcDbEntity
  8
4
100
AcDbLine
 10
7.666400300173226
 20
3.693846499522038
 30
0.0
 11
7.728400300173223
 21
3.693846499522038
 31
0.0
  0
LINE
  5
5FB
330
1F
100
AcDbEntity
  8
4
100
AcDbLine
 10
7.728400300173223
 20
3.709846499522039
 30
0.0
 11
7.728400300173223
 21
3.647846499522038
 31
0.0
  0
LINE
  5
5FC
330
1F
100
AcDbEntity
  8
4
100
AcDbLine
 10
7.728400300173223
 20
3.647846499522038
 30
0.0
 11
7.759400300173226
 21
3.678846499522038
 31
0.0
  0
LINE
  5
5FD
330
1F
100
AcDbEntity
  8
4
100
AcDbLine
 10
8.342400300173231
 20
3.173846499522039
 30
0.0
 11
8.342400300173231
 21
3.235846499522039
 31
0.0
  0
LINE
  5
5FE
330
1F
100
AcDbEntity
  8
4
100
AcDbLine
 10
8.271400300173226
 20
3.173846499522039
 30
0.0
 11
8.271400300173226
 21
3.235846499522039
 31
0.0
  0
LINE
  5
5FF
330
1F
100
AcDbEntity
  8
4
100
AcDbLine
 10
8.271400300173226
 20
3.647846499522038
 30
0.0
 11
8.271400300173226
 21
3.709846499522039
 31
0.0
  0
LINE
  5
600
330
1F
100
AcDbEntity
  8
4
100
AcDbLine
 10
8.342400300173231
 20
3.647846499522038
 30
0.0
 11
8.342400300173231
 21
3.709846499522039
 31
0.0
  0
LINE
  5
601
330
1F
100
AcDbEntity
  8
4
100
AcDbLine
 10
8.947400300173232
 20
3.187846499522038
 30
0.0
 11
8.947400300173232
 21
2.745846499522036
 31
0.0
  0
LINE
  5
602
330
1F
100
AcDbEntity
  8
4
100
AcDbLine
 10
8.947400300173232
 20
2.745846499522036
 30
0.0
 11
8.88540030017323
 21
2.745846499522036
 31
0.0
  0
LINE
  5
603
330
1F
100
AcDbEntity
  8
4
100
AcDbLine
 10
8.88540030017323
 20
3.661846499522038
 30
0.0
 11
8.947400300173228
 21
3.661846499522038
 31
0.0
  0
LINE
  5
604
330
1F
100
AcDbEntity
  8
4
100
AcDbLine
 10
8.88540030017323
 20
3.187846499522038
 30
0.0
 11
8.947400300173228
 21
3.187846499522038
 31
0.0
  0
LINE
  5
605
330
1F
100
AcDbEntity
  8
4
100
AcDbLine
 10
8.88540030017323
 20
3.219846499522039
 30
0.0
 11
8.947400300173228
 21
3.219846499522039
 31
0.0
  0
LINE
  5
606
330
1F
100
AcDbEntity
  8
4
100
AcDbLine
 10
8.88540030017323
 20
3.693846499522038
 30
0.0
 11
8.947400300173228
 21
3.693846499522038
 31
0.0
  0
LINE
  5
607
330
1F
100
AcDbEntity
  8
4
100
AcDbLine
 10
8.88540030017323
 20
3.235846499522039
 30
0.0
 11
8.88540030017323
 21
3.173846499522039
 31
0.0
  0
LINE
  5
608
330
1F
100
AcDbEntity
  8
4
100
AcDbLine
 10
8.88540030017323
 20
3.173846499522039
 30
0.0
 11
8.854400300173232
 21
3.204846499522038
 31
0.0
  0
LINE
  5
609
330
1F
100
AcDbEntity
  8
4
100
AcDbLine
 10
8.88540030017323
 20
3.709846499522039
 30
0.0
 11
8.88540030017323
 21
3.647846499522038
 31
0.0
  0
LINE
  5
60A
330
1F
100
AcDbEntity
  8
4
100
AcDbLine
 10
8.88540030017323
 20
3.647846499522038
 30
0.0
 11
8.854400300173232
 21
3.678846499522038
 31
0.0
  0
LINE
  5
60B
330
1F
100
AcDbEntity
  8
4
100
AcDbLine
 10
8.947400300173232
 20
3.661846499522038
 30
0.0
 11
8.947400300173232
 21
3.219846499522039
 31
0.0
  0
LINE
  5
60C
330
1F
100
AcDbEntity
  8
4
100
AcDbLine
 10
8.342400300173228
 20
4.183846499522038
 30
0.0
 11
8.885400300173227
 21
4.183846499522038
 31
0.0
  0
LINE
  5
60D
330
1F
100
AcDbEntity
  8
4
100
AcDbLine
 10
8.342400300173224
 20
5.131846499522038
 30
0.0
 11
8.885400300173227
 21
5.131846499522038
 31
0.0
  0
LINE
  5
60E
330
1F
100
AcDbEntity
  8
4
100
AcDbLine
 10
8.342400300173228
 20
4.657846499522038
 30
0.0
 11
8.885400300173227
 21
4.657846499522038
 31
0.0
  0
LINE
  5
60F
330
1F
100
AcDbEntity
  8
4
100
AcDbLine
 10
6.961400300173224
 20
5.131846499522038
 30
0.0
 11
6.418400300173224
 21
5.131846499522038
 31
0.0
  0
LINE
  5
610
330
1F
100
AcDbEntity
  8
4
100
AcDbLine
 10
6.961400300173227
 20
4.657846499522038
 30
0.0
 11
6.418400300173227
 21
4.657846499522038
 31
0.0
  0
LINE
  5
611
330
1F
100
AcDbEntity
  8
4
100
AcDbLine
 10
6.961400300173227
 20
4.183846499522038
 30
0.0
 11
6.418400300173225
 21
4.183846499522038
 31
0.0
  0
LINE
  5
612
330
1F
100
AcDbEntity
  8
4
100
AcDbLine
 10
6.356400300173226
 20
5.557846499522036
 30
0.0
 11
6.356400300173224
 21
5.115846499522038
 31
0.0
  0
LINE
  5
613
330
1F
100
AcDbEntity
  8
4
100
AcDbLine
 10
6.356400300173226
 20
4.609846499522038
 30
0.0
 11
6.356400300173226
 21
4.167846499522037
 31
0.0
  0
LINE
  5
614
330
1F
100
AcDbEntity
  8
4
100
AcDbLine
 10
6.418400300173225
 20
4.121846499522038
 30
0.0
 11
6.449400300173226
 21
4.152846499522038
 31
0.0
  0
LINE
  5
615
330
1F
100
AcDbEntity
  8
4
100
AcDbLine
 10
6.418400300173225
 20
4.183846499522038
 30
0.0
 11
6.418400300173225
 21
4.121846499522038
 31
0.0
  0
LINE
  5
616
330
1F
100
AcDbEntity
  8
4
100
AcDbLine
 10
6.356400300173226
 20
4.167846499522037
 30
0.0
 11
6.418400300173225
 21
4.167846499522037
 31
0.0
  0
LINE
  5
617
330
1F
100
AcDbEntity
  8
4
100
AcDbLine
 10
6.356400300173226
 20
4.135846499522037
 30
0.0
 11
6.418400300173225
 21
4.135846499522037
 31
0.0
  0
LINE
  5
618
330
1F
100
AcDbEntity
  8
4
100
AcDbLine
 10
6.356400300173224
 20
5.083846499522038
 30
0.0
 11
6.356400300173226
 21
4.641846499522038
 31
0.0
  0
LINE
  5
619
330
1F
100
AcDbEntity
  8
4
100
AcDbLine
 10
6.418400300173227
 20
4.657846499522038
 30
0.0
 11
6.418400300173227
 21
4.595846499522038
 31
0.0
  0
LINE
  5
61A
330
1F
100
AcDbEntity
  8
4
100
AcDbLine
 10
6.418400300173227
 20
4.595846499522038
 30
0.0
 11
6.449400300173226
 21
4.626846499522038
 31
0.0
  0
LINE
  5
61B
330
1F
100
AcDbEntity
  8
4
100
AcDbLine
 10
6.356400300173226
 20
4.609846499522038
 30
0.0
 11
6.418400300173227
 21
4.609846499522038
 31
0.0
  0
LINE
  5
61C
330
1F
100
AcDbEntity
  8
4
100
AcDbLine
 10
6.356400300173226
 20
4.641846499522038
 30
0.0
 11
6.418400300173227
 21
4.641846499522038
 31
0.0
  0
LINE
  5
61D
330
1F
100
AcDbEntity
  8
4
100
AcDbLine
 10
6.418400300173224
 20
5.069846499522038
 30
0.0
 11
6.449400300173222
 21
5.100846499522037
 31
0.0
  0
LINE
  5
61E
330
1F
100
AcDbEntity
  8
4
100
AcDbLine
 10
6.356400300173224
 20
5.115846499522038
 30
0.0
 11
6.418400300173224
 21
5.115846499522038
 31
0.0
  0
LINE
  5
61F
330
1F
100
AcDbEntity
  8
4
100
AcDbLine
 10
6.356400300173224
 20
5.083846499522038
 30
0.0
 11
6.418400300173224
 21
5.083846499522038
 31
0.0
  0
LINE
  5
620
330
1F
100
AcDbEntity
  8
4
100
AcDbLine
 10
6.418400300173224
 20
5.131846499522038
 30
0.0
 11
6.418400300173224
 21
5.069846499522038
 31
0.0
  0
LINE
  5
621
330
1F
100
AcDbEntity
  8
4
100
AcDbLine
 10
6.356400300173226
 20
5.557846499522036
 30
0.0
 11
6.418400300173225
 21
5.557846499522036
 31
0.0
  0
LINE
  5
622
330
1F
100
AcDbEntity
  8
4
100
AcDbLine
 10
7.666400300173226
 20
5.557846499522036
 30
0.0
 11
7.666400300173226
 21
5.115846499522038
 31
0.0
  0
LINE
  5
623
330
1F
100
AcDbEntity
  8
4
100
AcDbLine
 10
6.961400300173227
 20
4.121846499522038
 30
0.0
 11
6.961400300173227
 21
4.183846499522038
 31
0.0
  0
LINE
  5
624
330
1F
100
AcDbEntity
  8
4
100
AcDbLine
 10
6.961400300173227
 20
4.595846499522038
 30
0.0
 11
6.961400300173227
 21
4.657846499522038
 31
0.0
  0
LINE
  5
625
330
1F
100
AcDbEntity
  8
4
100
AcDbLine
 10
6.961400300173224
 20
5.069846499522038
 30
0.0
 11
6.961400300173224
 21
5.131846499522038
 31
0.0
  0
LINE
  5
626
330
1F
100
AcDbEntity
  8
4
100
AcDbLine
 10
7.666400300173226
 20
4.609846499522038
 30
0.0
 11
7.666400300173226
 21
4.167846499522037
 31
0.0
  0
LINE
  5
627
330
1F
100
AcDbEntity
  8
4
100
AcDbLine
 10
8.271400300173226
 20
4.183846499522038
 30
0.0
 11
7.728400300173223
 21
4.183846499522038
 31
0.0
  0
LINE
  5
628
330
1F
100
AcDbEntity
  8
4
100
AcDbLine
 10
7.666400300173226
 20
4.167846499522037
 30
0.0
 11
7.728400300173223
 21
4.167846499522037
 31
0.0
  0
LINE
  5
629
330
1F
100
AcDbEntity
  8
4
100
AcDbLine
 10
7.666400300173226
 20
4.135846499522037
 30
0.0
 11
7.728400300173223
 21
4.135846499522037
 31
0.0
  0
LINE
  5
62A
330
1F
100
AcDbEntity
  8
4
100
AcDbLine
 10
7.728400300173223
 20
4.121846499522038
 30
0.0
 11
7.759400300173226
 21
4.152846499522038
 31
0.0
  0
LINE
  5
62B
330
1F
100
AcDbEntity
  8
4
100
AcDbLine
 10
7.728400300173223
 20
4.183846499522038
 30
0.0
 11
7.728400300173223
 21
4.121846499522038
 31
0.0
  0
LINE
  5
62C
330
1F
100
AcDbEntity
  8
4
100
AcDbLine
 10
8.271400300173226
 20
4.121846499522038
 30
0.0
 11
8.271400300173226
 21
4.183846499522038
 31
0.0
  0
LINE
  5
62D
330
1F
100
AcDbEntity
  8
4
100
AcDbLine
 10
8.342400300173228
 20
4.121846499522038
 30
0.0
 11
8.342400300173228
 21
4.183846499522038
 31
0.0
  0
LINE
  5
62E
330
1F
100
AcDbEntity
  8
4
100
AcDbLine
 10
8.271400300173226
 20
5.131846499522038
 30
0.0
 11
7.728400300173223
 21
5.131846499522038
 31
0.0
  0
LINE
  5
62F
330
1F
100
AcDbEntity
  8
4
100
AcDbLine
 10
8.271400300173226
 20
4.657846499522038
 30
0.0
 11
7.728400300173227
 21
4.657846499522038
 31
0.0
  0
LINE
  5
630
330
1F
100
AcDbEntity
  8
4
100
AcDbLine
 10
7.666400300173226
 20
5.083846499522038
 30
0.0
 11
7.666400300173226
 21
4.641846499522038
 31
0.0
  0
LINE
  5
631
330
1F
100
AcDbEntity
  8
4
100
AcDbLine
 10
7.666400300173226
 20
4.641846499522038
 30
0.0
 11
7.728400300173227
 21
4.641846499522038
 31
0.0
  0
LINE
  5
632
330
1F
100
AcDbEntity
  8
4
100
AcDbLine
 10
7.666400300173226
 20
4.609846499522038
 30
0.0
 11
7.728400300173227
 21
4.609846499522038
 31
0.0
  0
LINE
  5
633
330
1F
100
AcDbEntity
  8
4
100
AcDbLine
 10
7.728400300173227
 20
4.657846499522038
 30
0.0
 11
7.728400300173227
 21
4.595846499522038
 31
0.0
  0
LINE
  5
634
330
1F
100
AcDbEntity
  8
4
100
AcDbLine
 10
7.728400300173227
 20
4.595846499522038
 30
0.0
 11
7.759400300173226
 21
4.626846499522038
 31
0.0
  0
LINE
  5
635
330
1F
100
AcDbEntity
  8
4
100
AcDbLine
 10
7.666400300173226
 20
5.115846499522038
 30
0.0
 11
7.728400300173223
 21
5.115846499522038
 31
0.0
  0
LINE
  5
636
330
1F
100
AcDbEntity
  8
4
100
AcDbLine
 10
7.666400300173226
 20
5.083846499522038
 30
0.0
 11
7.728400300173223
 21
5.083846499522038
 31
0.0
  0
LINE
  5
637
330
1F
100
AcDbEntity
  8
4
100
AcDbLine
 10
7.728400300173223
 20
5.131846499522038
 30
0.0
 11
7.728400300173223
 21
5.069846499522038
 31
0.0
  0
LINE
  5
638
330
1F
100
AcDbEntity
  8
4
100
AcDbLine
 10
7.728400300173223
 20
5.069846499522038
 30
0.0
 11
7.759400300173222
 21
5.100846499522037
 31
0.0
  0
LINE
  5
639
330
1F
100
AcDbEntity
  8
4
100
AcDbLine
 10
8.342400300173228
 20
4.595846499522038
 30
0.0
 11
8.342400300173228
 21
4.657846499522038
 31
0.0
  0
LINE
  5
63A
330
1F
100
AcDbEntity
  8
4
100
AcDbLine
 10
8.271400300173226
 20
4.595846499522038
 30
0.0
 11
8.271400300173226
 21
4.657846499522038
 31
0.0
  0
LINE
  5
63B
330
1F
100
AcDbEntity
  8
4
100
AcDbLine
 10
8.271400300173226
 20
5.069846499522038
 30
0.0
 11
8.271400300173226
 21
5.131846499522038
 31
0.0
  0
LINE
  5
63C
330
1F
100
AcDbEntity
  8
4
100
AcDbLine
 10
8.342400300173224
 20
5.069846499522038
 30
0.0
 11
8.342400300173224
 21
5.131846499522038
 31
0.0
  0
LINE
  5
63D
330
1F
100
AcDbEntity
  8
4
100
AcDbLine
 10
7.666400300173226
 20
5.557846499522036
 30
0.0
 11
7.728400300173227
 21
5.557846499522036
 31
0.0
  0
LINE
  5
63E
330
1F
100
AcDbEntity
  8
4
100
AcDbLine
 10
8.947400300173228
 20
5.557846499522036
 30
0.0
 11
8.947400300173224
 21
5.115846499522038
 31
0.0
  0
LINE
  5
63F
330
1F
100
AcDbEntity
  8
4
100
AcDbLine
 10
8.947400300173228
 20
4.609846499522038
 30
0.0
 11
8.947400300173228
 21
4.167846499522037
 31
0.0
  0
LINE
  5
640
330
1F
100
AcDbEntity
  8
4
100
AcDbLine
 10
8.885400300173227
 20
4.167846499522037
 30
0.0
 11
8.947400300173224
 21
4.167846499522037
 31
0.0
  0
LINE
  5
641
330
1F
100
AcDbEntity
  8
4
100
AcDbLine
 10
8.885400300173227
 20
4.135846499522037
 30
0.0
 11
8.947400300173224
 21
4.135846499522037
 31
0.0
  0
LINE
  5
642
330
1F
100
AcDbEntity
  8
4
100
AcDbLine
 10
8.885400300173227
 20
4.183846499522038
 30
0.0
 11
8.885400300173227
 21
4.121846499522038
 31
0.0
  0
LINE
  5
643
330
1F
100
AcDbEntity
  8
4
100
AcDbLine
 10
8.885400300173227
 20
4.121846499522038
 30
0.0
 11
8.854400300173228
 21
4.152846499522038
 31
0.0
  0
LINE
  5
644
330
1F
100
AcDbEntity
  8
4
100
AcDbLine
 10
8.885400300173227
 20
5.115846499522038
 30
0.0
 11
8.947400300173224
 21
5.115846499522038
 31
0.0
  0
LINE
  5
645
330
1F
100
AcDbEntity
  8
4
100
AcDbLine
 10
8.885400300173227
 20
5.083846499522038
 30
0.0
 11
8.947400300173224
 21
5.083846499522038
 31
0.0
  0
LINE
  5
646
330
1F
100
AcDbEntity
  8
4
100
AcDbLine
 10
8.885400300173227
 20
4.641846499522038
 30
0.0
 11
8.947400300173228
 21
4.641846499522038
 31
0.0
  0
LINE
  5
647
330
1F
100
AcDbEntity
  8
4
100
AcDbLine
 10
8.885400300173227
 20
4.609846499522038
 30
0.0
 11
8.947400300173228
 21
4.609846499522038
 31
0.0
  0
LINE
  5
648
330
1F
100
AcDbEntity
  8
4
100
AcDbLine
 10
8.885400300173227
 20
4.657846499522038
 30
0.0
 11
8.885400300173227
 21
4.595846499522038
 31
0.0
  0
LINE
  5
649
330
1F
100
AcDbEntity
  8
4
100
AcDbLine
 10
8.885400300173227
 20
4.595846499522038
 30
0.0
 11
8.854400300173228
 21
4.626846499522038
 31
0.0
  0
LINE
  5
64A
330
1F
100
AcDbEntity
  8
4
100
AcDbLine
 10
8.885400300173227
 20
5.069846499522038
 30
0.0
 11
8.854400300173224
 21
5.100846499522037
 31
0.0
  0
LINE
  5
64B
330
1F
100
AcDbEntity
  8
4
100
AcDbLine
 10
8.885400300173227
 20
5.131846499522038
 30
0.0
 11
8.885400300173227
 21
5.069846499522038
 31
0.0
  0
LINE
  5
64C
330
1F
100
AcDbEntity
  8
4
100
AcDbLine
 10
8.947400300173224
 20
5.083846499522038
 30
0.0
 11
8.947400300173228
 21
4.641846499522038
 31
0.0
  0
LINE
  5
64D
330
1F
100
AcDbEntity
  8
4
100
AcDbLine
 10
8.947400300173228
 20
5.557846499522036
 30
0.0
 11
8.885400300173227
 21
5.557846499522036
 31
0.0
  0
LINE
  5
64E
330
1F
100
AcDbEntity
  8
1
100
AcDbLine
 10
8.322900300173227
 20
2.651832084678286
 30
0.0
 11
8.322900300173227
 21
5.651832084678286
 31
0.0
  0
ENDSEC
  0
SECTION
  2
OBJECTS
  0
DICTIONARY
  5
C
330
0
100
AcDbDictionary
281
     1
  3
ACAD_COLOR
350
36F
  3
ACAD_GROUP
350
D
  3
ACAD_LAYOUT
350
1A
  3
ACAD_MATERIAL
350
36E
  3
ACAD_MLINESTYLE
350
17
  3
ACAD_PLOTSETTINGS
350
19
  3
ACAD_PLOTSTYLENAME
350
E
  3
ACAD_TABLESTYLE
350
6F2
  3
ACAD_VISUALSTYLE
350
6E1
  3
ACDBHEADERROUNDTRIPXREC
350
71D
  3
AcDbVariableDictionary
350
6DA
  3
DWGPROPS
350
71C
  0
DICTIONARY
  5
700
330
8
100
AcDbDictionary
280
     1
281
     1
  3
ACAD_XREC_ROUNDTRIP
360
701
  0
DICTIONARY
  5
702
330
10
100
AcDbDictionary
280
     1
281
     1
  3
ACAD_XREC_ROUNDTRIP
360
703
  0
DICTIONARY
  5
704
330
6D
100
AcDbDictionary
280
     1
281
     1
  3
ACAD_XREC_ROUNDTRIP
360
705
  0
DICTIONARY
  5
706
330
6E
100
AcDbDictionary
280
     1
281
     1
  3
ACAD_XREC_ROUNDTRIP
360
707
  0
DICTIONARY
  5
708
330
6F
100
AcDbDictionary
280
     1
281
     1
  3
ACAD_XREC_ROUNDTRIP
360
709
  0
DICTIONARY
  5
70A
330
366
100
AcDbDictionary
280
     1
281
     1
  3
ACAD_XREC_ROUNDTRIP
360
70B
  0
DICTIONARY
  5
36F
102
{ACAD_REACTORS
330
C
102
}
330
C
100
AcDbDictionary
281
     1
  0
DICTIONARY
  5
D
102
{ACAD_REACTORS
330
C
102
}
330
C
100
AcDbDictionary
281
     1
  0
DICTIONARY
  5
1A
102
{ACAD_REACTORS
330
C
102
}
330
C
100
AcDbDictionary
281
     1
  3
Layout1
350
59
  3
Layout2
350
5E
  3
Model
350
22
  0
DICTIONARY
  5
36E
102
{ACAD_REACTORS
330
C
102
}
330
C
100
AcDbDictionary
281
     1
  3
ByBlock
350
6DF
  3
ByLayer
350
6DE
  3
Global
350
6E0
  0
DICTIONARY
  5
17
102
{ACAD_REACTORS
330
C
102
}
330
C
100
AcDbDictionary
281
     1
  3
Standard
350
18
  0
DICTIONARY
  5
19
102
{ACAD_REACTORS
330
C
102
}
330
C
100
AcDbDictionary
281
     1
  0
ACDBDICTIONARYWDFLT
  5
E
102
{ACAD_REACTORS
330
C
102
}
330
C
100
AcDbDictionary
281
     1
  3
Normal
350
F
100
AcDbDictionaryWithDefault
340
F
  0
DICTIONARY
  5
6F2
102
{ACAD_REACTORS
330
C
102
}
330
C
100
AcDbDictionary
281
     1
  3
Standard
350
6F3
  0
DICTIONARY
  5
6E1
102
{ACAD_REACTORS
330
C
102
}
330
C
100
AcDbDictionary
281
     1
  3
2dWireframe
350
6E7
  3
3D Hidden
350
6E9
  3
3dWireframe
350
6E8
  3
Basic
350
6E6
  3
Brighten
350
6ED
  3
ColorChange
350
6F1
  3
Conceptual
350
6EA
  3
Dim
350
6EC
  3
Facepattern
350
6F0
  3
Flat
350
6E2
  3
FlatWithEdges
350
6E3
  3
Gouraud
350
6E4
  3
GouraudWithEdges
350
6E5
  3
Linepattern
350
6EF
  3
Realistic
350
6EB
  3
Thicken
350
6EE
  0
DICTIONARY
  5
71D
102
{ACAD_REACTORS
330
C
102
}
330
C
100
AcDbDictionary
281
     1
  3
COLORDICT
350
71F
  3
MATERIALDICT
350
71E
  0
DICTIONARY
  5
6DA
102
{ACAD_REACTORS
330
C
102
}
330
C
100
AcDbDictionary
281
     1
  3
CTABLESTYLE
350
714
  3
DIMASSOC
350
6DB
  3
PROJECTNAME
350
6DC
  0
XRECORD
  5
71C
102
{ACAD_REACTORS
330
C
102
}
330
C
100
AcDbXrecord
280
     1
  1
DWGPROPS COOKIE
  2

  3

  4

  6

  7

  8
tjoseph
  9

300
=
301
=
302
=
303
=
304
=
305
=
306
=
307
=
308
=
309
=
 40
0.191541875
 41
2452635.329614572
 42
2454728.624476273
  1

 90
        0
  0
XRECORD
  5
701
102
{ACAD_REACTORS
330
700
102
}
330
700
100
AcDbXrecord
280
     1
102
VTR_0.000_0.000_1.000_1.000_VISUALSTYLE
340
6E7
102
VTR_0.000_0.000_1.000_1.000_GRIDDISPLAY
 70
     3
102
VTR_0.000_0.000_1.000_1.000_GRIDMAJOR
 70
     5
102
VTR_0.000_0.000_1.000_1.000_DEFAULTLIGHTING
280
     1
102
VTR_0.000_0.000_1.000_1.000_DEFAULTLIGHTINGTYPE
 70
     1
102
VTR_0.000_0.000_1.000_1.000_BRIGHTNESS
141
0.0
102
VTR_0.000_0.000_1.000_1.000_CONTRAST
142
0.0
  0
XRECORD
  5
703
102
{ACAD_REACTORS
330
702
102
}
330
702
100
AcDbXrecord
280
     1
102
MATERIAL
340
6E0
  0
XRECORD
  5
705
102
{ACAD_REACTORS
330
704
102
}
330
704
100
AcDbXrecord
280
     1
102
MATERIAL
340
6E0
  0
XRECORD
  5
707
102
{ACAD_REACTORS
330
706
102
}
330
706
100
AcDbXrecord
280
     1
102
MATERIAL
340
6E0
  0
XRECORD
  5
709
102
{ACAD_REACTORS
330
708
102
}
330
708
100
AcDbXrecord
280
     1
102
MATERIAL
340
6E0
  0
XRECORD
  5
70B
102
{ACAD_REACTORS
330
70A
102
}
330
70A
100
AcDbXrecord
280
     1
102
MATERIAL
340
6E0
  0
LAYOUT
  5
59
102
{ACAD_XDICTIONARY
360
722
102
}
102
{ACAD_REACTORS
330
1A
102
}
330
1A
100
AcDbPlotSettings
  1

  2
None
  4

  6

 40
0.0
 41
0.0
 42
0.0
 43
0.0
 44
0.0
 45
0.0
 46
0.0
 47
0.0
 48
0.0
 49
0.0
140
0.0
141
0.0
142
1.0
143
1.0
 70
   688
 72
     0
 73
     0
 74
     5
  7
monochrome.ctb
 75
    16
147
1.0
148
0.0
149
0.0
100
AcDbLayout
  1
Layout1
 70
     1
 71
     1
 10
0.0
 20
0.0
 11
12.0
 21
9.0
 12
0.0
 22
0.0
 32
0.0
 14
0.0
 24
0.0
 34
0.0
 15
0.0
 25
0.0
 35
0.0
146
0.0
 13
0.0
 23
0.0
 33
0.0
 16
1.0
 26
0.0
 36
0.0
 17
0.0
 27
1.0
 37
0.0
 76
     0
330
58
  0
LAYOUT
  5
5E
102
{ACAD_XDICTIONARY
360
724
102
}
102
{ACAD_REACTORS
330
1A
102
}
330
1A
100
AcDbPlotSettings
  1

  2
None
  4

  6

 40
0.0
 41
0.0
 42
0.0
 43
0.0
 44
0.0
 45
0.0
 46
0.0
 47
0.0
 48
0.0
 49
0.0
140
0.0
141
0.0
142
1.0
143
1.0
 70
   688
 72
     0
 73
     0
 74
     5
  7
monochrome.ctb
 75
    16
147
1.0
148
0.0
149
0.0
100
AcDbLayout
  1
Layout2
 70
     1
 71
     2
 10
0.0
 20
0.0
 11
12.0
 21
9.0
 12
0.0
 22
0.0
 32
0.0
 14
0.0
 24
0.0
 34
0.0
 15
0.0
 25
0.0
 35
0.0
146
0.0
 13
0.0
 23
0.0
 33
0.0
 16
1.0
 26
0.0
 36
0.0
 17
0.0
 27
1.0
 37
0.0
 76
     0
330
5D
  0
LAYOUT
  5
22
102
{ACAD_XDICTIONARY
360
720
102
}
102
{ACAD_REACTORS
330
1A
102
}
330
1A
100
AcDbPlotSettings
  1

  2
\\REPUBLIC01\LJ5000 CAD
  4
Letter
  6

 40
7.143749713897705
 41
6.720394611358642
 42
7.14373779296875
 43
3.757080078125
 44
215.8999938964844
 45
279.3999938964844
 46
15.23491066175264
 47
0.0
 48
0.0
 49
0.0
140
0.0
141
0.0
142
1.0
143
0.7792899011311413
 70
 11956
 72
     0
 73
     1
 74
     1
  7
monochrome.ctb
 75
     0
147
1.283219503484515
148
-32.77939527907804
149
-29.24123896961244
100
AcDbLayout
  1
Model
 70
     1
 71
     0
 10
0.0
 20
0.0
 11
12.0
 21
9.0
 12
0.0
 22
0.0
 32
0.0
 14
0.0
 24
0.0
 34
0.0
 15
0.0
 25
0.0
 35
0.0
146
0.0
 13
0.0
 23
0.0
 33
0.0
 16
1.0
 26
0.0
 36
0.0
 17
0.0
 27
1.0
 37
0.0
 76
     0
330
1F
331
6D0
1001
ACAD_PSEXT
1000
\\REPUBLIC01\LJ5000 CAD
1000
HP LaserJet 5000 Series PCL6
1000
Cad room
1000

1070
     0
  0
MATERIAL
  5
6DF
102
{ACAD_XDICTIONARY
360
70E
102
}
102
{ACAD_REACTORS
330
36E
102
}
330
36E
100
AcDbMaterial
  1
ByBlock
  0
MATERIAL
  5
6DE
102
{ACAD_XDICTIONARY
360
70C
102
}
102
{ACAD_REACTORS
330
36E
102
}
330
36E
100
AcDbMaterial
  1
ByLayer
  0
MATERIAL
  5
6E0
102
{ACAD_XDICTIONARY
360
710
102
}
102
{ACAD_REACTORS
330
36E
102
}
330
36E
100
AcDbMaterial
  1
Global
  0
MLINESTYLE
  5
18
102
{ACAD_REACTORS
330
17
102
}
330
17
100
AcDbMlineStyle
  2
STANDARD
 70
     0
  3

 62
   256
 51
90.0
 52
90.0
 71
     2
 49
0.5
 62
   256
  6
BYLAYER
 49
-0.5
 62
   256
  6
BYLAYER
  0
ACDBPLACEHOLDER
  5
F
102
{ACAD_REACTORS
330
E
102
}
330
E
  0
ACAD_PROXY_OBJECT
  5
6F3
102
{ACAD_XDICTIONARY
360
712
102
}
102
{ACAD_REACTORS
330
6F2
102
}
330
6F2
100
AcDbProxyObject
 90
      499
 91
      506
 95
  6815769
 70
     0
 93
     1849
310
4254DD185B99185C990028B81E85EB51B8AE3F2E07A17AD46E2B8FC02B5E8DC0F42B1CFD028000000C1008070000C3001FDFF8000000C1003FBFF000000182007F7FE00000030400FEFFC00000060801FDFF8000000C1003FBFF00000018200000000000000681FA0B0000001820100E000186003FBFF000000182007F7FE0
310
0000030400FEFFC00000060801FDFF8000000C1003FBFF000000182007F7FE000000304000AD7A3703D0AC73F4160000003040201C00030C007F7FE00000030400FEFFC00000060801FDFF8000000C1003FBFF000000182007F7FE00000030400FEFFC000000608000
340
11
340
11
340
11
 94
        0
1001
ACAD
1000
AcRTDxfName
1000
TABLESTYLE
  0
ACAD_PROXY_OBJECT
  5
6E7
102
{ACAD_REACTORS
330
6E1
102
}
330
6E1
100
AcDbProxyObject
 90
      499
 91
      505
 95
  6815769
 70
     0
 93
      598
310
430C9915DA5C99599C985B59401049028333333333333E3BF0000000000000FB023FFFFFF0802405048070000C3008000000C800405A000000320014050640A01C00030C010500920280D3
 94
        0
1001
ACAD
1000
AcDbSavedByObjectVersion
1070
     0
1000
AcRTDxfName
1000
VISUALSTYLE
  0
ACAD_PROXY_OBJECT
  5
6E9
102
{ACAD_REACTORS
330
6E1
102
}
330
6E1
100
AcDbProxyObject
 90
      499
 91
      505
 95
  6815769
 70
     0
 93
      662
310
428CD108121A5919195B8010640502408333333333333E3BF0000000000000FB023FFFFFF0802409028070000C3008000000C8004080000000000004440A000000320014050640A01C00030C010300920280D0
 94
        0
1001
ACAD
1000
AcDbSavedByObjectVersion
1070
     0
1000
AcRTDxfName
1000
VISUALSTYLE
  0
ACAD_PROXY_OBJECT
  5
6E8
102
{ACAD_REACTORS
330
6E1
102
}
330
6E1
100
AcDbProxyObject
 90
      499
 91
      505
 95
  6815769
 70
     0
 93
      598
310
430CD915DA5C99599C985B59401059028333333333333E3BF0000000000000FB023FFFFFF0802405048070000C3008000000C800405A000000320014050640A01C00030C010500920280D0
 94
        0
1001
ACAD
1000
AcDbSavedByObjectVersion
1070
     0
1000
AcRTDxfName
1000
VISUALSTYLE
  0
ACAD_PROXY_OBJECT
  5
6E6
102
{ACAD_REACTORS
330
6E1
102
}
330
6E1
100
AcDbProxyObject
 90
      499
 91
      505
 95
  6815769
 70
     0
 93
      558
310
4190985CDA58C0107406404333333333333E3BF0000000000000FB023FFFFFF08029048070000C3008000000C80040542201C00030C014050640A01C00030C010500920280D6
 94
        0
1001
ACAD
1000
AcDbSavedByObjectVersion
1070
     0
1000
AcRTDxfName
1000
VISUALSTYLE
  0
ACAD_PROXY_OBJECT
  5
6ED
102
{ACAD_REACTORS
330
6E1
102
}
330
6E1
100
AcDbProxyObject
 90
      499
 91
      505
 95
  6815769
 70
     0
 93
      598
310
42509C9A59DA1D195B8010C409028333333333333E3BF0000000000000FB023FFFFFF0802405048070000C3008000000C80040542201C00030C014050640A01C00030C010500920280A657
 94
        0
1001
ACAD
1000
AcDbSavedByObjectVersion
1070
     0
1000
AcRTDxfName
1000
VISUALSTYLE
  0
ACAD_PROXY_OBJECT
  5
6F1
102
{ACAD_REACTORS
330
6E1
102
}
330
6E1
100
AcDbProxyObject
 90
      499
 91
      505
 95
  6815769
 70
     0
 93
      622
310
4310DBDB1BDC90DA185B99D9401104090240C333333333333E3BF0000000000000FB0220202030802405048070000C3008000000C800405422202020308014050640A01C00030C010500920280D7
 94
        0
1001
ACAD
1000
AcDbSavedByObjectVersion
1070
     0
1000
AcRTDxfName
1000
VISUALSTYLE
  0
ACAD_PROXY_OBJECT
  5
6EA
102
{ACAD_REACTORS
330
6E1
102
}
330
6E1
100
AcDbProxyObject
 90
      499
 91
      505
 95
  6815769
 70
     0
 93
      670
310
42D0DBDB98D95C1D1D585B0010940D028333333333333E3BF0000000000000FB023FFFFFF0802409028070000C3008000000C800404000000000000444042201C00030C014050640A01C00030C010300920280D0
 94
        0
1001
ACAD
1000
AcDbSavedByObjectVersion
1070
     0
1000
AcRTDxfName
1000
VISUALSTYLE
  0
ACAD_PROXY_OBJECT
  5
6EC
102
{ACAD_REACTORS
330
6E1
102
}
330
6E1
100
AcDbProxyObject
 90
      499
 91
      505
 95
  6815769
 70
     0
 93
      582
310
41111A5B4010B409028333333333333E3BF0000000000000FB023FFFFFF0802405048070000C3008000000C80040542201C00030C014050640A01C00030C01050092028099DFFFFFF4
 94
        0
1001
ACAD
1000
AcDbSavedByObjectVersion
1070
     0
1000
AcRTDxfName
1000
VISUALSTYLE
  0
ACAD_PROXY_OBJECT
  5
6F0
102
{ACAD_REACTORS
330
6E1
102
}
330
6E1
100
AcDbProxyObject
 90
      499
 91
      505
 95
  6815769
 70
     0
 93
      614
310
43119858D95C185D1D195C9B8010F409028333333333333E3BF0000000000000FB023FFFFFF0802405048070000C3008000000C80040542201C00030C014050640A01C00030C010500920280D4
 94
        0
1001
ACAD
1000
AcDbSavedByObjectVersion
1070
     0
1000
AcRTDxfName
1000
VISUALSTYLE
  0
ACAD_PROXY_OBJECT
  5
6E2
102
{ACAD_REACTORS
330
6E1
102
}
330
6E1
100
AcDbProxyObject
 90
      499
 91
      505
 95
  6815769
 70
     0
 93
      558
310
41519B185D00240901404333333333333E3BF0000000000000F9023FFFFFF0801029048070000C3008000000C80040542201C00030C014050640A01C00030C010500920286D4
 94
        0
1001
ACAD
1000
AcDbSavedByObjectVersion
1070
     0
1000
AcRTDxfName
1000
VISUALSTYLE
  0
ACAD_PROXY_OBJECT
  5
6E3
102
{ACAD_REACTORS
330
6E1
102
}
330
6E1
100
AcDbProxyObject
 90
      499
 91
      505
 95
  6815769
 70
     0
 93
      638
310
43919B185D15DA5D1A115919D95CC010140901404333333333333E3BF0000000000000F9023FFFFFF080102405048070000C3008000000C800405A000000320014050640A01C00030C010500920286D4
 94
        0
1001
ACAD
1000
AcDbSavedByObjectVersion
1070
     0
1000
AcRTDxfName
1000
VISUALSTYLE
  0
ACAD_PROXY_OBJECT
  5
6E4
102
{ACAD_REACTORS
330
6E1
102
}
330
6E1
100
AcDbProxyObject
 90
      499
 91
      505
 95
  6815769
 70
     0
 93
      582
310
4211DBDD5C985D590010240902404333333333333E3BF0000000000000F9023FFFFFF0801029048070000C3008000000C800405A01C00030C014050640A01C00030C010500920286D4
 94
        0
1001
ACAD
1000
AcDbSavedByObjectVersion
1070
     0
1000
AcRTDxfName
1000
VISUALSTYLE
  0
ACAD_PROXY_OBJECT
  5
6E5
102
{ACAD_REACTORS
330
6E1
102
}
330
6E1
100
AcDbProxyObject
 90
      499
 91
      505
 95
  6815769
 70
     0
 93
      662
310
4451DBDD5C985D5915DA5D1A115919D95CC010340902404333333333333E3BF0000000000000F9023FFFFFF080102405048070000C3008000000C800405A000000320014050640A01C00030C010500920286D4
 94
        0
1001
ACAD
1000
AcDbSavedByObjectVersion
1070
     0
1000
AcRTDxfName
1000
VISUALSTYLE
  0
ACAD_PROXY_OBJECT
  5
6EF
102
{ACAD_REACTORS
330
6E1
102
}
330
6E1
100
AcDbProxyObject
 90
      499
 91
      505
 95
  6815769
 70
     0
 93
      614
310
43131A5B995C185D1D195C9B8010E409028333333333333E3BF0000000000000FB023FFFFFF0802405048070000C3008000000C80041D42201C00030C014050640A01C00030C010500920E80D5
 94
        0
1001
ACAD
1000
AcDbSavedByObjectVersion
1070
     0
1000
AcRTDxfName
1000
VISUALSTYLE
  0
ACAD_PROXY_OBJECT
  5
6EB
102
{ACAD_REACTORS
330
6E1
102
}
330
6E1
100
AcDbProxyObject
 90
      499
 91
      505
 95
  6815769
 70
     0
 93
      590
310
429499585B1A5CDD1A58C0108409028333333333333E3BF0000000000000FB023FFFFFF08024068070000C3008000000C8004054221E1E1E308014050640A01C00030C010500920286D0
 94
        0
1001
ACAD
1000
AcDbSavedByObjectVersion
1070
     0
1000
AcRTDxfName
1000
VISUALSTYLE
  0
ACAD_PROXY_OBJECT
  5
6EE
102
{ACAD_REACTORS
330
6E1
102
}
330
6E1
100
AcDbProxyObject
 90
      499
 91
      505
 95
  6815769
 70
     0
 93
      582
310
42151A1A58DAD95B8010D409028333333333333E3BF0000000000000FB023FFFFFF0802405048070000C3008000000C80040543201C00030C014050640A01C00030C010500920280D4
 94
        0
1001
ACAD
1000
AcDbSavedByObjectVersion
1070
     0
1000
AcRTDxfName
1000
VISUALSTYLE
  0
XRECORD
  5
71F
102
{ACAD_REACTORS
330
71D
102
}
330
71D
100
AcDbXrecord
280
     1
340
36F
  0
XRECORD
  5
71E
102
{ACAD_REACTORS
330
71D
102
}
330
71D
100
AcDbXrecord
280
     1
340
36E
  0
DICTIONARYVAR
  5
714
102
{ACAD_REACTORS
330
6DA
102
}
330
6DA
100
DictionaryVariables
280
     0
  1
STANDARD
  0
DICTIONARYVAR
  5
6DB
102
{ACAD_REACTORS
330
6DA
102
}
330
6DA
100
DictionaryVariables
280
     0
  1
1
  0
DICTIONARYVAR
  5
6DC
102
{ACAD_REACTORS
330
6DA
102
}
330
6DA
100
DictionaryVariables
280
     0
  1

  0
DICTIONARY
  5
722
330
59
100
AcDbDictionary
280
     1
281
     1
  3
ACAD_XREC_ROUNDTRIP
360
723
  0
DICTIONARY
  5
724
330
5E
100
AcDbDictionary
280
     1
281
     1
  3
ACAD_XREC_ROUNDTRIP
360
725
  0
DICTIONARY
  5
720
330
22
100
AcDbDictionary
280
     1
281
     1
  3
ACAD_XREC_ROUNDTRIP
360
721
  0
DICTIONARY
  5
70E
330
6DF
100
AcDbDictionary
280
     1
281
     1
  3
ACAD_XREC_ROUNDTRIP
360
70F
  0
DICTIONARY
  5
70C
330
6DE
100
AcDbDictionary
280
     1
281
     1
  3
ACAD_XREC_ROUNDTRIP
360
70D
  0
DICTIONARY
  5
710
330
6E0
100
AcDbDictionary
280
     1
281
     1
  3
ACAD_XREC_ROUNDTRIP
360
711
  0
DICTIONARY
  5
712
330
6F3
100
AcDbDictionary
280
     1
281
     1
  3
ACAD_XREC_ROUNDTRIP
360
713
  0
XRECORD
  5
723
102
{ACAD_REACTORS
330
722
102
}
330
722
100
AcDbXrecord
280
     1
102
SHADEPLOT
 70
     0
102
SHADEPLOTRESLEVEL
 70
     2
102
SHADEPLOTCUSTOMDPI
 70
   300
  0
XRECORD
  5
725
102
{ACAD_REACTORS
330
724
102
}
330
724
100
AcDbXrecord
280
     1
102
SHADEPLOT
 70
     0
102
SHADEPLOTRESLEVEL
 70
     2
102
SHADEPLOTCUSTOMDPI
 70
   300
  0
XRECORD
  5
721
102
{ACAD_REACTORS
330
720
102
}
330
720
100
AcDbXrecord
280
     1
102
SHADEPLOT
 70
     0
102
SHADEPLOTRESLEVEL
 70
     2
102
SHADEPLOTCUSTOMDPI
 70
   300
  0
XRECORD
  5
70F
102
{ACAD_REACTORS
330
70E
102
}
330
70E
100
AcDbXrecord
280
     1
102
MATERIAL
148
0.0
149
0.0
149
0.0
 93
        0
 94
       63
282
     0
 72
     1
 77
     1
171
     1
175
     1
179
     1
273
     0
  0
XRECORD
  5
70D
102
{ACAD_REACTORS
330
70C
102
}
330
70C
100
AcDbXrecord
280
     1
102
MATERIAL
148
0.0
149
0.0
149
0.0
 93
        0
 94
       63
282
     0
 72
     1
 77
     1
171
     1
175
     1
179
     1
273
     0
  0
XRECORD
  5
711
102
{ACAD_REACTORS
330
710
102
}
330
710
100
AcDbXrecord
280
     1
102
MATERIAL
148
0.0
149
0.0
149
0.0
 93
        0
 94
       63
282
     0
 72
     1
 77
     1
171
     1
175
     1
179
     1
273
     0
  0
XRECORD
  5
713
102
{ACAD_REACTORS
330
712
102
}
330
712
100
AcDbXrecord
280
     1
102
ACAD_ROUNDTRIP_PRE2007_TABLESTYLE
 90
      512
 91
        0
  1

 92
      512
 93
        0
  2

 94
      512
 95
        0
  3

  0
ENDSEC
  0
EOF
