  0
SECTION
  2
HEADER
  9
$ACADVER
  1
AC1015
  9
$ACADMAINTVER
 70
    20
  9
$DWGCODEPAGE
  3
ANSI_1252
  9
$INSBASE
 10
0.0
 20
0.0
 30
0.0
  9
$EXTMIN
 10
5.490003342881919
 20
3.007919335979874
 30
-0.0000000000112498
  9
$EXTMAX
 10
13.74083899443337
 20
8.258697529857393
 30
0.0000000000002956
  9
$LIMMIN
 10
0.0
 20
0.0
  9
$LIMMAX
 10
12.0
 20
9.0
  9
$ORTHOMODE
 70
     1
  9
$REGENMODE
 70
     1
  9
$FILLMODE
 70
     1
  9
$QTEXTMODE
 70
     0
  9
$MIRRTEXT
 70
     1
  9
$LTSCALE
 40
1.0
  9
$ATTMODE
 70
     1
  9
$TEXTSIZE
 40
0.2
  9
$TRACEWID
 40
0.05
  9
$TEXTSTYLE
  7
Standard
  9
$CLAYER
  8
0
  9
$CELTYPE
  6
ByLayer
  9
$CECOLOR
 62
   256
  9
$CELTSCALE
 40
1.0
  9
$DISPSILH
 70
     0
  9
$DIMSCALE
 40
1.0
  9
$DIMASZ
 40
0.18
  9
$DIMEXO
 40
0.0625
  9
$DIMDLI
 40
0.38
  9
$DIMRND
 40
0.0
  9
$DIMDLE
 40
0.0
  9
$DIMEXE
 40
0.18
  9
$DIMTP
 40
0.0
  9
$DIMTM
 40
0.0
  9
$DIMTXT
 40
0.18
  9
$DIMCEN
 40
0.09
  9
$DIMTSZ
 40
0.0
  9
$DIMTOL
 70
     0
  9
$DIMLIM
 70
     0
  9
$DIMTIH
 70
     1
  9
$DIMTOH
 70
     1
  9
$DIMSE1
 70
     0
  9
$DIMSE2
 70
     0
  9
$DIMTAD
 70
     0
  9
$DIMZIN
 70
     0
  9
$DIMBLK
  1

  9
$DIMASO
 70
     1
  9
$DIMSHO
 70
     1
  9
$DIMPOST
  1

  9
$DIMAPOST
  1

  9
$DIMALT
 70
     0
  9
$DIMALTD
 70
     2
  9
$DIMALTF
 40
25.4
  9
$DIMLFAC
 40
1.0
  9
$DIMTOFL
 70
     0
  9
$DIMTVP
 40
0.0
  9
$DIMTIX
 70
     0
  9
$DIMSOXD
 70
     0
  9
$DIMSAH
 70
     0
  9
$DIMBLK1
  1

  9
$DIMBLK2
  1

  9
$DIMSTYLE
  2
Standard
  9
$DIMCLRD
 70
     0
  9
$DIMCLRE
 70
     0
  9
$DIMCLRT
 70
     0
  9
$DIMTFAC
 40
1.0
  9
$DIMGAP
 40
0.09
  9
$DIMJUST
 70
     0
  9
$DIMSD1
 70
     0
  9
$DIMSD2
 70
     0
  9
$DIMTOLJ
 70
     1
  9
$DIMTZIN
 70
     0
  9
$DIMALTZ
 70
     0
  9
$DIMALTTZ
 70
     0
  9
$DIMUPT
 70
     0
  9
$DIMDEC
 70
     4
  9
$DIMTDEC
 70
     4
  9
$DIMALTU
 70
     2
  9
$DIMALTTD
 70
     2
  9
$DIMTXSTY
  7
Standard
  9
$DIMAUNIT
 70
     0
  9
$DIMADEC
 70
     0
  9
$DIMALTRND
 40
0.0
  9
$DIMAZIN
 70
     0
  9
$DIMDSEP
 70
    46
  9
$DIMATFIT
 70
     3
  9
$DIMFRAC
 70
     0
  9
$DIMLDRBLK
  1

  9
$DIMLUNIT
 70
     2
  9
$DIMLWD
 70
    -2
  9
$DIMLWE
 70
    -2
  9
$DIMTMOVE
 70
     0
  9
$LUNITS
 70
     2
  9
$LUPREC
 70
     4
  9
$SKETCHINC
 40
0.1
  9
$FILLETRAD
 40
0.5
  9
$AUNITS
 70
     0
  9
$AUPREC
 70
     0
  9
$MENU
  1
.
  9
$ELEVATION
 40
0.0
  9
$PELEVATION
 40
0.0
  9
$THICKNESS
 40
0.0
  9
$LIMCHECK
 70
     0
  9
$CHAMFERA
 40
0.5
  9
$CHAMFERB
 40
0.5
  9
$CHAMFERC
 40
1.0
  9
$CHAMFERD
 40
0.0
  9
$SKPOLY
 70
     0
  9
$TDCREATE
 40
2452635.328404838
  9
$TDUCREATE
 40
2452635.536738172
  9
$TDUPDATE
 40
2454728.623969537
  9
$TDUUPDATE
 40
2454728.832302870
  9
$TDINDWG
 40
0.1852216782
  9
$TDUSRTIMER
 40
0.1852216782
  9
$USRTIMER
 70
     1
  9
$ANGBASE
 50
0.0
  9
$ANGDIR
 70
     0
  9
$PDMODE
 70
     0
  9
$PDSIZE
 40
0.0
  9
$PLINEWID
 40
0.0
  9
$SPLFRAME
 70
     0
  9
$SPLINETYPE
 70
     6
  9
$SPLINESEGS
 70
     8
  9
$HANDSEED
  5
5CF
  9
$SURFTAB1
 70
     6
  9
$SURFTAB2
 70
     6
  9
$SURFTYPE
 70
     6
  9
$SURFU
 70
     6
  9
$SURFV
 70
     6
  9
$UCSBASE
  2

  9
$UCSNAME
  2

  9
$UCSORG
 10
0.0
 20
0.0
 30
0.0
  9
$UCSXDIR
 10
1.0
 20
0.0
 30
0.0
  9
$UCSYDIR
 10
0.0
 20
1.0
 30
0.0
  9
$UCSORTHOREF
  2

  9
$UCSORTHOVIEW
 70
     0
  9
$UCSORGTOP
 10
0.0
 20
0.0
 30
0.0
  9
$UCSORGBOTTOM
 10
0.0
 20
0.0
 30
0.0
  9
$UCSORGLEFT
 10
0.0
 20
0.0
 30
0.0
  9
$UCSORGRIGHT
 10
0.0
 20
0.0
 30
0.0
  9
$UCSORGFRONT
 10
0.0
 20
0.0
 30
0.0
  9
$UCSORGBACK
 10
0.0
 20
0.0
 30
0.0
  9
$PUCSBASE
  2

  9
$PUCSNAME
  2

  9
$PUCSORG
 10
0.0
 20
0.0
 30
0.0
  9
$PUCSXDIR
 10
1.0
 20
0.0
 30
0.0
  9
$PUCSYDIR
 10
0.0
 20
1.0
 30
0.0
  9
$PUCSORTHOREF
  2

  9
$PUCSORTHOVIEW
 70
     0
  9
$PUCSORGTOP
 10
0.0
 20
0.0
 30
0.0
  9
$PUCSORGBOTTOM
 10
0.0
 20
0.0
 30
0.0
  9
$PUCSORGLEFT
 10
0.0
 20
0.0
 30
0.0
  9
$PUCSORGRIGHT
 10
0.0
 20
0.0
 30
0.0
  9
$PUCSORGFRONT
 10
0.0
 20
0.0
 30
0.0
  9
$PUCSORGBACK
 10
0.0
 20
0.0
 30
0.0
  9
$USERI1
 70
     0
  9
$USERI2
 70
     0
  9
$USERI3
 70
     0
  9
$USERI4
 70
     0
  9
$USERI5
 70
     0
  9
$USERR1
 40
0.0
  9
$USERR2
 40
0.0
  9
$USERR3
 40
0.0
  9
$USERR4
 40
0.0
  9
$USERR5
 40
0.0
  9
$WORLDVIEW
 70
     1
  9
$SHADEDGE
 70
     3
  9
$SHADEDIF
 70
    70
  9
$TILEMODE
 70
     1
  9
$MAXACTVP
 70
    64
  9
$PINSBASE
 10
0.0
 20
0.0
 30
0.0
  9
$PLIMCHECK
 70
     0
  9
$PEXTMIN
 10
0.0
 20
0.0
 30
0.0
  9
$PEXTMAX
 10
0.0
 20
0.0
 30
0.0
  9
$PLIMMIN
 10
0.0
 20
0.0
  9
$PLIMMAX
 10
12.0
 20
9.0
  9
$UNITMODE
 70
     0
  9
$VISRETAIN
 70
     1
  9
$PLINEGEN
 70
     0
  9
$PSLTSCALE
 70
     1
  9
$TREEDEPTH
 70
  3020
  9
$CMLSTYLE
  2
Standard
  9
$CMLJUST
 70
     0
  9
$CMLSCALE
 40
1.0
  9
$PROXYGRAPHICS
 70
     1
  9
$MEASUREMENT
 70
     0
  9
$CELWEIGHT
370
    -1
  9
$ENDCAPS
280
     0
  9
$JOINSTYLE
280
     0
  9
$LWDISPLAY
290
     0
  9
$INSUNITS
 70
     1
  9
$HYPERLINKBASE
  1

  9
$STYLESHEET
  1
monochrome.ctb
  9
$XEDIT
290
     1
  9
$CEPSNTYPE
380
     0
  9
$PSTYLEMODE
290
     1
  9
$FINGERPRINTGUID
  2
{FDEAD576-A652-11D2-9A35-0060089B3A3F}
  9
$VERSIONGUID
  2
{6BC26115-3D20-499A-854B-C0226BE09A2B}
  9
$EXTNAMES
290
     1
  9
$PSVPSCALE
 40
0.0
  9
$OLESTARTUP
290
     0
  0
ENDSEC
  0
SECTION
  2
CLASSES
  0
CLASS
  1
ACDBDICTIONARYWDFLT
  2
AcDbDictionaryWithDefault
  3
ObjectDBX Classes
 90
        0
280
     0
281
     0
  0
CLASS
  1
ACDBPLACEHOLDER
  2
AcDbPlaceHolder
  3
ObjectDBX Classes
 90
        0
280
     0
281
     0
  0
CLASS
  1
LAYOUT
  2
AcDbLayout
  3
ObjectDBX Classes
 90
        0
280
     0
281
     0
  0
CLASS
  1
DICTIONARYVAR
  2
AcDbDictionaryVar
  3
ObjectDBX Classes
 90
        0
280
     0
281
     0
  0
ENDSEC
  0
SECTION
  2
TABLES
  0
TABLE
  2
VPORT
  5
8
330
0
100
AcDbSymbolTable
 70
     2
  0
VPORT
  5
5C5
330
8
100
AcDbSymbolTableRecord
100
AcDbViewportTableRecord
  2
*Active
 70
     0
 10
0.0
 20
0.0
 11
1.0
 21
1.0
 12
9.615421168657647
 22
5.633308432918633
 13
0.0
 23
0.0
 14
0.5
 24
0.5
 15
0.5
 25
0.5
 16
0.0
 26
0.0
 36
1.0
 17
0.0
 27
0.0
 37
0.0
 40
5.545258879269024
 41
1.495145631067961
 42
50.0
 43
0.0
 44
0.0
 50
0.0
 51
0.0
 71
     0
 72
   100
 73
     1
 74
     3
 75
     0
 76
     0
 77
     0
 78
     0
281
     0
 65
     1
110
0.0
120
0.0
130
0.0
111
1.0
121
0.0
131
0.0
112
0.0
122
1.0
132
0.0
 79
     0
146
0.0
  0
ENDTAB
  0
TABLE
  2
LTYPE
  5
5
330
0
100
AcDbSymbolTable
 70
     2
  0
LTYPE
  5
14
330
5
100
AcDbSymbolTableRecord
100
AcDbLinetypeTableRecord
  2
ByBlock
 70
     0
  3

 72
    65
 73
     0
 40
0.0
  0
LTYPE
  5
15
330
5
100
AcDbSymbolTableRecord
100
AcDbLinetypeTableRecord
  2
ByLayer
 70
     0
  3

 72
    65
 73
     0
 40
0.0
  0
LTYPE
  5
16
330
5
100
AcDbSymbolTableRecord
100
AcDbLinetypeTableRecord
  2
Continuous
 70
     0
  3
Solid line
 72
    65
 73
     0
 40
0.0
  0
LTYPE
  5
309
330
5
100
AcDbSymbolTableRecord
100
AcDbLinetypeTableRecord
  2
CENTER
 70
     0
  3
Center ____ _ ____ _ ____ _ ____ _ ____ _ ____
 72
    65
 73
     4
 40
2.0
 49
1.25
 74
     0
 49
-0.25
 74
     0
 49
0.25
 74
     0
 49
-0.25
 74
     0
  0
ENDTAB
  0
TABLE
  2
LAYER
  5
2
330
0
100
AcDbSymbolTable
 70
     4
  0
LAYER
  5
10
330
2
100
AcDbSymbolTableRecord
100
AcDbLayerTableRecord
  2
0
 70
     0
 62
     7
  6
Continuous
370
    -3
390
F
  0
LAYER
  5
6D
330
2
100
AcDbSymbolTableRecord
100
AcDbLayerTableRecord
  2
1
 70
     0
 62
     1
  6
Continuous
370
    -3
390
F
  0
LAYER
  5
6E
330
2
100
AcDbSymbolTableRecord
100
AcDbLayerTableRecord
  2
4
 70
     0
 62
     4
  6
Continuous
370
    -3
390
F
  0
LAYER
  5
6F
330
2
100
AcDbSymbolTableRecord
100
AcDbLayerTableRecord
  2
8
 70
     0
 62
     2
  6
Continuous
370
    -3
390
F
  0
ENDTAB
  0
TABLE
  2
STYLE
  5
3
330
0
100
AcDbSymbolTable
 70
     2
  0
STYLE
  5
11
330
3
100
AcDbSymbolTableRecord
100
AcDbTextStyleTableRecord
  2
Standard
 70
     0
 40
0.0
 41
1.0
 50
0.0
 71
     0
 42
0.2
  3
txt
  4

  0
STYLE
  5
70
330
3
100
AcDbSymbolTableRecord
100
AcDbTextStyleTableRecord
  2
ROMANS
 70
     0
 40
0.0
 41
1.0
 50
0.0
 71
     0
 42
0.07
  3
ROMANS
  4

  0
ENDTAB
  0
TABLE
  2
VIEW
  5
6
330
0
100
AcDbSymbolTable
 70
     0
  0
ENDTAB
  0
TABLE
  2
UCS
  5
7
330
0
100
AcDbSymbolTable
 70
     0
  0
ENDTAB
  0
TABLE
  2
APPID
  5
9
330
0
100
AcDbSymbolTable
 70
     1
  0
APPID
  5
12
330
9
100
AcDbSymbolTableRecord
100
AcDbRegAppTableRecord
  2
ACAD
 70
     0
  0
ENDTAB
  0
TABLE
  2
DIMSTYLE
  5
A
330
0
100
AcDbSymbolTable
 70
     1
100
AcDbDimStyleTable
 71
     0
  0
DIMSTYLE
105
27
330
A
100
AcDbSymbolTableRecord
100
AcDbDimStyleTableRecord
  2
Standard
 70
     0
340
11
  0
ENDTAB
  0
TABLE
  2
BLOCK_RECORD
  5
1
330
0
100
AcDbSymbolTable
 70
     7
  0
BLOCK_RECORD
  5
1F
330
1
100
AcDbSymbolTableRecord
100
AcDbBlockTableRecord
  2
*Model_Space
340
22
  0
BLOCK_RECORD
  5
58
330
1
100
AcDbSymbolTableRecord
100
AcDbBlockTableRecord
  2
*Paper_Space
340
59
  0
BLOCK_RECORD
  5
5D
330
1
100
AcDbSymbolTableRecord
100
AcDbBlockTableRecord
  2
*Paper_Space0
340
5E
  0
BLOCK_RECORD
  5
65
330
1
100
AcDbSymbolTableRecord
100
AcDbBlockTableRecord
  2
ARRO
340
0
102
{BLKREFS
331
79
331
DC
331
DD
331
DE
331
DF
331
E0
331
E4
331
E5
331
E9
331
EA
331
13C
331
13D
331
31D
331
380
331
381
331
382
331
383
331
384
331
388
331
389
331
38D
331
38E
102
}
  0
BLOCK_RECORD
  5
71
330
1
100
AcDbSymbolTableRecord
100
AcDbBlockTableRecord
  2
LE1001
340
0
  0
BLOCK_RECORD
  5
131
330
1
100
AcDbSymbolTableRecord
100
AcDbBlockTableRecord
  2
TEMP3
340
0
102
{BLKREFS
331
137
102
}
  0
BLOCK_RECORD
  5
136
330
1
100
AcDbSymbolTableRecord
100
AcDbBlockTableRecord
  2
A$C62A14645
340
0
102
{BLKREFS
331
144
331
3D5
102
}
  0
BLOCK_RECORD
  5
140
330
1
100
AcDbSymbolTableRecord
100
AcDbBlockTableRecord
  2
SPL2CORRIDOR5H72
340
0
310
28000000200000002000000001000800000000000004000000000000000000000000000000000000000000004000000080000000FF000000002000004020000080200000FF200000004000004040000080400000FF400000006000004060000080600000FF600000008000004080000080800000FF80000000A0000040A000
310
0080A00000FFA0000000C0000040C0000080C00000FFC0000000FF000040FF000080FF0000FFFF0000000020004000200080002000FF002000002020004020200080202000FF202000004020004040200080402000FF402000006020004060200080602000FF602000008020004080200080802000FF80200000A0200040A0
310
200080A02000FFA0200000C0200040C0200080C02000FFC0200000FF200040FF200080FF2000FFFF2000000040004000400080004000FF004000002040004020400080204000FF204000004040004040400080404000FF404000006040004060400080604000FF604000008040004080400080804000FF80400000A0400040
310
A0400080A04000FFA0400000C0400040C0400080C04000FFC0400000FF400040FF400080FF4000FFFF4000000060004000600080006000FF006000002060004020600080206000FF206000004060004040600080406000FF406000006060004060600080606000FF606000008060004080600080806000FF80600000A06000
310
40A0600080A06000FFA0600000C0600040C0600080C06000FFC0600000FF600040FF600080FF6000FFFF6000000080004000800080008000FF008000002080004020800080208000FF208000004080004040800080408000FF408000006080004060800080608000FF608000008080004080800080808000FF80800000A080
310
0040A0800080A08000FFA0800000C0800040C0800080C08000FFC0800000FF800040FF800080FF8000FFFF80000000A0004000A0008000A000FF00A0000020A0004020A0008020A000FF20A0000040A0004040A0008040A000FF40A0000060A0004060A0008060A000FF60A0000080A0004080A0008080A000FF80A00000A0
310
A00040A0A00080A0A000FFA0A00000C0A00040C0A00080C0A000FFC0A00000FFA00040FFA00080FFA000FFFFA0000000C0004000C0008000C000FF00C0000020C0004020C0008020C000FF20C0000040C0004040C0008040C000FF40C0000060C0004060C0008060C000FF60C0000080C0004080C0008080C000FF80C00000
310
A0C00040A0C00080A0C000FFA0C00000C0C00040C0C00080C0C000FFC0C00000FFC00040FFC00080FFC000FFFFC0000000FF004000FF008000FF00FF00FF000020FF004020FF008020FF00FF20FF000040FF004040FF008040FF00FF40FF000060FF004060FF008060FF00FF60FF000080FF004080FF008080FF00FF80FF00
310
00A0FF0040A0FF0080A0FF00FFA0FF0000C0FF0040C0FF0080C0FF00FFC0FF0000FFFF0040FFFF0080FFFF00FFFFFF0000000000000000000000000000000000000000000000000000000000000000000000000000000000000000000000000000000000000000000000000000000000000000000000000000000000000000
310
00000000000000000000000000000000000000000000000000000000000000000000000000000000000000000000000000000000000000000000000000000000000000000000000000000000000000000000000000000000000000000000000000000000000000000000000000000000000000000000000000000000000000
310
000000000000000000000000000000000000001F00000000000000000000000000000000000000000000000000000000000000000000000000FCFCFCFCFCFCFCFCFCFCFCFCFCFCFCFCFCFCFCFCFC00000000000000000000000000000000000000000000000000000000000000000000000000000000000000000000000000
310
000000000000000000000000000000000000000000000000000000000000000000000000000000000000000000000000000000000000000000000000000000000000000000000000000000000000000000000000000000001F1F1F0000000000000000000000001F000000001F0000001F1F0000000000FC1F1F1F00000000
310
00000000000000001F000000001F000000001F0000000000FC1F1F1F1F1F1F1F1F1F1F00000000001F1F1F00001F1F1F1F1F1F0000000000FC1F1F1F00000000000000000000FC001F000000001F000000001F0000000000FC1F1F1F1F1F1F1F1F1F1F00000000001F001F00001F001F001F1F00000000001F1F1F1F1F1F1F
310
1F1F1F1F00000000001F1F1F00001F1F1F1F1F1F00000000001F1F1F1F1F1F1F1F1F1F1F00000000001F001F00001F001F001F1F0000000000FC1F1F1F1F1F1F1F1F1F1F00000000001F1F1F00001F1F1F1F1F1F0000000000FC1F1F1F1F1F1F1F1F1F1F00000000001F001F00001F001F001F1F00000000FCFC1F1F1F1F1F
310
1F1F1F1F1F00000000001F1F1F00001F1F1F1F1F1F0000000000001F1F1F0000000000000000000000001F000000001F000000001F0000000000001F1F1F0000000000000000000000001F000000001F0000001F1F000000000000000000000000000000000000000000000000000000000000000000000000000000000000
310
00000000000000000000000000000000000000000000000000000000000000000000000000000000000000000000000000000000000000000000000000000000000000000000000000000000000000000000000000000000000000000000000000000000000000000000000000000000000000000000000000000000000000
310
0000000000000000000000000000000000000000000000000000000000000000000000000000000000000000000000000000000000000000
102
{BLKREFS
331
30B
102
}
1001
ACAD
1000
DesignCenter Data
1002
{
1070
     1
1070
     1
1002
}
  0
BLOCK_RECORD
  5
30A
330
1
100
AcDbSymbolTableRecord
100
AcDbBlockTableRecord
  2
LE1224
340
0
1001
ACAD
1000
DesignCenter Data
1002
{
1070
     1
1070
     1
1002
}
  0
ENDTAB
  0
ENDSEC
  0
SECTION
  2
BLOCKS
  0
BLOCK
  5
20
330
1F
100
AcDbEntity
  8
0
100
AcDbBlockBegin
  2
*Model_Space
 70
     0
 10
0.0
 20
0.0
 30
0.0
  3
*Model_Space
  1

  0
ENDBLK
  5
21
330
1F
100
AcDbEntity
  8
0
100
AcDbBlockEnd
  0
BLOCK
  5
5A
330
58
100
AcDbEntity
 67
     1
  8
0
100
AcDbBlockBegin
  2
*Paper_Space
 70
     0
 10
0.0
 20
0.0
 30
0.0
  3
*Paper_Space
  1

  0
ENDBLK
  5
5B
330
58
100
AcDbEntity
 67
     1
  8
0
100
AcDbBlockEnd
  0
BLOCK
  5
5F
330
5D
100
AcDbEntity
  8
0
100
AcDbBlockBegin
  2
*Paper_Space0
 70
     0
 10
0.0
 20
0.0
 30
0.0
  3
*Paper_Space0
  1

  0
ENDBLK
  5
60
330
5D
100
AcDbEntity
  8
0
100
AcDbBlockEnd
  0
BLOCK
  5
6B
330
65
100
AcDbEntity
  8
4
100
AcDbBlockBegin
  2
ARRO
 70
     0
 10
0.0
 20
0.0
 30
0.0
  3
ARRO
  1

  0
LINE
  5
66
330
65
100
AcDbEntity
  8
4
100
AcDbLine
 10
0.1250000000000018
 20
0.0199999999999996
 30
0.0
 11
0.1250000000000018
 21
-0.0200000000000005
 31
0.0
  0
LINE
  5
67
330
65
100
AcDbEntity
  8
4
100
AcDbLine
 10
0.1250000000000018
 20
-0.0100000000000007
 30
0.0
 11
0.0000000000000009
 21
0.0
 31
0.0
  0
LINE
  5
68
330
65
100
AcDbEntity
  8
4
100
AcDbLine
 10
0.1250000000000018
 20
0.0099999999999989
 30
0.0
 11
0.0000000000000018
 21
0.0
 31
0.0
  0
LINE
  5
69
330
65
100
AcDbEntity
  8
4
100
AcDbLine
 10
0.0000000000000018
 20
0.0
 30
0.0
 11
0.1250000000000018
 21
-0.0200000000000005
 31
0.0
  0
LINE
  5
6A
330
65
100
AcDbEntity
  8
4
100
AcDbLine
 10
0.1250000000000018
 20
0.0199999999999996
 30
0.0
 11
0.0000000000000018
 21
0.0
 31
0.0
  0
ENDBLK
  5
6C
330
65
100
AcDbEntity
  8
4
100
AcDbBlockEnd
  0
BLOCK
  5
12D
330
71
100
AcDbEntity
  8
0
100
AcDbBlockBegin
  2
LE1001
 70
     0
 10
0.0
 20
0.0
 30
0.0
  3
LE1001
  1

  0
TEXT
  5
72
330
71
100
AcDbEntity
  8
8
100
AcDbText
 10
5.2125
 20
1.691660711643185
 30
0.0
 40
0.07
  1
DEPTH
  7
ROMANS
 72
     1
 11
5.3775
 21
1.691660711643185
 31
0.0
100
AcDbText
  0
TEXT
  5
73
330
71
100
AcDbEntity
  8
8
100
AcDbText
 10
6.834999999999999
 20
1.691660711643185
 30
0.0
 40
0.07
  1
DEPTH
  7
ROMANS
 72
     1
 11
7.0
 21
1.691660711643185
 31
0.0
100
AcDbText
  0
TEXT
  5
74
330
71
100
AcDbEntity
  8
8
100
AcDbText
 10
6.899267058502116
 20
0.7466010068253098
 30
0.0
 40
0.1
  1
DR
  7
ROMANS
 72
     1
 11
7.001648010883068
 21
0.7466010068253098
 31
0.0
100
AcDbText
  0
TEXT
  5
75
330
71
100
AcDbEntity
  8
8
100
AcDbText
 10
5.794389324558379
 20
0.5620000000000003
 30
0.0
 40
0.1
  1
SECTIONS
  7
ROMANS
 72
     1
 11
6.146770276939331
 21
0.5620000000000003
 31
0.0
100
AcDbText
  0
TEXT
  5
76
330
71
100
AcDbEntity
  8
8
100
AcDbText
 10
5.302053163126957
 20
0.7466010068253098
 30
0.0
 40
0.1
  1
SR
  7
ROMANS
 72
     1
 11
5.399672210746004
 21
0.7466010068253098
 31
0.0
100
AcDbText
  0
LINE
  5
77
330
71
100
AcDbEntity
  8
4
100
AcDbLine
 10
5.628
 20
4.25
 30
0.0
 11
5.891731602665403
 21
4.25
 31
0.0
  0
LINE
  5
78
330
71
100
AcDbEntity
  8
4
100
AcDbLine
 10
5.93215881233783
 20
4.25
 30
0.0
 11
6.112622609161773
 21
4.25
 31
0.0
  0
INSERT
  5
79
330
71
100
AcDbEntity
  8
4
100
AcDbBlockReference
  2
ARRO
 10
5.93215881233783
 20
4.25
 30
0.0
  0
LINE
  5
7A
330
71
100
AcDbEntity
  8
4
100
AcDbLine
 10
6.112622609161773
 20
4.25
 30
0.0
 11
6.112622609161773
 21
4.047012330209487
 31
0.0
  0
TEXT
  5
7B
330
71
100
AcDbEntity
  8
8
100
AcDbText
 10
6.147622609161773
 20
2.671678996876154
 30
0.0
 40
0.07
  1
ANCHORING BY ERECTOR
 50
90.0
  7
ROMANS
 72
     2
 11
6.147622609161773
 21
3.985012330209487
 31
0.0
100
AcDbText
  0
TEXT
  5
7C
330
71
100
AcDbEntity
  8
8
100
AcDbText
 10
4.500499999999999
 20
2.578333333333333
 30
0.0
 40
0.07
  1
LOCKER HEIGHT
 50
90.0
  7
ROMANS
 72
     1
 11
4.500499999999999
 21
3.0
 31
0.0
100
AcDbText
  0
TEXT
  5
7D
330
71
100
AcDbEntity
  8
8
100
AcDbText
 10
1.344999999999998
 20
1.062
 30
0.0
 40
0.07
  1
LOCKER WIDTH - SEE SCHEDULE
  7
ROMANS
 72
     1
 11
2.249999999999999
 21
1.062
 31
0.0
100
AcDbText
  0
TEXT
  5
7E
330
71
100
AcDbEntity
  8
8
100
AcDbText
 10
1.585714285714285
 20
0.5620000000000003
 30
0.0
 40
0.1
  1
FRONT ELEVATION
  7
ROMANS
 72
     1
 11
2.249999999999999
 21
0.5620000000000003
 31
0.0
100
AcDbText
  0
LINE
  5
7F
330
71
100
AcDbEntity
  8
1
100
AcDbLine
 10
5.203499999999999
 20
1.5625
 30
0.0
 11
5.188499999999999
 21
1.547499999999999
 31
0.0
  0
LINE
  5
80
330
71
100
AcDbEntity
  8
1
100
AcDbLine
 10
5.188499999999999
 20
1.547499999999999
 30
0.0
 11
5.090499999999999
 21
1.547499999999999
 31
0.0
  0
LINE
  5
81
330
71
100
AcDbEntity
  8
1
100
AcDbLine
 10
5.090499999999999
 20
1.547499999999999
 30
0.0
 11
5.090499999999999
 21
1.519253857562439
 31
0.0
  0
LINE
  5
82
330
71
100
AcDbEntity
  8
1
100
AcDbLine
 10
5.265499999999999
 20
1.500499999999999
 30
0.0
 11
5.203499999999999
 21
1.5625
 31
0.0
  0
LINE
  5
83
330
71
100
AcDbEntity
  8
1
100
AcDbLine
 10
5.630499999999999
 20
1.500499999999999
 30
0.0
 11
5.265499999999999
 21
1.500499999999999
 31
0.0
  0
LINE
  5
84
330
71
100
AcDbEntity
  8
1
100
AcDbLine
 10
5.630499999999999
 20
1.5625
 30
0.0
 11
5.630499999999999
 21
1.500499999999999
 31
0.0
  0
LINE
  5
85
330
71
100
AcDbEntity
  8
1
100
AcDbLine
 10
5.670499999999999
 20
1.5625
 30
0.0
 11
5.670499999999999
 21
1.500499999999999
 31
0.0
  0
LINE
  5
86
330
71
100
AcDbEntity
  8
1
100
AcDbLine
 10
5.065499999999999
 20
1.5625
 30
0.0
 11
5.173499999999998
 21
1.5625
 31
0.0
  0
LINE
  5
87
330
71
100
AcDbEntity
  8
1
100
AcDbLine
 10
5.065499999999999
 20
1.500499999999999
 30
0.0
 11
5.065499999999999
 21
1.5625
 31
0.0
  0
LINE
  5
88
330
71
100
AcDbEntity
  8
1
100
AcDbLine
 10
5.127499999999999
 20
1.500499999999999
 30
0.0
 11
5.065499999999999
 21
1.500499999999999
 31
0.0
  0
LINE
  5
89
330
71
100
AcDbEntity
  8
1
100
AcDbLine
 10
5.203499999999999
 20
1.5625
 30
0.0
 11
5.670499999999999
 21
1.5625
 31
0.0
  0
LINE
  5
8A
330
71
100
AcDbEntity
  8
1
100
AcDbLine
 10
6.513499999999998
 20
1.5625
 30
0.0
 11
6.980499999999999
 21
1.5625
 31
0.0
  0
LINE
  5
8B
330
71
100
AcDbEntity
  8
1
100
AcDbLine
 10
6.437499999999999
 20
1.500499999999999
 30
0.0
 11
6.375499999999998
 21
1.500499999999999
 31
0.0
  0
LINE
  5
8C
330
71
100
AcDbEntity
  8
1
100
AcDbLine
 10
6.375499999999998
 20
1.500499999999999
 30
0.0
 11
6.375499999999998
 21
1.5625
 31
0.0
  0
LINE
  5
8D
330
71
100
AcDbEntity
  8
1
100
AcDbLine
 10
6.375499999999998
 20
1.5625
 30
0.0
 11
6.483499999999998
 21
1.5625
 31
0.0
  0
LINE
  5
8E
330
71
100
AcDbEntity
  8
1
100
AcDbLine
 10
6.980499999999999
 20
1.5625
 30
0.0
 11
6.980499999999999
 21
1.500499999999999
 31
0.0
  0
LINE
  5
8F
330
71
100
AcDbEntity
  8
1
100
AcDbLine
 10
6.940499999999999
 20
1.5625
 30
0.0
 11
6.940499999999999
 21
1.500499999999999
 31
0.0
  0
LINE
  5
90
330
71
100
AcDbEntity
  8
1
100
AcDbLine
 10
6.940499999999999
 20
1.500499999999999
 30
0.0
 11
6.575499999999999
 21
1.500499999999999
 31
0.0
  0
LINE
  5
91
330
71
100
AcDbEntity
  8
1
100
AcDbLine
 10
6.575499999999999
 20
1.500499999999999
 30
0.0
 11
6.513499999999998
 21
1.5625
 31
0.0
  0
LINE
  5
92
330
71
100
AcDbEntity
  8
1
100
AcDbLine
 10
6.400499999999999
 20
1.547499999999999
 30
0.0
 11
6.400499999999999
 21
1.519253857562439
 31
0.0
  0
LINE
  5
93
330
71
100
AcDbEntity
  8
1
100
AcDbLine
 10
6.498499999999999
 20
1.547499999999999
 30
0.0
 11
6.400499999999999
 21
1.547499999999999
 31
0.0
  0
LINE
  5
94
330
71
100
AcDbEntity
  8
1
100
AcDbLine
 10
6.513499999999998
 20
1.5625
 30
0.0
 11
6.498499999999999
 21
1.547499999999999
 31
0.0
  0
LINE
  5
95
330
71
100
AcDbEntity
  8
1
100
AcDbLine
 10
7.486500000000001
 20
1.5625
 30
0.0
 11
7.5015
 21
1.547499999999999
 31
0.0
  0
LINE
  5
96
330
71
100
AcDbEntity
  8
1
100
AcDbLine
 10
7.5015
 20
1.547499999999999
 30
0.0
 11
7.5995
 21
1.547499999999999
 31
0.0
  0
LINE
  5
97
330
71
100
AcDbEntity
  8
1
100
AcDbLine
 10
7.5995
 20
1.547499999999999
 30
0.0
 11
7.5995
 21
1.519253857562439
 31
0.0
  0
LINE
  5
98
330
71
100
AcDbEntity
  8
1
100
AcDbLine
 10
7.4245
 20
1.500499999999999
 30
0.0
 11
7.486500000000001
 21
1.5625
 31
0.0
  0
LINE
  5
99
330
71
100
AcDbEntity
  8
1
100
AcDbLine
 10
7.0595
 20
1.500499999999999
 30
0.0
 11
7.4245
 21
1.500499999999999
 31
0.0
  0
LINE
  5
9A
330
71
100
AcDbEntity
  8
1
100
AcDbLine
 10
7.0595
 20
1.5625
 30
0.0
 11
7.0595
 21
1.500499999999999
 31
0.0
  0
LINE
  5
9B
330
71
100
AcDbEntity
  8
1
100
AcDbLine
 10
7.0195
 20
1.5625
 30
0.0
 11
7.0195
 21
1.500499999999999
 31
0.0
  0
LINE
  5
9C
330
71
100
AcDbEntity
  8
1
100
AcDbLine
 10
7.624500000000001
 20
1.5625
 30
0.0
 11
7.516500000000001
 21
1.5625
 31
0.0
  0
LINE
  5
9D
330
71
100
AcDbEntity
  8
1
100
AcDbLine
 10
7.624500000000001
 20
1.500499999999999
 30
0.0
 11
7.624500000000001
 21
1.5625
 31
0.0
  0
LINE
  5
9E
330
71
100
AcDbEntity
  8
1
100
AcDbLine
 10
7.5625
 20
1.500499999999999
 30
0.0
 11
7.624500000000001
 21
1.500499999999999
 31
0.0
  0
LINE
  5
9F
330
71
100
AcDbEntity
  8
1
100
AcDbLine
 10
7.486500000000001
 20
1.5625
 30
0.0
 11
7.0195
 21
1.5625
 31
0.0
  0
LINE
  5
A0
330
71
100
AcDbEntity
  8
1
100
AcDbLine
 10
7.486500000000001
 20
4.5
 30
0.0
 11
7.0195
 21
4.5
 31
0.0
  0
LINE
  5
A1
330
71
100
AcDbEntity
  8
1
100
AcDbLine
 10
7.5625
 20
4.437999999999999
 30
0.0
 11
7.624500000000001
 21
4.437999999999999
 31
0.0
  0
LINE
  5
A2
330
71
100
AcDbEntity
  8
1
100
AcDbLine
 10
7.624500000000001
 20
4.437999999999999
 30
0.0
 11
7.624500000000001
 21
4.5
 31
0.0
  0
LINE
  5
A3
330
71
100
AcDbEntity
  8
1
100
AcDbLine
 10
7.624500000000001
 20
4.5
 30
0.0
 11
7.516500000000001
 21
4.5
 31
0.0
  0
LINE
  5
A4
330
71
100
AcDbEntity
  8
1
100
AcDbLine
 10
7.0195
 20
4.5
 30
0.0
 11
7.0195
 21
4.437999999999999
 31
0.0
  0
LINE
  5
A5
330
71
100
AcDbEntity
  8
1
100
AcDbLine
 10
7.0595
 20
4.5
 30
0.0
 11
7.0595
 21
4.437999999999999
 31
0.0
  0
LINE
  5
A6
330
71
100
AcDbEntity
  8
1
100
AcDbLine
 10
7.0595
 20
4.437999999999999
 30
0.0
 11
7.4245
 21
4.437999999999999
 31
0.0
  0
LINE
  5
A7
330
71
100
AcDbEntity
  8
1
100
AcDbLine
 10
7.4245
 20
4.437999999999999
 30
0.0
 11
7.486500000000001
 21
4.5
 31
0.0
  0
LINE
  5
A8
330
71
100
AcDbEntity
  8
1
100
AcDbLine
 10
7.5995
 20
4.484999999999999
 30
0.0
 11
7.5995
 21
4.456753857562439
 31
0.0
  0
LINE
  5
A9
330
71
100
AcDbEntity
  8
1
100
AcDbLine
 10
7.5015
 20
4.484999999999999
 30
0.0
 11
7.5995
 21
4.484999999999999
 31
0.0
  0
LINE
  5
AA
330
71
100
AcDbEntity
  8
1
100
AcDbLine
 10
7.486500000000001
 20
4.5
 30
0.0
 11
7.5015
 21
4.484999999999999
 31
0.0
  0
LINE
  5
AB
330
71
100
AcDbEntity
  8
1
100
AcDbLine
 10
6.513499999999998
 20
4.5
 30
0.0
 11
6.498499999999999
 21
4.484999999999999
 31
0.0
  0
LINE
  5
AC
330
71
100
AcDbEntity
  8
1
100
AcDbLine
 10
6.498499999999999
 20
4.484999999999999
 30
0.0
 11
6.400499999999999
 21
4.484999999999999
 31
0.0
  0
LINE
  5
AD
330
71
100
AcDbEntity
  8
1
100
AcDbLine
 10
6.400499999999999
 20
4.484999999999999
 30
0.0
 11
6.400499999999999
 21
4.456753857562439
 31
0.0
  0
LINE
  5
AE
330
71
100
AcDbEntity
  8
1
100
AcDbLine
 10
6.575499999999999
 20
4.437999999999999
 30
0.0
 11
6.513499999999998
 21
4.5
 31
0.0
  0
LINE
  5
AF
330
71
100
AcDbEntity
  8
1
100
AcDbLine
 10
6.940499999999999
 20
4.437999999999999
 30
0.0
 11
6.575499999999999
 21
4.437999999999999
 31
0.0
  0
LINE
  5
B0
330
71
100
AcDbEntity
  8
1
100
AcDbLine
 10
6.940499999999999
 20
4.5
 30
0.0
 11
6.940499999999999
 21
4.437999999999999
 31
0.0
  0
LINE
  5
B1
330
71
100
AcDbEntity
  8
1
100
AcDbLine
 10
6.980499999999999
 20
4.5
 30
0.0
 11
6.980499999999999
 21
4.437999999999999
 31
0.0
  0
LINE
  5
B2
330
71
100
AcDbEntity
  8
1
100
AcDbLine
 10
6.375499999999998
 20
4.5
 30
0.0
 11
6.483499999999998
 21
4.5
 31
0.0
  0
LINE
  5
B3
330
71
100
AcDbEntity
  8
1
100
AcDbLine
 10
6.375499999999998
 20
4.437999999999999
 30
0.0
 11
6.375499999999998
 21
4.5
 31
0.0
  0
LINE
  5
B4
330
71
100
AcDbEntity
  8
1
100
AcDbLine
 10
6.437499999999999
 20
4.437999999999999
 30
0.0
 11
6.375499999999998
 21
4.437999999999999
 31
0.0
  0
LINE
  5
B5
330
71
100
AcDbEntity
  8
1
100
AcDbLine
 10
6.513499999999998
 20
4.5
 30
0.0
 11
6.980499999999999
 21
4.5
 31
0.0
  0
LINE
  5
B6
330
71
100
AcDbEntity
  8
1
100
AcDbLine
 10
5.203499999999999
 20
4.5
 30
0.0
 11
5.670499999999999
 21
4.5
 31
0.0
  0
LINE
  5
B7
330
71
100
AcDbEntity
  8
1
100
AcDbLine
 10
5.127499999999999
 20
4.437999999999999
 30
0.0
 11
5.065499999999999
 21
4.437999999999999
 31
0.0
  0
LINE
  5
B8
330
71
100
AcDbEntity
  8
1
100
AcDbLine
 10
5.065499999999999
 20
4.437999999999999
 30
0.0
 11
5.065499999999999
 21
4.5
 31
0.0
  0
LINE
  5
B9
330
71
100
AcDbEntity
  8
1
100
AcDbLine
 10
5.065499999999999
 20
4.5
 30
0.0
 11
5.173499999999998
 21
4.5
 31
0.0
  0
LINE
  5
BA
330
71
100
AcDbEntity
  8
1
100
AcDbLine
 10
5.670499999999999
 20
4.5
 30
0.0
 11
5.670499999999999
 21
4.437999999999999
 31
0.0
  0
LINE
  5
BB
330
71
100
AcDbEntity
  8
1
100
AcDbLine
 10
5.630499999999999
 20
4.5
 30
0.0
 11
5.630499999999999
 21
4.437999999999999
 31
0.0
  0
LINE
  5
BC
330
71
100
AcDbEntity
  8
1
100
AcDbLine
 10
5.630499999999999
 20
4.437999999999999
 30
0.0
 11
5.265499999999999
 21
4.437999999999999
 31
0.0
  0
LINE
  5
BD
330
71
100
AcDbEntity
  8
1
100
AcDbLine
 10
5.265499999999999
 20
4.437999999999999
 30
0.0
 11
5.203499999999999
 21
4.5
 31
0.0
  0
LINE
  5
BE
330
71
100
AcDbEntity
  8
1
100
AcDbLine
 10
5.090499999999999
 20
4.484999999999999
 30
0.0
 11
5.090499999999999
 21
4.456753857562439
 31
0.0
  0
LINE
  5
BF
330
71
100
AcDbEntity
  8
1
100
AcDbLine
 10
5.188499999999999
 20
4.484999999999999
 30
0.0
 11
5.090499999999999
 21
4.484999999999999
 31
0.0
  0
LINE
  5
C0
330
71
100
AcDbEntity
  8
1
100
AcDbLine
 10
5.203499999999999
 20
4.5
 30
0.0
 11
5.188499999999999
 21
4.484999999999999
 31
0.0
  0
LINE
  5
C1
330
71
100
AcDbEntity
  8
1
100
AcDbLine
 10
1.062
 20
1.562
 30
0.0
 11
1.562999999999999
 21
1.562
 31
0.0
  0
LINE
  5
C2
330
71
100
AcDbEntity
  8
4
100
AcDbLine
 10
1.872866710308013
 20
1.373999999999999
 30
0.0
 11
1.934866710308013
 21
1.373999999999999
 31
0.0
  0
CIRCLE
  5
C3
330
71
100
AcDbEntity
  8
4
100
AcDbCircle
 10
2.028866710308013
 20
1.373999999999999
 30
0.0
 40
0.094
  0
LINE
  5
C4
330
71
100
AcDbEntity
  8
4
100
AcDbLine
 10
1.778866710308013
 20
1.467999999999999
 30
0.0
 11
1.778866710308013
 21
1.592999999999999
 31
0.0
  0
CIRCLE
  5
C5
330
71
100
AcDbEntity
  8
4
100
AcDbCircle
 10
1.778866710308013
 20
1.373999999999999
 30
0.0
 40
0.094
  0
CIRCLE
  5
C6
330
71
100
AcDbEntity
  8
4
100
AcDbCircle
 10
1.9375
 20
4.312
 30
0.0
 40
0.094
  0
LINE
  5
C7
330
71
100
AcDbEntity
  8
4
100
AcDbLine
 10
1.9375
 20
4.406
 30
0.0
 11
1.9375
 21
4.531
 31
0.0
  0
LINE
  5
C8
330
71
100
AcDbEntity
  8
1
100
AcDbLine
 10
2.499999999999999
 20
1.562
 30
0.0
 11
2.312
 21
1.562
 31
0.0
  0
LINE
  5
C9
330
71
100
AcDbEntity
  8
1
100
AcDbLine
 10
2.625
 20
4.438
 30
0.0
 11
2.813
 21
4.438
 31
0.0
  0
LINE
  5
CA
330
71
100
AcDbEntity
  8
1
100
AcDbLine
 10
2.875
 20
1.5
 30
0.0
 11
2.875
 21
4.5
 31
0.0
  0
LINE
  5
CB
330
71
100
AcDbEntity
  8
1
100
AcDbLine
 10
2.25
 20
1.5
 30
0.0
 11
2.25
 21
4.5
 31
0.0
  0
LINE
  5
CC
330
71
100
AcDbEntity
  8
1
100
AcDbLine
 10
1.625
 20
1.5
 30
0.0
 11
1.625
 21
4.5
 31
0.0
  0
LINE
  5
CD
330
71
100
AcDbEntity
  8
1
100
AcDbLine
 10
3.437999999999999
 20
1.562
 30
0.0
 11
2.937
 21
1.562
 31
0.0
  0
LINE
  5
CE
330
71
100
AcDbEntity
  8
1
100
AcDbLine
 10
3.438
 20
4.438
 30
0.0
 11
3.437999999999999
 21
1.562
 31
0.0
  0
LINE
  5
CF
330
71
100
AcDbEntity
  8
1
100
AcDbLine
 10
2.937
 20
4.438
 30
0.0
 11
3.438
 21
4.438
 31
0.0
  0
LINE
  5
D0
330
71
100
AcDbEntity
  8
1
100
AcDbLine
 10
2.937
 20
1.562
 30
0.0
 11
2.937
 21
4.438
 31
0.0
  0
LINE
  5
D1
330
71
100
AcDbEntity
  8
1
100
AcDbLine
 10
2.812999999999999
 20
1.562
 30
0.0
 11
2.625
 21
1.562
 31
0.0
  0
LINE
  5
D2
330
71
100
AcDbEntity
  8
1
100
AcDbLine
 10
2.813
 20
4.438
 30
0.0
 11
2.812999999999999
 21
1.562
 31
0.0
  0
LINE
  5
D3
330
71
100
AcDbEntity
  8
1
100
AcDbLine
 10
2.312
 20
4.438
 30
0.0
 11
2.5
 21
4.438
 31
0.0
  0
LINE
  5
D4
330
71
100
AcDbEntity
  8
1
100
AcDbLine
 10
2.312
 20
1.562
 30
0.0
 11
2.312
 21
4.438
 31
0.0
  0
LINE
  5
D5
330
71
100
AcDbEntity
  8
1
100
AcDbLine
 10
2.187999999999999
 20
1.562
 30
0.0
 11
1.687
 21
1.562
 31
0.0
  0
LINE
  5
D6
330
71
100
AcDbEntity
  8
1
100
AcDbLine
 10
2.188
 20
4.438
 30
0.0
 11
2.187999999999999
 21
1.562
 31
0.0
  0
LINE
  5
D7
330
71
100
AcDbEntity
  8
1
100
AcDbLine
 10
1.687
 20
4.438
 30
0.0
 11
2.188
 21
4.438
 31
0.0
  0
LINE
  5
D8
330
71
100
AcDbEntity
  8
1
100
AcDbLine
 10
1.687
 20
1.562
 30
0.0
 11
1.687
 21
4.438
 31
0.0
  0
LINE
  5
D9
330
71
100
AcDbEntity
  8
1
100
AcDbLine
 10
1.563
 20
4.438
 30
0.0
 11
1.562999999999999
 21
1.562
 31
0.0
  0
LINE
  5
DA
330
71
100
AcDbEntity
  8
1
100
AcDbLine
 10
1.062
 20
4.438
 30
0.0
 11
1.563
 21
4.438
 31
0.0
  0
LINE
  5
DB
330
71
100
AcDbEntity
  8
1
100
AcDbLine
 10
1.062
 20
1.562
 30
0.0
 11
1.062
 21
4.438
 31
0.0
  0
INSERT
  5
DC
330
71
100
AcDbEntity
  8
4
100
AcDbBlockReference
  2
ARRO
 10
7.625
 20
1.8125
 30
0.0
 50
180.0
  0
INSERT
  5
DD
330
71
100
AcDbEntity
  8
4
100
AcDbBlockReference
  2
ARRO
 10
6.375
 20
1.8125
 30
0.0
  0
INSERT
  5
DE
330
71
100
AcDbEntity
  8
4
100
AcDbBlockReference
  2
ARRO
 10
5.75
 20
1.8125
 30
0.0
  0
INSERT
  5
DF
330
71
100
AcDbEntity
  8
4
100
AcDbBlockReference
  2
ARRO
 10
5.69
 20
1.8125
 30
0.0
 50
180.0
  0
INSERT
  5
E0
330
71
100
AcDbEntity
  8
4
100
AcDbBlockReference
  2
ARRO
 10
5.065
 20
1.8125
 30
0.0
  0
LINE
  5
E1
330
71
100
AcDbEntity
  8
4
100
AcDbLine
 10
6.375
 20
1.8125
 30
0.0
 11
7.625
 21
1.8125
 31
0.0
  0
LINE
  5
E2
330
71
100
AcDbEntity
  8
4
100
AcDbLine
 10
5.75
 20
1.8125
 30
0.0
 11
6.0
 21
1.8125
 31
0.0
  0
LINE
  5
E3
330
71
100
AcDbEntity
  8
4
100
AcDbLine
 10
5.69
 20
1.8125
 30
0.0
 11
5.065
 21
1.8125
 31
0.0
  0
INSERT
  5
E4
330
71
100
AcDbEntity
  8
4
100
AcDbBlockReference
  2
ARRO
 10
4.5625
 20
1.5
 30
0.0
 50
90.0
  0
INSERT
  5
E5
330
71
100
AcDbEntity
  8
4
100
AcDbBlockReference
  2
ARRO
 10
4.5625
 20
4.5
 30
0.0
 50
270.0
  0
LINE
  5
E6
330
71
100
AcDbEntity
  8
4
100
AcDbLine
 10
5.0025
 20
4.5
 30
0.0
 11
4.5025
 21
4.5
 31
0.0
  0
LINE
  5
E7
330
71
100
AcDbEntity
  8
4
100
AcDbLine
 10
4.5625
 20
1.5
 30
0.0
 11
4.5625
 21
4.5
 31
0.0
  0
LINE
  5
E8
330
71
100
AcDbEntity
  8
4
100
AcDbLine
 10
5.0025
 20
1.5
 30
0.0
 11
4.5025
 21
1.5
 31
0.0
  0
INSERT
  5
E9
330
71
100
AcDbEntity
  8
4
100
AcDbBlockReference
  2
ARRO
 10
3.499999999999999
 20
0.9999999999999998
 30
0.0
 50
180.0
  0
INSERT
  5
EA
330
71
100
AcDbEntity
  8
4
100
AcDbBlockReference
  2
ARRO
 10
0.9999999999999998
 20
1.0
 30
0.0
  0
LINE
  5
EB
330
71
100
AcDbEntity
  8
4
100
AcDbLine
 10
3.499999999999999
 20
1.0
 30
0.0
 11
0.9999999999999998
 21
1.0
 31
0.0
  0
LINE
  5
EC
330
71
100
AcDbEntity
  8
4
100
AcDbLine
 10
3.499999999999999
 20
1.437999999999999
 30
0.0
 11
3.499999999999999
 21
0.9379999999999999
 31
0.0
  0
LINE
  5
ED
330
71
100
AcDbEntity
  8
4
100
AcDbLine
 10
1.0
 20
1.437999999999999
 30
0.0
 11
0.9999999999999998
 21
0.9379999999999999
 31
0.0
  0
LINE
  5
EE
330
71
100
AcDbEntity
  8
1
100
AcDbLine
 10
5.69
 20
1.5
 30
0.0
 11
5.69
 21
4.5
 31
0.0
  0
LINE
  5
EF
330
71
100
AcDbEntity
  8
1
100
AcDbLine
 10
5.75
 20
4.75
 30
0.0
 11
5.875
 21
4.875
 31
0.0
  0
LINE
  5
F0
330
71
100
AcDbEntity
  8
1
100
AcDbLine
 10
5.75
 20
4.625
 30
0.0
 11
5.937999999999999
 21
4.812999999999999
 31
0.0
  0
LINE
  5
F1
330
71
100
AcDbEntity
  8
1
100
AcDbLine
 10
5.75
 20
4.5
 30
0.0
 11
5.937999999999999
 21
4.687999999999999
 31
0.0
  0
LINE
  5
F2
330
71
100
AcDbEntity
  8
1
100
AcDbLine
 10
5.75
 20
4.375
 30
0.0
 11
5.937999999999999
 21
4.562999999999999
 31
0.0
  0
LINE
  5
F3
330
71
100
AcDbEntity
  8
1
100
AcDbLine
 10
5.75
 20
4.25
 30
0.0
 11
5.937999999999999
 21
4.437999999999999
 31
0.0
  0
LINE
  5
F4
330
71
100
AcDbEntity
  8
1
100
AcDbLine
 10
5.75
 20
4.125
 30
0.0
 11
5.937999999999999
 21
4.312999999999999
 31
0.0
  0
LINE
  5
F5
330
71
100
AcDbEntity
  8
1
100
AcDbLine
 10
5.75
 20
4.0
 30
0.0
 11
5.937999999999999
 21
4.187999999999999
 31
0.0
  0
LINE
  5
F6
330
71
100
AcDbEntity
  8
1
100
AcDbLine
 10
5.75
 20
3.875
 30
0.0
 11
5.937999999999999
 21
4.062999999999999
 31
0.0
  0
LINE
  5
F7
330
71
100
AcDbEntity
  8
1
100
AcDbLine
 10
5.75
 20
3.75
 30
0.0
 11
5.937999999999999
 21
3.937999999999999
 31
0.0
  0
LINE
  5
F8
330
71
100
AcDbEntity
  8
1
100
AcDbLine
 10
5.75
 20
3.625
 30
0.0
 11
5.937999999999999
 21
3.812999999999999
 31
0.0
  0
LINE
  5
F9
330
71
100
AcDbEntity
  8
1
100
AcDbLine
 10
5.75
 20
3.5
 30
0.0
 11
5.937999999999999
 21
3.687999999999999
 31
0.0
  0
LINE
  5
FA
330
71
100
AcDbEntity
  8
1
100
AcDbLine
 10
5.75
 20
3.375
 30
0.0
 11
5.937999999999999
 21
3.562999999999999
 31
0.0
  0
LINE
  5
FB
330
71
100
AcDbEntity
  8
1
100
AcDbLine
 10
5.75
 20
3.25
 30
0.0
 11
5.937999999999999
 21
3.437999999999999
 31
0.0
  0
LINE
  5
FC
330
71
100
AcDbEntity
  8
1
100
AcDbLine
 10
5.75
 20
3.125
 30
0.0
 11
5.937999999999999
 21
3.312999999999999
 31
0.0
  0
LINE
  5
FD
330
71
100
AcDbEntity
  8
1
100
AcDbLine
 10
5.75
 20
3.0
 30
0.0
 11
5.937999999999999
 21
3.187999999999999
 31
0.0
  0
LINE
  5
FE
330
71
100
AcDbEntity
  8
1
100
AcDbLine
 10
5.75
 20
2.875
 30
0.0
 11
5.937999999999999
 21
3.062999999999999
 31
0.0
  0
LINE
  5
FF
330
71
100
AcDbEntity
  8
1
100
AcDbLine
 10
5.75
 20
2.75
 30
0.0
 11
5.937999999999999
 21
2.937999999999999
 31
0.0
  0
LINE
  5
100
330
71
100
AcDbEntity
  8
1
100
AcDbLine
 10
5.75
 20
2.625
 30
0.0
 11
5.937999999999999
 21
2.812999999999999
 31
0.0
  0
LINE
  5
101
330
71
100
AcDbEntity
  8
1
100
AcDbLine
 10
5.75
 20
2.5
 30
0.0
 11
5.937999999999999
 21
2.687999999999999
 31
0.0
  0
LINE
  5
102
330
71
100
AcDbEntity
  8
1
100
AcDbLine
 10
5.75
 20
2.375
 30
0.0
 11
5.937999999999999
 21
2.562999999999999
 31
0.0
  0
LINE
  5
103
330
71
100
AcDbEntity
  8
1
100
AcDbLine
 10
5.75
 20
2.25
 30
0.0
 11
5.937999999999999
 21
2.437999999999999
 31
0.0
  0
LINE
  5
104
330
71
100
AcDbEntity
  8
1
100
AcDbLine
 10
5.75
 20
2.125
 30
0.0
 11
5.937999999999999
 21
2.312999999999999
 31
0.0
  0
LINE
  5
105
330
71
100
AcDbEntity
  8
1
100
AcDbLine
 10
5.75
 20
2.0
 30
0.0
 11
5.937999999999999
 21
2.187999999999999
 31
0.0
  0
LINE
  5
106
330
71
100
AcDbEntity
  8
1
100
AcDbLine
 10
5.75
 20
1.625
 30
0.0
 11
5.937999999999999
 21
1.812999999999999
 31
0.0
  0
LINE
  5
107
330
71
100
AcDbEntity
  8
1
100
AcDbLine
 10
5.75
 20
1.5
 30
0.0
 11
5.937999999999999
 21
1.687999999999999
 31
0.0
  0
LINE
  5
108
330
71
100
AcDbEntity
  8
1
100
AcDbLine
 10
2.625
 20
2.379974179311579
 30
0.0
 11
2.624999999999999
 21
1.375
 31
0.0
  0
LINE
  5
109
330
71
100
AcDbEntity
  8
1
100
AcDbLine
 10
2.625
 20
2.782474179311579
 30
0.0
 11
2.625
 21
2.469974179311579
 31
0.0
  0
LINE
  5
10A
330
71
100
AcDbEntity
  8
1
100
AcDbLine
 10
2.625
 20
3.625967704151865
 30
0.0
 11
2.625
 21
2.782474179311579
 31
0.0
  0
LINE
  5
10B
330
71
100
AcDbEntity
  8
1
100
AcDbLine
 10
2.58
 20
3.664974179311579
 30
0.0
 11
2.669999999999999
 21
3.574974179311579
 31
0.0
  0
LINE
  5
10C
330
71
100
AcDbEntity
  8
1
100
AcDbLine
 10
2.669999999999999
 20
3.664974179311579
 30
0.0
 11
2.58
 21
3.664974179311579
 31
0.0
  0
LINE
  5
10D
330
71
100
AcDbEntity
  8
1
100
AcDbLine
 10
2.58
 20
3.754974179311579
 30
0.0
 11
2.669999999999999
 21
3.664974179311579
 31
0.0
  0
LINE
  5
10E
330
71
100
AcDbEntity
  8
1
100
AcDbLine
 10
2.579999999999999
 20
2.424974179311579
 30
0.0
 11
2.669999999999999
 21
2.334974179311579
 31
0.0
  0
LINE
  5
10F
330
71
100
AcDbEntity
  8
1
100
AcDbLine
 10
2.669999999999999
 20
2.424974179311579
 30
0.0
 11
2.579999999999999
 21
2.424974179311579
 31
0.0
  0
LINE
  5
110
330
71
100
AcDbEntity
  8
1
100
AcDbLine
 10
2.579999999999999
 20
2.514974179311579
 30
0.0
 11
2.669999999999999
 21
2.424974179311579
 31
0.0
  0
LINE
  5
111
330
71
100
AcDbEntity
  8
1
100
AcDbLine
 10
2.499999999999999
 20
1.754974179311579
 30
0.0
 11
2.499999999999999
 21
1.375
 31
0.0
  0
LINE
  5
112
330
71
100
AcDbEntity
  8
1
100
AcDbLine
 10
2.5
 20
2.469974179311579
 30
0.0
 11
2.499999999999999
 21
1.844974179311579
 31
0.0
  0
LINE
  5
113
330
71
100
AcDbEntity
  8
1
100
AcDbLine
 10
2.5
 20
3.004974179311579
 30
0.0
 11
2.5
 21
2.469974179311579
 31
0.0
  0
LINE
  5
114
330
71
100
AcDbEntity
  8
1
100
AcDbLine
 10
2.454999999999999
 20
1.889974179311579
 30
0.0
 11
2.544999999999999
 21
1.799974179311579
 31
0.0
  0
LINE
  5
115
330
71
100
AcDbEntity
  8
1
100
AcDbLine
 10
2.544999999999999
 20
1.799974179311579
 30
0.0
 11
2.454999999999999
 21
1.799974179311579
 31
0.0
  0
LINE
  5
116
330
71
100
AcDbEntity
  8
1
100
AcDbLine
 10
2.454999999999999
 20
1.799974179311579
 30
0.0
 11
2.544999999999999
 21
1.709974179311579
 31
0.0
  0
LINE
  5
117
330
71
100
AcDbEntity
  8
1
100
AcDbLine
 10
2.454999999999999
 20
3.139974179311579
 30
0.0
 11
2.544999999999999
 21
3.049974179311579
 31
0.0
  0
LINE
  5
118
330
71
100
AcDbEntity
  8
1
100
AcDbLine
 10
2.544999999999999
 20
3.049974179311579
 30
0.0
 11
2.454999999999999
 21
3.049974179311579
 31
0.0
  0
LINE
  5
119
330
71
100
AcDbEntity
  8
1
100
AcDbLine
 10
2.454999999999999
 20
3.049974179311579
 30
0.0
 11
2.544999999999999
 21
2.959974179311579
 31
0.0
  0
LINE
  5
11A
330
71
100
AcDbEntity
  8
1
100
AcDbLine
 10
2.512196030826982
 20
4.242778148484597
 30
0.0
 11
2.512196030826982
 21
3.07567852914767
 31
0.0
  0
LINE
  5
11B
330
71
100
AcDbEntity
  8
1
100
AcDbLine
 10
2.455
 20
4.299974179311579
 30
0.0
 11
2.544999999999999
 21
4.209974179311579
 31
0.0
  0
LINE
  5
11C
330
71
100
AcDbEntity
  8
1
100
AcDbLine
 10
2.544999999999999
 20
4.299974179311579
 30
0.0
 11
2.455
 21
4.299974179311579
 31
0.0
  0
LINE
  5
11D
330
71
100
AcDbEntity
  8
1
100
AcDbLine
 10
2.455
 20
4.389974179311579
 30
0.0
 11
2.544999999999999
 21
4.299974179311579
 31
0.0
  0
LINE
  5
11E
330
71
100
AcDbEntity
  8
1
100
AcDbLine
 10
2.5
 20
4.625
 30
0.0
 11
2.5
 21
4.344974179311579
 31
0.0
  0
LINE
  5
11F
330
71
100
AcDbEntity
  8
1
100
AcDbLine
 10
2.625
 20
4.625
 30
0.0
 11
2.625
 21
3.709974179311579
 31
0.0
  0
CIRCLE
  5
120
330
71
100
AcDbEntity
  8
1
100
AcDbCircle
 10
4.125
 20
0.5
 30
0.0
 40
0.1875
  0
LINE
  5
121
330
71
100
AcDbEntity
  8
1
100
AcDbLine
 10
5.75
 20
1.5
 30
0.0
 11
5.75
 21
4.875
 31
0.0
  0
LINE
  5
122
330
71
100
AcDbEntity
  8
1
100
AcDbLine
 10
7.0
 20
1.5
 30
0.0
 11
7.0
 21
4.5
 31
0.0
  0
LINE
  5
123
330
71
100
AcDbEntity
  8
1
100
AcDbLine
 10
3.499999999999999
 20
1.5
 30
0.0
 11
2.624999999999999
 21
1.5
 31
0.0
  0
LINE
  5
124
330
71
100
AcDbEntity
  8
1
100
AcDbLine
 10
3.5
 20
4.5
 30
0.0
 11
3.499999999999999
 21
1.5
 31
0.0
  0
LINE
  5
125
330
71
100
AcDbEntity
  8
1
100
AcDbLine
 10
2.625
 20
4.5
 30
0.0
 11
3.5
 21
4.5
 31
0.0
  0
LINE
  5
126
330
71
100
AcDbEntity
  8
1
100
AcDbLine
 10
1.0
 20
4.5
 30
0.0
 11
2.5
 21
4.5
 31
0.0
  0
LINE
  5
127
330
71
100
AcDbEntity
  8
1
100
AcDbLine
 10
1.0
 20
1.5
 30
0.0
 11
1.0
 21
4.5
 31
0.0
  0
LINE
  5
128
330
71
100
AcDbEntity
  8
1
100
AcDbLine
 10
1.0
 20
1.5
 30
0.0
 11
2.5
 21
1.5
 31
0.0
  0
LINE
  5
129
330
71
100
AcDbEntity
  8
1
100
AcDbLine
 10
0.0
 20
5.25
 30
0.0
 11
0.0
 21
0.0
 31
0.0
  0
LINE
  5
12A
330
71
100
AcDbEntity
  8
1
100
AcDbLine
 10
8.25
 20
5.25
 30
0.0
 11
0.0
 21
5.25
 31
0.0
  0
LINE
  5
12B
330
71
100
AcDbEntity
  8
1
100
AcDbLine
 10
8.25
 20
0.0
 30
0.0
 11
8.25
 21
5.25
 31
0.0
  0
LINE
  5
12C
330
71
100
AcDbEntity
  8
1
100
AcDbLine
 10
0.0
 20
0.0
 30
0.0
 11
8.25
 21
0.0
 31
0.0
  0
ENDBLK
  5
12E
330
71
100
AcDbEntity
  8
0
100
AcDbBlockEnd
  0
BLOCK
  5
134
330
131
100
AcDbEntity
  8
8
100
AcDbBlockBegin
  2
TEMP3
 70
     0
 10
0.0
 20
0.0
 30
0.0
  3
TEMP3
  1

  0
TEXT
  5
132
330
131
100
AcDbEntity
  8
8
100
AcDbText
 10
0.03
 20
0.0619999999999998
 30
0.0
 40
0.07
  1
HANDLE & P/A
 50
90.0
  7
ROMANS
100
AcDbText
  0
TEXT
  5
133
330
131
100
AcDbEntity
  8
8
100
AcDbText
 10
0.03
 20
-1.33310960351371
 30
0.0
 40
0.07
  1
LOCK ESCUTCHEON
 50
90.0
  7
ROMANS
 72
     2
 11
0.03
 21
-0.3264429368470441
 31
0.0
100
AcDbText
  0
ENDBLK
  5
135
330
131
100
AcDbEntity
  8
8
100
AcDbBlockEnd
  0
BLOCK
  5
13E
330
136
100
AcDbEntity
  8
0
100
AcDbBlockBegin
  2
A$C62A14645
 70
     0
 10
0.0
 20
0.0
 30
0.0
  3
A$C62A14645
  1

  0
INSERT
  5
137
330
136
100
AcDbEntity
  8
8
100
AcDbBlockReference
  2
TEMP3
 10
0.0533333466609038
 20
1.319776274440499
 30
0.0
  0
LINE
  5
138
330
136
100
AcDbEntity
  8
4
100
AcDbLine
 10
0.4283333466609039
 20
1.2577762744405
 30
0.0
 11
0.0533333466609038
 21
1.2577762744405
 31
0.0
  0
LINE
  5
139
330
136
100
AcDbEntity
  8
4
100
AcDbLine
 10
0.4283333466609039
 20
1.117333337593455
 30
0.0
 11
0.0533333466609038
 21
1.117333337593455
 31
0.0
  0
LINE
  5
13A
330
136
100
AcDbEntity
  8
4
100
AcDbLine
 10
0.0533333466609038
 20
1.117333337593455
 30
0.0
 11
0.0533333466609038
 21
1.055333337593456
 31
0.0
  0
LINE
  5
13B
330
136
100
AcDbEntity
  8
4
100
AcDbLine
 10
0.0533333466609038
 20
1.2577762744405
 30
0.0
 11
0.0533333466609038
 21
1.319776274440499
 31
0.0
  0
INSERT
  5
13C
330
136
100
AcDbEntity
  8
4
100
AcDbBlockReference
  2
ARRO
 10
0.4283333466609039
 20
1.117333337593455
 30
0.0
 50
180.0
  0
INSERT
  5
13D
330
136
100
AcDbEntity
  8
4
100
AcDbBlockReference
  2
ARRO
 10
0.4283333466609039
 20
1.2577762744405
 30
0.0
 50
180.0
  0
ENDBLK
  5
13F
330
136
100
AcDbEntity
  8
0
100
AcDbBlockEnd
  0
BLOCK
  5
307
330
140
100
AcDbEntity
  8
0
100
AcDbBlockBegin
  2
SPL2CORRIDOR5H72
 70
     0
 10
0.0
 20
0.0
 30
0.0
  3
SPL2CORRIDOR5H72
  1

  4
SPL2 CORRIDOR 5H 72
  0
TEXT
  5
141
330
140
100
AcDbEntity
  8
8
100
AcDbText
 10
1.440476190476192
 20
0.0939969910769212
 30
0.0
 40
0.125
  1
SINGLE POINT 2 CORRIDOR LOCKER - 72"  5-HI BOX
  7
ROMANS
 72
     1
 11
4.125
 21
0.0939969910769212
 31
0.0
100
AcDbText
  0
LINE
  5
142
330
140
100
AcDbEntity
  8
4
100
AcDbLine
 10
1.531
 20
3.10883382125
 30
0.0
 11
1.531
 21
2.891169187673078
 31
0.0
  0
LINE
  5
143
330
140
100
AcDbEntity
  8
4
100
AcDbLine
 10
1.094
 20
2.7316
 30
0.0
 11
1.094
 21
3.268396991076921
 31
0.0
  0
INSERT
  5
144
330
140
100
AcDbEntity
  8
0
100
AcDbBlockReference
  2
A$C62A14645
 10
0.5648824915165314
 20
1.814394904776587
 30
0.0
  0
LINE
  5
145
330
140
100
AcDbEntity
  8
4
100
AcDbLine
 10
1.103755480605211
 20
3.082202785454484
 30
0.0
 11
1.113789780500796
 21
2.92165398712514
 31
0.0
  0
ARC
  5
146
330
140
100
AcDbEntity
  8
4
100
AcDbCircle
 10
1.146330648457163
 20
2.943632951729714
 30
0.0
 40
0.019341355
100
AcDbArc
 50
183.5763343749981
 51
270.0
  0
LINE
  5
147
330
140
100
AcDbEntity
  8
4
100
AcDbLine
 10
1.265569722519789
 20
3.082202785454484
 30
0.0
 11
1.255535422624205
 21
2.92165398712514
 31
0.0
  0
ARC
  5
148
330
140
100
AcDbEntity
  8
4
100
AcDbCircle
 10
1.222994554667836
 20
2.943632951729714
 30
0.0
 40
0.019341355
100
AcDbArc
 50
270.0
 51
356.4236656250017
  0
POINT
  5
149
330
140
100
AcDbEntity
  8
4
100
AcDbPoint
 10
0.0
 20
0.0
 30
0.0
  0
LINE
  5
14A
330
140
100
AcDbEntity
  8
4
100
AcDbLine
 10
1.687
 20
2.116796991076922
 30
0.0
 11
2.187999999999999
 21
2.116796991076922
 31
0.0
  0
LINE
  5
14B
330
140
100
AcDbEntity
  8
4
100
AcDbLine
 10
1.687
 20
2.178796991076922
 30
0.0
 11
2.187999999999999
 21
2.178796991076922
 31
0.0
  0
LINE
  5
14C
330
140
100
AcDbEntity
  8
4
100
AcDbLine
 10
1.687
 20
2.685596991076923
 30
0.0
 11
2.187999999999999
 21
2.685596991076923
 31
0.0
  0
LINE
  5
14D
330
140
100
AcDbEntity
  8
4
100
AcDbLine
 10
1.687
 20
2.747596991076923
 30
0.0
 11
2.187999999999999
 21
2.747596991076923
 31
0.0
  0
LINE
  5
14E
330
140
100
AcDbEntity
  8
4
100
AcDbLine
 10
1.094
 20
2.162799999999999
 30
0.0
 11
1.094
 21
2.699596991076921
 31
0.0
  0
LINE
  5
14F
330
140
100
AcDbEntity
  8
4
100
AcDbLine
 10
1.531
 20
2.241377263610577
 30
0.0
 11
1.531
 21
2.162803008923077
 31
0.0
  0
LINE
  5
150
330
140
100
AcDbEntity
  8
4
100
AcDbLine
 10
1.531
 20
1.594003008923078
 30
0.0
 11
1.094
 21
1.594
 31
0.0
  0
LINE
  5
151
330
140
100
AcDbEntity
  8
4
100
AcDbLine
 10
1.531
 20
1.594003008923078
 30
0.0
 11
1.094
 21
1.594
 31
0.0
  0
LINE
  5
152
330
140
100
AcDbEntity
  8
4
100
AcDbLine
 10
1.531
 20
2.162803008923077
 30
0.0
 11
1.094
 21
2.162799999999999
 31
0.0
  0
LINE
  5
153
330
140
100
AcDbEntity
  8
4
100
AcDbLine
 10
1.531
 20
2.162803008923077
 30
0.0
 11
1.094
 21
2.162799999999999
 31
0.0
  0
LINE
  5
154
330
140
100
AcDbEntity
  8
4
100
AcDbLine
 10
1.531
 20
2.130799999999999
 30
0.0
 11
1.094
 21
2.130796991076921
 31
0.0
  0
LINE
  5
155
330
140
100
AcDbEntity
  8
4
100
AcDbLine
 10
1.094
 20
1.594
 30
0.0
 11
1.094
 21
2.130796991076921
 31
0.0
  0
LINE
  5
156
330
140
100
AcDbEntity
  8
4
100
AcDbLine
 10
1.118856516129801
 20
1.935535348242894
 30
0.0
 11
1.12702695922806
 21
1.804808258670755
 31
0.0
  0
LINE
  5
157
330
140
100
AcDbEntity
  8
4
100
AcDbLine
 10
1.103755480605211
 20
1.944602785454484
 30
0.0
 11
1.113789780500796
 21
1.78405398712514
 31
0.0
  0
LINE
  5
158
330
140
100
AcDbEntity
  8
4
100
AcDbLine
 10
1.265569722519789
 20
1.944602785454484
 30
0.0
 11
1.255535422624205
 21
1.78405398712514
 31
0.0
  0
LINE
  5
159
330
140
100
AcDbEntity
  8
4
100
AcDbLine
 10
1.250468686995199
 20
1.935535348242894
 30
0.0
 11
1.242298243896939
 21
1.804826471152893
 31
0.0
  0
CIRCLE
  5
15A
330
140
100
AcDbEntity
  8
4
100
AcDbCircle
 10
1.1846626015625
 20
1.862398495538461
 30
0.0
 40
0.01269276421875
  0
LINE
  5
15B
330
140
100
AcDbEntity
  8
4
100
AcDbLine
 10
1.1846626015625
 20
1.78669159672971
 30
0.0
 11
1.146330648457163
 21
1.786691596729714
 31
0.0
  0
LINE
  5
15C
330
140
100
AcDbEntity
  8
4
100
AcDbLine
 10
1.1846626015625
 20
1.760251964444711
 30
0.0
 11
1.139125872613992
 21
1.760251964444711
 31
0.0
  0
ARC
  5
15D
330
140
100
AcDbEntity
  8
4
100
AcDbCircle
 10
1.139125872613992
 20
1.78563749288221
 30
0.0
 40
0.0253855284375
100
AcDbArc
 50
183.5763343749981
 51
270.0
  0
ARC
  5
15E
330
140
100
AcDbEntity
  8
4
100
AcDbCircle
 10
1.146330648457163
 20
1.806032951729714
 30
0.0
 40
0.019341355
100
AcDbArc
 50
183.5763343749981
 51
270.0
  0
CIRCLE
  5
15F
330
140
100
AcDbEntity
  8
4
100
AcDbCircle
 10
1.1846626015625
 20
1.820118293508462
 30
0.0
 40
0.00421641539
  0
ARC
  5
160
330
140
100
AcDbEntity
  8
4
100
AcDbCircle
 10
1.222994554667836
 20
1.806032951729714
 30
0.0
 40
0.019341355
100
AcDbArc
 50
270.0
 51
356.4236656250018
  0
ARC
  5
161
330
140
100
AcDbEntity
  8
4
100
AcDbCircle
 10
1.230199330511007
 20
1.78563749288221
 30
0.0
 40
0.0253855284375
100
AcDbArc
 50
270.0
 51
356.4236656250018
  0
LINE
  5
162
330
140
100
AcDbEntity
  8
4
100
AcDbLine
 10
1.1846626015625
 20
1.760251964444711
 30
0.0
 11
1.230199330511007
 21
1.760251964444711
 31
0.0
  0
LINE
  5
163
330
140
100
AcDbEntity
  8
4
100
AcDbLine
 10
1.1846626015625
 20
1.78669159672971
 30
0.0
 11
1.222994554667836
 21
1.786691596729714
 31
0.0
  0
CIRCLE
  5
164
330
140
100
AcDbEntity
  8
4
100
AcDbCircle
 10
1.1846626015625
 20
1.771131476632215
 30
0.0
 40
0.006959019529
  0
LINE
  5
165
330
140
100
AcDbEntity
  8
4
100
AcDbLine
 10
1.1846626015625
 20
1.975424538819711
 30
0.0
 11
1.132711014448866
 21
1.975424538819711
 31
0.0
  0
LINE
  5
166
330
140
100
AcDbEntity
  8
4
 62
   130
100
AcDbLine
 10
1.143472293378387
 20
1.941481862058706
 30
0.0
 11
1.164012812388388
 21
1.920941343048709
 31
0.0
  0
LINE
  5
167
330
140
100
AcDbEntity
  8
4
100
AcDbLine
 10
1.140094192570984
 20
1.939773721164513
 30
0.0
 11
1.162304671494189
 21
1.917563242241307
 31
0.0
  0
LINE
  5
168
330
140
100
AcDbEntity
  8
4
100
AcDbLine
 10
1.1846626015625
 20
1.956083183819711
 30
0.0
 11
1.138160205358904
 21
1.956083183819711
 31
0.0
  0
ARC
  5
169
330
140
100
AcDbEntity
  8
4
 62
   130
100
AcDbCircle
 10
1.159745774565703
 20
1.916674305226026
 30
0.0
 40
0.00603450276
100
AcDbArc
 50
225.0000000000003
 51
45.00000000000031
  0
LINE
  5
16A
330
140
100
AcDbEntity
  8
4
100
AcDbLine
 10
1.158885570674731
 20
1.914144141421847
 30
0.0
 11
1.162304671494189
 21
1.917563242241307
 31
0.0
  0
LINE
  5
16B
330
140
100
AcDbEntity
  8
4
 62
   130
100
AcDbLine
 10
1.134938217733017
 20
1.93294778641334
 30
0.0
 11
1.155478736743017
 21
1.912407267403337
 31
0.0
  0
LINE
  5
16C
330
140
100
AcDbEntity
  8
4
100
AcDbLine
 10
1.136675091751524
 20
1.936354620345054
 30
0.0
 11
1.158885570674731
 21
1.914144141421847
 31
0.0
  0
ARC
  5
16D
330
140
100
AcDbEntity
  8
4
100
AcDbCircle
 10
1.138160205358904
 20
1.936741828819711
 30
0.0
 40
0.019341355
100
AcDbArc
 50
90.0
 51
183.5763343749981
  0
ARC
  5
16E
330
140
100
AcDbEntity
  8
4
 62
   130
100
AcDbCircle
 10
1.139205255555703
 20
1.937214824236023
 30
0.0
 40
0.00603450276
100
AcDbArc
 50
45.00000000000031
 51
225.0000000000003
  0
ARC
  5
16F
330
140
100
AcDbEntity
  8
4
100
AcDbCircle
 10
1.132711014448866
 20
1.946412506319711
 30
0.0
 40
0.0290120325
100
AcDbArc
 50
90.0
 51
183.5763343749981
  0
LINE
  5
170
330
140
100
AcDbEntity
  8
4
100
AcDbLine
 10
1.140094192570984
 20
1.939773721164513
 30
0.0
 11
1.136675091751524
 21
1.936354620345054
 31
0.0
  0
LINE
  5
171
330
140
100
AcDbEntity
  8
4
100
AcDbLine
 10
1.14523652020345
 20
1.93463139353205
 30
0.0
 11
1.141817419383991
 21
1.93121229271259
 31
0.0
  0
LINE
  5
172
330
140
100
AcDbEntity
  8
4
100
AcDbLine
 10
1.157162343861723
 20
1.922705569873775
 30
0.0
 11
1.153743243042264
 21
1.919286469054315
 31
0.0
  0
LINE
  5
173
330
140
100
AcDbEntity
  8
4
100
AcDbLine
 10
1.1846626015625
 20
1.956083183819711
 30
0.0
 11
1.231164997766097
 21
1.956083183819711
 31
0.0
  0
LINE
  5
174
330
140
100
AcDbEntity
  8
4
100
AcDbLine
 10
1.1846626015625
 20
1.975424538819711
 30
0.0
 11
1.236614188676135
 21
1.975424538819711
 31
0.0
  0
CIRCLE
  5
175
330
140
100
AcDbEntity
  8
4
100
AcDbCircle
 10
1.1846626015625
 20
1.904678697568464
 30
0.0
 40
0.00421641539
  0
ARC
  5
176
330
140
100
AcDbEntity
  8
4
100
AcDbCircle
 10
1.236614188676135
 20
1.946412506319711
 30
0.0
 40
0.0290120325
100
AcDbArc
 50
356.4236656250018
 51
90.0
  0
ARC
  5
177
330
140
100
AcDbEntity
  8
4
100
AcDbCircle
 10
1.231164997766097
 20
1.936741828819711
 30
0.0
 40
0.019341355
100
AcDbArc
 50
356.4236656250018
 51
90.0
  0
ARC
  5
178
330
140
100
AcDbEntity
  8
4
100
AcDbCircle
 10
1.28318262859375
 20
2.335094888603169
 30
0.0
 40
0.27077897
100
AcDbArc
 50
261.4046615383198
 51
278.5953384616802
  0
ARC
  5
179
330
140
100
AcDbEntity
  8
4
100
AcDbCircle
 10
1.28318262859375
 20
1.833428493290669
 30
0.0
 40
0.27077897
100
AcDbArc
 50
81.40466153831978
 51
98.59533846168023
  0
ARC
  5
17A
330
140
100
AcDbEntity
  8
4
100
AcDbCircle
 10
1.31944766921875
 20
2.084261690946919
 30
0.0
 40
0.0785742546875
100
AcDbArc
 50
167.5762104955835
 51
192.4237895044164
  0
LINE
  5
17B
330
140
100
AcDbEntity
  8
4
100
AcDbLine
 10
1.24691758796875
 20
2.080780247046922
 30
0.0
 11
1.24691758796875
 21
2.087743134846919
 31
0.0
  0
LINE
  5
17C
330
140
100
AcDbEntity
  8
4
100
AcDbLine
 10
1.24343614406875
 20
2.084261690946919
 30
0.0
 11
1.250399031868751
 21
2.084261690946919
 31
0.0
  0
CIRCLE
  5
17D
330
140
100
AcDbEntity
  8
4
100
AcDbCircle
 10
1.24691758796875
 20
2.084261690946919
 30
0.0
 40
0.00263042428
  0
ARC
  5
17E
330
140
100
AcDbEntity
  8
4
100
AcDbCircle
 10
1.24691758796875
 20
2.084261690946919
 30
0.0
 40
0.0785742546875
100
AcDbArc
 50
347.5762104955836
 51
12.42378950441644
  0
LINE
  5
17F
330
140
100
AcDbEntity
  8
4
100
AcDbLine
 10
1.31944766921875
 20
2.080780247046922
 30
0.0
 11
1.31944766921875
 21
2.087743134846919
 31
0.0
  0
LINE
  5
180
330
140
100
AcDbEntity
  8
4
100
AcDbLine
 10
1.315966225318749
 20
2.084261690946919
 30
0.0
 11
1.32292911311875
 21
2.084261690946919
 31
0.0
  0
CIRCLE
  5
181
330
140
100
AcDbEntity
  8
4
100
AcDbCircle
 10
1.31944766921875
 20
2.084261690946919
 30
0.0
 40
0.00263042428
  0
LINE
  5
182
330
140
100
AcDbEntity
  8
4
100
AcDbLine
 10
1.531
 20
1.97123382125
 30
0.0
 11
1.531
 21
1.753569187673078
 31
0.0
  0
LINE
  5
183
330
140
100
AcDbEntity
  8
4
100
AcDbLine
 10
1.52556024390625
 20
1.753569187673078
 30
0.0
 11
1.52556024390625
 21
1.672577263610578
 31
0.0
  0
LINE
  5
184
330
140
100
AcDbEntity
  8
4
100
AcDbLine
 10
1.531
 20
1.672577263610578
 30
0.0
 11
1.531
 21
1.753569187673078
 31
0.0
  0
LINE
  5
185
330
140
100
AcDbEntity
  8
4
100
AcDbLine
 10
1.52556024390625
 20
1.672577263610578
 30
0.0
 11
1.531
 21
1.672577263610578
 31
0.0
  0
LINE
  5
186
330
140
100
AcDbEntity
  8
4
100
AcDbLine
 10
1.531
 20
1.672577263610578
 30
0.0
 11
1.531
 21
1.594003008923078
 31
0.0
  0
LINE
  5
187
330
140
100
AcDbEntity
  8
4
  6
CENTER
100
AcDbLine
 10
1.515116501168687
 20
1.713073225641828
 30
0.0
 11
1.522934653467235
 21
1.713073225641828
 31
0.0
  0
LINE
  5
188
330
140
100
AcDbEntity
  8
4
  6
CENTER
100
AcDbLine
 10
1.533151573124047
 20
1.713073225641828
 30
0.0
 11
1.541502792507448
 21
1.713073225641828
 31
0.0
  0
LINE
  5
189
330
140
100
AcDbEntity
  8
4
100
AcDbLine
 10
1.526932587556485
 20
1.713073225641828
 30
0.0
 11
1.529331331899033
 21
1.713073225641828
 31
0.0
  0
LINE
  5
18A
330
140
100
AcDbEntity
  8
4
100
AcDbLine
 10
1.531
 20
1.753569187673078
 30
0.0
 11
1.52556024390625
 21
1.753569187673078
 31
0.0
  0
LINE
  5
18B
330
140
100
AcDbEntity
  8
4
100
AcDbLine
 10
1.531
 20
2.052225745312499
 30
0.0
 11
1.531
 21
1.97123382125
 31
0.0
  0
LINE
  5
18C
330
140
100
AcDbEntity
  8
4
100
AcDbLine
 10
1.52556024390625
 20
1.97123382125
 30
0.0
 11
1.52556024390625
 21
2.052225745312499
 31
0.0
  0
LINE
  5
18D
330
140
100
AcDbEntity
  8
4
  6
CENTER
100
AcDbLine
 10
1.515116501168687
 20
2.011729783281249
 30
0.0
 11
1.522934653467235
 21
2.011729783281249
 31
0.0
  0
LINE
  5
18E
330
140
100
AcDbEntity
  8
4
  6
CENTER
100
AcDbLine
 10
1.533151573124047
 20
2.011729783281249
 30
0.0
 11
1.541502792507448
 21
2.011729783281249
 31
0.0
  0
LINE
  5
18F
330
140
100
AcDbEntity
  8
4
100
AcDbLine
 10
1.526932587556485
 20
2.011729783281249
 30
0.0
 11
1.529331331899033
 21
2.011729783281249
 31
0.0
  0
LINE
  5
190
330
140
100
AcDbEntity
  8
4
100
AcDbLine
 10
1.531
 20
1.97123382125
 30
0.0
 11
1.52556024390625
 21
1.97123382125
 31
0.0
  0
LINE
  5
191
330
140
100
AcDbEntity
  8
4
100
AcDbLine
 10
1.52556024390625
 20
2.052225745312499
 30
0.0
 11
1.531
 21
2.052225745312499
 31
0.0
  0
LINE
  5
192
330
140
100
AcDbEntity
  8
4
100
AcDbLine
 10
1.531
 20
2.052225745312499
 30
0.0
 11
1.531
 21
2.130799999999999
 31
0.0
  0
LINE
  5
193
330
140
100
AcDbEntity
  8
4
100
AcDbLine
 10
1.531
 20
2.731603008923078
 30
0.0
 11
1.094
 21
2.7316
 31
0.0
  0
LINE
  5
194
330
140
100
AcDbEntity
  8
4
100
AcDbLine
 10
1.531
 20
2.731603008923078
 30
0.0
 11
1.094
 21
2.7316
 31
0.0
  0
LINE
  5
195
330
140
100
AcDbEntity
  8
4
100
AcDbLine
 10
1.531
 20
2.699599999999999
 30
0.0
 11
1.094
 21
2.699596991076921
 31
0.0
  0
LINE
  5
196
330
140
100
AcDbEntity
  8
4
100
AcDbLine
 10
1.1846626015625
 20
2.355491596729709
 30
0.0
 11
1.146330648457163
 21
2.355491596729714
 31
0.0
  0
LINE
  5
197
330
140
100
AcDbEntity
  8
4
100
AcDbLine
 10
1.1846626015625
 20
2.329051964444711
 30
0.0
 11
1.139125872613992
 21
2.329051964444711
 31
0.0
  0
LINE
  5
198
330
140
100
AcDbEntity
  8
4
100
AcDbLine
 10
1.1846626015625
 20
2.544224538819711
 30
0.0
 11
1.132711014448866
 21
2.544224538819711
 31
0.0
  0
LINE
  5
199
330
140
100
AcDbEntity
  8
4
 62
   130
100
AcDbLine
 10
1.143472293378387
 20
2.510281862058706
 30
0.0
 11
1.164012812388388
 21
2.489741343048708
 31
0.0
  0
LINE
  5
19A
330
140
100
AcDbEntity
  8
4
100
AcDbLine
 10
1.140094192570984
 20
2.508573721164513
 30
0.0
 11
1.162304671494189
 21
2.486363242241306
 31
0.0
  0
LINE
  5
19B
330
140
100
AcDbEntity
  8
4
100
AcDbLine
 10
1.1846626015625
 20
2.52488318381971
 30
0.0
 11
1.138160205358904
 21
2.52488318381971
 31
0.0
  0
ARC
  5
19C
330
140
100
AcDbEntity
  8
4
 62
   130
100
AcDbCircle
 10
1.159745774565703
 20
2.485474305226025
 30
0.0
 40
0.00603450276
100
AcDbArc
 50
225.0000000000003
 51
45.00000000000031
  0
LINE
  5
19D
330
140
100
AcDbEntity
  8
4
100
AcDbLine
 10
1.158885570674731
 20
2.482944141421847
 30
0.0
 11
1.162304671494189
 21
2.486363242241306
 31
0.0
  0
LINE
  5
19E
330
140
100
AcDbEntity
  8
4
100
AcDbLine
 10
1.118856516129801
 20
2.504335348242894
 30
0.0
 11
1.12702695922806
 21
2.373608258670754
 31
0.0
  0
LINE
  5
19F
330
140
100
AcDbEntity
  8
4
100
AcDbLine
 10
1.103755480605211
 20
2.513402785454483
 30
0.0
 11
1.113789780500796
 21
2.35285398712514
 31
0.0
  0
ARC
  5
1A0
330
140
100
AcDbEntity
  8
4
100
AcDbCircle
 10
1.139125872613992
 20
2.35443749288221
 30
0.0
 40
0.0253855284375
100
AcDbArc
 50
183.5763343749981
 51
270.0
  0
ARC
  5
1A1
330
140
100
AcDbEntity
  8
4
100
AcDbCircle
 10
1.146330648457163
 20
2.374832951729714
 30
0.0
 40
0.019341355
100
AcDbArc
 50
183.5763343749981
 51
270.0
  0
LINE
  5
1A2
330
140
100
AcDbEntity
  8
4
 62
   130
100
AcDbLine
 10
1.134938217733017
 20
2.501747786413339
 30
0.0
 11
1.155478736743017
 21
2.481207267403337
 31
0.0
  0
LINE
  5
1A3
330
140
100
AcDbEntity
  8
4
100
AcDbLine
 10
1.136675091751524
 20
2.505154620345053
 30
0.0
 11
1.158885570674731
 21
2.482944141421847
 31
0.0
  0
ARC
  5
1A4
330
140
100
AcDbEntity
  8
4
100
AcDbCircle
 10
1.138160205358904
 20
2.50554182881971
 30
0.0
 40
0.019341355
100
AcDbArc
 50
90.0
 51
183.5763343749981
  0
ARC
  5
1A5
330
140
100
AcDbEntity
  8
4
 62
   130
100
AcDbCircle
 10
1.139205255555703
 20
2.506014824236022
 30
0.0
 40
0.00603450276
100
AcDbArc
 50
45.00000000000031
 51
225.0000000000003
  0
ARC
  5
1A6
330
140
100
AcDbEntity
  8
4
100
AcDbCircle
 10
1.132711014448866
 20
2.515212506319711
 30
0.0
 40
0.0290120325
100
AcDbArc
 50
90.0
 51
183.5763343749981
  0
LINE
  5
1A7
330
140
100
AcDbEntity
  8
4
100
AcDbLine
 10
1.140094192570984
 20
2.508573721164513
 30
0.0
 11
1.136675091751524
 21
2.505154620345053
 31
0.0
  0
LINE
  5
1A8
330
140
100
AcDbEntity
  8
4
100
AcDbLine
 10
1.14523652020345
 20
2.503431393532049
 30
0.0
 11
1.141817419383991
 21
2.50001229271259
 31
0.0
  0
LINE
  5
1A9
330
140
100
AcDbEntity
  8
4
100
AcDbLine
 10
1.157162343861723
 20
2.491505569873774
 30
0.0
 11
1.153743243042264
 21
2.488086469054315
 31
0.0
  0
LINE
  5
1AA
330
140
100
AcDbEntity
  8
4
100
AcDbLine
 10
1.265569722519789
 20
2.513402785454483
 30
0.0
 11
1.255535422624205
 21
2.35285398712514
 31
0.0
  0
LINE
  5
1AB
330
140
100
AcDbEntity
  8
4
100
AcDbLine
 10
1.250468686995199
 20
2.504335348242894
 30
0.0
 11
1.242298243896939
 21
2.373626471152893
 31
0.0
  0
CIRCLE
  5
1AC
330
140
100
AcDbEntity
  8
4
100
AcDbCircle
 10
1.1846626015625
 20
2.388918293508462
 30
0.0
 40
0.00421641539
  0
LINE
  5
1AD
330
140
100
AcDbEntity
  8
4
100
AcDbLine
 10
1.1846626015625
 20
2.329051964444711
 30
0.0
 11
1.230199330511007
 21
2.329051964444711
 31
0.0
  0
LINE
  5
1AE
330
140
100
AcDbEntity
  8
4
100
AcDbLine
 10
1.1846626015625
 20
2.355491596729709
 30
0.0
 11
1.222994554667836
 21
2.355491596729714
 31
0.0
  0
CIRCLE
  5
1AF
330
140
100
AcDbEntity
  8
4
100
AcDbCircle
 10
1.1846626015625
 20
2.339931476632215
 30
0.0
 40
0.006959019529
  0
ARC
  5
1B0
330
140
100
AcDbEntity
  8
4
100
AcDbCircle
 10
1.222994554667836
 20
2.374832951729714
 30
0.0
 40
0.019341355
100
AcDbArc
 50
270.0
 51
356.4236656250017
  0
ARC
  5
1B1
330
140
100
AcDbEntity
  8
4
100
AcDbCircle
 10
1.230199330511007
 20
2.35443749288221
 30
0.0
 40
0.0253855284375
100
AcDbArc
 50
270.0
 51
356.4236656250017
  0
CIRCLE
  5
1B2
330
140
100
AcDbEntity
  8
4
100
AcDbCircle
 10
1.1846626015625
 20
2.431198495538461
 30
0.0
 40
0.01269276421875
  0
LINE
  5
1B3
330
140
100
AcDbEntity
  8
4
100
AcDbLine
 10
1.1846626015625
 20
2.52488318381971
 30
0.0
 11
1.231164997766097
 21
2.52488318381971
 31
0.0
  0
LINE
  5
1B4
330
140
100
AcDbEntity
  8
4
100
AcDbLine
 10
1.1846626015625
 20
2.544224538819711
 30
0.0
 11
1.236614188676135
 21
2.544224538819711
 31
0.0
  0
CIRCLE
  5
1B5
330
140
100
AcDbEntity
  8
4
100
AcDbCircle
 10
1.1846626015625
 20
2.473478697568464
 30
0.0
 40
0.00421641539
  0
ARC
  5
1B6
330
140
100
AcDbEntity
  8
4
100
AcDbCircle
 10
1.236614188676135
 20
2.515212506319711
 30
0.0
 40
0.0290120325
100
AcDbArc
 50
356.4236656250017
 51
90.0
  0
ARC
  5
1B7
330
140
100
AcDbEntity
  8
4
100
AcDbCircle
 10
1.231164997766097
 20
2.50554182881971
 30
0.0
 40
0.019341355
100
AcDbArc
 50
356.4236656250017
 51
90.0
  0
LINE
  5
1B8
330
140
100
AcDbEntity
  8
4
100
AcDbLine
 10
1.1846626015625
 20
2.897851964444711
 30
0.0
 11
1.139125872613992
 21
2.897851964444711
 31
0.0
  0
LINE
  5
1B9
330
140
100
AcDbEntity
  8
4
100
AcDbLine
 10
1.1846626015625
 20
2.92429159672971
 30
0.0
 11
1.146330648457163
 21
2.924291596729714
 31
0.0
  0
ARC
  5
1BA
330
140
100
AcDbEntity
  8
4
100
AcDbCircle
 10
1.139125872613992
 20
2.92323749288221
 30
0.0
 40
0.0253855284375
100
AcDbArc
 50
183.5763343749981
 51
270.0
  0
ARC
  5
1BB
330
140
100
AcDbEntity
  8
4
100
AcDbCircle
 10
1.28318262859375
 20
2.903894888603169
 30
0.0
 40
0.27077897
100
AcDbArc
 50
261.4046615383198
 51
278.5953384616802
  0
ARC
  5
1BC
330
140
100
AcDbEntity
  8
4
100
AcDbCircle
 10
1.28318262859375
 20
2.402228493290668
 30
0.0
 40
0.27077897
100
AcDbArc
 50
81.40466153831978
 51
98.59533846168023
  0
ARC
  5
1BD
330
140
100
AcDbEntity
  8
4
100
AcDbCircle
 10
1.31944766921875
 20
2.653061690946919
 30
0.0
 40
0.0785742546875
100
AcDbArc
 50
167.5762104955835
 51
192.4237895044164
  0
LINE
  5
1BE
330
140
100
AcDbEntity
  8
4
100
AcDbLine
 10
1.24691758796875
 20
2.649580247046921
 30
0.0
 11
1.24691758796875
 21
2.656543134846919
 31
0.0
  0
LINE
  5
1BF
330
140
100
AcDbEntity
  8
4
100
AcDbLine
 10
1.24343614406875
 20
2.653061690946919
 30
0.0
 11
1.250399031868751
 21
2.653061690946919
 31
0.0
  0
CIRCLE
  5
1C0
330
140
100
AcDbEntity
  8
4
100
AcDbCircle
 10
1.24691758796875
 20
2.653061690946919
 30
0.0
 40
0.00263042428
  0
ARC
  5
1C1
330
140
100
AcDbEntity
  8
4
100
AcDbCircle
 10
1.24691758796875
 20
2.653061690946919
 30
0.0
 40
0.0785742546875
100
AcDbArc
 50
347.5762104955836
 51
12.42378950441644
  0
LINE
  5
1C2
330
140
100
AcDbEntity
  8
4
100
AcDbLine
 10
1.31944766921875
 20
2.649580247046921
 30
0.0
 11
1.31944766921875
 21
2.656543134846919
 31
0.0
  0
LINE
  5
1C3
330
140
100
AcDbEntity
  8
4
100
AcDbLine
 10
1.315966225318749
 20
2.653061690946919
 30
0.0
 11
1.32292911311875
 21
2.653061690946919
 31
0.0
  0
CIRCLE
  5
1C4
330
140
100
AcDbEntity
  8
4
100
AcDbCircle
 10
1.31944766921875
 20
2.653061690946919
 30
0.0
 40
0.00263042428
  0
ARC
  5
1C5
330
140
100
AcDbEntity
  8
4
100
AcDbCircle
 10
1.230199330511007
 20
2.92323749288221
 30
0.0
 40
0.0253855284375
100
AcDbArc
 50
270.0
 51
356.4236656250017
  0
LINE
  5
1C6
330
140
100
AcDbEntity
  8
4
100
AcDbLine
 10
1.1846626015625
 20
2.897851964444711
 30
0.0
 11
1.230199330511007
 21
2.897851964444711
 31
0.0
  0
CIRCLE
  5
1C7
330
140
100
AcDbEntity
  8
4
100
AcDbCircle
 10
1.1846626015625
 20
2.908731476632215
 30
0.0
 40
0.006959019529
  0
LINE
  5
1C8
330
140
100
AcDbEntity
  8
4
100
AcDbLine
 10
1.1846626015625
 20
2.92429159672971
 30
0.0
 11
1.222994554667836
 21
2.924291596729714
 31
0.0
  0
LINE
  5
1C9
330
140
100
AcDbEntity
  8
4
100
AcDbLine
 10
1.531
 20
2.621025745312499
 30
0.0
 11
1.531
 21
2.540033821249999
 31
0.0
  0
LINE
  5
1CA
330
140
100
AcDbEntity
  8
4
100
AcDbLine
 10
1.52556024390625
 20
2.540033821249999
 30
0.0
 11
1.52556024390625
 21
2.621025745312499
 31
0.0
  0
LINE
  5
1CB
330
140
100
AcDbEntity
  8
4
100
AcDbLine
 10
1.531
 20
2.540033821249999
 30
0.0
 11
1.531
 21
2.322369187673078
 31
0.0
  0
LINE
  5
1CC
330
140
100
AcDbEntity
  8
4
  6
CENTER
100
AcDbLine
 10
1.515116501168687
 20
2.281873225641827
 30
0.0
 11
1.522934653467235
 21
2.281873225641827
 31
0.0
  0
LINE
  5
1CD
330
140
100
AcDbEntity
  8
4
  6
CENTER
100
AcDbLine
 10
1.533151573124047
 20
2.281873225641827
 30
0.0
 11
1.541502792507448
 21
2.281873225641827
 31
0.0
  0
LINE
  5
1CE
330
140
100
AcDbEntity
  8
4
100
AcDbLine
 10
1.52556024390625
 20
2.322369187673078
 30
0.0
 11
1.52556024390625
 21
2.241377263610577
 31
0.0
  0
LINE
  5
1CF
330
140
100
AcDbEntity
  8
4
100
AcDbLine
 10
1.531
 20
2.241377263610577
 30
0.0
 11
1.531
 21
2.322369187673078
 31
0.0
  0
LINE
  5
1D0
330
140
100
AcDbEntity
  8
4
100
AcDbLine
 10
1.52556024390625
 20
2.241377263610577
 30
0.0
 11
1.531
 21
2.241377263610577
 31
0.0
  0
LINE
  5
1D1
330
140
100
AcDbEntity
  8
4
100
AcDbLine
 10
1.526932587556485
 20
2.281873225641827
 30
0.0
 11
1.529331331899033
 21
2.281873225641827
 31
0.0
  0
LINE
  5
1D2
330
140
100
AcDbEntity
  8
4
100
AcDbLine
 10
1.531
 20
2.322369187673078
 30
0.0
 11
1.52556024390625
 21
2.322369187673078
 31
0.0
  0
LINE
  5
1D3
330
140
100
AcDbEntity
  8
4
100
AcDbLine
 10
1.531
 20
2.540033821249999
 30
0.0
 11
1.52556024390625
 21
2.540033821249999
 31
0.0
  0
LINE
  5
1D4
330
140
100
AcDbEntity
  8
4
100
AcDbLine
 10
1.531
 20
2.810177263610578
 30
0.0
 11
1.531
 21
2.731603008923078
 31
0.0
  0
LINE
  5
1D5
330
140
100
AcDbEntity
  8
4
  6
CENTER
100
AcDbLine
 10
1.515116501168687
 20
2.580529783281249
 30
0.0
 11
1.522934653467235
 21
2.580529783281249
 31
0.0
  0
LINE
  5
1D6
330
140
100
AcDbEntity
  8
4
  6
CENTER
100
AcDbLine
 10
1.533151573124047
 20
2.580529783281249
 30
0.0
 11
1.541502792507448
 21
2.580529783281249
 31
0.0
  0
LINE
  5
1D7
330
140
100
AcDbEntity
  8
4
100
AcDbLine
 10
1.52556024390625
 20
2.621025745312499
 30
0.0
 11
1.531
 21
2.621025745312499
 31
0.0
  0
LINE
  5
1D8
330
140
100
AcDbEntity
  8
4
100
AcDbLine
 10
1.526932587556485
 20
2.580529783281249
 30
0.0
 11
1.529331331899033
 21
2.580529783281249
 31
0.0
  0
LINE
  5
1D9
330
140
100
AcDbEntity
  8
4
100
AcDbLine
 10
1.531
 20
2.621025745312499
 30
0.0
 11
1.531
 21
2.699599999999999
 31
0.0
  0
LINE
  5
1DA
330
140
100
AcDbEntity
  8
4
  6
CENTER
100
AcDbLine
 10
1.515116501168687
 20
2.850673225641828
 30
0.0
 11
1.522934653467235
 21
2.850673225641828
 31
0.0
  0
LINE
  5
1DB
330
140
100
AcDbEntity
  8
4
  6
CENTER
100
AcDbLine
 10
1.533151573124047
 20
2.850673225641828
 30
0.0
 11
1.541502792507448
 21
2.850673225641828
 31
0.0
  0
LINE
  5
1DC
330
140
100
AcDbEntity
  8
4
100
AcDbLine
 10
1.52556024390625
 20
2.891169187673078
 30
0.0
 11
1.52556024390625
 21
2.810177263610578
 31
0.0
  0
LINE
  5
1DD
330
140
100
AcDbEntity
  8
4
100
AcDbLine
 10
1.531
 20
2.810177263610578
 30
0.0
 11
1.531
 21
2.891169187673078
 31
0.0
  0
LINE
  5
1DE
330
140
100
AcDbEntity
  8
4
100
AcDbLine
 10
1.52556024390625
 20
2.810177263610578
 30
0.0
 11
1.531
 21
2.810177263610578
 31
0.0
  0
LINE
  5
1DF
330
140
100
AcDbEntity
  8
4
100
AcDbLine
 10
1.526932587556485
 20
2.850673225641828
 30
0.0
 11
1.529331331899033
 21
2.850673225641828
 31
0.0
  0
LINE
  5
1E0
330
140
100
AcDbEntity
  8
4
100
AcDbLine
 10
1.531
 20
2.891169187673078
 30
0.0
 11
1.52556024390625
 21
2.891169187673078
 31
0.0
  0
LINE
  5
1E1
330
140
100
AcDbEntity
  8
4
100
AcDbLine
 10
2.625
 20
2.116796991076922
 30
0.0
 11
2.812999999999999
 21
2.116796991076922
 31
0.0
  0
LINE
  5
1E2
330
140
100
AcDbEntity
  8
4
100
AcDbLine
 10
2.625
 20
2.178796991076922
 30
0.0
 11
2.812999999999999
 21
2.178796991076922
 31
0.0
  0
LINE
  5
1E3
330
140
100
AcDbEntity
  8
4
100
AcDbLine
 10
2.625
 20
2.685596991076923
 30
0.0
 11
2.812999999999999
 21
2.685596991076923
 31
0.0
  0
LINE
  5
1E4
330
140
100
AcDbEntity
  8
4
100
AcDbLine
 10
2.625
 20
2.747596991076923
 30
0.0
 11
2.812999999999999
 21
2.747596991076923
 31
0.0
  0
LINE
  5
1E5
330
140
100
AcDbEntity
  8
4
100
AcDbLine
 10
2.312
 20
2.116796991076922
 30
0.0
 11
2.5
 21
2.116796991076922
 31
0.0
  0
LINE
  5
1E6
330
140
100
AcDbEntity
  8
4
100
AcDbLine
 10
2.312
 20
2.178796991076922
 30
0.0
 11
2.5
 21
2.178796991076922
 31
0.0
  0
LINE
  5
1E7
330
140
100
AcDbEntity
  8
4
100
AcDbLine
 10
2.312
 20
2.685596991076923
 30
0.0
 11
2.5
 21
2.685596991076923
 31
0.0
  0
LINE
  5
1E8
330
140
100
AcDbEntity
  8
4
100
AcDbLine
 10
2.312
 20
2.747596991076923
 30
0.0
 11
2.5
 21
2.747596991076923
 31
0.0
  0
LINE
  5
1E9
330
140
100
AcDbEntity
  8
4
100
AcDbLine
 10
2.937000000000001
 20
2.116796991076922
 30
0.0
 11
3.437999999999998
 21
2.116796991076922
 31
0.0
  0
LINE
  5
1EA
330
140
100
AcDbEntity
  8
4
100
AcDbLine
 10
2.937000000000001
 20
2.178796991076922
 30
0.0
 11
3.437999999999998
 21
2.178796991076922
 31
0.0
  0
LINE
  5
1EB
330
140
100
AcDbEntity
  8
4
100
AcDbLine
 10
2.937000000000001
 20
2.685596991076923
 30
0.0
 11
3.437999999999998
 21
2.685596991076923
 31
0.0
  0
LINE
  5
1EC
330
140
100
AcDbEntity
  8
4
100
AcDbLine
 10
2.937000000000001
 20
2.747596991076923
 30
0.0
 11
3.437999999999998
 21
2.747596991076923
 31
0.0
  0
LINE
  5
1ED
330
140
100
AcDbEntity
  8
4
100
AcDbLine
 10
1.687
 20
3.885196991076923
 30
0.0
 11
2.187999999999999
 21
3.885196991076923
 31
0.0
  0
LINE
  5
1EE
330
140
100
AcDbEntity
  8
4
100
AcDbLine
 10
1.687
 20
3.823196991076923
 30
0.0
 11
2.187999999999999
 21
3.823196991076923
 31
0.0
  0
LINE
  5
1EF
330
140
100
AcDbEntity
  8
4
100
AcDbLine
 10
1.687
 20
3.254396991076923
 30
0.0
 11
2.187999999999999
 21
3.254396991076923
 31
0.0
  0
LINE
  5
1F0
330
140
100
AcDbEntity
  8
4
100
AcDbLine
 10
1.687
 20
3.316396991076922
 30
0.0
 11
2.187999999999999
 21
3.316396991076922
 31
0.0
  0
LINE
  5
1F1
330
140
100
AcDbEntity
  8
4
100
AcDbLine
 10
1.531
 20
4.327425745312499
 30
0.0
 11
1.531
 21
4.405999999999999
 31
0.0
  0
LINE
  5
1F2
330
140
100
AcDbEntity
  8
4
100
AcDbLine
 10
1.094
 20
3.8692
 30
0.0
 11
1.094
 21
4.405996991076921
 31
0.0
  0
LINE
  5
1F3
330
140
100
AcDbEntity
  8
4
100
AcDbLine
 10
1.094
 20
3.3004
 30
0.0
 11
1.094
 21
3.837196991076922
 31
0.0
  0
LINE
  5
1F4
330
140
100
AcDbEntity
  8
4
 62
   130
100
AcDbLine
 10
1.134938217733017
 20
3.63934778641334
 30
0.0
 11
1.155478736743017
 21
3.618807267403338
 31
0.0
  0
LINE
  5
1F5
330
140
100
AcDbEntity
  8
4
100
AcDbLine
 10
1.136675091751524
 20
3.642754620345054
 30
0.0
 11
1.158885570674731
 21
3.620544141421848
 31
0.0
  0
LINE
  5
1F6
330
140
100
AcDbEntity
  8
4
100
AcDbLine
 10
1.118856516129801
 20
3.641935348242895
 30
0.0
 11
1.12702695922806
 21
3.511208258670755
 31
0.0
  0
LINE
  5
1F7
330
140
100
AcDbEntity
  8
4
100
AcDbLine
 10
1.103755480605211
 20
3.651002785454484
 30
0.0
 11
1.113789780500796
 21
3.490453987125141
 31
0.0
  0
LINE
  5
1F8
330
140
100
AcDbEntity
  8
4
100
AcDbLine
 10
1.265569722519789
 20
3.651002785454484
 30
0.0
 11
1.255535422624205
 21
3.490453987125141
 31
0.0
  0
LINE
  5
1F9
330
140
100
AcDbEntity
  8
4
100
AcDbLine
 10
1.250468686995199
 20
3.641935348242895
 30
0.0
 11
1.242298243896939
 21
3.511226471152894
 31
0.0
  0
LINE
  5
1FA
330
140
100
AcDbEntity
  8
4
 62
   130
100
AcDbLine
 10
1.143472293378387
 20
3.647881862058707
 30
0.0
 11
1.164012812388388
 21
3.627341343048709
 31
0.0
  0
LINE
  5
1FB
330
140
100
AcDbEntity
  8
4
100
AcDbLine
 10
1.140094192570984
 20
3.646173721164513
 30
0.0
 11
1.162304671494189
 21
3.623963242241307
 31
0.0
  0
LINE
  5
1FC
330
140
100
AcDbEntity
  8
4
100
AcDbLine
 10
1.531
 20
3.67763382125
 30
0.0
 11
1.531
 21
3.459969187673078
 31
0.0
  0
LINE
  5
1FD
330
140
100
AcDbEntity
  8
4
100
AcDbLine
 10
1.531
 20
3.300403008923078
 30
0.0
 11
1.094
 21
3.3004
 31
0.0
  0
LINE
  5
1FE
330
140
100
AcDbEntity
  8
4
100
AcDbLine
 10
1.531
 20
3.300403008923078
 30
0.0
 11
1.094
 21
3.3004
 31
0.0
  0
LINE
  5
1FF
330
140
100
AcDbEntity
  8
4
100
AcDbLine
 10
1.531
 20
3.268399999999999
 30
0.0
 11
1.094
 21
3.268396991076921
 31
0.0
  0
LINE
  5
200
330
140
100
AcDbEntity
  8
4
 62
   130
100
AcDbLine
 10
1.143472293378387
 20
3.079081862058706
 30
0.0
 11
1.164012812388388
 21
3.058541343048709
 31
0.0
  0
LINE
  5
201
330
140
100
AcDbEntity
  8
4
100
AcDbLine
 10
1.140094192570984
 20
3.077373721164513
 30
0.0
 11
1.162304671494189
 21
3.055163242241307
 31
0.0
  0
ARC
  5
202
330
140
100
AcDbEntity
  8
4
 62
   130
100
AcDbCircle
 10
1.159745774565703
 20
3.054274305226026
 30
0.0
 40
0.00603450276
100
AcDbArc
 50
225.0000000000003
 51
45.00000000000031
  0
LINE
  5
203
330
140
100
AcDbEntity
  8
4
100
AcDbLine
 10
1.158885570674731
 20
3.051744141421847
 30
0.0
 11
1.162304671494189
 21
3.055163242241307
 31
0.0
  0
LINE
  5
204
330
140
100
AcDbEntity
  8
4
100
AcDbLine
 10
1.1846626015625
 20
3.09368318381971
 30
0.0
 11
1.138160205358904
 21
3.09368318381971
 31
0.0
  0
LINE
  5
205
330
140
100
AcDbEntity
  8
4
100
AcDbLine
 10
1.1846626015625
 20
3.113024538819711
 30
0.0
 11
1.132711014448866
 21
3.113024538819711
 31
0.0
  0
ARC
  5
206
330
140
100
AcDbEntity
  8
4
100
AcDbCircle
 10
1.132711014448866
 20
3.084012506319711
 30
0.0
 40
0.0290120325
100
AcDbArc
 50
90.0
 51
183.5763343749981
  0
ARC
  5
207
330
140
100
AcDbEntity
  8
4
100
AcDbCircle
 10
1.138160205358904
 20
3.074341828819711
 30
0.0
 40
0.019341355
100
AcDbArc
 50
90.0
 51
183.5763343749981
  0
LINE
  5
208
330
140
100
AcDbEntity
  8
4
 62
   130
100
AcDbLine
 10
1.134938217733017
 20
3.07054778641334
 30
0.0
 11
1.155478736743017
 21
3.050007267403337
 31
0.0
  0
LINE
  5
209
330
140
100
AcDbEntity
  8
4
100
AcDbLine
 10
1.136675091751524
 20
3.073954620345054
 30
0.0
 11
1.158885570674731
 21
3.051744141421847
 31
0.0
  0
LINE
  5
20A
330
140
100
AcDbEntity
  8
4
100
AcDbLine
 10
1.118856516129801
 20
3.073135348242894
 30
0.0
 11
1.12702695922806
 21
2.942408258670755
 31
0.0
  0
ARC
  5
20B
330
140
100
AcDbEntity
  8
4
 62
   130
100
AcDbCircle
 10
1.139205255555703
 20
3.074814824236023
 30
0.0
 40
0.00603450276
100
AcDbArc
 50
45.00000000000031
 51
225.0000000000003
  0
LINE
  5
20C
330
140
100
AcDbEntity
  8
4
100
AcDbLine
 10
1.140094192570984
 20
3.077373721164513
 30
0.0
 11
1.136675091751524
 21
3.073954620345054
 31
0.0
  0
LINE
  5
20D
330
140
100
AcDbEntity
  8
4
100
AcDbLine
 10
1.14523652020345
 20
3.072231393532049
 30
0.0
 11
1.141817419383991
 21
3.06881229271259
 31
0.0
  0
LINE
  5
20E
330
140
100
AcDbEntity
  8
4
100
AcDbLine
 10
1.157162343861723
 20
3.060305569873775
 30
0.0
 11
1.153743243042264
 21
3.056886469054315
 31
0.0
  0
ARC
  5
20F
330
140
100
AcDbEntity
  8
4
100
AcDbCircle
 10
1.236614188676135
 20
3.084012506319711
 30
0.0
 40
0.0290120325
100
AcDbArc
 50
356.4236656250017
 51
90.0
  0
ARC
  5
210
330
140
100
AcDbEntity
  8
4
100
AcDbCircle
 10
1.231164997766097
 20
3.074341828819711
 30
0.0
 40
0.019341355
100
AcDbArc
 50
356.4236656250017
 51
90.0
  0
CIRCLE
  5
211
330
140
100
AcDbEntity
  8
4
100
AcDbCircle
 10
1.1846626015625
 20
2.999998495538461
 30
0.0
 40
0.01269276421875
  0
CIRCLE
  5
212
330
140
100
AcDbEntity
  8
4
100
AcDbCircle
 10
1.1846626015625
 20
2.957718293508462
 30
0.0
 40
0.00421641539
  0
CIRCLE
  5
213
330
140
100
AcDbEntity
  8
4
100
AcDbCircle
 10
1.1846626015625
 20
3.042278697568464
 30
0.0
 40
0.00421641539
  0
LINE
  5
214
330
140
100
AcDbEntity
  8
4
100
AcDbLine
 10
1.250468686995199
 20
3.073135348242894
 30
0.0
 11
1.242298243896939
 21
2.942426471152893
 31
0.0
  0
LINE
  5
215
330
140
100
AcDbEntity
  8
4
100
AcDbLine
 10
1.1846626015625
 20
3.09368318381971
 30
0.0
 11
1.231164997766097
 21
3.09368318381971
 31
0.0
  0
ARC
  5
216
330
140
100
AcDbEntity
  8
4
100
AcDbCircle
 10
1.28318262859375
 20
3.472694888603169
 30
0.0
 40
0.27077897
100
AcDbArc
 50
261.4046615383198
 51
278.5953384616802
  0
ARC
  5
217
330
140
100
AcDbEntity
  8
4
100
AcDbCircle
 10
1.28318262859375
 20
2.971028493290669
 30
0.0
 40
0.27077897
100
AcDbArc
 50
81.40466153831978
 51
98.59533846168023
  0
LINE
  5
218
330
140
100
AcDbEntity
  8
4
100
AcDbLine
 10
1.1846626015625
 20
3.113024538819711
 30
0.0
 11
1.236614188676135
 21
3.113024538819711
 31
0.0
  0
ARC
  5
219
330
140
100
AcDbEntity
  8
4
100
AcDbCircle
 10
1.31944766921875
 20
3.221861690946919
 30
0.0
 40
0.0785742546875
100
AcDbArc
 50
167.5762104955835
 51
192.4237895044164
  0
LINE
  5
21A
330
140
100
AcDbEntity
  8
4
100
AcDbLine
 10
1.24691758796875
 20
3.218380247046922
 30
0.0
 11
1.24691758796875
 21
3.225343134846919
 31
0.0
  0
LINE
  5
21B
330
140
100
AcDbEntity
  8
4
100
AcDbLine
 10
1.24343614406875
 20
3.221861690946919
 30
0.0
 11
1.250399031868751
 21
3.221861690946919
 31
0.0
  0
CIRCLE
  5
21C
330
140
100
AcDbEntity
  8
4
100
AcDbCircle
 10
1.24691758796875
 20
3.221861690946919
 30
0.0
 40
0.00263042428
  0
ARC
  5
21D
330
140
100
AcDbEntity
  8
4
100
AcDbCircle
 10
1.24691758796875
 20
3.221861690946919
 30
0.0
 40
0.0785742546875
100
AcDbArc
 50
347.5762104955836
 51
12.42378950441644
  0
LINE
  5
21E
330
140
100
AcDbEntity
  8
4
100
AcDbLine
 10
1.31944766921875
 20
3.218380247046922
 30
0.0
 11
1.31944766921875
 21
3.225343134846919
 31
0.0
  0
LINE
  5
21F
330
140
100
AcDbEntity
  8
4
100
AcDbLine
 10
1.315966225318749
 20
3.221861690946919
 30
0.0
 11
1.32292911311875
 21
3.221861690946919
 31
0.0
  0
CIRCLE
  5
220
330
140
100
AcDbEntity
  8
4
100
AcDbCircle
 10
1.31944766921875
 20
3.221861690946919
 30
0.0
 40
0.00263042428
  0
ARC
  5
221
330
140
100
AcDbEntity
  8
4
 62
   130
100
AcDbCircle
 10
1.159745774565703
 20
3.623074305226026
 30
0.0
 40
0.00603450276
100
AcDbArc
 50
225.0000000000003
 51
45.00000000000031
  0
LINE
  5
222
330
140
100
AcDbEntity
  8
4
100
AcDbLine
 10
1.158885570674731
 20
3.620544141421848
 30
0.0
 11
1.162304671494189
 21
3.623963242241307
 31
0.0
  0
LINE
  5
223
330
140
100
AcDbEntity
  8
4
100
AcDbLine
 10
1.1846626015625
 20
3.49309159672971
 30
0.0
 11
1.146330648457163
 21
3.493091596729715
 31
0.0
  0
LINE
  5
224
330
140
100
AcDbEntity
  8
4
100
AcDbLine
 10
1.1846626015625
 20
3.466651964444712
 30
0.0
 11
1.139125872613992
 21
3.466651964444712
 31
0.0
  0
ARC
  5
225
330
140
100
AcDbEntity
  8
4
100
AcDbCircle
 10
1.146330648457163
 20
3.512432951729715
 30
0.0
 40
0.019341355
100
AcDbArc
 50
183.5763343749981
 51
270.0
  0
ARC
  5
226
330
140
100
AcDbEntity
  8
4
100
AcDbCircle
 10
1.139125872613992
 20
3.492037492882211
 30
0.0
 40
0.0253855284375
100
AcDbArc
 50
183.5763343749981
 51
270.0
  0
LINE
  5
227
330
140
100
AcDbEntity
  8
4
100
AcDbLine
 10
1.157162343861723
 20
3.629105569873775
 30
0.0
 11
1.153743243042264
 21
3.625686469054316
 31
0.0
  0
CIRCLE
  5
228
330
140
100
AcDbEntity
  8
4
100
AcDbCircle
 10
1.1846626015625
 20
3.568798495538461
 30
0.0
 40
0.01269276421875
  0
LINE
  5
229
330
140
100
AcDbEntity
  8
4
100
AcDbLine
 10
1.1846626015625
 20
3.466651964444712
 30
0.0
 11
1.230199330511007
 21
3.466651964444712
 31
0.0
  0
LINE
  5
22A
330
140
100
AcDbEntity
  8
4
100
AcDbLine
 10
1.1846626015625
 20
3.49309159672971
 30
0.0
 11
1.222994554667836
 21
3.493091596729715
 31
0.0
  0
CIRCLE
  5
22B
330
140
100
AcDbEntity
  8
4
100
AcDbCircle
 10
1.1846626015625
 20
3.477531476632216
 30
0.0
 40
0.006959019529
  0
CIRCLE
  5
22C
330
140
100
AcDbEntity
  8
4
100
AcDbCircle
 10
1.1846626015625
 20
3.526518293508463
 30
0.0
 40
0.00421641539
  0
CIRCLE
  5
22D
330
140
100
AcDbEntity
  8
4
100
AcDbCircle
 10
1.1846626015625
 20
3.611078697568465
 30
0.0
 40
0.00421641539
  0
ARC
  5
22E
330
140
100
AcDbEntity
  8
4
100
AcDbCircle
 10
1.222994554667836
 20
3.512432951729715
 30
0.0
 40
0.019341355
100
AcDbArc
 50
270.0
 51
356.4236656250017
  0
ARC
  5
22F
330
140
100
AcDbEntity
  8
4
100
AcDbCircle
 10
1.230199330511007
 20
3.492037492882211
 30
0.0
 40
0.0253855284375
100
AcDbArc
 50
270.0
 51
356.4236656250017
  0
LINE
  5
230
330
140
100
AcDbEntity
  8
4
  6
CENTER
100
AcDbLine
 10
1.515116501168687
 20
3.149329783281249
 30
0.0
 11
1.522934653467235
 21
3.149329783281249
 31
0.0
  0
LINE
  5
231
330
140
100
AcDbEntity
  8
4
  6
CENTER
100
AcDbLine
 10
1.533151573124047
 20
3.149329783281249
 30
0.0
 11
1.541502792507448
 21
3.149329783281249
 31
0.0
  0
LINE
  5
232
330
140
100
AcDbEntity
  8
4
100
AcDbLine
 10
1.52556024390625
 20
3.189825745312499
 30
0.0
 11
1.531
 21
3.189825745312499
 31
0.0
  0
LINE
  5
233
330
140
100
AcDbEntity
  8
4
100
AcDbLine
 10
1.526932587556485
 20
3.149329783281249
 30
0.0
 11
1.529331331899033
 21
3.149329783281249
 31
0.0
  0
LINE
  5
234
330
140
100
AcDbEntity
  8
4
100
AcDbLine
 10
1.531
 20
3.10883382125
 30
0.0
 11
1.52556024390625
 21
3.10883382125
 31
0.0
  0
LINE
  5
235
330
140
100
AcDbEntity
  8
4
100
AcDbLine
 10
1.531
 20
3.189825745312499
 30
0.0
 11
1.531
 21
3.10883382125
 31
0.0
  0
LINE
  5
236
330
140
100
AcDbEntity
  8
4
100
AcDbLine
 10
1.52556024390625
 20
3.10883382125
 30
0.0
 11
1.52556024390625
 21
3.189825745312499
 31
0.0
  0
LINE
  5
237
330
140
100
AcDbEntity
  8
4
100
AcDbLine
 10
1.531
 20
3.189825745312499
 30
0.0
 11
1.531
 21
3.268399999999999
 31
0.0
  0
LINE
  5
238
330
140
100
AcDbEntity
  8
4
100
AcDbLine
 10
1.52556024390625
 20
3.459969187673078
 30
0.0
 11
1.52556024390625
 21
3.378977263610578
 31
0.0
  0
LINE
  5
239
330
140
100
AcDbEntity
  8
4
100
AcDbLine
 10
1.531
 20
3.378977263610578
 30
0.0
 11
1.531
 21
3.459969187673078
 31
0.0
  0
LINE
  5
23A
330
140
100
AcDbEntity
  8
4
  6
CENTER
100
AcDbLine
 10
1.515116501168687
 20
3.419473225641828
 30
0.0
 11
1.522934653467235
 21
3.419473225641828
 31
0.0
  0
LINE
  5
23B
330
140
100
AcDbEntity
  8
4
  6
CENTER
100
AcDbLine
 10
1.533151573124047
 20
3.419473225641828
 30
0.0
 11
1.541502792507448
 21
3.419473225641828
 31
0.0
  0
LINE
  5
23C
330
140
100
AcDbEntity
  8
4
100
AcDbLine
 10
1.52556024390625
 20
3.378977263610578
 30
0.0
 11
1.531
 21
3.378977263610578
 31
0.0
  0
LINE
  5
23D
330
140
100
AcDbEntity
  8
4
100
AcDbLine
 10
1.531
 20
3.378977263610578
 30
0.0
 11
1.531
 21
3.300403008923078
 31
0.0
  0
LINE
  5
23E
330
140
100
AcDbEntity
  8
4
100
AcDbLine
 10
1.526932587556485
 20
3.419473225641828
 30
0.0
 11
1.529331331899033
 21
3.419473225641828
 31
0.0
  0
LINE
  5
23F
330
140
100
AcDbEntity
  8
4
100
AcDbLine
 10
1.531
 20
3.459969187673078
 30
0.0
 11
1.52556024390625
 21
3.459969187673078
 31
0.0
  0
LINE
  5
240
330
140
100
AcDbEntity
  8
4
100
AcDbLine
 10
1.531
 20
3.869203008923078
 30
0.0
 11
1.094
 21
3.8692
 31
0.0
  0
LINE
  5
241
330
140
100
AcDbEntity
  8
4
100
AcDbLine
 10
1.531
 20
3.869203008923078
 30
0.0
 11
1.094
 21
3.8692
 31
0.0
  0
LINE
  5
242
330
140
100
AcDbEntity
  8
4
100
AcDbLine
 10
1.531
 20
3.8372
 30
0.0
 11
1.094
 21
3.837196991076922
 31
0.0
  0
LINE
  5
243
330
140
100
AcDbEntity
  8
4
100
AcDbLine
 10
1.1846626015625
 20
3.681824538819712
 30
0.0
 11
1.132711014448866
 21
3.681824538819712
 31
0.0
  0
LINE
  5
244
330
140
100
AcDbEntity
  8
4
100
AcDbLine
 10
1.1846626015625
 20
3.662483183819711
 30
0.0
 11
1.138160205358904
 21
3.662483183819711
 31
0.0
  0
ARC
  5
245
330
140
100
AcDbEntity
  8
4
100
AcDbCircle
 10
1.138160205358904
 20
3.643141828819711
 30
0.0
 40
0.019341355
100
AcDbArc
 50
90.0
 51
183.5763343749981
  0
ARC
  5
246
330
140
100
AcDbEntity
  8
4
 62
   130
100
AcDbCircle
 10
1.139205255555703
 20
3.643614824236023
 30
0.0
 40
0.00603450276
100
AcDbArc
 50
45.00000000000031
 51
225.0000000000003
  0
ARC
  5
247
330
140
100
AcDbEntity
  8
4
100
AcDbCircle
 10
1.132711014448866
 20
3.652812506319712
 30
0.0
 40
0.0290120325
100
AcDbArc
 50
90.0
 51
183.5763343749981
  0
LINE
  5
248
330
140
100
AcDbEntity
  8
4
100
AcDbLine
 10
1.140094192570984
 20
3.646173721164513
 30
0.0
 11
1.136675091751524
 21
3.642754620345054
 31
0.0
  0
LINE
  5
249
330
140
100
AcDbEntity
  8
4
100
AcDbLine
 10
1.14523652020345
 20
3.64103139353205
 30
0.0
 11
1.141817419383991
 21
3.63761229271259
 31
0.0
  0
ARC
  5
24A
330
140
100
AcDbEntity
  8
4
100
AcDbCircle
 10
1.31944766921875
 20
3.79066169094692
 30
0.0
 40
0.0785742546875
100
AcDbArc
 50
167.5762104955835
 51
192.4237895044164
  0
ARC
  5
24B
330
140
100
AcDbEntity
  8
4
100
AcDbCircle
 10
1.24691758796875
 20
3.79066169094692
 30
0.0
 40
0.0785742546875
100
AcDbArc
 50
347.5762104955836
 51
12.42378950441644
  0
ARC
  5
24C
330
140
100
AcDbEntity
  8
4
100
AcDbCircle
 10
1.28318262859375
 20
4.041494888603169
 30
0.0
 40
0.27077897
100
AcDbArc
 50
261.4046615383198
 51
278.5953384616802
  0
LINE
  5
24D
330
140
100
AcDbEntity
  8
4
100
AcDbLine
 10
1.1846626015625
 20
3.662483183819711
 30
0.0
 11
1.231164997766097
 21
3.662483183819711
 31
0.0
  0
LINE
  5
24E
330
140
100
AcDbEntity
  8
4
100
AcDbLine
 10
1.1846626015625
 20
3.681824538819712
 30
0.0
 11
1.236614188676135
 21
3.681824538819712
 31
0.0
  0
ARC
  5
24F
330
140
100
AcDbEntity
  8
4
100
AcDbCircle
 10
1.236614188676135
 20
3.652812506319712
 30
0.0
 40
0.0290120325
100
AcDbArc
 50
356.4236656250017
 51
90.0
  0
LINE
  5
250
330
140
100
AcDbEntity
  8
4
100
AcDbLine
 10
1.24691758796875
 20
3.787180247046922
 30
0.0
 11
1.24691758796875
 21
3.79414313484692
 31
0.0
  0
LINE
  5
251
330
140
100
AcDbEntity
  8
4
100
AcDbLine
 10
1.24343614406875
 20
3.79066169094692
 30
0.0
 11
1.250399031868751
 21
3.79066169094692
 31
0.0
  0
CIRCLE
  5
252
330
140
100
AcDbEntity
  8
4
100
AcDbCircle
 10
1.24691758796875
 20
3.79066169094692
 30
0.0
 40
0.00263042428
  0
ARC
  5
253
330
140
100
AcDbEntity
  8
4
100
AcDbCircle
 10
1.231164997766097
 20
3.643141828819711
 30
0.0
 40
0.019341355
100
AcDbArc
 50
356.4236656250017
 51
90.0
  0
LINE
  5
254
330
140
100
AcDbEntity
  8
4
100
AcDbLine
 10
1.31944766921875
 20
3.787180247046922
 30
0.0
 11
1.31944766921875
 21
3.79414313484692
 31
0.0
  0
LINE
  5
255
330
140
100
AcDbEntity
  8
4
100
AcDbLine
 10
1.315966225318749
 20
3.79066169094692
 30
0.0
 11
1.32292911311875
 21
3.79066169094692
 31
0.0
  0
CIRCLE
  5
256
330
140
100
AcDbEntity
  8
4
100
AcDbCircle
 10
1.31944766921875
 20
3.79066169094692
 30
0.0
 40
0.00263042428
  0
ARC
  5
257
330
140
100
AcDbEntity
  8
4
100
AcDbCircle
 10
1.28318262859375
 20
3.539828493290669
 30
0.0
 40
0.27077897
100
AcDbArc
 50
81.40466153831978
 51
98.59533846168023
  0
LINE
  5
258
330
140
100
AcDbEntity
  8
4
100
AcDbLine
 10
1.1846626015625
 20
4.06189159672971
 30
0.0
 11
1.146330648457163
 21
4.061891596729714
 31
0.0
  0
LINE
  5
259
330
140
100
AcDbEntity
  8
4
100
AcDbLine
 10
1.1846626015625
 20
4.035451964444711
 30
0.0
 11
1.139125872613992
 21
4.035451964444711
 31
0.0
  0
LINE
  5
25A
330
140
100
AcDbEntity
  8
4
100
AcDbLine
 10
1.158885570674731
 20
4.189344141421847
 30
0.0
 11
1.162304671494189
 21
4.192763242241307
 31
0.0
  0
LINE
  5
25B
330
140
100
AcDbEntity
  8
4
100
AcDbLine
 10
1.1846626015625
 20
4.250624538819711
 30
0.0
 11
1.132711014448866
 21
4.250624538819711
 31
0.0
  0
LINE
  5
25C
330
140
100
AcDbEntity
  8
4
 62
   130
100
AcDbLine
 10
1.143472293378387
 20
4.216681862058706
 30
0.0
 11
1.164012812388388
 21
4.196141343048709
 31
0.0
  0
LINE
  5
25D
330
140
100
AcDbEntity
  8
4
100
AcDbLine
 10
1.140094192570984
 20
4.214973721164513
 30
0.0
 11
1.162304671494189
 21
4.192763242241307
 31
0.0
  0
LINE
  5
25E
330
140
100
AcDbEntity
  8
4
100
AcDbLine
 10
1.1846626015625
 20
4.23128318381971
 30
0.0
 11
1.138160205358904
 21
4.23128318381971
 31
0.0
  0
ARC
  5
25F
330
140
100
AcDbEntity
  8
4
 62
   130
100
AcDbCircle
 10
1.159745774565703
 20
4.191874305226026
 30
0.0
 40
0.00603450276
100
AcDbArc
 50
225.0000000000003
 51
45.00000000000031
  0
LINE
  5
260
330
140
100
AcDbEntity
  8
4
100
AcDbLine
 10
1.118856516129801
 20
4.210735348242894
 30
0.0
 11
1.12702695922806
 21
4.080008258670755
 31
0.0
  0
LINE
  5
261
330
140
100
AcDbEntity
  8
4
100
AcDbLine
 10
1.103755480605211
 20
4.219802785454484
 30
0.0
 11
1.113789780500796
 21
4.05925398712514
 31
0.0
  0
ARC
  5
262
330
140
100
AcDbEntity
  8
4
100
AcDbCircle
 10
1.139125872613992
 20
4.06083749288221
 30
0.0
 40
0.0253855284375
100
AcDbArc
 50
183.5763343749981
 51
270.0
  0
ARC
  5
263
330
140
100
AcDbEntity
  8
4
100
AcDbCircle
 10
1.146330648457163
 20
4.081232951729714
 30
0.0
 40
0.019341355
100
AcDbArc
 50
183.5763343749981
 51
270.0
  0
LINE
  5
264
330
140
100
AcDbEntity
  8
4
100
AcDbLine
 10
1.157162343861723
 20
4.197905569873775
 30
0.0
 11
1.153743243042264
 21
4.194486469054315
 31
0.0
  0
LINE
  5
265
330
140
100
AcDbEntity
  8
4
 62
   130
100
AcDbLine
 10
1.134938217733017
 20
4.20814778641334
 30
0.0
 11
1.155478736743017
 21
4.187607267403337
 31
0.0
  0
LINE
  5
266
330
140
100
AcDbEntity
  8
4
100
AcDbLine
 10
1.136675091751524
 20
4.211554620345054
 30
0.0
 11
1.158885570674731
 21
4.189344141421847
 31
0.0
  0
ARC
  5
267
330
140
100
AcDbEntity
  8
4
100
AcDbCircle
 10
1.138160205358904
 20
4.211941828819711
 30
0.0
 40
0.019341355
100
AcDbArc
 50
90.0
 51
183.5763343749981
  0
ARC
  5
268
330
140
100
AcDbEntity
  8
4
 62
   130
100
AcDbCircle
 10
1.139205255555703
 20
4.212414824236023
 30
0.0
 40
0.00603450276
100
AcDbArc
 50
45.00000000000031
 51
225.0000000000003
  0
ARC
  5
269
330
140
100
AcDbEntity
  8
4
100
AcDbCircle
 10
1.132711014448866
 20
4.221612506319711
 30
0.0
 40
0.0290120325
100
AcDbArc
 50
90.0
 51
183.5763343749981
  0
LINE
  5
26A
330
140
100
AcDbEntity
  8
4
100
AcDbLine
 10
1.140094192570984
 20
4.214973721164513
 30
0.0
 11
1.136675091751524
 21
4.211554620345054
 31
0.0
  0
LINE
  5
26B
330
140
100
AcDbEntity
  8
4
100
AcDbLine
 10
1.14523652020345
 20
4.209831393532049
 30
0.0
 11
1.141817419383991
 21
4.20641229271259
 31
0.0
  0
LINE
  5
26C
330
140
100
AcDbEntity
  8
4
100
AcDbLine
 10
1.265569722519789
 20
4.219802785454484
 30
0.0
 11
1.255535422624205
 21
4.05925398712514
 31
0.0
  0
LINE
  5
26D
330
140
100
AcDbEntity
  8
4
100
AcDbLine
 10
1.250468686995199
 20
4.210735348242894
 30
0.0
 11
1.242298243896939
 21
4.080026471152893
 31
0.0
  0
CIRCLE
  5
26E
330
140
100
AcDbEntity
  8
4
100
AcDbCircle
 10
1.1846626015625
 20
4.137598495538461
 30
0.0
 40
0.01269276421875
  0
LINE
  5
26F
330
140
100
AcDbEntity
  8
4
100
AcDbLine
 10
1.1846626015625
 20
4.035451964444711
 30
0.0
 11
1.230199330511007
 21
4.035451964444711
 31
0.0
  0
LINE
  5
270
330
140
100
AcDbEntity
  8
4
100
AcDbLine
 10
1.1846626015625
 20
4.06189159672971
 30
0.0
 11
1.222994554667836
 21
4.061891596729714
 31
0.0
  0
CIRCLE
  5
271
330
140
100
AcDbEntity
  8
4
100
AcDbCircle
 10
1.1846626015625
 20
4.046331476632215
 30
0.0
 40
0.006959019529
  0
CIRCLE
  5
272
330
140
100
AcDbEntity
  8
4
100
AcDbCircle
 10
1.1846626015625
 20
4.095318293508462
 30
0.0
 40
0.00421641539
  0
ARC
  5
273
330
140
100
AcDbEntity
  8
4
100
AcDbCircle
 10
1.222994554667836
 20
4.081232951729714
 30
0.0
 40
0.019341355
100
AcDbArc
 50
270.0
 51
356.4236656250017
  0
ARC
  5
274
330
140
100
AcDbEntity
  8
4
100
AcDbCircle
 10
1.230199330511007
 20
4.06083749288221
 30
0.0
 40
0.0253855284375
100
AcDbArc
 50
270.0
 51
356.4236656250017
  0
LINE
  5
275
330
140
100
AcDbEntity
  8
4
100
AcDbLine
 10
1.1846626015625
 20
4.23128318381971
 30
0.0
 11
1.231164997766097
 21
4.23128318381971
 31
0.0
  0
LINE
  5
276
330
140
100
AcDbEntity
  8
4
100
AcDbLine
 10
1.1846626015625
 20
4.250624538819711
 30
0.0
 11
1.236614188676135
 21
4.250624538819711
 31
0.0
  0
CIRCLE
  5
277
330
140
100
AcDbEntity
  8
4
100
AcDbCircle
 10
1.1846626015625
 20
4.179878697568464
 30
0.0
 40
0.00421641539
  0
ARC
  5
278
330
140
100
AcDbEntity
  8
4
100
AcDbCircle
 10
1.236614188676135
 20
4.221612506319711
 30
0.0
 40
0.0290120325
100
AcDbArc
 50
356.4236656250017
 51
90.0
  0
ARC
  5
279
330
140
100
AcDbEntity
  8
4
100
AcDbCircle
 10
1.231164997766097
 20
4.211941828819711
 30
0.0
 40
0.019341355
100
AcDbArc
 50
356.4236656250017
 51
90.0
  0
LINE
  5
27A
330
140
100
AcDbEntity
  8
4
100
AcDbLine
 10
1.52556024390625
 20
4.028769187673078
 30
0.0
 11
1.52556024390625
 21
3.947777263610578
 31
0.0
  0
LINE
  5
27B
330
140
100
AcDbEntity
  8
4
100
AcDbLine
 10
1.531
 20
3.947777263610578
 30
0.0
 11
1.531
 21
4.028769187673078
 31
0.0
  0
LINE
  5
27C
330
140
100
AcDbEntity
  8
4
100
AcDbLine
 10
1.531
 20
3.7586257453125
 30
0.0
 11
1.531
 21
3.8372
 31
0.0
  0
LINE
  5
27D
330
140
100
AcDbEntity
  8
4
  6
CENTER
100
AcDbLine
 10
1.515116501168687
 20
3.718129783281249
 30
0.0
 11
1.522934653467235
 21
3.718129783281249
 31
0.0
  0
LINE
  5
27E
330
140
100
AcDbEntity
  8
4
  6
CENTER
100
AcDbLine
 10
1.533151573124047
 20
3.718129783281249
 30
0.0
 11
1.541502792507448
 21
3.718129783281249
 31
0.0
  0
LINE
  5
27F
330
140
100
AcDbEntity
  8
4
100
AcDbLine
 10
1.52556024390625
 20
3.7586257453125
 30
0.0
 11
1.531
 21
3.7586257453125
 31
0.0
  0
LINE
  5
280
330
140
100
AcDbEntity
  8
4
100
AcDbLine
 10
1.526932587556485
 20
3.718129783281249
 30
0.0
 11
1.529331331899033
 21
3.718129783281249
 31
0.0
  0
LINE
  5
281
330
140
100
AcDbEntity
  8
4
100
AcDbLine
 10
1.531
 20
3.67763382125
 30
0.0
 11
1.52556024390625
 21
3.67763382125
 31
0.0
  0
LINE
  5
282
330
140
100
AcDbEntity
  8
4
100
AcDbLine
 10
1.531
 20
3.7586257453125
 30
0.0
 11
1.531
 21
3.67763382125
 31
0.0
  0
LINE
  5
283
330
140
100
AcDbEntity
  8
4
100
AcDbLine
 10
1.52556024390625
 20
3.67763382125
 30
0.0
 11
1.52556024390625
 21
3.7586257453125
 31
0.0
  0
LINE
  5
284
330
140
100
AcDbEntity
  8
4
100
AcDbLine
 10
1.52556024390625
 20
3.947777263610578
 30
0.0
 11
1.531
 21
3.947777263610578
 31
0.0
  0
LINE
  5
285
330
140
100
AcDbEntity
  8
4
100
AcDbLine
 10
1.531
 20
3.947777263610578
 30
0.0
 11
1.531
 21
3.869203008923078
 31
0.0
  0
LINE
  5
286
330
140
100
AcDbEntity
  8
4
100
AcDbLine
 10
1.531
 20
4.24643382125
 30
0.0
 11
1.531
 21
4.028769187673078
 31
0.0
  0
LINE
  5
287
330
140
100
AcDbEntity
  8
4
  6
CENTER
100
AcDbLine
 10
1.515116501168687
 20
3.988273225641828
 30
0.0
 11
1.522934653467235
 21
3.988273225641828
 31
0.0
  0
LINE
  5
288
330
140
100
AcDbEntity
  8
4
  6
CENTER
100
AcDbLine
 10
1.533151573124047
 20
3.988273225641828
 30
0.0
 11
1.541502792507448
 21
3.988273225641828
 31
0.0
  0
LINE
  5
289
330
140
100
AcDbEntity
  8
4
100
AcDbLine
 10
1.526932587556485
 20
3.988273225641828
 30
0.0
 11
1.529331331899033
 21
3.988273225641828
 31
0.0
  0
LINE
  5
28A
330
140
100
AcDbEntity
  8
4
100
AcDbLine
 10
1.531
 20
4.028769187673078
 30
0.0
 11
1.52556024390625
 21
4.028769187673078
 31
0.0
  0
LINE
  5
28B
330
140
100
AcDbEntity
  8
4
100
AcDbLine
 10
1.531
 20
4.327425745312499
 30
0.0
 11
1.531
 21
4.24643382125
 31
0.0
  0
LINE
  5
28C
330
140
100
AcDbEntity
  8
4
100
AcDbLine
 10
1.52556024390625
 20
4.24643382125
 30
0.0
 11
1.52556024390625
 21
4.327425745312499
 31
0.0
  0
LINE
  5
28D
330
140
100
AcDbEntity
  8
4
  6
CENTER
100
AcDbLine
 10
1.515116501168687
 20
4.286929783281249
 30
0.0
 11
1.522934653467235
 21
4.286929783281249
 31
0.0
  0
LINE
  5
28E
330
140
100
AcDbEntity
  8
4
  6
CENTER
100
AcDbLine
 10
1.533151573124047
 20
4.286929783281249
 30
0.0
 11
1.541502792507448
 21
4.286929783281249
 31
0.0
  0
LINE
  5
28F
330
140
100
AcDbEntity
  8
4
100
AcDbLine
 10
1.526932587556485
 20
4.286929783281249
 30
0.0
 11
1.529331331899033
 21
4.286929783281249
 31
0.0
  0
LINE
  5
290
330
140
100
AcDbEntity
  8
4
100
AcDbLine
 10
1.531
 20
4.24643382125
 30
0.0
 11
1.52556024390625
 21
4.24643382125
 31
0.0
  0
LINE
  5
291
330
140
100
AcDbEntity
  8
4
100
AcDbLine
 10
1.52556024390625
 20
4.327425745312499
 30
0.0
 11
1.531
 21
4.327425745312499
 31
0.0
  0
LINE
  5
292
330
140
100
AcDbEntity
  8
4
100
AcDbLine
 10
1.531
 20
4.405999999999999
 30
0.0
 11
1.094
 21
4.405996991076921
 31
0.0
  0
ARC
  5
293
330
140
100
AcDbEntity
  8
4
100
AcDbCircle
 10
1.28318262859375
 20
4.610294888603169
 30
0.0
 40
0.27077897
100
AcDbArc
 50
261.4046615383198
 51
278.5953384616802
  0
ARC
  5
294
330
140
100
AcDbEntity
  8
4
100
AcDbCircle
 10
1.28318262859375
 20
4.108628493290669
 30
0.0
 40
0.27077897
100
AcDbArc
 50
81.40466153831978
 51
98.59533846168023
  0
ARC
  5
295
330
140
100
AcDbEntity
  8
4
100
AcDbCircle
 10
1.31944766921875
 20
4.359461690946919
 30
0.0
 40
0.0785742546875
100
AcDbArc
 50
167.5762104955835
 51
192.4237895044164
  0
LINE
  5
296
330
140
100
AcDbEntity
  8
4
100
AcDbLine
 10
1.24691758796875
 20
4.355980247046922
 30
0.0
 11
1.24691758796875
 21
4.362943134846919
 31
0.0
  0
LINE
  5
297
330
140
100
AcDbEntity
  8
4
100
AcDbLine
 10
1.24343614406875
 20
4.359461690946919
 30
0.0
 11
1.250399031868751
 21
4.359461690946919
 31
0.0
  0
CIRCLE
  5
298
330
140
100
AcDbEntity
  8
4
100
AcDbCircle
 10
1.24691758796875
 20
4.359461690946919
 30
0.0
 40
0.00263042428
  0
ARC
  5
299
330
140
100
AcDbEntity
  8
4
100
AcDbCircle
 10
1.24691758796875
 20
4.359461690946919
 30
0.0
 40
0.0785742546875
100
AcDbArc
 50
347.5762104955836
 51
12.42378950441644
  0
LINE
  5
29A
330
140
100
AcDbEntity
  8
4
100
AcDbLine
 10
1.31944766921875
 20
4.355980247046922
 30
0.0
 11
1.31944766921875
 21
4.362943134846919
 31
0.0
  0
LINE
  5
29B
330
140
100
AcDbEntity
  8
4
100
AcDbLine
 10
1.315966225318749
 20
4.359461690946919
 30
0.0
 11
1.32292911311875
 21
4.359461690946919
 31
0.0
  0
CIRCLE
  5
29C
330
140
100
AcDbEntity
  8
4
100
AcDbCircle
 10
1.31944766921875
 20
4.359461690946919
 30
0.0
 40
0.00263042428
  0
LINE
  5
29D
330
140
100
AcDbEntity
  8
4
100
AcDbLine
 10
2.625
 20
3.254396991076923
 30
0.0
 11
2.812999999999999
 21
3.254396991076923
 31
0.0
  0
LINE
  5
29E
330
140
100
AcDbEntity
  8
4
100
AcDbLine
 10
2.625
 20
3.316396991076922
 30
0.0
 11
2.812999999999999
 21
3.316396991076922
 31
0.0
  0
LINE
  5
29F
330
140
100
AcDbEntity
  8
4
100
AcDbLine
 10
2.625
 20
3.885196991076923
 30
0.0
 11
2.812999999999999
 21
3.885196991076923
 31
0.0
  0
LINE
  5
2A0
330
140
100
AcDbEntity
  8
4
100
AcDbLine
 10
2.625
 20
3.823196991076923
 30
0.0
 11
2.812999999999999
 21
3.823196991076923
 31
0.0
  0
LINE
  5
2A1
330
140
100
AcDbEntity
  8
4
100
AcDbLine
 10
2.312
 20
3.254396991076923
 30
0.0
 11
2.5
 21
3.254396991076923
 31
0.0
  0
LINE
  5
2A2
330
140
100
AcDbEntity
  8
4
100
AcDbLine
 10
2.312
 20
3.316396991076922
 30
0.0
 11
2.5
 21
3.316396991076922
 31
0.0
  0
LINE
  5
2A3
330
140
100
AcDbEntity
  8
4
100
AcDbLine
 10
2.312
 20
3.885196991076923
 30
0.0
 11
2.5
 21
3.885196991076923
 31
0.0
  0
LINE
  5
2A4
330
140
100
AcDbEntity
  8
4
100
AcDbLine
 10
2.312
 20
3.823196991076923
 30
0.0
 11
2.5
 21
3.823196991076923
 31
0.0
  0
LINE
  5
2A5
330
140
100
AcDbEntity
  8
4
100
AcDbLine
 10
2.937000000000001
 20
3.254396991076923
 30
0.0
 11
3.437999999999998
 21
3.254396991076923
 31
0.0
  0
LINE
  5
2A6
330
140
100
AcDbEntity
  8
4
100
AcDbLine
 10
2.937000000000001
 20
3.316396991076922
 30
0.0
 11
3.437999999999998
 21
3.316396991076922
 31
0.0
  0
LINE
  5
2A7
330
140
100
AcDbEntity
  8
4
100
AcDbLine
 10
2.937000000000001
 20
3.885196991076923
 30
0.0
 11
3.437999999999998
 21
3.885196991076923
 31
0.0
  0
LINE
  5
2A8
330
140
100
AcDbEntity
  8
4
100
AcDbLine
 10
2.937000000000001
 20
3.823196991076923
 30
0.0
 11
3.437999999999998
 21
3.823196991076923
 31
0.0
  0
LINE
  5
2A9
330
140
100
AcDbEntity
  8
4
100
AcDbLine
 10
5.0655
 20
3.268396991076921
 30
0.0
 11
5.0655
 21
2.731596991076922
 31
0.0
  0
LINE
  5
2AA
330
140
100
AcDbEntity
  8
4
100
AcDbLine
 10
6.375499999999998
 20
3.268396991076921
 30
0.0
 11
6.375499999999998
 21
2.731596991076922
 31
0.0
  0
LINE
  5
2AB
330
140
100
AcDbEntity
  8
4
100
AcDbLine
 10
7.624500000000001
 20
3.268396991076921
 30
0.0
 11
7.624500000000001
 21
2.731596991076922
 31
0.0
  0
LINE
  5
2AC
330
140
100
AcDbEntity
  8
4
100
AcDbLine
 10
7.0195
 20
2.178796991076922
 30
0.0
 11
7.5625
 21
2.178796991076922
 31
0.0
  0
LINE
  5
2AD
330
140
100
AcDbEntity
  8
4
100
AcDbLine
 10
7.0195
 20
2.747596991076923
 30
0.0
 11
7.5625
 21
2.747596991076923
 31
0.0
  0
LINE
  5
2AE
330
140
100
AcDbEntity
  8
4
100
AcDbLine
 10
5.6705
 20
2.178796991076922
 30
0.0
 11
5.127499999999999
 21
2.178796991076922
 31
0.0
  0
LINE
  5
2AF
330
140
100
AcDbEntity
  8
4
100
AcDbLine
 10
5.6705
 20
2.747596991076923
 30
0.0
 11
5.127499999999999
 21
2.747596991076923
 31
0.0
  0
MTEXT
  5
2B0
330
140
100
AcDbEntity
  8
8
100
AcDbMText
 10
4.467313603065022
 20
2.338066507774409
 30
0.0
 40
0.1
 41
0.1869
 71
     5
 72
     5
  1
72
 11
0.0000000000000001
 21
1.0
 31
0.0
 73
     1
 44
1.0
1001
ACAD
1000
MTEXTBEGIN
1070
    73
1070
     1
1070
    44
1040
1.0
1070
    74
1070
     0
1000
MTEXTEND
  0
LINE
  5
2B1
330
140
100
AcDbEntity
  8
4
100
AcDbLine
 10
5.0655
 20
2.699596991076922
 30
0.0
 11
5.0655
 21
2.162796991076922
 31
0.0
  0
LINE
  5
2B2
330
140
100
AcDbEntity
  8
4
100
AcDbLine
 10
5.127499999999999
 20
2.116796991076921
 30
0.0
 11
5.1585
 21
2.147796991076921
 31
0.0
  0
LINE
  5
2B3
330
140
100
AcDbEntity
  8
4
100
AcDbLine
 10
5.0655
 20
2.130796991076921
 30
0.0
 11
5.0655
 21
1.593996991076921
 31
0.0
  0
LINE
  5
2B4
330
140
100
AcDbEntity
  8
4
100
AcDbLine
 10
5.0655
 20
1.593996991076921
 30
0.0
 11
5.127500000000001
 21
1.593996991076921
 31
0.0
  0
LINE
  5
2B5
330
140
100
AcDbEntity
  8
4
100
AcDbLine
 10
5.127499999999999
 20
2.178796991076922
 30
0.0
 11
5.127499999999999
 21
2.116796991076921
 31
0.0
  0
LINE
  5
2B6
330
140
100
AcDbEntity
  8
4
100
AcDbLine
 10
5.0655
 20
2.162796991076922
 30
0.0
 11
5.127499999999999
 21
2.162796991076922
 31
0.0
  0
LINE
  5
2B7
330
140
100
AcDbEntity
  8
4
100
AcDbLine
 10
5.0655
 20
2.130796991076921
 30
0.0
 11
5.127499999999999
 21
2.130796991076921
 31
0.0
  0
LINE
  5
2B8
330
140
100
AcDbEntity
  8
4
100
AcDbLine
 10
5.127499999999999
 20
2.685596991076922
 30
0.0
 11
5.1585
 21
2.716596991076922
 31
0.0
  0
LINE
  5
2B9
330
140
100
AcDbEntity
  8
4
100
AcDbLine
 10
5.127499999999999
 20
2.747596991076923
 30
0.0
 11
5.127499999999999
 21
2.685596991076922
 31
0.0
  0
LINE
  5
2BA
330
140
100
AcDbEntity
  8
4
100
AcDbLine
 10
5.0655
 20
2.699596991076922
 30
0.0
 11
5.127499999999999
 21
2.699596991076922
 31
0.0
  0
LINE
  5
2BB
330
140
100
AcDbEntity
  8
4
100
AcDbLine
 10
5.0655
 20
2.731596991076922
 30
0.0
 11
5.127499999999999
 21
2.731596991076922
 31
0.0
  0
LINE
  5
2BC
330
140
100
AcDbEntity
  8
4
100
AcDbLine
 10
6.980499999999999
 20
2.178796991076922
 30
0.0
 11
6.437499999999998
 21
2.178796991076922
 31
0.0
  0
LINE
  5
2BD
330
140
100
AcDbEntity
  8
4
100
AcDbLine
 10
6.980499999999999
 20
2.747596991076923
 30
0.0
 11
6.437499999999998
 21
2.747596991076923
 31
0.0
  0
LINE
  5
2BE
330
140
100
AcDbEntity
  8
4
100
AcDbLine
 10
6.375499999999998
 20
2.699596991076922
 30
0.0
 11
6.375499999999998
 21
2.162796991076922
 31
0.0
  0
LINE
  5
2BF
330
140
100
AcDbEntity
  8
4
100
AcDbLine
 10
5.6705
 20
2.116796991076921
 30
0.0
 11
5.6705
 21
2.178796991076922
 31
0.0
  0
LINE
  5
2C0
330
140
100
AcDbEntity
  8
4
100
AcDbLine
 10
6.375499999999998
 20
2.130796991076921
 30
0.0
 11
6.375499999999998
 21
1.593996991076921
 31
0.0
  0
LINE
  5
2C1
330
140
100
AcDbEntity
  8
4
100
AcDbLine
 10
6.375499999999998
 20
1.593996991076921
 30
0.0
 11
6.4375
 21
1.593996991076921
 31
0.0
  0
LINE
  5
2C2
330
140
100
AcDbEntity
  8
4
100
AcDbLine
 10
6.375499999999998
 20
2.162796991076922
 30
0.0
 11
6.437499999999998
 21
2.162796991076922
 31
0.0
  0
LINE
  5
2C3
330
140
100
AcDbEntity
  8
4
100
AcDbLine
 10
6.375499999999998
 20
2.130796991076921
 30
0.0
 11
6.437499999999998
 21
2.130796991076921
 31
0.0
  0
LINE
  5
2C4
330
140
100
AcDbEntity
  8
4
100
AcDbLine
 10
6.437499999999998
 20
2.116796991076921
 30
0.0
 11
6.468499999999998
 21
2.147796991076921
 31
0.0
  0
LINE
  5
2C5
330
140
100
AcDbEntity
  8
4
100
AcDbLine
 10
6.437499999999998
 20
2.178796991076922
 30
0.0
 11
6.437499999999998
 21
2.116796991076921
 31
0.0
  0
LINE
  5
2C6
330
140
100
AcDbEntity
  8
4
100
AcDbLine
 10
5.6705
 20
2.685596991076922
 30
0.0
 11
5.6705
 21
2.747596991076923
 31
0.0
  0
LINE
  5
2C7
330
140
100
AcDbEntity
  8
4
100
AcDbLine
 10
6.375499999999998
 20
2.699596991076922
 30
0.0
 11
6.437499999999998
 21
2.699596991076922
 31
0.0
  0
LINE
  5
2C8
330
140
100
AcDbEntity
  8
4
100
AcDbLine
 10
6.375499999999998
 20
2.731596991076922
 30
0.0
 11
6.437499999999998
 21
2.731596991076922
 31
0.0
  0
LINE
  5
2C9
330
140
100
AcDbEntity
  8
4
100
AcDbLine
 10
6.437499999999998
 20
2.685596991076922
 30
0.0
 11
6.468499999999998
 21
2.716596991076922
 31
0.0
  0
LINE
  5
2CA
330
140
100
AcDbEntity
  8
4
100
AcDbLine
 10
6.437499999999998
 20
2.747596991076923
 30
0.0
 11
6.437499999999998
 21
2.685596991076922
 31
0.0
  0
LINE
  5
2CB
330
140
100
AcDbEntity
  8
4
100
AcDbLine
 10
6.980499999999999
 20
2.116796991076921
 30
0.0
 11
6.980499999999999
 21
2.178796991076922
 31
0.0
  0
LINE
  5
2CC
330
140
100
AcDbEntity
  8
4
100
AcDbLine
 10
7.0195
 20
2.116796991076921
 30
0.0
 11
7.0195
 21
2.178796991076922
 31
0.0
  0
LINE
  5
2CD
330
140
100
AcDbEntity
  8
4
100
AcDbLine
 10
7.0195
 20
2.685596991076922
 30
0.0
 11
7.0195
 21
2.747596991076923
 31
0.0
  0
LINE
  5
2CE
330
140
100
AcDbEntity
  8
4
100
AcDbLine
 10
6.980499999999999
 20
2.685596991076922
 30
0.0
 11
6.980499999999999
 21
2.747596991076923
 31
0.0
  0
LINE
  5
2CF
330
140
100
AcDbEntity
  8
4
100
AcDbLine
 10
7.624500000000001
 20
2.699596991076922
 30
0.0
 11
7.624500000000001
 21
2.162796991076922
 31
0.0
  0
LINE
  5
2D0
330
140
100
AcDbEntity
  8
4
100
AcDbLine
 10
7.624500000000001
 20
2.130796991076921
 30
0.0
 11
7.624500000000001
 21
1.593996991076921
 31
0.0
  0
LINE
  5
2D1
330
140
100
AcDbEntity
  8
4
100
AcDbLine
 10
7.624500000000001
 20
1.593996991076921
 30
0.0
 11
7.5625
 21
1.593996991076921
 31
0.0
  0
LINE
  5
2D2
330
140
100
AcDbEntity
  8
4
100
AcDbLine
 10
7.5625
 20
2.162796991076922
 30
0.0
 11
7.624499999999999
 21
2.162796991076922
 31
0.0
  0
LINE
  5
2D3
330
140
100
AcDbEntity
  8
4
100
AcDbLine
 10
7.5625
 20
2.130796991076921
 30
0.0
 11
7.624499999999999
 21
2.130796991076921
 31
0.0
  0
LINE
  5
2D4
330
140
100
AcDbEntity
  8
4
100
AcDbLine
 10
7.5625
 20
2.178796991076922
 30
0.0
 11
7.5625
 21
2.116796991076921
 31
0.0
  0
LINE
  5
2D5
330
140
100
AcDbEntity
  8
4
100
AcDbLine
 10
7.5625
 20
2.116796991076921
 30
0.0
 11
7.531500000000001
 21
2.147796991076921
 31
0.0
  0
LINE
  5
2D6
330
140
100
AcDbEntity
  8
4
100
AcDbLine
 10
7.5625
 20
2.699596991076922
 30
0.0
 11
7.624499999999999
 21
2.699596991076922
 31
0.0
  0
LINE
  5
2D7
330
140
100
AcDbEntity
  8
4
100
AcDbLine
 10
7.5625
 20
2.731596991076922
 30
0.0
 11
7.624499999999999
 21
2.731596991076922
 31
0.0
  0
LINE
  5
2D8
330
140
100
AcDbEntity
  8
4
100
AcDbLine
 10
7.5625
 20
2.747596991076923
 30
0.0
 11
7.5625
 21
2.685596991076922
 31
0.0
  0
LINE
  5
2D9
330
140
100
AcDbEntity
  8
4
100
AcDbLine
 10
7.5625
 20
2.685596991076922
 30
0.0
 11
7.531500000000001
 21
2.716596991076922
 31
0.0
  0
LINE
  5
2DA
330
140
100
AcDbEntity
  8
4
100
AcDbLine
 10
7.0195
 20
3.316396991076922
 30
0.0
 11
7.5625
 21
3.316396991076922
 31
0.0
  0
LINE
  5
2DB
330
140
100
AcDbEntity
  8
4
100
AcDbLine
 10
7.019499999999998
 20
3.885196991076921
 30
0.0
 11
7.5625
 21
3.885196991076921
 31
0.0
  0
LINE
  5
2DC
330
140
100
AcDbEntity
  8
4
100
AcDbLine
 10
5.6705
 20
3.316396991076922
 30
0.0
 11
5.127500000000001
 21
3.316396991076922
 31
0.0
  0
LINE
  5
2DD
330
140
100
AcDbEntity
  8
4
100
AcDbLine
 10
5.670499999999998
 20
3.885196991076921
 30
0.0
 11
5.127499999999997
 21
3.885196991076921
 31
0.0
  0
LINE
  5
2DE
330
140
100
AcDbEntity
  8
4
100
AcDbLine
 10
5.0655
 20
4.405996991076921
 30
0.0
 11
5.065499999999998
 21
3.869196991076921
 31
0.0
  0
LINE
  5
2DF
330
140
100
AcDbEntity
  8
4
100
AcDbLine
 10
5.065499999999998
 20
3.837196991076921
 30
0.0
 11
5.0655
 21
3.300396991076921
 31
0.0
  0
LINE
  5
2E0
330
140
100
AcDbEntity
  8
4
100
AcDbLine
 10
5.127500000000001
 20
3.254396991076921
 30
0.0
 11
5.1585
 21
3.285396991076922
 31
0.0
  0
LINE
  5
2E1
330
140
100
AcDbEntity
  8
4
100
AcDbLine
 10
5.127500000000001
 20
3.316396991076922
 30
0.0
 11
5.127500000000001
 21
3.254396991076921
 31
0.0
  0
LINE
  5
2E2
330
140
100
AcDbEntity
  8
4
100
AcDbLine
 10
5.0655
 20
3.268396991076921
 30
0.0
 11
5.127500000000001
 21
3.268396991076921
 31
0.0
  0
LINE
  5
2E3
330
140
100
AcDbEntity
  8
4
100
AcDbLine
 10
5.0655
 20
3.300396991076921
 30
0.0
 11
5.127500000000001
 21
3.300396991076921
 31
0.0
  0
LINE
  5
2E4
330
140
100
AcDbEntity
  8
4
100
AcDbLine
 10
5.127499999999997
 20
3.823196991076921
 30
0.0
 11
5.158499999999996
 21
3.85419699107692
 31
0.0
  0
LINE
  5
2E5
330
140
100
AcDbEntity
  8
4
100
AcDbLine
 10
5.127499999999997
 20
3.885196991076921
 30
0.0
 11
5.127499999999997
 21
3.823196991076921
 31
0.0
  0
LINE
  5
2E6
330
140
100
AcDbEntity
  8
4
100
AcDbLine
 10
5.065499999999998
 20
3.869196991076921
 30
0.0
 11
5.127499999999997
 21
3.869196991076921
 31
0.0
  0
LINE
  5
2E7
330
140
100
AcDbEntity
  8
4
100
AcDbLine
 10
5.065499999999998
 20
3.837196991076921
 30
0.0
 11
5.127499999999997
 21
3.837196991076921
 31
0.0
  0
LINE
  5
2E8
330
140
100
AcDbEntity
  8
4
100
AcDbLine
 10
5.0655
 20
4.405996991076921
 30
0.0
 11
5.127499999999999
 21
4.405996991076921
 31
0.0
  0
LINE
  5
2E9
330
140
100
AcDbEntity
  8
4
100
AcDbLine
 10
6.375499999999998
 20
4.405996991076921
 30
0.0
 11
6.375499999999998
 21
3.869196991076921
 31
0.0
  0
LINE
  5
2EA
330
140
100
AcDbEntity
  8
4
100
AcDbLine
 10
6.980499999999999
 20
3.316396991076922
 30
0.0
 11
6.4375
 21
3.316396991076922
 31
0.0
  0
LINE
  5
2EB
330
140
100
AcDbEntity
  8
4
100
AcDbLine
 10
6.980499999999999
 20
3.885196991076921
 30
0.0
 11
6.437499999999996
 21
3.885196991076921
 31
0.0
  0
LINE
  5
2EC
330
140
100
AcDbEntity
  8
4
100
AcDbLine
 10
6.375499999999998
 20
3.837196991076921
 30
0.0
 11
6.375499999999998
 21
3.300396991076921
 31
0.0
  0
LINE
  5
2ED
330
140
100
AcDbEntity
  8
4
100
AcDbLine
 10
5.6705
 20
3.254396991076921
 30
0.0
 11
5.6705
 21
3.316396991076922
 31
0.0
  0
LINE
  5
2EE
330
140
100
AcDbEntity
  8
4
100
AcDbLine
 10
6.4375
 20
3.254396991076921
 30
0.0
 11
6.468499999999998
 21
3.285396991076922
 31
0.0
  0
LINE
  5
2EF
330
140
100
AcDbEntity
  8
4
100
AcDbLine
 10
6.4375
 20
3.316396991076922
 30
0.0
 11
6.4375
 21
3.254396991076921
 31
0.0
  0
LINE
  5
2F0
330
140
100
AcDbEntity
  8
4
100
AcDbLine
 10
6.375499999999998
 20
3.268396991076921
 30
0.0
 11
6.4375
 21
3.268396991076921
 31
0.0
  0
LINE
  5
2F1
330
140
100
AcDbEntity
  8
4
100
AcDbLine
 10
6.375499999999998
 20
3.300396991076921
 30
0.0
 11
6.4375
 21
3.300396991076921
 31
0.0
  0
LINE
  5
2F2
330
140
100
AcDbEntity
  8
4
100
AcDbLine
 10
5.670499999999998
 20
3.823196991076921
 30
0.0
 11
5.670499999999998
 21
3.885196991076921
 31
0.0
  0
LINE
  5
2F3
330
140
100
AcDbEntity
  8
4
100
AcDbLine
 10
6.375499999999998
 20
3.837196991076921
 30
0.0
 11
6.437499999999996
 21
3.837196991076921
 31
0.0
  0
LINE
  5
2F4
330
140
100
AcDbEntity
  8
4
100
AcDbLine
 10
6.375499999999998
 20
3.869196991076921
 30
0.0
 11
6.437499999999996
 21
3.869196991076921
 31
0.0
  0
LINE
  5
2F5
330
140
100
AcDbEntity
  8
4
100
AcDbLine
 10
6.437499999999996
 20
3.823196991076921
 30
0.0
 11
6.468499999999997
 21
3.85419699107692
 31
0.0
  0
LINE
  5
2F6
330
140
100
AcDbEntity
  8
4
100
AcDbLine
 10
6.437499999999996
 20
3.885196991076921
 30
0.0
 11
6.437499999999996
 21
3.823196991076921
 31
0.0
  0
LINE
  5
2F7
330
140
100
AcDbEntity
  8
4
100
AcDbLine
 10
7.0195
 20
3.254396991076921
 30
0.0
 11
7.0195
 21
3.316396991076922
 31
0.0
  0
LINE
  5
2F8
330
140
100
AcDbEntity
  8
4
100
AcDbLine
 10
6.980499999999999
 20
3.254396991076921
 30
0.0
 11
6.980499999999999
 21
3.316396991076922
 31
0.0
  0
LINE
  5
2F9
330
140
100
AcDbEntity
  8
4
100
AcDbLine
 10
6.980499999999999
 20
3.823196991076921
 30
0.0
 11
6.980499999999999
 21
3.885196991076921
 31
0.0
  0
LINE
  5
2FA
330
140
100
AcDbEntity
  8
4
100
AcDbLine
 10
7.019499999999998
 20
3.823196991076921
 30
0.0
 11
7.019499999999998
 21
3.885196991076921
 31
0.0
  0
LINE
  5
2FB
330
140
100
AcDbEntity
  8
4
100
AcDbLine
 10
6.375499999999998
 20
4.405996991076921
 30
0.0
 11
6.4375
 21
4.405996991076921
 31
0.0
  0
LINE
  5
2FC
330
140
100
AcDbEntity
  8
4
100
AcDbLine
 10
7.624500000000001
 20
4.405996991076921
 30
0.0
 11
7.624499999999997
 21
3.869196991076921
 31
0.0
  0
LINE
  5
2FD
330
140
100
AcDbEntity
  8
4
100
AcDbLine
 10
7.624499999999997
 20
3.83719699107692
 30
0.0
 11
7.624500000000001
 21
3.300396991076921
 31
0.0
  0
LINE
  5
2FE
330
140
100
AcDbEntity
  8
4
100
AcDbLine
 10
7.5625
 20
3.316396991076922
 30
0.0
 11
7.5625
 21
3.254396991076921
 31
0.0
  0
LINE
  5
2FF
330
140
100
AcDbEntity
  8
4
100
AcDbLine
 10
7.5625
 20
3.254396991076921
 30
0.0
 11
7.531500000000001
 21
3.285396991076922
 31
0.0
  0
LINE
  5
300
330
140
100
AcDbEntity
  8
4
100
AcDbLine
 10
7.5625
 20
3.268396991076921
 30
0.0
 11
7.624500000000001
 21
3.268396991076921
 31
0.0
  0
LINE
  5
301
330
140
100
AcDbEntity
  8
4
100
AcDbLine
 10
7.5625
 20
3.300396991076921
 30
0.0
 11
7.624500000000001
 21
3.300396991076921
 31
0.0
  0
LINE
  5
302
330
140
100
AcDbEntity
  8
4
100
AcDbLine
 10
7.5625
 20
3.837196991076921
 30
0.0
 11
7.624499999999997
 21
3.837196991076921
 31
0.0
  0
LINE
  5
303
330
140
100
AcDbEntity
  8
4
100
AcDbLine
 10
7.5625
 20
3.869196991076921
 30
0.0
 11
7.624499999999997
 21
3.869196991076921
 31
0.0
  0
LINE
  5
304
330
140
100
AcDbEntity
  8
4
100
AcDbLine
 10
7.5625
 20
3.885196991076921
 30
0.0
 11
7.5625
 21
3.823196991076921
 31
0.0
  0
LINE
  5
305
330
140
100
AcDbEntity
  8
4
100
AcDbLine
 10
7.5625
 20
3.823196991076921
 30
0.0
 11
7.531499999999999
 21
3.85419699107692
 31
0.0
  0
LINE
  5
306
330
140
100
AcDbEntity
  8
4
100
AcDbLine
 10
7.624500000000001
 20
4.405996991076921
 30
0.0
 11
7.5625
 21
4.405996991076921
 31
0.0
  0
ENDBLK
  5
308
330
140
100
AcDbEntity
  8
0
100
AcDbBlockEnd
  0
BLOCK
  5
30C
330
30A
100
AcDbEntity
  8
0
100
AcDbBlockBegin
  2
LE1224
 70
     0
 10
0.0
 20
0.0
 30
0.0
  3
LE1224
  1

  0
INSERT
  5
30B
330
30A
100
AcDbEntity
  8
0
100
AcDbBlockReference
  2
SPL2CORRIDOR5H72
 10
0.0
 20
0.0
 30
0.0
  0
ENDBLK
  5
30D
330
30A
100
AcDbEntity
  8
0
100
AcDbBlockEnd
  0
ENDSEC
  0
SECTION
  2
ENTITIES
  0
TEXT
  5
316
330
1F
100
AcDbEntity
  8
8
100
AcDbText
 10
10.70312925868602
 20
4.700177373912735
 30
0.0
 40
0.07
  1
DEPTH
  7
ROMANS
 72
     1
 11
10.86812925868602
 21
4.700177373912735
 31
0.0
100
AcDbText
  0
TEXT
  5
317
330
1F
100
AcDbEntity
  8
8
100
AcDbText
 10
12.32562925868602
 20
4.700177373912735
 30
0.0
 40
0.07
  1
DEPTH
  7
ROMANS
 72
     1
 11
12.49062925868602
 21
4.700177373912735
 31
0.0
100
AcDbText
  0
TEXT
  5
318
330
1F
100
AcDbEntity
  8
8
100
AcDbText
 10
11.76846774575956
 20
3.755117669094859
 30
0.0
 40
0.1
  1
SR BACK TO BACK
  7
ROMANS
 72
     1
 11
12.49227726956909
 21
3.755117669094859
 31
0.0
100
AcDbText
  0
TEXT
  5
319
330
1F
100
AcDbEntity
  8
8
100
AcDbText
 10
11.2850185832444
 20
3.570516662269549
 30
0.0
 40
0.1
  1
SECTIONS
  7
ROMANS
 72
     1
 11
11.63739953562535
 21
3.570516662269549
 31
0.0
100
AcDbText
  0
TEXT
  5
31A
330
1F
100
AcDbEntity
  8
8
100
AcDbText
 10
10.79268242181298
 20
3.755117669094859
 30
0.0
 40
0.1
  1
SR
  7
ROMANS
 72
     1
 11
10.89030146943202
 21
3.755117669094859
 31
0.0
100
AcDbText
  0
LINE
  5
31B
330
1F
100
AcDbEntity
  8
4
100
AcDbLine
 10
11.11862925868602
 20
7.258516662269549
 30
0.0
 11
11.38236086135142
 21
7.258516662269549
 31
0.0
  0
LINE
  5
31C
330
1F
100
AcDbEntity
  8
4
100
AcDbLine
 10
11.42278807102385
 20
7.258516662269549
 30
0.0
 11
11.60325186784779
 21
7.258516662269549
 31
0.0
  0
INSERT
  5
31D
330
1F
100
AcDbEntity
  8
4
100
AcDbBlockReference
  2
ARRO
 10
11.42278807102385
 20
7.258516662269549
 30
0.0
  0
LINE
  5
31E
330
1F
100
AcDbEntity
  8
4
100
AcDbLine
 10
11.60325186784779
 20
7.258516662269549
 30
0.0
 11
11.60325186784779
 21
7.055528992479037
 31
0.0
  0
TEXT
  5
31F
330
1F
100
AcDbEntity
  8
8
100
AcDbText
 10
11.63825186784779
 20
5.680195659145703
 30
0.0
 40
0.07
  1
ANCHORING BY ERECTOR
 50
90.0
  7
ROMANS
 72
     2
 11
11.63825186784779
 21
6.993528992479037
 31
0.0
100
AcDbText
  0
TEXT
  5
320
330
1F
100
AcDbEntity
  8
8
100
AcDbText
 10
9.991129258686019
 20
5.586849995602882
 30
0.0
 40
0.07
  1
LOCKER HEIGHT
 50
90.0
  7
ROMANS
 72
     1
 11
9.991129258686019
 21
6.008516662269549
 31
0.0
100
AcDbText
  0
TEXT
  5
321
330
1F
100
AcDbEntity
  8
8
100
AcDbText
 10
6.835629258686019
 20
4.070516662269549
 30
0.0
 40
0.07
  1
LOCKER WIDTH - SEE SCHEDULE
  7
ROMANS
 72
     1
 11
7.74062925868602
 21
4.070516662269549
 31
0.0
100
AcDbText
  0
TEXT
  5
322
330
1F
100
AcDbEntity
  8
8
100
AcDbText
 10
7.076343544400306
 20
3.570516662269549
 30
0.0
 40
0.1
  1
FRONT ELEVATION
  7
ROMANS
 72
     1
 11
7.74062925868602
 21
3.570516662269549
 31
0.0
100
AcDbText
  0
LINE
  5
323
330
1F
100
AcDbEntity
  8
1
100
AcDbLine
 10
10.69412925868602
 20
4.571016662269549
 30
0.0
 11
10.67912925868602
 21
4.556016662269549
 31
0.0
  0
LINE
  5
324
330
1F
100
AcDbEntity
  8
1
100
AcDbLine
 10
10.67912925868602
 20
4.556016662269549
 30
0.0
 11
10.58112925868602
 21
4.556016662269549
 31
0.0
  0
LINE
  5
325
330
1F
100
AcDbEntity
  8
1
100
AcDbLine
 10
10.58112925868602
 20
4.556016662269549
 30
0.0
 11
10.58112925868602
 21
4.527770519831989
 31
0.0
  0
LINE
  5
326
330
1F
100
AcDbEntity
  8
1
100
AcDbLine
 10
10.75612925868602
 20
4.509016662269549
 30
0.0
 11
10.69412925868602
 21
4.571016662269549
 31
0.0
  0
LINE
  5
327
330
1F
100
AcDbEntity
  8
1
100
AcDbLine
 10
11.12112925868602
 20
4.509016662269549
 30
0.0
 11
10.75612925868602
 21
4.509016662269549
 31
0.0
  0
LINE
  5
328
330
1F
100
AcDbEntity
  8
1
100
AcDbLine
 10
11.12112925868602
 20
4.571016662269549
 30
0.0
 11
11.12112925868602
 21
4.509016662269549
 31
0.0
  0
LINE
  5
329
330
1F
100
AcDbEntity
  8
1
100
AcDbLine
 10
11.16112925868602
 20
4.571016662269549
 30
0.0
 11
11.16112925868602
 21
4.509016662269549
 31
0.0
  0
LINE
  5
32A
330
1F
100
AcDbEntity
  8
1
100
AcDbLine
 10
10.55612925868602
 20
4.571016662269549
 30
0.0
 11
10.66412925868602
 21
4.571016662269549
 31
0.0
  0
LINE
  5
32B
330
1F
100
AcDbEntity
  8
1
100
AcDbLine
 10
10.55612925868602
 20
4.509016662269549
 30
0.0
 11
10.55612925868602
 21
4.571016662269549
 31
0.0
  0
LINE
  5
32C
330
1F
100
AcDbEntity
  8
1
100
AcDbLine
 10
10.61812925868602
 20
4.509016662269549
 30
0.0
 11
10.55612925868602
 21
4.509016662269549
 31
0.0
  0
LINE
  5
32D
330
1F
100
AcDbEntity
  8
1
100
AcDbLine
 10
10.69412925868602
 20
4.571016662269549
 30
0.0
 11
11.16112925868602
 21
4.571016662269549
 31
0.0
  0
LINE
  5
32E
330
1F
100
AcDbEntity
  8
1
100
AcDbLine
 10
12.00412925868602
 20
4.571016662269549
 30
0.0
 11
12.47112925868602
 21
4.571016662269549
 31
0.0
  0
LINE
  5
32F
330
1F
100
AcDbEntity
  8
1
100
AcDbLine
 10
11.92812925868602
 20
4.509016662269549
 30
0.0
 11
11.86612925868602
 21
4.509016662269549
 31
0.0
  0
LINE
  5
330
330
1F
100
AcDbEntity
  8
1
100
AcDbLine
 10
11.86612925868602
 20
4.509016662269549
 30
0.0
 11
11.86612925868602
 21
4.571016662269549
 31
0.0
  0
LINE
  5
331
330
1F
100
AcDbEntity
  8
1
100
AcDbLine
 10
11.86612925868602
 20
4.571016662269549
 30
0.0
 11
11.97412925868602
 21
4.571016662269549
 31
0.0
  0
LINE
  5
332
330
1F
100
AcDbEntity
  8
1
100
AcDbLine
 10
12.47112925868602
 20
4.571016662269549
 30
0.0
 11
12.47112925868602
 21
4.509016662269549
 31
0.0
  0
LINE
  5
333
330
1F
100
AcDbEntity
  8
1
100
AcDbLine
 10
12.43112925868602
 20
4.571016662269549
 30
0.0
 11
12.43112925868602
 21
4.509016662269549
 31
0.0
  0
LINE
  5
334
330
1F
100
AcDbEntity
  8
1
100
AcDbLine
 10
12.43112925868602
 20
4.509016662269549
 30
0.0
 11
12.06612925868602
 21
4.509016662269549
 31
0.0
  0
LINE
  5
335
330
1F
100
AcDbEntity
  8
1
100
AcDbLine
 10
12.06612925868602
 20
4.509016662269549
 30
0.0
 11
12.00412925868602
 21
4.571016662269549
 31
0.0
  0
LINE
  5
336
330
1F
100
AcDbEntity
  8
1
100
AcDbLine
 10
11.89112925868602
 20
4.556016662269549
 30
0.0
 11
11.89112925868602
 21
4.527770519831989
 31
0.0
  0
LINE
  5
337
330
1F
100
AcDbEntity
  8
1
100
AcDbLine
 10
11.98912925868602
 20
4.556016662269549
 30
0.0
 11
11.89112925868602
 21
4.556016662269549
 31
0.0
  0
LINE
  5
338
330
1F
100
AcDbEntity
  8
1
100
AcDbLine
 10
12.00412925868602
 20
4.571016662269549
 30
0.0
 11
11.98912925868602
 21
4.556016662269549
 31
0.0
  0
LINE
  5
339
330
1F
100
AcDbEntity
  8
1
100
AcDbLine
 10
13.00912925868602
 20
4.571016662269549
 30
0.0
 11
13.02412925868602
 21
4.556016662269549
 31
0.0
  0
LINE
  5
33A
330
1F
100
AcDbEntity
  8
1
100
AcDbLine
 10
13.02412925868602
 20
4.556016662269549
 30
0.0
 11
13.12212925868602
 21
4.556016662269549
 31
0.0
  0
LINE
  5
33B
330
1F
100
AcDbEntity
  8
1
100
AcDbLine
 10
13.12212925868602
 20
4.556016662269549
 30
0.0
 11
13.12212925868602
 21
4.527770519831989
 31
0.0
  0
LINE
  5
33C
330
1F
100
AcDbEntity
  8
1
100
AcDbLine
 10
12.94712925868602
 20
4.509016662269549
 30
0.0
 11
13.00912925868602
 21
4.571016662269549
 31
0.0
  0
LINE
  5
33D
330
1F
100
AcDbEntity
  8
1
100
AcDbLine
 10
12.58212925868602
 20
4.509016662269549
 30
0.0
 11
12.94712925868602
 21
4.509016662269549
 31
0.0
  0
LINE
  5
33E
330
1F
100
AcDbEntity
  8
1
100
AcDbLine
 10
12.58212925868602
 20
4.571016662269549
 30
0.0
 11
12.58212925868602
 21
4.509016662269549
 31
0.0
  0
LINE
  5
33F
330
1F
100
AcDbEntity
  8
1
100
AcDbLine
 10
12.54212925868602
 20
4.571016662269549
 30
0.0
 11
12.54212925868602
 21
4.509016662269549
 31
0.0
  0
LINE
  5
340
330
1F
100
AcDbEntity
  8
1
100
AcDbLine
 10
13.14712925868602
 20
4.571016662269549
 30
0.0
 11
13.03912925868602
 21
4.571016662269549
 31
0.0
  0
LINE
  5
341
330
1F
100
AcDbEntity
  8
1
100
AcDbLine
 10
13.14712925868602
 20
4.509016662269549
 30
0.0
 11
13.14712925868602
 21
4.571016662269549
 31
0.0
  0
LINE
  5
342
330
1F
100
AcDbEntity
  8
1
100
AcDbLine
 10
13.08512925868602
 20
4.509016662269549
 30
0.0
 11
13.14712925868602
 21
4.509016662269549
 31
0.0
  0
LINE
  5
343
330
1F
100
AcDbEntity
  8
1
100
AcDbLine
 10
13.00912925868602
 20
4.571016662269549
 30
0.0
 11
12.54212925868602
 21
4.571016662269549
 31
0.0
  0
LINE
  5
344
330
1F
100
AcDbEntity
  8
1
100
AcDbLine
 10
13.01212925868602
 20
7.508516662269549
 30
0.0
 11
12.54512925868602
 21
7.508516662269549
 31
0.0
  0
LINE
  5
345
330
1F
100
AcDbEntity
  8
1
100
AcDbLine
 10
13.08812925868602
 20
7.446516662269549
 30
0.0
 11
13.15012925868602
 21
7.446516662269549
 31
0.0
  0
LINE
  5
346
330
1F
100
AcDbEntity
  8
1
100
AcDbLine
 10
13.15012925868602
 20
7.446516662269549
 30
0.0
 11
13.15012925868602
 21
7.508516662269549
 31
0.0
  0
LINE
  5
347
330
1F
100
AcDbEntity
  8
1
100
AcDbLine
 10
13.15012925868602
 20
7.508516662269549
 30
0.0
 11
13.04212925868602
 21
7.508516662269549
 31
0.0
  0
LINE
  5
348
330
1F
100
AcDbEntity
  8
1
100
AcDbLine
 10
12.54512925868602
 20
7.508516662269549
 30
0.0
 11
12.54512925868602
 21
7.446516662269549
 31
0.0
  0
LINE
  5
349
330
1F
100
AcDbEntity
  8
1
100
AcDbLine
 10
12.58512925868602
 20
7.508516662269549
 30
0.0
 11
12.58512925868602
 21
7.446516662269549
 31
0.0
  0
LINE
  5
34A
330
1F
100
AcDbEntity
  8
1
100
AcDbLine
 10
12.58512925868602
 20
7.446516662269549
 30
0.0
 11
12.95012925868602
 21
7.446516662269549
 31
0.0
  0
LINE
  5
34B
330
1F
100
AcDbEntity
  8
1
100
AcDbLine
 10
12.95012925868602
 20
7.446516662269549
 30
0.0
 11
13.01212925868602
 21
7.508516662269549
 31
0.0
  0
LINE
  5
34C
330
1F
100
AcDbEntity
  8
1
100
AcDbLine
 10
13.12512925868602
 20
7.493516662269549
 30
0.0
 11
13.12512925868602
 21
7.465270519831989
 31
0.0
  0
LINE
  5
34D
330
1F
100
AcDbEntity
  8
1
100
AcDbLine
 10
13.02712925868602
 20
7.493516662269549
 30
0.0
 11
13.12512925868602
 21
7.493516662269549
 31
0.0
  0
LINE
  5
34E
330
1F
100
AcDbEntity
  8
1
100
AcDbLine
 10
13.01212925868602
 20
7.508516662269549
 30
0.0
 11
13.02712925868602
 21
7.493516662269549
 31
0.0
  0
LINE
  5
34F
330
1F
100
AcDbEntity
  8
1
100
AcDbLine
 10
12.00412925868602
 20
7.508516662269549
 30
0.0
 11
11.98912925868602
 21
7.493516662269549
 31
0.0
  0
LINE
  5
350
330
1F
100
AcDbEntity
  8
1
100
AcDbLine
 10
11.98912925868602
 20
7.493516662269549
 30
0.0
 11
11.89112925868602
 21
7.493516662269549
 31
0.0
  0
LINE
  5
351
330
1F
100
AcDbEntity
  8
1
100
AcDbLine
 10
11.89112925868602
 20
7.493516662269549
 30
0.0
 11
11.89112925868602
 21
7.465270519831989
 31
0.0
  0
LINE
  5
352
330
1F
100
AcDbEntity
  8
1
100
AcDbLine
 10
12.06612925868602
 20
7.446516662269549
 30
0.0
 11
12.00412925868602
 21
7.508516662269549
 31
0.0
  0
LINE
  5
353
330
1F
100
AcDbEntity
  8
1
100
AcDbLine
 10
12.43112925868602
 20
7.446516662269549
 30
0.0
 11
12.06612925868602
 21
7.446516662269549
 31
0.0
  0
LINE
  5
354
330
1F
100
AcDbEntity
  8
1
100
AcDbLine
 10
12.43112925868602
 20
7.508516662269549
 30
0.0
 11
12.43112925868602
 21
7.446516662269549
 31
0.0
  0
LINE
  5
355
330
1F
100
AcDbEntity
  8
1
100
AcDbLine
 10
12.47112925868602
 20
7.508516662269549
 30
0.0
 11
12.47112925868602
 21
7.446516662269549
 31
0.0
  0
LINE
  5
356
330
1F
100
AcDbEntity
  8
1
100
AcDbLine
 10
11.86612925868602
 20
7.508516662269549
 30
0.0
 11
11.97412925868602
 21
7.508516662269549
 31
0.0
  0
LINE
  5
357
330
1F
100
AcDbEntity
  8
1
100
AcDbLine
 10
11.86612925868602
 20
7.446516662269549
 30
0.0
 11
11.86612925868602
 21
7.508516662269549
 31
0.0
  0
LINE
  5
358
330
1F
100
AcDbEntity
  8
1
100
AcDbLine
 10
11.92812925868602
 20
7.446516662269549
 30
0.0
 11
11.86612925868602
 21
7.446516662269549
 31
0.0
  0
LINE
  5
359
330
1F
100
AcDbEntity
  8
1
100
AcDbLine
 10
12.00412925868602
 20
7.508516662269549
 30
0.0
 11
12.47112925868602
 21
7.508516662269549
 31
0.0
  0
LINE
  5
35A
330
1F
100
AcDbEntity
  8
1
100
AcDbLine
 10
10.69412925868602
 20
7.508516662269549
 30
0.0
 11
11.16112925868602
 21
7.508516662269549
 31
0.0
  0
LINE
  5
35B
330
1F
100
AcDbEntity
  8
1
100
AcDbLine
 10
10.61812925868602
 20
7.446516662269549
 30
0.0
 11
10.55612925868602
 21
7.446516662269549
 31
0.0
  0
LINE
  5
35C
330
1F
100
AcDbEntity
  8
1
100
AcDbLine
 10
10.55612925868602
 20
7.446516662269549
 30
0.0
 11
10.55612925868602
 21
7.508516662269549
 31
0.0
  0
LINE
  5
35D
330
1F
100
AcDbEntity
  8
1
100
AcDbLine
 10
10.55612925868602
 20
7.508516662269549
 30
0.0
 11
10.66412925868602
 21
7.508516662269549
 31
0.0
  0
LINE
  5
35E
330
1F
100
AcDbEntity
  8
1
100
AcDbLine
 10
11.16112925868602
 20
7.508516662269549
 30
0.0
 11
11.16112925868602
 21
7.446516662269549
 31
0.0
  0
LINE
  5
35F
330
1F
100
AcDbEntity
  8
1
100
AcDbLine
 10
11.12112925868602
 20
7.508516662269549
 30
0.0
 11
11.12112925868602
 21
7.446516662269549
 31
0.0
  0
LINE
  5
360
330
1F
100
AcDbEntity
  8
1
100
AcDbLine
 10
11.12112925868602
 20
7.446516662269549
 30
0.0
 11
10.75612925868602
 21
7.446516662269549
 31
0.0
  0
LINE
  5
361
330
1F
100
AcDbEntity
  8
1
100
AcDbLine
 10
10.75612925868602
 20
7.446516662269549
 30
0.0
 11
10.69412925868602
 21
7.508516662269549
 31
0.0
  0
LINE
  5
362
330
1F
100
AcDbEntity
  8
1
100
AcDbLine
 10
10.58112925868602
 20
7.493516662269549
 30
0.0
 11
10.58112925868602
 21
7.465270519831989
 31
0.0
  0
LINE
  5
363
330
1F
100
AcDbEntity
  8
1
100
AcDbLine
 10
10.67912925868602
 20
7.493516662269549
 30
0.0
 11
10.58112925868602
 21
7.493516662269549
 31
0.0
  0
LINE
  5
364
330
1F
100
AcDbEntity
  8
1
100
AcDbLine
 10
10.69412925868602
 20
7.508516662269549
 30
0.0
 11
10.67912925868602
 21
7.493516662269549
 31
0.0
  0
LINE
  5
365
330
1F
100
AcDbEntity
  8
1
100
AcDbLine
 10
6.55262925868602
 20
4.570516662269549
 30
0.0
 11
7.05362925868602
 21
4.570516662269549
 31
0.0
  0
LINE
  5
366
330
1F
100
AcDbEntity
  8
4
100
AcDbLine
 10
7.363495968994033
 20
4.382516662269549
 30
0.0
 11
7.425495968994033
 21
4.382516662269549
 31
0.0
  0
CIRCLE
  5
367
330
1F
100
AcDbEntity
  8
4
100
AcDbCircle
 10
7.519495968994033
 20
4.382516662269549
 30
0.0
 40
0.094
  0
LINE
  5
368
330
1F
100
AcDbEntity
  8
4
100
AcDbLine
 10
7.269495968994033
 20
4.476516662269549
 30
0.0
 11
7.269495968994033
 21
4.601516662269549
 31
0.0
  0
CIRCLE
  5
369
330
1F
100
AcDbEntity
  8
4
100
AcDbCircle
 10
7.269495968994033
 20
4.382516662269549
 30
0.0
 40
0.094
  0
CIRCLE
  5
36A
330
1F
100
AcDbEntity
  8
4
100
AcDbCircle
 10
7.42812925868602
 20
7.320516662269549
 30
0.0
 40
0.094
  0
LINE
  5
36B
330
1F
100
AcDbEntity
  8
4
100
AcDbLine
 10
7.42812925868602
 20
7.41451666226955
 30
0.0
 11
7.42812925868602
 21
7.53951666226955
 31
0.0
  0
LINE
  5
36C
330
1F
100
AcDbEntity
  8
1
100
AcDbLine
 10
7.990629258686019
 20
4.570516662269549
 30
0.0
 11
7.80262925868602
 21
4.570516662269549
 31
0.0
  0
LINE
  5
36D
330
1F
100
AcDbEntity
  8
1
100
AcDbLine
 10
8.11562925868602
 20
7.44651666226955
 30
0.0
 11
8.30362925868602
 21
7.44651666226955
 31
0.0
  0
LINE
  5
36E
330
1F
100
AcDbEntity
  8
1
100
AcDbLine
 10
8.36562925868602
 20
4.508516662269549
 30
0.0
 11
8.36562925868602
 21
7.508516662269549
 31
0.0
  0
LINE
  5
36F
330
1F
100
AcDbEntity
  8
1
100
AcDbLine
 10
7.74062925868602
 20
4.508516662269549
 30
0.0
 11
7.74062925868602
 21
7.508516662269549
 31
0.0
  0
LINE
  5
370
330
1F
100
AcDbEntity
  8
1
100
AcDbLine
 10
7.11562925868602
 20
4.508516662269549
 30
0.0
 11
7.11562925868602
 21
7.508516662269549
 31
0.0
  0
LINE
  5
371
330
1F
100
AcDbEntity
  8
1
100
AcDbLine
 10
8.928629258686019
 20
4.570516662269549
 30
0.0
 11
8.427629258686021
 21
4.570516662269549
 31
0.0
  0
LINE
  5
372
330
1F
100
AcDbEntity
  8
1
100
AcDbLine
 10
8.92862925868602
 20
7.44651666226955
 30
0.0
 11
8.928629258686019
 21
4.570516662269549
 31
0.0
  0
LINE
  5
373
330
1F
100
AcDbEntity
  8
1
100
AcDbLine
 10
8.427629258686021
 20
7.44651666226955
 30
0.0
 11
8.92862925868602
 21
7.44651666226955
 31
0.0
  0
LINE
  5
374
330
1F
100
AcDbEntity
  8
1
100
AcDbLine
 10
8.427629258686021
 20
4.570516662269549
 30
0.0
 11
8.427629258686021
 21
7.44651666226955
 31
0.0
  0
LINE
  5
375
330
1F
100
AcDbEntity
  8
1
100
AcDbLine
 10
8.303629258686019
 20
4.570516662269549
 30
0.0
 11
8.11562925868602
 21
4.570516662269549
 31
0.0
  0
LINE
  5
376
330
1F
100
AcDbEntity
  8
1
100
AcDbLine
 10
8.30362925868602
 20
7.44651666226955
 30
0.0
 11
8.303629258686019
 21
4.570516662269549
 31
0.0
  0
LINE
  5
377
330
1F
100
AcDbEntity
  8
1
100
AcDbLine
 10
7.80262925868602
 20
7.44651666226955
 30
0.0
 11
7.99062925868602
 21
7.44651666226955
 31
0.0
  0
LINE
  5
378
330
1F
100
AcDbEntity
  8
1
100
AcDbLine
 10
7.80262925868602
 20
4.570516662269549
 30
0.0
 11
7.80262925868602
 21
7.44651666226955
 31
0.0
  0
LINE
  5
379
330
1F
100
AcDbEntity
  8
1
100
AcDbLine
 10
7.67862925868602
 20
4.570516662269549
 30
0.0
 11
7.17762925868602
 21
4.570516662269549
 31
0.0
  0
LINE
  5
37A
330
1F
100
AcDbEntity
  8
1
100
AcDbLine
 10
7.67862925868602
 20
7.44651666226955
 30
0.0
 11
7.67862925868602
 21
4.570516662269549
 31
0.0
  0
LINE
  5
37B
330
1F
100
AcDbEntity
  8
1
100
AcDbLine
 10
7.17762925868602
 20
7.44651666226955
 30
0.0
 11
7.67862925868602
 21
7.44651666226955
 31
0.0
  0
LINE
  5
37C
330
1F
100
AcDbEntity
  8
1
100
AcDbLine
 10
7.17762925868602
 20
4.570516662269549
 30
0.0
 11
7.17762925868602
 21
7.44651666226955
 31
0.0
  0
LINE
  5
37D
330
1F
100
AcDbEntity
  8
1
100
AcDbLine
 10
7.05362925868602
 20
7.44651666226955
 30
0.0
 11
7.05362925868602
 21
4.570516662269549
 31
0.0
  0
LINE
  5
37E
330
1F
100
AcDbEntity
  8
1
100
AcDbLine
 10
6.55262925868602
 20
7.44651666226955
 30
0.0
 11
7.05362925868602
 21
7.44651666226955
 31
0.0
  0
LINE
  5
37F
330
1F
100
AcDbEntity
  8
1
100
AcDbLine
 10
6.55262925868602
 20
4.570516662269549
 30
0.0
 11
6.55262925868602
 21
7.44651666226955
 31
0.0
  0
INSERT
  5
380
330
1F
100
AcDbEntity
  8
4
100
AcDbBlockReference
  2
ARRO
 10
13.15062925868602
 20
4.821016662269549
 30
0.0
 50
180.0
  0
INSERT
  5
381
330
1F
100
AcDbEntity
  8
4
100
AcDbBlockReference
  2
ARRO
 10
11.86562925868602
 20
4.821016662269549
 30
0.0
  0
INSERT
  5
382
330
1F
100
AcDbEntity
  8
4
100
AcDbBlockReference
  2
ARRO
 10
11.24062925868602
 20
4.821016662269549
 30
0.0
  0
INSERT
  5
383
330
1F
100
AcDbEntity
  8
4
100
AcDbBlockReference
  2
ARRO
 10
11.18062925868602
 20
4.821016662269549
 30
0.0
 50
180.0
  0
INSERT
  5
384
330
1F
100
AcDbEntity
  8
4
100
AcDbBlockReference
  2
ARRO
 10
10.55562925868602
 20
4.821016662269549
 30
0.0
  0
LINE
  5
385
330
1F
100
AcDbEntity
  8
4
100
AcDbLine
 10
11.86562925868602
 20
4.821016662269549
 30
0.0
 11
13.11562925868602
 21
4.821016662269549
 31
0.0
  0
LINE
  5
386
330
1F
100
AcDbEntity
  8
4
100
AcDbLine
 10
11.24062925868602
 20
4.821016662269549
 30
0.0
 11
11.49062925868602
 21
4.821016662269549
 31
0.0
  0
LINE
  5
387
330
1F
100
AcDbEntity
  8
4
100
AcDbLine
 10
11.18062925868602
 20
4.821016662269549
 30
0.0
 11
10.55562925868602
 21
4.821016662269549
 31
0.0
  0
INSERT
  5
388
330
1F
100
AcDbEntity
  8
4
100
AcDbBlockReference
  2
ARRO
 10
10.05312925868602
 20
4.508516662269549
 30
0.0
 50
90.0
  0
INSERT
  5
389
330
1F
100
AcDbEntity
  8
4
100
AcDbBlockReference
  2
ARRO
 10
10.05312925868602
 20
7.508516662269549
 30
0.0
 50
270.0
  0
LINE
  5
38A
330
1F
100
AcDbEntity
  8
4
100
AcDbLine
 10
10.49312925868602
 20
7.508516662269549
 30
0.0
 11
9.993129258686021
 21
7.508516662269549
 31
0.0
  0
LINE
  5
38B
330
1F
100
AcDbEntity
  8
4
100
AcDbLine
 10
10.05312925868602
 20
4.508516662269549
 30
0.0
 11
10.05312925868602
 21
7.508516662269549
 31
0.0
  0
LINE
  5
38C
330
1F
100
AcDbEntity
  8
4
100
AcDbLine
 10
10.49312925868602
 20
4.508516662269549
 30
0.0
 11
9.993129258686021
 21
4.508516662269549
 31
0.0
  0
INSERT
  5
38D
330
1F
100
AcDbEntity
  8
4
100
AcDbBlockReference
  2
ARRO
 10
8.99062925868602
 20
4.008516662269549
 30
0.0
 50
180.0
  0
INSERT
  5
38E
330
1F
100
AcDbEntity
  8
4
100
AcDbBlockReference
  2
ARRO
 10
6.49062925868602
 20
4.008516662269549
 30
0.0
  0
LINE
  5
38F
330
1F
100
AcDbEntity
  8
4
100
AcDbLine
 10
8.99062925868602
 20
4.008516662269549
 30
0.0
 11
6.49062925868602
 21
4.008516662269549
 31
0.0
  0
LINE
  5
390
330
1F
100
AcDbEntity
  8
4
100
AcDbLine
 10
8.99062925868602
 20
4.446516662269549
 30
0.0
 11
8.99062925868602
 21
3.946516662269549
 31
0.0
  0
LINE
  5
391
330
1F
100
AcDbEntity
  8
4
100
AcDbLine
 10
6.49062925868602
 20
4.446516662269549
 30
0.0
 11
6.49062925868602
 21
3.946516662269549
 31
0.0
  0
LINE
  5
392
330
1F
100
AcDbEntity
  8
1
100
AcDbLine
 10
11.18062925868602
 20
4.508516662269549
 30
0.0
 11
11.18062925868602
 21
7.508516662269549
 31
0.0
  0
LINE
  5
393
330
1F
100
AcDbEntity
  8
1
100
AcDbLine
 10
11.24062925868602
 20
7.758516662269549
 30
0.0
 11
11.36562925868602
 21
7.883516662269549
 31
0.0
  0
LINE
  5
394
330
1F
100
AcDbEntity
  8
1
100
AcDbLine
 10
11.24062925868602
 20
7.633516662269549
 30
0.0
 11
11.42862925868602
 21
7.821516662269549
 31
0.0
  0
LINE
  5
395
330
1F
100
AcDbEntity
  8
1
100
AcDbLine
 10
11.24062925868602
 20
7.508516662269549
 30
0.0
 11
11.42862925868602
 21
7.696516662269549
 31
0.0
  0
LINE
  5
396
330
1F
100
AcDbEntity
  8
1
100
AcDbLine
 10
11.24062925868602
 20
7.383516662269549
 30
0.0
 11
11.42862925868602
 21
7.571516662269549
 31
0.0
  0
LINE
  5
397
330
1F
100
AcDbEntity
  8
1
100
AcDbLine
 10
11.24062925868602
 20
7.258516662269549
 30
0.0
 11
11.42862925868602
 21
7.446516662269549
 31
0.0
  0
LINE
  5
398
330
1F
100
AcDbEntity
  8
1
100
AcDbLine
 10
11.24062925868602
 20
7.133516662269549
 30
0.0
 11
11.42862925868602
 21
7.321516662269549
 31
0.0
  0
LINE
  5
399
330
1F
100
AcDbEntity
  8
1
100
AcDbLine
 10
11.24062925868602
 20
7.008516662269549
 30
0.0
 11
11.42862925868602
 21
7.196516662269549
 31
0.0
  0
LINE
  5
39A
330
1F
100
AcDbEntity
  8
1
100
AcDbLine
 10
11.24062925868602
 20
6.883516662269549
 30
0.0
 11
11.42862925868602
 21
7.071516662269549
 31
0.0
  0
LINE
  5
39B
330
1F
100
AcDbEntity
  8
1
100
AcDbLine
 10
11.24062925868602
 20
6.758516662269549
 30
0.0
 11
11.42862925868602
 21
6.946516662269549
 31
0.0
  0
LINE
  5
39C
330
1F
100
AcDbEntity
  8
1
100
AcDbLine
 10
11.24062925868602
 20
6.633516662269549
 30
0.0
 11
11.42862925868602
 21
6.821516662269549
 31
0.0
  0
LINE
  5
39D
330
1F
100
AcDbEntity
  8
1
100
AcDbLine
 10
11.24062925868602
 20
6.508516662269549
 30
0.0
 11
11.42862925868602
 21
6.696516662269549
 31
0.0
  0
LINE
  5
39E
330
1F
100
AcDbEntity
  8
1
100
AcDbLine
 10
11.24062925868602
 20
6.383516662269549
 30
0.0
 11
11.42862925868602
 21
6.571516662269549
 31
0.0
  0
LINE
  5
39F
330
1F
100
AcDbEntity
  8
1
100
AcDbLine
 10
11.24062925868602
 20
6.258516662269549
 30
0.0
 11
11.42862925868602
 21
6.446516662269549
 31
0.0
  0
LINE
  5
3A0
330
1F
100
AcDbEntity
  8
1
100
AcDbLine
 10
11.24062925868602
 20
6.133516662269549
 30
0.0
 11
11.42862925868602
 21
6.321516662269549
 31
0.0
  0
LINE
  5
3A1
330
1F
100
AcDbEntity
  8
1
100
AcDbLine
 10
11.24062925868602
 20
6.008516662269549
 30
0.0
 11
11.42862925868602
 21
6.196516662269549
 31
0.0
  0
LINE
  5
3A2
330
1F
100
AcDbEntity
  8
1
100
AcDbLine
 10
11.24062925868602
 20
5.883516662269549
 30
0.0
 11
11.42862925868602
 21
6.071516662269549
 31
0.0
  0
LINE
  5
3A3
330
1F
100
AcDbEntity
  8
1
100
AcDbLine
 10
11.24062925868602
 20
5.758516662269549
 30
0.0
 11
11.42862925868602
 21
5.946516662269549
 31
0.0
  0
LINE
  5
3A4
330
1F
100
AcDbEntity
  8
1
100
AcDbLine
 10
11.24062925868602
 20
5.633516662269549
 30
0.0
 11
11.42862925868602
 21
5.821516662269549
 31
0.0
  0
LINE
  5
3A5
330
1F
100
AcDbEntity
  8
1
100
AcDbLine
 10
11.24062925868602
 20
5.508516662269549
 30
0.0
 11
11.42862925868602
 21
5.696516662269549
 31
0.0
  0
LINE
  5
3A6
330
1F
100
AcDbEntity
  8
1
100
AcDbLine
 10
11.24062925868602
 20
5.383516662269549
 30
0.0
 11
11.42862925868602
 21
5.571516662269549
 31
0.0
  0
LINE
  5
3A7
330
1F
100
AcDbEntity
  8
1
100
AcDbLine
 10
11.24062925868602
 20
5.258516662269549
 30
0.0
 11
11.42862925868602
 21
5.446516662269549
 31
0.0
  0
LINE
  5
3A8
330
1F
100
AcDbEntity
  8
1
100
AcDbLine
 10
11.24062925868602
 20
5.133516662269549
 30
0.0
 11
11.42862925868602
 21
5.321516662269549
 31
0.0
  0
LINE
  5
3A9
330
1F
100
AcDbEntity
  8
1
100
AcDbLine
 10
11.24062925868602
 20
5.008516662269549
 30
0.0
 11
11.42862925868602
 21
5.196516662269549
 31
0.0
  0
LINE
  5
3AA
330
1F
100
AcDbEntity
  8
1
100
AcDbLine
 10
11.24062925868602
 20
4.633516662269549
 30
0.0
 11
11.42862925868602
 21
4.821516662269549
 31
0.0
  0
LINE
  5
3AB
330
1F
100
AcDbEntity
  8
1
100
AcDbLine
 10
11.24062925868602
 20
4.508516662269549
 30
0.0
 11
11.42862925868602
 21
4.696516662269549
 31
0.0
  0
LINE
  5
3AC
330
1F
100
AcDbEntity
  8
1
100
AcDbLine
 10
8.11562925868602
 20
5.388490841581129
 30
0.0
 11
8.11562925868602
 21
4.383516662269549
 31
0.0
  0
LINE
  5
3AD
330
1F
100
AcDbEntity
  8
1
100
AcDbLine
 10
8.11562925868602
 20
5.790990841581129
 30
0.0
 11
8.11562925868602
 21
5.478490841581129
 31
0.0
  0
LINE
  5
3AE
330
1F
100
AcDbEntity
  8
1
100
AcDbLine
 10
8.11562925868602
 20
6.634484366421415
 30
0.0
 11
8.11562925868602
 21
5.790990841581129
 31
0.0
  0
LINE
  5
3AF
330
1F
100
AcDbEntity
  8
1
100
AcDbLine
 10
8.07062925868602
 20
6.673490841581129
 30
0.0
 11
8.16062925868602
 21
6.583490841581129
 31
0.0
  0
LINE
  5
3B0
330
1F
100
AcDbEntity
  8
1
100
AcDbLine
 10
8.16062925868602
 20
6.673490841581129
 30
0.0
 11
8.07062925868602
 21
6.673490841581129
 31
0.0
  0
LINE
  5
3B1
330
1F
100
AcDbEntity
  8
1
100
AcDbLine
 10
8.07062925868602
 20
6.763490841581129
 30
0.0
 11
8.16062925868602
 21
6.673490841581129
 31
0.0
  0
LINE
  5
3B2
330
1F
100
AcDbEntity
  8
1
100
AcDbLine
 10
8.07062925868602
 20
5.433490841581129
 30
0.0
 11
8.16062925868602
 21
5.343490841581129
 31
0.0
  0
LINE
  5
3B3
330
1F
100
AcDbEntity
  8
1
100
AcDbLine
 10
8.16062925868602
 20
5.433490841581129
 30
0.0
 11
8.07062925868602
 21
5.433490841581129
 31
0.0
  0
LINE
  5
3B4
330
1F
100
AcDbEntity
  8
1
100
AcDbLine
 10
8.07062925868602
 20
5.523490841581129
 30
0.0
 11
8.16062925868602
 21
5.433490841581129
 31
0.0
  0
LINE
  5
3B5
330
1F
100
AcDbEntity
  8
1
100
AcDbLine
 10
7.99062925868602
 20
4.763490841581129
 30
0.0
 11
7.99062925868602
 21
4.383516662269549
 31
0.0
  0
LINE
  5
3B6
330
1F
100
AcDbEntity
  8
1
100
AcDbLine
 10
7.99062925868602
 20
5.478490841581129
 30
0.0
 11
7.99062925868602
 21
4.853490841581129
 31
0.0
  0
LINE
  5
3B7
330
1F
100
AcDbEntity
  8
1
100
AcDbLine
 10
7.99062925868602
 20
6.013490841581129
 30
0.0
 11
7.99062925868602
 21
5.478490841581129
 31
0.0
  0
LINE
  5
3B8
330
1F
100
AcDbEntity
  8
1
100
AcDbLine
 10
7.94562925868602
 20
4.898490841581129
 30
0.0
 11
8.03562925868602
 21
4.808490841581129
 31
0.0
  0
LINE
  5
3B9
330
1F
100
AcDbEntity
  8
1
100
AcDbLine
 10
8.03562925868602
 20
4.808490841581129
 30
0.0
 11
7.94562925868602
 21
4.808490841581129
 31
0.0
  0
LINE
  5
3BA
330
1F
100
AcDbEntity
  8
1
100
AcDbLine
 10
7.94562925868602
 20
4.808490841581129
 30
0.0
 11
8.03562925868602
 21
4.718490841581129
 31
0.0
  0
LINE
  5
3BB
330
1F
100
AcDbEntity
  8
1
100
AcDbLine
 10
7.94562925868602
 20
6.148490841581129
 30
0.0
 11
8.03562925868602
 21
6.058490841581129
 31
0.0
  0
LINE
  5
3BC
330
1F
100
AcDbEntity
  8
1
100
AcDbLine
 10
8.03562925868602
 20
6.058490841581129
 30
0.0
 11
7.94562925868602
 21
6.058490841581129
 31
0.0
  0
LINE
  5
3BD
330
1F
100
AcDbEntity
  8
1
100
AcDbLine
 10
7.94562925868602
 20
6.058490841581129
 30
0.0
 11
8.03562925868602
 21
5.968490841581129
 31
0.0
  0
LINE
  5
3BE
330
1F
100
AcDbEntity
  8
1
100
AcDbLine
 10
8.002825289513001
 20
7.251294810754147
 30
0.0
 11
8.002825289513001
 21
6.084195191417219
 31
0.0
  0
LINE
  5
3BF
330
1F
100
AcDbEntity
  8
1
100
AcDbLine
 10
7.94562925868602
 20
7.308490841581129
 30
0.0
 11
8.03562925868602
 21
7.218490841581129
 31
0.0
  0
LINE
  5
3C0
330
1F
100
AcDbEntity
  8
1
100
AcDbLine
 10
8.03562925868602
 20
7.308490841581129
 30
0.0
 11
7.94562925868602
 21
7.308490841581129
 31
0.0
  0
LINE
  5
3C1
330
1F
100
AcDbEntity
  8
1
100
AcDbLine
 10
7.94562925868602
 20
7.398490841581129
 30
0.0
 11
8.03562925868602
 21
7.308490841581129
 31
0.0
  0
LINE
  5
3C2
330
1F
100
AcDbEntity
  8
1
100
AcDbLine
 10
7.99062925868602
 20
7.633516662269549
 30
0.0
 11
7.99062925868602
 21
7.353490841581129
 31
0.0
  0
LINE
  5
3C3
330
1F
100
AcDbEntity
  8
1
100
AcDbLine
 10
8.11562925868602
 20
7.633516662269549
 30
0.0
 11
8.11562925868602
 21
6.718490841581129
 31
0.0
  0
CIRCLE
  5
3C4
330
1F
100
AcDbEntity
  8
1
100
AcDbCircle
 10
9.61562925868602
 20
3.508516662269549
 30
0.0
 40
0.1875
  0
LINE
  5
3C5
330
1F
100
AcDbEntity
  8
1
100
AcDbLine
 10
11.24062925868602
 20
4.508516662269549
 30
0.0
 11
11.24062925868602
 21
7.883516662269549
 31
0.0
  0
LINE
  5
3C6
330
1F
100
AcDbEntity
  8
1
100
AcDbLine
 10
12.49062925868602
 20
4.508516662269549
 30
0.0
 11
12.49062925868602
 21
7.508516662269549
 31
0.0
  0
LINE
  5
3C7
330
1F
100
AcDbEntity
  8
1
100
AcDbLine
 10
8.99062925868602
 20
4.508516662269549
 30
0.0
 11
8.11562925868602
 21
4.508516662269549
 31
0.0
  0
LINE
  5
3C8
330
1F
100
AcDbEntity
  8
1
100
AcDbLine
 10
8.99062925868602
 20
7.508516662269549
 30
0.0
 11
8.99062925868602
 21
4.508516662269549
 31
0.0
  0
LINE
  5
3C9
330
1F
100
AcDbEntity
  8
1
100
AcDbLine
 10
8.11562925868602
 20
7.508516662269549
 30
0.0
 11
8.99062925868602
 21
7.508516662269549
 31
0.0
  0
LINE
  5
3CA
330
1F
100
AcDbEntity
  8
1
100
AcDbLine
 10
6.49062925868602
 20
7.508516662269549
 30
0.0
 11
7.99062925868602
 21
7.508516662269549
 31
0.0
  0
LINE
  5
3CB
330
1F
100
AcDbEntity
  8
1
100
AcDbLine
 10
6.49062925868602
 20
4.508516662269549
 30
0.0
 11
6.49062925868602
 21
7.508516662269549
 31
0.0
  0
LINE
  5
3CC
330
1F
100
AcDbEntity
  8
1
100
AcDbLine
 10
6.49062925868602
 20
4.508516662269549
 30
0.0
 11
7.99062925868602
 21
4.508516662269549
 31
0.0
  0
LINE
  5
3CD
330
1F
100
AcDbEntity
  8
1
100
AcDbLine
 10
5.49062925868602
 20
8.258516662269549
 30
0.0
 11
5.49062925868602
 21
3.008516662269549
 31
0.0
  0
LINE
  5
3CE
330
1F
100
AcDbEntity
  8
1
100
AcDbLine
 10
13.74062925868602
 20
8.258516662269549
 30
0.0
 11
5.49062925868602
 21
8.258516662269549
 31
0.0
  0
LINE
  5
3CF
330
1F
100
AcDbEntity
  8
1
100
AcDbLine
 10
13.74062925868602
 20
3.008516662269549
 30
0.0
 11
13.74062925868602
 21
8.258516662269549
 31
0.0
  0
LINE
  5
3D0
330
1F
100
AcDbEntity
  8
1
100
AcDbLine
 10
5.49062925868602
 20
3.008516662269549
 30
0.0
 11
13.74062925868602
 21
3.008516662269549
 31
0.0
  0
TEXT
  5
3D2
330
1F
100
AcDbEntity
  8
8
100
AcDbText
 10
6.931105449162213
 20
3.10251365334647
 30
0.0
 40
0.125
  1
SINGLE POINT 2 CORRIDOR LOCKER - 72"  5-HI BOX
  7
ROMANS
 72
     1
 11
9.61562925868602
 21
3.10251365334647
 31
0.0
100
AcDbText
  0
LINE
  5
3D3
330
1F
100
AcDbEntity
  8
4
100
AcDbLine
 10
7.02162925868602
 20
6.117350483519549
 30
0.0
 11
7.02162925868602
 21
5.899685849942628
 31
0.0
  0
LINE
  5
3D4
330
1F
100
AcDbEntity
  8
4
100
AcDbLine
 10
6.58462925868602
 20
5.740116662269549
 30
0.0
 11
6.58462925868602
 21
6.276913653346471
 31
0.0
  0
INSERT
  5
3D5
330
1F
100
AcDbEntity
  8
0
100
AcDbBlockReference
  2
A$C62A14645
 10
6.055511750202551
 20
4.822911567046137
 30
0.0
  0
LINE
  5
3D6
330
1F
100
AcDbEntity
  8
4
100
AcDbLine
 10
6.594384739291231
 20
6.090719447724033
 30
0.0
 11
6.604419039186816
 21
5.93017064939469
 31
0.0
  0
ARC
  5
3D7
330
1F
100
AcDbEntity
  8
4
100
AcDbCircle
 10
6.636959907143183
 20
5.952149613999264
 30
0.0
 40
0.019341355
100
AcDbArc
 50
183.5763343749981
 51
270.0
  0
LINE
  5
3D8
330
1F
100
AcDbEntity
  8
4
100
AcDbLine
 10
6.756198981205809
 20
6.090719447724033
 30
0.0
 11
6.746164681310226
 21
5.93017064939469
 31
0.0
  0
ARC
  5
3D9
330
1F
100
AcDbEntity
  8
4
100
AcDbCircle
 10
6.713623813353857
 20
5.952149613999264
 30
0.0
 40
0.019341355
100
AcDbArc
 50
270.0
 51
356.4236656250017
  0
POINT
  5
3DA
330
1F
100
AcDbEntity
  8
4
100
AcDbPoint
 10
5.49062925868602
 20
3.008516662269549
 30
0.0
  0
LINE
  5
3DB
330
1F
100
AcDbEntity
  8
4
100
AcDbLine
 10
7.17762925868602
 20
5.125313653346472
 30
0.0
 11
7.67862925868602
 21
5.125313653346472
 31
0.0
  0
LINE
  5
3DC
330
1F
100
AcDbEntity
  8
4
100
AcDbLine
 10
7.17762925868602
 20
5.187313653346472
 30
0.0
 11
7.67862925868602
 21
5.187313653346472
 31
0.0
  0
LINE
  5
3DD
330
1F
100
AcDbEntity
  8
4
100
AcDbLine
 10
7.17762925868602
 20
5.694113653346472
 30
0.0
 11
7.67862925868602
 21
5.694113653346472
 31
0.0
  0
LINE
  5
3DE
330
1F
100
AcDbEntity
  8
4
100
AcDbLine
 10
7.17762925868602
 20
5.756113653346472
 30
0.0
 11
7.67862925868602
 21
5.756113653346472
 31
0.0
  0
LINE
  5
3DF
330
1F
100
AcDbEntity
  8
4
100
AcDbLine
 10
6.58462925868602
 20
5.171316662269549
 30
0.0
 11
6.58462925868602
 21
5.708113653346471
 31
0.0
  0
LINE
  5
3E0
330
1F
100
AcDbEntity
  8
4
100
AcDbLine
 10
7.02162925868602
 20
5.249893925880127
 30
0.0
 11
7.02162925868602
 21
5.171319671192627
 31
0.0
  0
LINE
  5
3E1
330
1F
100
AcDbEntity
  8
4
100
AcDbLine
 10
7.02162925868602
 20
4.602519671192627
 30
0.0
 11
6.58462925868602
 21
4.602516662269549
 31
0.0
  0
LINE
  5
3E2
330
1F
100
AcDbEntity
  8
4
100
AcDbLine
 10
7.02162925868602
 20
4.602519671192627
 30
0.0
 11
6.58462925868602
 21
4.602516662269549
 31
0.0
  0
LINE
  5
3E3
330
1F
100
AcDbEntity
  8
4
100
AcDbLine
 10
7.02162925868602
 20
5.171319671192627
 30
0.0
 11
6.58462925868602
 21
5.171316662269549
 31
0.0
  0
LINE
  5
3E4
330
1F
100
AcDbEntity
  8
4
100
AcDbLine
 10
7.02162925868602
 20
5.171319671192627
 30
0.0
 11
6.58462925868602
 21
5.171316662269549
 31
0.0
  0
LINE
  5
3E5
330
1F
100
AcDbEntity
  8
4
100
AcDbLine
 10
7.02162925868602
 20
5.139316662269549
 30
0.0
 11
6.58462925868602
 21
5.139313653346471
 31
0.0
  0
LINE
  5
3E6
330
1F
100
AcDbEntity
  8
4
100
AcDbLine
 10
6.58462925868602
 20
4.602516662269549
 30
0.0
 11
6.58462925868602
 21
5.139313653346471
 31
0.0
  0
LINE
  5
3E7
330
1F
100
AcDbEntity
  8
4
100
AcDbLine
 10
6.609485774815821
 20
4.944052010512444
 30
0.0
 11
6.61765621791408
 21
4.813324920940305
 31
0.0
  0
LINE
  5
3E8
330
1F
100
AcDbEntity
  8
4
100
AcDbLine
 10
6.594384739291231
 20
4.953119447724033
 30
0.0
 11
6.604419039186816
 21
4.79257064939469
 31
0.0
  0
LINE
  5
3E9
330
1F
100
AcDbEntity
  8
4
100
AcDbLine
 10
6.756198981205809
 20
4.953119447724033
 30
0.0
 11
6.746164681310226
 21
4.79257064939469
 31
0.0
  0
LINE
  5
3EA
330
1F
100
AcDbEntity
  8
4
100
AcDbLine
 10
6.74109794568122
 20
4.944052010512444
 30
0.0
 11
6.73292750258296
 21
4.813343133422443
 31
0.0
  0
CIRCLE
  5
3EB
330
1F
100
AcDbEntity
  8
4
100
AcDbCircle
 10
6.67529186024852
 20
4.870915157808011
 30
0.0
 40
0.01269276421875
  0
LINE
  5
3EC
330
1F
100
AcDbEntity
  8
4
100
AcDbLine
 10
6.67529186024852
 20
4.795208258999259
 30
0.0
 11
6.636959907143183
 21
4.795208258999264
 31
0.0
  0
LINE
  5
3ED
330
1F
100
AcDbEntity
  8
4
100
AcDbLine
 10
6.67529186024852
 20
4.768768626714261
 30
0.0
 11
6.629755131300012
 21
4.768768626714261
 31
0.0
  0
ARC
  5
3EE
330
1F
100
AcDbEntity
  8
4
100
AcDbCircle
 10
6.629755131300012
 20
4.79415415515176
 30
0.0
 40
0.0253855284375
100
AcDbArc
 50
183.5763343749981
 51
270.0
  0
ARC
  5
3EF
330
1F
100
AcDbEntity
  8
4
100
AcDbCircle
 10
6.636959907143183
 20
4.814549613999264
 30
0.0
 40
0.019341355
100
AcDbArc
 50
183.5763343749981
 51
270.0
  0
CIRCLE
  5
3F0
330
1F
100
AcDbEntity
  8
4
100
AcDbCircle
 10
6.67529186024852
 20
4.828634955778012
 30
0.0
 40
0.00421641539
  0
ARC
  5
3F1
330
1F
100
AcDbEntity
  8
4
100
AcDbCircle
 10
6.713623813353857
 20
4.814549613999264
 30
0.0
 40
0.019341355
100
AcDbArc
 50
270.0
 51
356.4236656250018
  0
ARC
  5
3F2
330
1F
100
AcDbEntity
  8
4
100
AcDbCircle
 10
6.720828589197028
 20
4.79415415515176
 30
0.0
 40
0.0253855284375
100
AcDbArc
 50
270.0
 51
356.4236656250018
  0
LINE
  5
3F3
330
1F
100
AcDbEntity
  8
4
100
AcDbLine
 10
6.67529186024852
 20
4.768768626714261
 30
0.0
 11
6.720828589197028
 21
4.768768626714261
 31
0.0
  0
LINE
  5
3F4
330
1F
100
AcDbEntity
  8
4
100
AcDbLine
 10
6.67529186024852
 20
4.795208258999259
 30
0.0
 11
6.713623813353857
 21
4.795208258999264
 31
0.0
  0
CIRCLE
  5
3F5
330
1F
100
AcDbEntity
  8
4
100
AcDbCircle
 10
6.67529186024852
 20
4.779648138901765
 30
0.0
 40
0.006959019529
  0
LINE
  5
3F6
330
1F
100
AcDbEntity
  8
4
100
AcDbLine
 10
6.67529186024852
 20
4.983941201089261
 30
0.0
 11
6.623340273134886
 21
4.983941201089261
 31
0.0
  0
LINE
  5
3F7
330
1F
100
AcDbEntity
  8
4
 62
   130
100
AcDbLine
 10
6.634101552064407
 20
4.949998524328256
 30
0.0
 11
6.654642071074408
 21
4.929458005318259
 31
0.0
  0
LINE
  5
3F8
330
1F
100
AcDbEntity
  8
4
100
AcDbLine
 10
6.630723451257004
 20
4.948290383434063
 30
0.0
 11
6.65293393018021
 21
4.926079904510856
 31
0.0
  0
LINE
  5
3F9
330
1F
100
AcDbEntity
  8
4
100
AcDbLine
 10
6.67529186024852
 20
4.96459984608926
 30
0.0
 11
6.628789464044924
 21
4.96459984608926
 31
0.0
  0
ARC
  5
3FA
330
1F
100
AcDbEntity
  8
4
 62
   130
100
AcDbCircle
 10
6.650375033251723
 20
4.925190967495575
 30
0.0
 40
0.00603450276
100
AcDbArc
 50
225.0000000000003
 51
45.00000000000031
  0
LINE
  5
3FB
330
1F
100
AcDbEntity
  8
4
100
AcDbLine
 10
6.649514829360751
 20
4.922660803691397
 30
0.0
 11
6.65293393018021
 21
4.926079904510856
 31
0.0
  0
LINE
  5
3FC
330
1F
100
AcDbEntity
  8
4
 62
   130
100
AcDbLine
 10
6.625567476419037
 20
4.941464448682889
 30
0.0
 11
6.646107995429037
 21
4.920923929672887
 31
0.0
  0
LINE
  5
3FD
330
1F
100
AcDbEntity
  8
4
100
AcDbLine
 10
6.627304350437545
 20
4.944871282614603
 30
0.0
 11
6.649514829360751
 21
4.922660803691397
 31
0.0
  0
ARC
  5
3FE
330
1F
100
AcDbEntity
  8
4
100
AcDbCircle
 10
6.628789464044924
 20
4.94525849108926
 30
0.0
 40
0.019341355
100
AcDbArc
 50
90.0
 51
183.5763343749981
  0
ARC
  5
3FF
330
1F
100
AcDbEntity
  8
4
 62
   130
100
AcDbCircle
 10
6.629834514241723
 20
4.945731486505573
 30
0.0
 40
0.00603450276
100
AcDbArc
 50
45.00000000000031
 51
225.0000000000003
  0
ARC
  5
400
330
1F
100
AcDbEntity
  8
4
100
AcDbCircle
 10
6.623340273134886
 20
4.954929168589261
 30
0.0
 40
0.0290120325
100
AcDbArc
 50
90.0
 51
183.5763343749981
  0
LINE
  5
401
330
1F
100
AcDbEntity
  8
4
100
AcDbLine
 10
6.630723451257004
 20
4.948290383434063
 30
0.0
 11
6.627304350437545
 21
4.944871282614603
 31
0.0
  0
LINE
  5
402
330
1F
100
AcDbEntity
  8
4
100
AcDbLine
 10
6.635865778889471
 20
4.943148055801599
 30
0.0
 11
6.632446678070011
 21
4.93972895498214
 31
0.0
  0
LINE
  5
403
330
1F
100
AcDbEntity
  8
4
100
AcDbLine
 10
6.647791602547743
 20
4.931222232143325
 30
0.0
 11
6.644372501728285
 21
4.927803131323865
 31
0.0
  0
LINE
  5
404
330
1F
100
AcDbEntity
  8
4
100
AcDbLine
 10
6.67529186024852
 20
4.96459984608926
 30
0.0
 11
6.721794256452117
 21
4.96459984608926
 31
0.0
  0
LINE
  5
405
330
1F
100
AcDbEntity
  8
4
100
AcDbLine
 10
6.67529186024852
 20
4.983941201089261
 30
0.0
 11
6.727243447362155
 21
4.983941201089261
 31
0.0
  0
CIRCLE
  5
406
330
1F
100
AcDbEntity
  8
4
100
AcDbCircle
 10
6.67529186024852
 20
4.913195359838014
 30
0.0
 40
0.00421641539
  0
ARC
  5
407
330
1F
100
AcDbEntity
  8
4
100
AcDbCircle
 10
6.727243447362155
 20
4.954929168589261
 30
0.0
 40
0.0290120325
100
AcDbArc
 50
356.4236656250018
 51
90.0
  0
ARC
  5
408
330
1F
100
AcDbEntity
  8
4
100
AcDbCircle
 10
6.721794256452117
 20
4.94525849108926
 30
0.0
 40
0.019341355
100
AcDbArc
 50
356.4236656250018
 51
90.0
  0
ARC
  5
409
330
1F
100
AcDbEntity
  8
4
100
AcDbCircle
 10
6.77381188727977
 20
5.343611550872719
 30
0.0
 40
0.27077897
100
AcDbArc
 50
261.4046615383198
 51
278.5953384616802
  0
ARC
  5
40A
330
1F
100
AcDbEntity
  8
4
100
AcDbCircle
 10
6.77381188727977
 20
4.841945155560218
 30
0.0
 40
0.27077897
100
AcDbArc
 50
81.40466153831978
 51
98.59533846168023
  0
ARC
  5
40B
330
1F
100
AcDbEntity
  8
4
100
AcDbCircle
 10
6.81007692790477
 20
5.092778353216469
 30
0.0
 40
0.0785742546875
100
AcDbArc
 50
167.5762104955835
 51
192.4237895044164
  0
LINE
  5
40C
330
1F
100
AcDbEntity
  8
4
100
AcDbLine
 10
6.737546846654771
 20
5.089296909316471
 30
0.0
 11
6.737546846654771
 21
5.096259797116469
 31
0.0
  0
LINE
  5
40D
330
1F
100
AcDbEntity
  8
4
100
AcDbLine
 10
6.734065402754771
 20
5.092778353216469
 30
0.0
 11
6.741028290554771
 21
5.092778353216469
 31
0.0
  0
CIRCLE
  5
40E
330
1F
100
AcDbEntity
  8
4
100
AcDbCircle
 10
6.737546846654771
 20
5.092778353216469
 30
0.0
 40
0.00263042428
  0
ARC
  5
40F
330
1F
100
AcDbEntity
  8
4
100
AcDbCircle
 10
6.737546846654771
 20
5.092778353216469
 30
0.0
 40
0.0785742546875
100
AcDbArc
 50
347.5762104955836
 51
12.42378950441644
  0
LINE
  5
410
330
1F
100
AcDbEntity
  8
4
100
AcDbLine
 10
6.81007692790477
 20
5.089296909316471
 30
0.0
 11
6.81007692790477
 21
5.096259797116469
 31
0.0
  0
LINE
  5
411
330
1F
100
AcDbEntity
  8
4
100
AcDbLine
 10
6.80659548400477
 20
5.092778353216469
 30
0.0
 11
6.81355837180477
 21
5.092778353216469
 31
0.0
  0
CIRCLE
  5
412
330
1F
100
AcDbEntity
  8
4
100
AcDbCircle
 10
6.81007692790477
 20
5.092778353216469
 30
0.0
 40
0.00263042428
  0
LINE
  5
413
330
1F
100
AcDbEntity
  8
4
100
AcDbLine
 10
7.02162925868602
 20
4.979750483519549
 30
0.0
 11
7.02162925868602
 21
4.762085849942628
 31
0.0
  0
LINE
  5
414
330
1F
100
AcDbEntity
  8
4
100
AcDbLine
 10
7.01618950259227
 20
4.762085849942628
 30
0.0
 11
7.01618950259227
 21
4.681093925880127
 31
0.0
  0
LINE
  5
415
330
1F
100
AcDbEntity
  8
4
100
AcDbLine
 10
7.02162925868602
 20
4.681093925880127
 30
0.0
 11
7.02162925868602
 21
4.762085849942628
 31
0.0
  0
LINE
  5
416
330
1F
100
AcDbEntity
  8
4
100
AcDbLine
 10
7.01618950259227
 20
4.681093925880127
 30
0.0
 11
7.02162925868602
 21
4.681093925880127
 31
0.0
  0
LINE
  5
417
330
1F
100
AcDbEntity
  8
4
100
AcDbLine
 10
7.02162925868602
 20
4.681093925880127
 30
0.0
 11
7.02162925868602
 21
4.602519671192627
 31
0.0
  0
LINE
  5
418
330
1F
100
AcDbEntity
  8
4
  6
CENTER
100
AcDbLine
 10
7.005745759854708
 20
4.721589887911378
 30
0.0
 11
7.013563912153255
 21
4.721589887911378
 31
0.0
  0
LINE
  5
419
330
1F
100
AcDbEntity
  8
4
  6
CENTER
100
AcDbLine
 10
7.023780831810068
 20
4.721589887911378
 30
0.0
 11
7.032132051193468
 21
4.721589887911378
 31
0.0
  0
LINE
  5
41A
330
1F
100
AcDbEntity
  8
4
100
AcDbLine
 10
7.017561846242506
 20
4.721589887911378
 30
0.0
 11
7.019960590585053
 21
4.721589887911378
 31
0.0
  0
LINE
  5
41B
330
1F
100
AcDbEntity
  8
4
100
AcDbLine
 10
7.02162925868602
 20
4.762085849942628
 30
0.0
 11
7.01618950259227
 21
4.762085849942628
 31
0.0
  0
LINE
  5
41C
330
1F
100
AcDbEntity
  8
4
100
AcDbLine
 10
7.02162925868602
 20
5.060742407582049
 30
0.0
 11
7.02162925868602
 21
4.979750483519549
 31
0.0
  0
LINE
  5
41D
330
1F
100
AcDbEntity
  8
4
100
AcDbLine
 10
7.01618950259227
 20
4.979750483519549
 30
0.0
 11
7.01618950259227
 21
5.060742407582049
 31
0.0
  0
LINE
  5
41E
330
1F
100
AcDbEntity
  8
4
  6
CENTER
100
AcDbLine
 10
7.005745759854708
 20
5.020246445550799
 30
0.0
 11
7.013563912153255
 21
5.020246445550799
 31
0.0
  0
LINE
  5
41F
330
1F
100
AcDbEntity
  8
4
  6
CENTER
100
AcDbLine
 10
7.023780831810068
 20
5.020246445550799
 30
0.0
 11
7.032132051193468
 21
5.020246445550799
 31
0.0
  0
LINE
  5
420
330
1F
100
AcDbEntity
  8
4
100
AcDbLine
 10
7.017561846242506
 20
5.020246445550799
 30
0.0
 11
7.019960590585053
 21
5.020246445550799
 31
0.0
  0
LINE
  5
421
330
1F
100
AcDbEntity
  8
4
100
AcDbLine
 10
7.02162925868602
 20
4.979750483519549
 30
0.0
 11
7.01618950259227
 21
4.979750483519549
 31
0.0
  0
LINE
  5
422
330
1F
100
AcDbEntity
  8
4
100
AcDbLine
 10
7.01618950259227
 20
5.060742407582049
 30
0.0
 11
7.02162925868602
 21
5.060742407582049
 31
0.0
  0
LINE
  5
423
330
1F
100
AcDbEntity
  8
4
100
AcDbLine
 10
7.02162925868602
 20
5.060742407582049
 30
0.0
 11
7.02162925868602
 21
5.139316662269549
 31
0.0
  0
LINE
  5
424
330
1F
100
AcDbEntity
  8
4
100
AcDbLine
 10
7.02162925868602
 20
5.740119671192627
 30
0.0
 11
6.58462925868602
 21
5.740116662269549
 31
0.0
  0
LINE
  5
425
330
1F
100
AcDbEntity
  8
4
100
AcDbLine
 10
7.02162925868602
 20
5.740119671192627
 30
0.0
 11
6.58462925868602
 21
5.740116662269549
 31
0.0
  0
LINE
  5
426
330
1F
100
AcDbEntity
  8
4
100
AcDbLine
 10
7.02162925868602
 20
5.708116662269548
 30
0.0
 11
6.58462925868602
 21
5.708113653346471
 31
0.0
  0
LINE
  5
427
330
1F
100
AcDbEntity
  8
4
100
AcDbLine
 10
6.67529186024852
 20
5.364008258999259
 30
0.0
 11
6.636959907143183
 21
5.364008258999263
 31
0.0
  0
LINE
  5
428
330
1F
100
AcDbEntity
  8
4
100
AcDbLine
 10
6.67529186024852
 20
5.337568626714261
 30
0.0
 11
6.629755131300012
 21
5.337568626714261
 31
0.0
  0
LINE
  5
429
330
1F
100
AcDbEntity
  8
4
100
AcDbLine
 10
6.67529186024852
 20
5.55274120108926
 30
0.0
 11
6.623340273134886
 21
5.55274120108926
 31
0.0
  0
LINE
  5
42A
330
1F
100
AcDbEntity
  8
4
 62
   130
100
AcDbLine
 10
6.634101552064407
 20
5.518798524328255
 30
0.0
 11
6.654642071074408
 21
5.498258005318258
 31
0.0
  0
LINE
  5
42B
330
1F
100
AcDbEntity
  8
4
100
AcDbLine
 10
6.630723451257004
 20
5.517090383434062
 30
0.0
 11
6.65293393018021
 21
5.494879904510856
 31
0.0
  0
LINE
  5
42C
330
1F
100
AcDbEntity
  8
4
100
AcDbLine
 10
6.67529186024852
 20
5.53339984608926
 30
0.0
 11
6.628789464044924
 21
5.53339984608926
 31
0.0
  0
ARC
  5
42D
330
1F
100
AcDbEntity
  8
4
 62
   130
100
AcDbCircle
 10
6.650375033251723
 20
5.493990967495575
 30
0.0
 40
0.00603450276
100
AcDbArc
 50
225.0000000000003
 51
45.00000000000031
  0
LINE
  5
42E
330
1F
100
AcDbEntity
  8
4
100
AcDbLine
 10
6.649514829360751
 20
5.491460803691396
 30
0.0
 11
6.65293393018021
 21
5.494879904510856
 31
0.0
  0
LINE
  5
42F
330
1F
100
AcDbEntity
  8
4
100
AcDbLine
 10
6.609485774815821
 20
5.512852010512443
 30
0.0
 11
6.61765621791408
 21
5.382124920940304
 31
0.0
  0
LINE
  5
430
330
1F
100
AcDbEntity
  8
4
100
AcDbLine
 10
6.594384739291231
 20
5.521919447724033
 30
0.0
 11
6.604419039186816
 21
5.361370649394689
 31
0.0
  0
ARC
  5
431
330
1F
100
AcDbEntity
  8
4
100
AcDbCircle
 10
6.629755131300012
 20
5.36295415515176
 30
0.0
 40
0.0253855284375
100
AcDbArc
 50
183.5763343749981
 51
270.0
  0
ARC
  5
432
330
1F
100
AcDbEntity
  8
4
100
AcDbCircle
 10
6.636959907143183
 20
5.383349613999263
 30
0.0
 40
0.019341355
100
AcDbArc
 50
183.5763343749981
 51
270.0
  0
LINE
  5
433
330
1F
100
AcDbEntity
  8
4
 62
   130
100
AcDbLine
 10
6.625567476419037
 20
5.510264448682889
 30
0.0
 11
6.646107995429037
 21
5.489723929672886
 31
0.0
  0
LINE
  5
434
330
1F
100
AcDbEntity
  8
4
100
AcDbLine
 10
6.627304350437545
 20
5.513671282614603
 30
0.0
 11
6.649514829360751
 21
5.491460803691396
 31
0.0
  0
ARC
  5
435
330
1F
100
AcDbEntity
  8
4
100
AcDbCircle
 10
6.628789464044924
 20
5.51405849108926
 30
0.0
 40
0.019341355
100
AcDbArc
 50
90.0
 51
183.5763343749981
  0
ARC
  5
436
330
1F
100
AcDbEntity
  8
4
 62
   130
100
AcDbCircle
 10
6.629834514241723
 20
5.514531486505572
 30
0.0
 40
0.00603450276
100
AcDbArc
 50
45.00000000000031
 51
225.0000000000003
  0
ARC
  5
437
330
1F
100
AcDbEntity
  8
4
100
AcDbCircle
 10
6.623340273134886
 20
5.523729168589261
 30
0.0
 40
0.0290120325
100
AcDbArc
 50
90.0
 51
183.5763343749981
  0
LINE
  5
438
330
1F
100
AcDbEntity
  8
4
100
AcDbLine
 10
6.630723451257004
 20
5.517090383434062
 30
0.0
 11
6.627304350437545
 21
5.513671282614603
 31
0.0
  0
LINE
  5
439
330
1F
100
AcDbEntity
  8
4
100
AcDbLine
 10
6.635865778889471
 20
5.511948055801599
 30
0.0
 11
6.632446678070011
 21
5.508528954982139
 31
0.0
  0
LINE
  5
43A
330
1F
100
AcDbEntity
  8
4
100
AcDbLine
 10
6.647791602547743
 20
5.500022232143324
 30
0.0
 11
6.644372501728285
 21
5.496603131323865
 31
0.0
  0
LINE
  5
43B
330
1F
100
AcDbEntity
  8
4
100
AcDbLine
 10
6.756198981205809
 20
5.521919447724033
 30
0.0
 11
6.746164681310226
 21
5.361370649394689
 31
0.0
  0
LINE
  5
43C
330
1F
100
AcDbEntity
  8
4
100
AcDbLine
 10
6.74109794568122
 20
5.512852010512443
 30
0.0
 11
6.73292750258296
 21
5.382143133422442
 31
0.0
  0
CIRCLE
  5
43D
330
1F
100
AcDbEntity
  8
4
100
AcDbCircle
 10
6.67529186024852
 20
5.397434955778011
 30
0.0
 40
0.00421641539
  0
LINE
  5
43E
330
1F
100
AcDbEntity
  8
4
100
AcDbLine
 10
6.67529186024852
 20
5.337568626714261
 30
0.0
 11
6.720828589197028
 21
5.337568626714261
 31
0.0
  0
LINE
  5
43F
330
1F
100
AcDbEntity
  8
4
100
AcDbLine
 10
6.67529186024852
 20
5.364008258999259
 30
0.0
 11
6.713623813353857
 21
5.364008258999263
 31
0.0
  0
CIRCLE
  5
440
330
1F
100
AcDbEntity
  8
4
100
AcDbCircle
 10
6.67529186024852
 20
5.348448138901765
 30
0.0
 40
0.006959019529
  0
ARC
  5
441
330
1F
100
AcDbEntity
  8
4
100
AcDbCircle
 10
6.713623813353857
 20
5.383349613999263
 30
0.0
 40
0.019341355
100
AcDbArc
 50
270.0
 51
356.4236656250017
  0
ARC
  5
442
330
1F
100
AcDbEntity
  8
4
100
AcDbCircle
 10
6.720828589197028
 20
5.36295415515176
 30
0.0
 40
0.0253855284375
100
AcDbArc
 50
270.0
 51
356.4236656250017
  0
CIRCLE
  5
443
330
1F
100
AcDbEntity
  8
4
100
AcDbCircle
 10
6.67529186024852
 20
5.43971515780801
 30
0.0
 40
0.01269276421875
  0
LINE
  5
444
330
1F
100
AcDbEntity
  8
4
100
AcDbLine
 10
6.67529186024852
 20
5.53339984608926
 30
0.0
 11
6.721794256452117
 21
5.53339984608926
 31
0.0
  0
LINE
  5
445
330
1F
100
AcDbEntity
  8
4
100
AcDbLine
 10
6.67529186024852
 20
5.55274120108926
 30
0.0
 11
6.727243447362155
 21
5.55274120108926
 31
0.0
  0
CIRCLE
  5
446
330
1F
100
AcDbEntity
  8
4
100
AcDbCircle
 10
6.67529186024852
 20
5.481995359838014
 30
0.0
 40
0.00421641539
  0
ARC
  5
447
330
1F
100
AcDbEntity
  8
4
100
AcDbCircle
 10
6.727243447362155
 20
5.523729168589261
 30
0.0
 40
0.0290120325
100
AcDbArc
 50
356.4236656250017
 51
90.0
  0
ARC
  5
448
330
1F
100
AcDbEntity
  8
4
100
AcDbCircle
 10
6.721794256452117
 20
5.51405849108926
 30
0.0
 40
0.019341355
100
AcDbArc
 50
356.4236656250017
 51
90.0
  0
LINE
  5
449
330
1F
100
AcDbEntity
  8
4
100
AcDbLine
 10
6.67529186024852
 20
5.906368626714261
 30
0.0
 11
6.629755131300012
 21
5.906368626714261
 31
0.0
  0
LINE
  5
44A
330
1F
100
AcDbEntity
  8
4
100
AcDbLine
 10
6.67529186024852
 20
5.932808258999259
 30
0.0
 11
6.636959907143183
 21
5.932808258999264
 31
0.0
  0
ARC
  5
44B
330
1F
100
AcDbEntity
  8
4
100
AcDbCircle
 10
6.629755131300012
 20
5.93175415515176
 30
0.0
 40
0.0253855284375
100
AcDbArc
 50
183.5763343749981
 51
270.0
  0
ARC
  5
44C
330
1F
100
AcDbEntity
  8
4
100
AcDbCircle
 10
6.77381188727977
 20
5.912411550872718
 30
0.0
 40
0.27077897
100
AcDbArc
 50
261.4046615383198
 51
278.5953384616802
  0
ARC
  5
44D
330
1F
100
AcDbEntity
  8
4
100
AcDbCircle
 10
6.77381188727977
 20
5.410745155560218
 30
0.0
 40
0.27077897
100
AcDbArc
 50
81.40466153831978
 51
98.59533846168023
  0
ARC
  5
44E
330
1F
100
AcDbEntity
  8
4
100
AcDbCircle
 10
6.81007692790477
 20
5.661578353216468
 30
0.0
 40
0.0785742546875
100
AcDbArc
 50
167.5762104955835
 51
192.4237895044164
  0
LINE
  5
44F
330
1F
100
AcDbEntity
  8
4
100
AcDbLine
 10
6.737546846654771
 20
5.658096909316471
 30
0.0
 11
6.737546846654771
 21
5.665059797116469
 31
0.0
  0
LINE
  5
450
330
1F
100
AcDbEntity
  8
4
100
AcDbLine
 10
6.734065402754771
 20
5.661578353216468
 30
0.0
 11
6.741028290554771
 21
5.661578353216468
 31
0.0
  0
CIRCLE
  5
451
330
1F
100
AcDbEntity
  8
4
100
AcDbCircle
 10
6.737546846654771
 20
5.661578353216468
 30
0.0
 40
0.00263042428
  0
ARC
  5
452
330
1F
100
AcDbEntity
  8
4
100
AcDbCircle
 10
6.737546846654771
 20
5.661578353216468
 30
0.0
 40
0.0785742546875
100
AcDbArc
 50
347.5762104955836
 51
12.42378950441644
  0
LINE
  5
453
330
1F
100
AcDbEntity
  8
4
100
AcDbLine
 10
6.81007692790477
 20
5.658096909316471
 30
0.0
 11
6.81007692790477
 21
5.665059797116469
 31
0.0
  0
LINE
  5
454
330
1F
100
AcDbEntity
  8
4
100
AcDbLine
 10
6.80659548400477
 20
5.661578353216468
 30
0.0
 11
6.81355837180477
 21
5.661578353216468
 31
0.0
  0
CIRCLE
  5
455
330
1F
100
AcDbEntity
  8
4
100
AcDbCircle
 10
6.81007692790477
 20
5.661578353216468
 30
0.0
 40
0.00263042428
  0
ARC
  5
456
330
1F
100
AcDbEntity
  8
4
100
AcDbCircle
 10
6.720828589197028
 20
5.93175415515176
 30
0.0
 40
0.0253855284375
100
AcDbArc
 50
270.0
 51
356.4236656250017
  0
LINE
  5
457
330
1F
100
AcDbEntity
  8
4
100
AcDbLine
 10
6.67529186024852
 20
5.906368626714261
 30
0.0
 11
6.720828589197028
 21
5.906368626714261
 31
0.0
  0
CIRCLE
  5
458
330
1F
100
AcDbEntity
  8
4
100
AcDbCircle
 10
6.67529186024852
 20
5.917248138901765
 30
0.0
 40
0.006959019529
  0
LINE
  5
459
330
1F
100
AcDbEntity
  8
4
100
AcDbLine
 10
6.67529186024852
 20
5.932808258999259
 30
0.0
 11
6.713623813353857
 21
5.932808258999264
 31
0.0
  0
LINE
  5
45A
330
1F
100
AcDbEntity
  8
4
100
AcDbLine
 10
7.02162925868602
 20
5.629542407582048
 30
0.0
 11
7.02162925868602
 21
5.548550483519549
 31
0.0
  0
LINE
  5
45B
330
1F
100
AcDbEntity
  8
4
100
AcDbLine
 10
7.01618950259227
 20
5.548550483519549
 30
0.0
 11
7.01618950259227
 21
5.629542407582048
 31
0.0
  0
LINE
  5
45C
330
1F
100
AcDbEntity
  8
4
100
AcDbLine
 10
7.02162925868602
 20
5.548550483519549
 30
0.0
 11
7.02162925868602
 21
5.330885849942627
 31
0.0
  0
LINE
  5
45D
330
1F
100
AcDbEntity
  8
4
  6
CENTER
100
AcDbLine
 10
7.005745759854708
 20
5.290389887911377
 30
0.0
 11
7.013563912153255
 21
5.290389887911377
 31
0.0
  0
LINE
  5
45E
330
1F
100
AcDbEntity
  8
4
  6
CENTER
100
AcDbLine
 10
7.023780831810068
 20
5.290389887911377
 30
0.0
 11
7.032132051193468
 21
5.290389887911377
 31
0.0
  0
LINE
  5
45F
330
1F
100
AcDbEntity
  8
4
100
AcDbLine
 10
7.01618950259227
 20
5.330885849942627
 30
0.0
 11
7.01618950259227
 21
5.249893925880127
 31
0.0
  0
LINE
  5
460
330
1F
100
AcDbEntity
  8
4
100
AcDbLine
 10
7.02162925868602
 20
5.249893925880127
 30
0.0
 11
7.02162925868602
 21
5.330885849942627
 31
0.0
  0
LINE
  5
461
330
1F
100
AcDbEntity
  8
4
100
AcDbLine
 10
7.01618950259227
 20
5.249893925880127
 30
0.0
 11
7.02162925868602
 21
5.249893925880127
 31
0.0
  0
LINE
  5
462
330
1F
100
AcDbEntity
  8
4
100
AcDbLine
 10
7.017561846242506
 20
5.290389887911377
 30
0.0
 11
7.019960590585053
 21
5.290389887911377
 31
0.0
  0
LINE
  5
463
330
1F
100
AcDbEntity
  8
4
100
AcDbLine
 10
7.02162925868602
 20
5.330885849942627
 30
0.0
 11
7.01618950259227
 21
5.330885849942627
 31
0.0
  0
LINE
  5
464
330
1F
100
AcDbEntity
  8
4
100
AcDbLine
 10
7.02162925868602
 20
5.548550483519549
 30
0.0
 11
7.01618950259227
 21
5.548550483519549
 31
0.0
  0
LINE
  5
465
330
1F
100
AcDbEntity
  8
4
100
AcDbLine
 10
7.02162925868602
 20
5.818693925880127
 30
0.0
 11
7.02162925868602
 21
5.740119671192627
 31
0.0
  0
LINE
  5
466
330
1F
100
AcDbEntity
  8
4
  6
CENTER
100
AcDbLine
 10
7.005745759854708
 20
5.589046445550798
 30
0.0
 11
7.013563912153255
 21
5.589046445550798
 31
0.0
  0
LINE
  5
467
330
1F
100
AcDbEntity
  8
4
  6
CENTER
100
AcDbLine
 10
7.023780831810068
 20
5.589046445550798
 30
0.0
 11
7.032132051193468
 21
5.589046445550798
 31
0.0
  0
LINE
  5
468
330
1F
100
AcDbEntity
  8
4
100
AcDbLine
 10
7.01618950259227
 20
5.629542407582048
 30
0.0
 11
7.02162925868602
 21
5.629542407582048
 31
0.0
  0
LINE
  5
469
330
1F
100
AcDbEntity
  8
4
100
AcDbLine
 10
7.017561846242506
 20
5.589046445550798
 30
0.0
 11
7.019960590585053
 21
5.589046445550798
 31
0.0
  0
LINE
  5
46A
330
1F
100
AcDbEntity
  8
4
100
AcDbLine
 10
7.02162925868602
 20
5.629542407582048
 30
0.0
 11
7.02162925868602
 21
5.708116662269548
 31
0.0
  0
LINE
  5
46B
330
1F
100
AcDbEntity
  8
4
  6
CENTER
100
AcDbLine
 10
7.005745759854708
 20
5.859189887911377
 30
0.0
 11
7.013563912153255
 21
5.859189887911377
 31
0.0
  0
LINE
  5
46C
330
1F
100
AcDbEntity
  8
4
  6
CENTER
100
AcDbLine
 10
7.023780831810068
 20
5.859189887911377
 30
0.0
 11
7.032132051193468
 21
5.859189887911377
 31
0.0
  0
LINE
  5
46D
330
1F
100
AcDbEntity
  8
4
100
AcDbLine
 10
7.01618950259227
 20
5.899685849942628
 30
0.0
 11
7.01618950259227
 21
5.818693925880127
 31
0.0
  0
LINE
  5
46E
330
1F
100
AcDbEntity
  8
4
100
AcDbLine
 10
7.02162925868602
 20
5.818693925880127
 30
0.0
 11
7.02162925868602
 21
5.899685849942628
 31
0.0
  0
LINE
  5
46F
330
1F
100
AcDbEntity
  8
4
100
AcDbLine
 10
7.01618950259227
 20
5.818693925880127
 30
0.0
 11
7.02162925868602
 21
5.818693925880127
 31
0.0
  0
LINE
  5
470
330
1F
100
AcDbEntity
  8
4
100
AcDbLine
 10
7.017561846242506
 20
5.859189887911377
 30
0.0
 11
7.019960590585053
 21
5.859189887911377
 31
0.0
  0
LINE
  5
471
330
1F
100
AcDbEntity
  8
4
100
AcDbLine
 10
7.02162925868602
 20
5.899685849942628
 30
0.0
 11
7.01618950259227
 21
5.899685849942628
 31
0.0
  0
LINE
  5
472
330
1F
100
AcDbEntity
  8
4
100
AcDbLine
 10
8.11562925868602
 20
5.125313653346472
 30
0.0
 11
8.303629258686019
 21
5.125313653346472
 31
0.0
  0
LINE
  5
473
330
1F
100
AcDbEntity
  8
4
100
AcDbLine
 10
8.11562925868602
 20
5.187313653346472
 30
0.0
 11
8.303629258686019
 21
5.187313653346472
 31
0.0
  0
LINE
  5
474
330
1F
100
AcDbEntity
  8
4
100
AcDbLine
 10
8.11562925868602
 20
5.694113653346472
 30
0.0
 11
8.303629258686019
 21
5.694113653346472
 31
0.0
  0
LINE
  5
475
330
1F
100
AcDbEntity
  8
4
100
AcDbLine
 10
8.11562925868602
 20
5.756113653346472
 30
0.0
 11
8.303629258686019
 21
5.756113653346472
 31
0.0
  0
LINE
  5
476
330
1F
100
AcDbEntity
  8
4
100
AcDbLine
 10
7.80262925868602
 20
5.125313653346472
 30
0.0
 11
7.99062925868602
 21
5.125313653346472
 31
0.0
  0
LINE
  5
477
330
1F
100
AcDbEntity
  8
4
100
AcDbLine
 10
7.80262925868602
 20
5.187313653346472
 30
0.0
 11
7.99062925868602
 21
5.187313653346472
 31
0.0
  0
LINE
  5
478
330
1F
100
AcDbEntity
  8
4
100
AcDbLine
 10
7.80262925868602
 20
5.694113653346472
 30
0.0
 11
7.99062925868602
 21
5.694113653346472
 31
0.0
  0
LINE
  5
479
330
1F
100
AcDbEntity
  8
4
100
AcDbLine
 10
7.80262925868602
 20
5.756113653346472
 30
0.0
 11
7.99062925868602
 21
5.756113653346472
 31
0.0
  0
LINE
  5
47A
330
1F
100
AcDbEntity
  8
4
100
AcDbLine
 10
8.427629258686021
 20
5.125313653346472
 30
0.0
 11
8.928629258686019
 21
5.125313653346472
 31
0.0
  0
LINE
  5
47B
330
1F
100
AcDbEntity
  8
4
100
AcDbLine
 10
8.427629258686021
 20
5.187313653346472
 30
0.0
 11
8.928629258686019
 21
5.187313653346472
 31
0.0
  0
LINE
  5
47C
330
1F
100
AcDbEntity
  8
4
100
AcDbLine
 10
8.427629258686021
 20
5.694113653346472
 30
0.0
 11
8.928629258686019
 21
5.694113653346472
 31
0.0
  0
LINE
  5
47D
330
1F
100
AcDbEntity
  8
4
100
AcDbLine
 10
8.427629258686021
 20
5.756113653346472
 30
0.0
 11
8.928629258686019
 21
5.756113653346472
 31
0.0
  0
LINE
  5
47E
330
1F
100
AcDbEntity
  8
4
100
AcDbLine
 10
7.17762925868602
 20
6.893713653346472
 30
0.0
 11
7.67862925868602
 21
6.893713653346472
 31
0.0
  0
LINE
  5
47F
330
1F
100
AcDbEntity
  8
4
100
AcDbLine
 10
7.17762925868602
 20
6.831713653346472
 30
0.0
 11
7.67862925868602
 21
6.831713653346472
 31
0.0
  0
LINE
  5
480
330
1F
100
AcDbEntity
  8
4
100
AcDbLine
 10
7.17762925868602
 20
6.262913653346473
 30
0.0
 11
7.67862925868602
 21
6.262913653346473
 31
0.0
  0
LINE
  5
481
330
1F
100
AcDbEntity
  8
4
100
AcDbLine
 10
7.17762925868602
 20
6.324913653346472
 30
0.0
 11
7.67862925868602
 21
6.324913653346472
 31
0.0
  0
LINE
  5
482
330
1F
100
AcDbEntity
  8
4
100
AcDbLine
 10
7.02162925868602
 20
7.335942407582049
 30
0.0
 11
7.02162925868602
 21
7.414516662269549
 31
0.0
  0
LINE
  5
483
330
1F
100
AcDbEntity
  8
4
100
AcDbLine
 10
6.58462925868602
 20
6.877716662269549
 30
0.0
 11
6.58462925868602
 21
7.414513653346471
 31
0.0
  0
LINE
  5
484
330
1F
100
AcDbEntity
  8
4
100
AcDbLine
 10
6.58462925868602
 20
6.30891666226955
 30
0.0
 11
6.58462925868602
 21
6.845713653346471
 31
0.0
  0
LINE
  5
485
330
1F
100
AcDbEntity
  8
4
 62
   130
100
AcDbLine
 10
6.625567476419037
 20
6.64786444868289
 30
0.0
 11
6.646107995429037
 21
6.627323929672887
 31
0.0
  0
LINE
  5
486
330
1F
100
AcDbEntity
  8
4
100
AcDbLine
 10
6.627304350437545
 20
6.651271282614604
 30
0.0
 11
6.649514829360751
 21
6.629060803691397
 31
0.0
  0
LINE
  5
487
330
1F
100
AcDbEntity
  8
4
100
AcDbLine
 10
6.609485774815821
 20
6.650452010512444
 30
0.0
 11
6.61765621791408
 21
6.519724920940305
 31
0.0
  0
LINE
  5
488
330
1F
100
AcDbEntity
  8
4
100
AcDbLine
 10
6.594384739291231
 20
6.659519447724034
 30
0.0
 11
6.604419039186816
 21
6.49897064939469
 31
0.0
  0
LINE
  5
489
330
1F
100
AcDbEntity
  8
4
100
AcDbLine
 10
6.756198981205809
 20
6.659519447724034
 30
0.0
 11
6.746164681310226
 21
6.49897064939469
 31
0.0
  0
LINE
  5
48A
330
1F
100
AcDbEntity
  8
4
100
AcDbLine
 10
6.74109794568122
 20
6.650452010512444
 30
0.0
 11
6.73292750258296
 21
6.519743133422443
 31
0.0
  0
LINE
  5
48B
330
1F
100
AcDbEntity
  8
4
 62
   130
100
AcDbLine
 10
6.634101552064407
 20
6.656398524328256
 30
0.0
 11
6.654642071074408
 21
6.635858005318259
 31
0.0
  0
LINE
  5
48C
330
1F
100
AcDbEntity
  8
4
100
AcDbLine
 10
6.630723451257004
 20
6.654690383434063
 30
0.0
 11
6.65293393018021
 21
6.632479904510857
 31
0.0
  0
LINE
  5
48D
330
1F
100
AcDbEntity
  8
4
100
AcDbLine
 10
7.02162925868602
 20
6.68615048351955
 30
0.0
 11
7.02162925868602
 21
6.468485849942628
 31
0.0
  0
LINE
  5
48E
330
1F
100
AcDbEntity
  8
4
100
AcDbLine
 10
7.02162925868602
 20
6.308919671192628
 30
0.0
 11
6.58462925868602
 21
6.30891666226955
 31
0.0
  0
LINE
  5
48F
330
1F
100
AcDbEntity
  8
4
100
AcDbLine
 10
7.02162925868602
 20
6.308919671192628
 30
0.0
 11
6.58462925868602
 21
6.30891666226955
 31
0.0
  0
LINE
  5
490
330
1F
100
AcDbEntity
  8
4
100
AcDbLine
 10
7.02162925868602
 20
6.276916662269549
 30
0.0
 11
6.58462925868602
 21
6.276913653346471
 31
0.0
  0
LINE
  5
491
330
1F
100
AcDbEntity
  8
4
 62
   130
100
AcDbLine
 10
6.634101552064407
 20
6.087598524328256
 30
0.0
 11
6.654642071074408
 21
6.067058005318259
 31
0.0
  0
LINE
  5
492
330
1F
100
AcDbEntity
  8
4
100
AcDbLine
 10
6.630723451257004
 20
6.085890383434063
 30
0.0
 11
6.65293393018021
 21
6.063679904510856
 31
0.0
  0
ARC
  5
493
330
1F
100
AcDbEntity
  8
4
 62
   130
100
AcDbCircle
 10
6.650375033251723
 20
6.062790967495575
 30
0.0
 40
0.00603450276
100
AcDbArc
 50
225.0000000000003
 51
45.00000000000031
  0
LINE
  5
494
330
1F
100
AcDbEntity
  8
4
100
AcDbLine
 10
6.649514829360751
 20
6.060260803691397
 30
0.0
 11
6.65293393018021
 21
6.063679904510856
 31
0.0
  0
LINE
  5
495
330
1F
100
AcDbEntity
  8
4
100
AcDbLine
 10
6.67529186024852
 20
6.10219984608926
 30
0.0
 11
6.628789464044924
 21
6.10219984608926
 31
0.0
  0
LINE
  5
496
330
1F
100
AcDbEntity
  8
4
100
AcDbLine
 10
6.67529186024852
 20
6.121541201089261
 30
0.0
 11
6.623340273134886
 21
6.121541201089261
 31
0.0
  0
ARC
  5
497
330
1F
100
AcDbEntity
  8
4
100
AcDbCircle
 10
6.623340273134886
 20
6.092529168589261
 30
0.0
 40
0.0290120325
100
AcDbArc
 50
90.0
 51
183.5763343749981
  0
ARC
  5
498
330
1F
100
AcDbEntity
  8
4
100
AcDbCircle
 10
6.628789464044924
 20
6.08285849108926
 30
0.0
 40
0.019341355
100
AcDbArc
 50
90.0
 51
183.5763343749981
  0
LINE
  5
499
330
1F
100
AcDbEntity
  8
4
 62
   130
100
AcDbLine
 10
6.625567476419037
 20
6.079064448682889
 30
0.0
 11
6.646107995429037
 21
6.058523929672887
 31
0.0
  0
LINE
  5
49A
330
1F
100
AcDbEntity
  8
4
100
AcDbLine
 10
6.627304350437545
 20
6.082471282614603
 30
0.0
 11
6.649514829360751
 21
6.060260803691397
 31
0.0
  0
LINE
  5
49B
330
1F
100
AcDbEntity
  8
4
100
AcDbLine
 10
6.609485774815821
 20
6.081652010512444
 30
0.0
 11
6.61765621791408
 21
5.950924920940305
 31
0.0
  0
ARC
  5
49C
330
1F
100
AcDbEntity
  8
4
 62
   130
100
AcDbCircle
 10
6.629834514241723
 20
6.083331486505572
 30
0.0
 40
0.00603450276
100
AcDbArc
 50
45.00000000000031
 51
225.0000000000003
  0
LINE
  5
49D
330
1F
100
AcDbEntity
  8
4
100
AcDbLine
 10
6.630723451257004
 20
6.085890383434063
 30
0.0
 11
6.627304350437545
 21
6.082471282614603
 31
0.0
  0
LINE
  5
49E
330
1F
100
AcDbEntity
  8
4
100
AcDbLine
 10
6.635865778889471
 20
6.080748055801599
 30
0.0
 11
6.632446678070011
 21
6.07732895498214
 31
0.0
  0
LINE
  5
49F
330
1F
100
AcDbEntity
  8
4
100
AcDbLine
 10
6.647791602547743
 20
6.068822232143324
 30
0.0
 11
6.644372501728285
 21
6.065403131323865
 31
0.0
  0
ARC
  5
4A0
330
1F
100
AcDbEntity
  8
4
100
AcDbCircle
 10
6.727243447362155
 20
6.092529168589261
 30
0.0
 40
0.0290120325
100
AcDbArc
 50
356.4236656250017
 51
90.0
  0
ARC
  5
4A1
330
1F
100
AcDbEntity
  8
4
100
AcDbCircle
 10
6.721794256452117
 20
6.08285849108926
 30
0.0
 40
0.019341355
100
AcDbArc
 50
356.4236656250017
 51
90.0
  0
CIRCLE
  5
4A2
330
1F
100
AcDbEntity
  8
4
100
AcDbCircle
 10
6.67529186024852
 20
6.008515157808011
 30
0.0
 40
0.01269276421875
  0
CIRCLE
  5
4A3
330
1F
100
AcDbEntity
  8
4
100
AcDbCircle
 10
6.67529186024852
 20
5.966234955778012
 30
0.0
 40
0.00421641539
  0
CIRCLE
  5
4A4
330
1F
100
AcDbEntity
  8
4
100
AcDbCircle
 10
6.67529186024852
 20
6.050795359838014
 30
0.0
 40
0.00421641539
  0
LINE
  5
4A5
330
1F
100
AcDbEntity
  8
4
100
AcDbLine
 10
6.74109794568122
 20
6.081652010512444
 30
0.0
 11
6.73292750258296
 21
5.950943133422443
 31
0.0
  0
LINE
  5
4A6
330
1F
100
AcDbEntity
  8
4
100
AcDbLine
 10
6.67529186024852
 20
6.10219984608926
 30
0.0
 11
6.721794256452117
 21
6.10219984608926
 31
0.0
  0
ARC
  5
4A7
330
1F
100
AcDbEntity
  8
4
100
AcDbCircle
 10
6.77381188727977
 20
6.481211550872719
 30
0.0
 40
0.27077897
100
AcDbArc
 50
261.4046615383198
 51
278.5953384616802
  0
ARC
  5
4A8
330
1F
100
AcDbEntity
  8
4
100
AcDbCircle
 10
6.77381188727977
 20
5.979545155560218
 30
0.0
 40
0.27077897
100
AcDbArc
 50
81.40466153831978
 51
98.59533846168023
  0
LINE
  5
4A9
330
1F
100
AcDbEntity
  8
4
100
AcDbLine
 10
6.67529186024852
 20
6.121541201089261
 30
0.0
 11
6.727243447362155
 21
6.121541201089261
 31
0.0
  0
ARC
  5
4AA
330
1F
100
AcDbEntity
  8
4
100
AcDbCircle
 10
6.81007692790477
 20
6.230378353216469
 30
0.0
 40
0.0785742546875
100
AcDbArc
 50
167.5762104955835
 51
192.4237895044164
  0
LINE
  5
4AB
330
1F
100
AcDbEntity
  8
4
100
AcDbLine
 10
6.737546846654771
 20
6.226896909316471
 30
0.0
 11
6.737546846654771
 21
6.233859797116469
 31
0.0
  0
LINE
  5
4AC
330
1F
100
AcDbEntity
  8
4
100
AcDbLine
 10
6.734065402754771
 20
6.230378353216469
 30
0.0
 11
6.741028290554771
 21
6.230378353216469
 31
0.0
  0
CIRCLE
  5
4AD
330
1F
100
AcDbEntity
  8
4
100
AcDbCircle
 10
6.737546846654771
 20
6.230378353216469
 30
0.0
 40
0.00263042428
  0
ARC
  5
4AE
330
1F
100
AcDbEntity
  8
4
100
AcDbCircle
 10
6.737546846654771
 20
6.230378353216469
 30
0.0
 40
0.0785742546875
100
AcDbArc
 50
347.5762104955836
 51
12.42378950441644
  0
LINE
  5
4AF
330
1F
100
AcDbEntity
  8
4
100
AcDbLine
 10
6.81007692790477
 20
6.226896909316471
 30
0.0
 11
6.81007692790477
 21
6.233859797116469
 31
0.0
  0
LINE
  5
4B0
330
1F
100
AcDbEntity
  8
4
100
AcDbLine
 10
6.80659548400477
 20
6.230378353216469
 30
0.0
 11
6.81355837180477
 21
6.230378353216469
 31
0.0
  0
CIRCLE
  5
4B1
330
1F
100
AcDbEntity
  8
4
100
AcDbCircle
 10
6.81007692790477
 20
6.230378353216469
 30
0.0
 40
0.00263042428
  0
ARC
  5
4B2
330
1F
100
AcDbEntity
  8
4
 62
   130
100
AcDbCircle
 10
6.650375033251723
 20
6.631590967495576
 30
0.0
 40
0.00603450276
100
AcDbArc
 50
225.0000000000003
 51
45.00000000000031
  0
LINE
  5
4B3
330
1F
100
AcDbEntity
  8
4
100
AcDbLine
 10
6.649514829360751
 20
6.629060803691397
 30
0.0
 11
6.65293393018021
 21
6.632479904510857
 31
0.0
  0
LINE
  5
4B4
330
1F
100
AcDbEntity
  8
4
100
AcDbLine
 10
6.67529186024852
 20
6.50160825899926
 30
0.0
 11
6.636959907143183
 21
6.501608258999264
 31
0.0
  0
LINE
  5
4B5
330
1F
100
AcDbEntity
  8
4
100
AcDbLine
 10
6.67529186024852
 20
6.475168626714261
 30
0.0
 11
6.629755131300012
 21
6.475168626714261
 31
0.0
  0
ARC
  5
4B6
330
1F
100
AcDbEntity
  8
4
100
AcDbCircle
 10
6.636959907143183
 20
6.520949613999264
 30
0.0
 40
0.019341355
100
AcDbArc
 50
183.5763343749981
 51
270.0
  0
ARC
  5
4B7
330
1F
100
AcDbEntity
  8
4
100
AcDbCircle
 10
6.629755131300012
 20
6.50055415515176
 30
0.0
 40
0.0253855284375
100
AcDbArc
 50
183.5763343749981
 51
270.0
  0
LINE
  5
4B8
330
1F
100
AcDbEntity
  8
4
100
AcDbLine
 10
6.647791602547743
 20
6.637622232143325
 30
0.0
 11
6.644372501728285
 21
6.634203131323865
 31
0.0
  0
CIRCLE
  5
4B9
330
1F
100
AcDbEntity
  8
4
100
AcDbCircle
 10
6.67529186024852
 20
6.577315157808011
 30
0.0
 40
0.01269276421875
  0
LINE
  5
4BA
330
1F
100
AcDbEntity
  8
4
100
AcDbLine
 10
6.67529186024852
 20
6.475168626714261
 30
0.0
 11
6.720828589197028
 21
6.475168626714261
 31
0.0
  0
LINE
  5
4BB
330
1F
100
AcDbEntity
  8
4
100
AcDbLine
 10
6.67529186024852
 20
6.50160825899926
 30
0.0
 11
6.713623813353857
 21
6.501608258999264
 31
0.0
  0
CIRCLE
  5
4BC
330
1F
100
AcDbEntity
  8
4
100
AcDbCircle
 10
6.67529186024852
 20
6.486048138901765
 30
0.0
 40
0.006959019529
  0
CIRCLE
  5
4BD
330
1F
100
AcDbEntity
  8
4
100
AcDbCircle
 10
6.67529186024852
 20
6.535034955778012
 30
0.0
 40
0.00421641539
  0
CIRCLE
  5
4BE
330
1F
100
AcDbEntity
  8
4
100
AcDbCircle
 10
6.67529186024852
 20
6.619595359838014
 30
0.0
 40
0.00421641539
  0
ARC
  5
4BF
330
1F
100
AcDbEntity
  8
4
100
AcDbCircle
 10
6.713623813353857
 20
6.520949613999264
 30
0.0
 40
0.019341355
100
AcDbArc
 50
270.0
 51
356.4236656250017
  0
ARC
  5
4C0
330
1F
100
AcDbEntity
  8
4
100
AcDbCircle
 10
6.720828589197028
 20
6.50055415515176
 30
0.0
 40
0.0253855284375
100
AcDbArc
 50
270.0
 51
356.4236656250017
  0
LINE
  5
4C1
330
1F
100
AcDbEntity
  8
4
  6
CENTER
100
AcDbLine
 10
7.005745759854708
 20
6.157846445550799
 30
0.0
 11
7.013563912153255
 21
6.157846445550799
 31
0.0
  0
LINE
  5
4C2
330
1F
100
AcDbEntity
  8
4
  6
CENTER
100
AcDbLine
 10
7.023780831810068
 20
6.157846445550799
 30
0.0
 11
7.032132051193468
 21
6.157846445550799
 31
0.0
  0
LINE
  5
4C3
330
1F
100
AcDbEntity
  8
4
100
AcDbLine
 10
7.01618950259227
 20
6.198342407582049
 30
0.0
 11
7.02162925868602
 21
6.198342407582049
 31
0.0
  0
LINE
  5
4C4
330
1F
100
AcDbEntity
  8
4
100
AcDbLine
 10
7.017561846242506
 20
6.157846445550799
 30
0.0
 11
7.019960590585053
 21
6.157846445550799
 31
0.0
  0
LINE
  5
4C5
330
1F
100
AcDbEntity
  8
4
100
AcDbLine
 10
7.02162925868602
 20
6.117350483519549
 30
0.0
 11
7.01618950259227
 21
6.117350483519549
 31
0.0
  0
LINE
  5
4C6
330
1F
100
AcDbEntity
  8
4
100
AcDbLine
 10
7.02162925868602
 20
6.198342407582049
 30
0.0
 11
7.02162925868602
 21
6.117350483519549
 31
0.0
  0
LINE
  5
4C7
330
1F
100
AcDbEntity
  8
4
100
AcDbLine
 10
7.01618950259227
 20
6.117350483519549
 30
0.0
 11
7.01618950259227
 21
6.198342407582049
 31
0.0
  0
LINE
  5
4C8
330
1F
100
AcDbEntity
  8
4
100
AcDbLine
 10
7.02162925868602
 20
6.198342407582049
 30
0.0
 11
7.02162925868602
 21
6.276916662269549
 31
0.0
  0
LINE
  5
4C9
330
1F
100
AcDbEntity
  8
4
100
AcDbLine
 10
7.01618950259227
 20
6.468485849942628
 30
0.0
 11
7.01618950259227
 21
6.387493925880128
 31
0.0
  0
LINE
  5
4CA
330
1F
100
AcDbEntity
  8
4
100
AcDbLine
 10
7.02162925868602
 20
6.387493925880128
 30
0.0
 11
7.02162925868602
 21
6.468485849942628
 31
0.0
  0
LINE
  5
4CB
330
1F
100
AcDbEntity
  8
4
  6
CENTER
100
AcDbLine
 10
7.005745759854708
 20
6.427989887911378
 30
0.0
 11
7.013563912153255
 21
6.427989887911378
 31
0.0
  0
LINE
  5
4CC
330
1F
100
AcDbEntity
  8
4
  6
CENTER
100
AcDbLine
 10
7.023780831810068
 20
6.427989887911378
 30
0.0
 11
7.032132051193468
 21
6.427989887911378
 31
0.0
  0
LINE
  5
4CD
330
1F
100
AcDbEntity
  8
4
100
AcDbLine
 10
7.01618950259227
 20
6.387493925880128
 30
0.0
 11
7.02162925868602
 21
6.387493925880128
 31
0.0
  0
LINE
  5
4CE
330
1F
100
AcDbEntity
  8
4
100
AcDbLine
 10
7.02162925868602
 20
6.387493925880128
 30
0.0
 11
7.02162925868602
 21
6.308919671192628
 31
0.0
  0
LINE
  5
4CF
330
1F
100
AcDbEntity
  8
4
100
AcDbLine
 10
7.017561846242506
 20
6.427989887911378
 30
0.0
 11
7.019960590585053
 21
6.427989887911378
 31
0.0
  0
LINE
  5
4D0
330
1F
100
AcDbEntity
  8
4
100
AcDbLine
 10
7.02162925868602
 20
6.468485849942628
 30
0.0
 11
7.01618950259227
 21
6.468485849942628
 31
0.0
  0
LINE
  5
4D1
330
1F
100
AcDbEntity
  8
4
100
AcDbLine
 10
7.02162925868602
 20
6.877719671192627
 30
0.0
 11
6.58462925868602
 21
6.877716662269549
 31
0.0
  0
LINE
  5
4D2
330
1F
100
AcDbEntity
  8
4
100
AcDbLine
 10
7.02162925868602
 20
6.877719671192627
 30
0.0
 11
6.58462925868602
 21
6.877716662269549
 31
0.0
  0
LINE
  5
4D3
330
1F
100
AcDbEntity
  8
4
100
AcDbLine
 10
7.02162925868602
 20
6.845716662269549
 30
0.0
 11
6.58462925868602
 21
6.845713653346471
 31
0.0
  0
LINE
  5
4D4
330
1F
100
AcDbEntity
  8
4
100
AcDbLine
 10
6.67529186024852
 20
6.690341201089261
 30
0.0
 11
6.623340273134886
 21
6.690341201089261
 31
0.0
  0
LINE
  5
4D5
330
1F
100
AcDbEntity
  8
4
100
AcDbLine
 10
6.67529186024852
 20
6.67099984608926
 30
0.0
 11
6.628789464044924
 21
6.67099984608926
 31
0.0
  0
ARC
  5
4D6
330
1F
100
AcDbEntity
  8
4
100
AcDbCircle
 10
6.628789464044924
 20
6.651658491089261
 30
0.0
 40
0.019341355
100
AcDbArc
 50
90.0
 51
183.5763343749981
  0
ARC
  5
4D7
330
1F
100
AcDbEntity
  8
4
 62
   130
100
AcDbCircle
 10
6.629834514241723
 20
6.652131486505573
 30
0.0
 40
0.00603450276
100
AcDbArc
 50
45.00000000000031
 51
225.0000000000003
  0
ARC
  5
4D8
330
1F
100
AcDbEntity
  8
4
100
AcDbCircle
 10
6.623340273134886
 20
6.661329168589261
 30
0.0
 40
0.0290120325
100
AcDbArc
 50
90.0
 51
183.5763343749981
  0
LINE
  5
4D9
330
1F
100
AcDbEntity
  8
4
100
AcDbLine
 10
6.630723451257004
 20
6.654690383434063
 30
0.0
 11
6.627304350437545
 21
6.651271282614604
 31
0.0
  0
LINE
  5
4DA
330
1F
100
AcDbEntity
  8
4
100
AcDbLine
 10
6.635865778889471
 20
6.6495480558016
 30
0.0
 11
6.632446678070011
 21
6.64612895498214
 31
0.0
  0
ARC
  5
4DB
330
1F
100
AcDbEntity
  8
4
100
AcDbCircle
 10
6.81007692790477
 20
6.799178353216469
 30
0.0
 40
0.0785742546875
100
AcDbArc
 50
167.5762104955835
 51
192.4237895044164
  0
ARC
  5
4DC
330
1F
100
AcDbEntity
  8
4
100
AcDbCircle
 10
6.737546846654771
 20
6.799178353216469
 30
0.0
 40
0.0785742546875
100
AcDbArc
 50
347.5762104955836
 51
12.42378950441644
  0
ARC
  5
4DD
330
1F
100
AcDbEntity
  8
4
100
AcDbCircle
 10
6.77381188727977
 20
7.050011550872719
 30
0.0
 40
0.27077897
100
AcDbArc
 50
261.4046615383198
 51
278.5953384616802
  0
LINE
  5
4DE
330
1F
100
AcDbEntity
  8
4
100
AcDbLine
 10
6.67529186024852
 20
6.67099984608926
 30
0.0
 11
6.721794256452117
 21
6.67099984608926
 31
0.0
  0
LINE
  5
4DF
330
1F
100
AcDbEntity
  8
4
100
AcDbLine
 10
6.67529186024852
 20
6.690341201089261
 30
0.0
 11
6.727243447362155
 21
6.690341201089261
 31
0.0
  0
ARC
  5
4E0
330
1F
100
AcDbEntity
  8
4
100
AcDbCircle
 10
6.727243447362155
 20
6.661329168589261
 30
0.0
 40
0.0290120325
100
AcDbArc
 50
356.4236656250017
 51
90.0
  0
LINE
  5
4E1
330
1F
100
AcDbEntity
  8
4
100
AcDbLine
 10
6.737546846654771
 20
6.795696909316472
 30
0.0
 11
6.737546846654771
 21
6.802659797116469
 31
0.0
  0
LINE
  5
4E2
330
1F
100
AcDbEntity
  8
4
100
AcDbLine
 10
6.734065402754771
 20
6.799178353216469
 30
0.0
 11
6.741028290554771
 21
6.799178353216469
 31
0.0
  0
CIRCLE
  5
4E3
330
1F
100
AcDbEntity
  8
4
100
AcDbCircle
 10
6.737546846654771
 20
6.799178353216469
 30
0.0
 40
0.00263042428
  0
ARC
  5
4E4
330
1F
100
AcDbEntity
  8
4
100
AcDbCircle
 10
6.721794256452117
 20
6.651658491089261
 30
0.0
 40
0.019341355
100
AcDbArc
 50
356.4236656250017
 51
90.0
  0
LINE
  5
4E5
330
1F
100
AcDbEntity
  8
4
100
AcDbLine
 10
6.81007692790477
 20
6.795696909316472
 30
0.0
 11
6.81007692790477
 21
6.802659797116469
 31
0.0
  0
LINE
  5
4E6
330
1F
100
AcDbEntity
  8
4
100
AcDbLine
 10
6.80659548400477
 20
6.799178353216469
 30
0.0
 11
6.81355837180477
 21
6.799178353216469
 31
0.0
  0
CIRCLE
  5
4E7
330
1F
100
AcDbEntity
  8
4
100
AcDbCircle
 10
6.81007692790477
 20
6.799178353216469
 30
0.0
 40
0.00263042428
  0
ARC
  5
4E8
330
1F
100
AcDbEntity
  8
4
100
AcDbCircle
 10
6.77381188727977
 20
6.548345155560219
 30
0.0
 40
0.27077897
100
AcDbArc
 50
81.40466153831978
 51
98.59533846168023
  0
LINE
  5
4E9
330
1F
100
AcDbEntity
  8
4
100
AcDbLine
 10
6.67529186024852
 20
7.070408258999259
 30
0.0
 11
6.636959907143183
 21
7.070408258999264
 31
0.0
  0
LINE
  5
4EA
330
1F
100
AcDbEntity
  8
4
100
AcDbLine
 10
6.67529186024852
 20
7.043968626714261
 30
0.0
 11
6.629755131300012
 21
7.043968626714261
 31
0.0
  0
LINE
  5
4EB
330
1F
100
AcDbEntity
  8
4
100
AcDbLine
 10
6.649514829360751
 20
7.197860803691397
 30
0.0
 11
6.65293393018021
 21
7.201279904510856
 31
0.0
  0
LINE
  5
4EC
330
1F
100
AcDbEntity
  8
4
100
AcDbLine
 10
6.67529186024852
 20
7.259141201089261
 30
0.0
 11
6.623340273134886
 21
7.259141201089261
 31
0.0
  0
LINE
  5
4ED
330
1F
100
AcDbEntity
  8
4
 62
   130
100
AcDbLine
 10
6.634101552064407
 20
7.225198524328256
 30
0.0
 11
6.654642071074408
 21
7.204658005318258
 31
0.0
  0
LINE
  5
4EE
330
1F
100
AcDbEntity
  8
4
100
AcDbLine
 10
6.630723451257004
 20
7.223490383434063
 30
0.0
 11
6.65293393018021
 21
7.201279904510856
 31
0.0
  0
LINE
  5
4EF
330
1F
100
AcDbEntity
  8
4
100
AcDbLine
 10
6.67529186024852
 20
7.23979984608926
 30
0.0
 11
6.628789464044924
 21
7.23979984608926
 31
0.0
  0
ARC
  5
4F0
330
1F
100
AcDbEntity
  8
4
 62
   130
100
AcDbCircle
 10
6.650375033251723
 20
7.200390967495575
 30
0.0
 40
0.00603450276
100
AcDbArc
 50
225.0000000000003
 51
45.00000000000031
  0
LINE
  5
4F1
330
1F
100
AcDbEntity
  8
4
100
AcDbLine
 10
6.609485774815821
 20
7.219252010512444
 30
0.0
 11
6.61765621791408
 21
7.088524920940304
 31
0.0
  0
LINE
  5
4F2
330
1F
100
AcDbEntity
  8
4
100
AcDbLine
 10
6.594384739291231
 20
7.228319447724033
 30
0.0
 11
6.604419039186816
 21
7.06777064939469
 31
0.0
  0
ARC
  5
4F3
330
1F
100
AcDbEntity
  8
4
100
AcDbCircle
 10
6.629755131300012
 20
7.06935415515176
 30
0.0
 40
0.0253855284375
100
AcDbArc
 50
183.5763343749981
 51
270.0
  0
ARC
  5
4F4
330
1F
100
AcDbEntity
  8
4
100
AcDbCircle
 10
6.636959907143183
 20
7.089749613999264
 30
0.0
 40
0.019341355
100
AcDbArc
 50
183.5763343749981
 51
270.0
  0
LINE
  5
4F5
330
1F
100
AcDbEntity
  8
4
100
AcDbLine
 10
6.647791602547743
 20
7.206422232143324
 30
0.0
 11
6.644372501728285
 21
7.203003131323865
 31
0.0
  0
LINE
  5
4F6
330
1F
100
AcDbEntity
  8
4
 62
   130
100
AcDbLine
 10
6.625567476419037
 20
7.216664448682889
 30
0.0
 11
6.646107995429037
 21
7.196123929672887
 31
0.0
  0
LINE
  5
4F7
330
1F
100
AcDbEntity
  8
4
100
AcDbLine
 10
6.627304350437545
 20
7.220071282614603
 30
0.0
 11
6.649514829360751
 21
7.197860803691397
 31
0.0
  0
ARC
  5
4F8
330
1F
100
AcDbEntity
  8
4
100
AcDbCircle
 10
6.628789464044924
 20
7.22045849108926
 30
0.0
 40
0.019341355
100
AcDbArc
 50
90.0
 51
183.5763343749981
  0
ARC
  5
4F9
330
1F
100
AcDbEntity
  8
4
 62
   130
100
AcDbCircle
 10
6.629834514241723
 20
7.220931486505572
 30
0.0
 40
0.00603450276
100
AcDbArc
 50
45.00000000000031
 51
225.0000000000003
  0
ARC
  5
4FA
330
1F
100
AcDbEntity
  8
4
100
AcDbCircle
 10
6.623340273134886
 20
7.230129168589261
 30
0.0
 40
0.0290120325
100
AcDbArc
 50
90.0
 51
183.5763343749981
  0
LINE
  5
4FB
330
1F
100
AcDbEntity
  8
4
100
AcDbLine
 10
6.630723451257004
 20
7.223490383434063
 30
0.0
 11
6.627304350437545
 21
7.220071282614603
 31
0.0
  0
LINE
  5
4FC
330
1F
100
AcDbEntity
  8
4
100
AcDbLine
 10
6.635865778889471
 20
7.218348055801599
 30
0.0
 11
6.632446678070011
 21
7.21492895498214
 31
0.0
  0
LINE
  5
4FD
330
1F
100
AcDbEntity
  8
4
100
AcDbLine
 10
6.756198981205809
 20
7.228319447724033
 30
0.0
 11
6.746164681310226
 21
7.06777064939469
 31
0.0
  0
LINE
  5
4FE
330
1F
100
AcDbEntity
  8
4
100
AcDbLine
 10
6.74109794568122
 20
7.219252010512444
 30
0.0
 11
6.73292750258296
 21
7.088543133422443
 31
0.0
  0
CIRCLE
  5
4FF
330
1F
100
AcDbEntity
  8
4
100
AcDbCircle
 10
6.67529186024852
 20
7.146115157808011
 30
0.0
 40
0.01269276421875
  0
LINE
  5
500
330
1F
100
AcDbEntity
  8
4
100
AcDbLine
 10
6.67529186024852
 20
7.043968626714261
 30
0.0
 11
6.720828589197028
 21
7.043968626714261
 31
0.0
  0
LINE
  5
501
330
1F
100
AcDbEntity
  8
4
100
AcDbLine
 10
6.67529186024852
 20
7.070408258999259
 30
0.0
 11
6.713623813353857
 21
7.070408258999264
 31
0.0
  0
CIRCLE
  5
502
330
1F
100
AcDbEntity
  8
4
100
AcDbCircle
 10
6.67529186024852
 20
7.054848138901765
 30
0.0
 40
0.006959019529
  0
CIRCLE
  5
503
330
1F
100
AcDbEntity
  8
4
100
AcDbCircle
 10
6.67529186024852
 20
7.103834955778012
 30
0.0
 40
0.00421641539
  0
ARC
  5
504
330
1F
100
AcDbEntity
  8
4
100
AcDbCircle
 10
6.713623813353857
 20
7.089749613999264
 30
0.0
 40
0.019341355
100
AcDbArc
 50
270.0
 51
356.4236656250017
  0
ARC
  5
505
330
1F
100
AcDbEntity
  8
4
100
AcDbCircle
 10
6.720828589197028
 20
7.06935415515176
 30
0.0
 40
0.0253855284375
100
AcDbArc
 50
270.0
 51
356.4236656250017
  0
LINE
  5
506
330
1F
100
AcDbEntity
  8
4
100
AcDbLine
 10
6.67529186024852
 20
7.23979984608926
 30
0.0
 11
6.721794256452117
 21
7.23979984608926
 31
0.0
  0
LINE
  5
507
330
1F
100
AcDbEntity
  8
4
100
AcDbLine
 10
6.67529186024852
 20
7.259141201089261
 30
0.0
 11
6.727243447362155
 21
7.259141201089261
 31
0.0
  0
CIRCLE
  5
508
330
1F
100
AcDbEntity
  8
4
100
AcDbCircle
 10
6.67529186024852
 20
7.188395359838014
 30
0.0
 40
0.00421641539
  0
ARC
  5
509
330
1F
100
AcDbEntity
  8
4
100
AcDbCircle
 10
6.727243447362155
 20
7.230129168589261
 30
0.0
 40
0.0290120325
100
AcDbArc
 50
356.4236656250017
 51
90.0
  0
ARC
  5
50A
330
1F
100
AcDbEntity
  8
4
100
AcDbCircle
 10
6.721794256452117
 20
7.22045849108926
 30
0.0
 40
0.019341355
100
AcDbArc
 50
356.4236656250017
 51
90.0
  0
LINE
  5
50B
330
1F
100
AcDbEntity
  8
4
100
AcDbLine
 10
7.01618950259227
 20
7.037285849942628
 30
0.0
 11
7.01618950259227
 21
6.956293925880127
 31
0.0
  0
LINE
  5
50C
330
1F
100
AcDbEntity
  8
4
100
AcDbLine
 10
7.02162925868602
 20
6.956293925880127
 30
0.0
 11
7.02162925868602
 21
7.037285849942628
 31
0.0
  0
LINE
  5
50D
330
1F
100
AcDbEntity
  8
4
100
AcDbLine
 10
7.02162925868602
 20
6.767142407582049
 30
0.0
 11
7.02162925868602
 21
6.845716662269549
 31
0.0
  0
LINE
  5
50E
330
1F
100
AcDbEntity
  8
4
  6
CENTER
100
AcDbLine
 10
7.005745759854708
 20
6.726646445550799
 30
0.0
 11
7.013563912153255
 21
6.726646445550799
 31
0.0
  0
LINE
  5
50F
330
1F
100
AcDbEntity
  8
4
  6
CENTER
100
AcDbLine
 10
7.023780831810068
 20
6.726646445550799
 30
0.0
 11
7.032132051193468
 21
6.726646445550799
 31
0.0
  0
LINE
  5
510
330
1F
100
AcDbEntity
  8
4
100
AcDbLine
 10
7.01618950259227
 20
6.767142407582049
 30
0.0
 11
7.02162925868602
 21
6.767142407582049
 31
0.0
  0
LINE
  5
511
330
1F
100
AcDbEntity
  8
4
100
AcDbLine
 10
7.017561846242506
 20
6.726646445550799
 30
0.0
 11
7.019960590585053
 21
6.726646445550799
 31
0.0
  0
LINE
  5
512
330
1F
100
AcDbEntity
  8
4
100
AcDbLine
 10
7.02162925868602
 20
6.68615048351955
 30
0.0
 11
7.01618950259227
 21
6.68615048351955
 31
0.0
  0
LINE
  5
513
330
1F
100
AcDbEntity
  8
4
100
AcDbLine
 10
7.02162925868602
 20
6.767142407582049
 30
0.0
 11
7.02162925868602
 21
6.68615048351955
 31
0.0
  0
LINE
  5
514
330
1F
100
AcDbEntity
  8
4
100
AcDbLine
 10
7.01618950259227
 20
6.68615048351955
 30
0.0
 11
7.01618950259227
 21
6.767142407582049
 31
0.0
  0
LINE
  5
515
330
1F
100
AcDbEntity
  8
4
100
AcDbLine
 10
7.01618950259227
 20
6.956293925880127
 30
0.0
 11
7.02162925868602
 21
6.956293925880127
 31
0.0
  0
LINE
  5
516
330
1F
100
AcDbEntity
  8
4
100
AcDbLine
 10
7.02162925868602
 20
6.956293925880127
 30
0.0
 11
7.02162925868602
 21
6.877719671192627
 31
0.0
  0
LINE
  5
517
330
1F
100
AcDbEntity
  8
4
100
AcDbLine
 10
7.02162925868602
 20
7.254950483519549
 30
0.0
 11
7.02162925868602
 21
7.037285849942628
 31
0.0
  0
LINE
  5
518
330
1F
100
AcDbEntity
  8
4
  6
CENTER
100
AcDbLine
 10
7.005745759854708
 20
6.996789887911377
 30
0.0
 11
7.013563912153255
 21
6.996789887911377
 31
0.0
  0
LINE
  5
519
330
1F
100
AcDbEntity
  8
4
  6
CENTER
100
AcDbLine
 10
7.023780831810068
 20
6.996789887911377
 30
0.0
 11
7.032132051193468
 21
6.996789887911377
 31
0.0
  0
LINE
  5
51A
330
1F
100
AcDbEntity
  8
4
100
AcDbLine
 10
7.017561846242506
 20
6.996789887911377
 30
0.0
 11
7.019960590585053
 21
6.996789887911377
 31
0.0
  0
LINE
  5
51B
330
1F
100
AcDbEntity
  8
4
100
AcDbLine
 10
7.02162925868602
 20
7.037285849942628
 30
0.0
 11
7.01618950259227
 21
7.037285849942628
 31
0.0
  0
LINE
  5
51C
330
1F
100
AcDbEntity
  8
4
100
AcDbLine
 10
7.02162925868602
 20
7.335942407582049
 30
0.0
 11
7.02162925868602
 21
7.254950483519549
 31
0.0
  0
LINE
  5
51D
330
1F
100
AcDbEntity
  8
4
100
AcDbLine
 10
7.01618950259227
 20
7.254950483519549
 30
0.0
 11
7.01618950259227
 21
7.335942407582049
 31
0.0
  0
LINE
  5
51E
330
1F
100
AcDbEntity
  8
4
  6
CENTER
100
AcDbLine
 10
7.005745759854708
 20
7.295446445550799
 30
0.0
 11
7.013563912153255
 21
7.295446445550799
 31
0.0
  0
LINE
  5
51F
330
1F
100
AcDbEntity
  8
4
  6
CENTER
100
AcDbLine
 10
7.023780831810068
 20
7.295446445550799
 30
0.0
 11
7.032132051193468
 21
7.295446445550799
 31
0.0
  0
LINE
  5
520
330
1F
100
AcDbEntity
  8
4
100
AcDbLine
 10
7.017561846242506
 20
7.295446445550799
 30
0.0
 11
7.019960590585053
 21
7.295446445550799
 31
0.0
  0
LINE
  5
521
330
1F
100
AcDbEntity
  8
4
100
AcDbLine
 10
7.02162925868602
 20
7.254950483519549
 30
0.0
 11
7.01618950259227
 21
7.254950483519549
 31
0.0
  0
LINE
  5
522
330
1F
100
AcDbEntity
  8
4
100
AcDbLine
 10
7.01618950259227
 20
7.335942407582049
 30
0.0
 11
7.02162925868602
 21
7.335942407582049
 31
0.0
  0
LINE
  5
523
330
1F
100
AcDbEntity
  8
4
100
AcDbLine
 10
7.02162925868602
 20
7.414516662269549
 30
0.0
 11
6.58462925868602
 21
7.414513653346471
 31
0.0
  0
ARC
  5
524
330
1F
100
AcDbEntity
  8
4
100
AcDbCircle
 10
6.77381188727977
 20
7.618811550872718
 30
0.0
 40
0.27077897
100
AcDbArc
 50
261.4046615383198
 51
278.5953384616802
  0
ARC
  5
525
330
1F
100
AcDbEntity
  8
4
100
AcDbCircle
 10
6.77381188727977
 20
7.117145155560218
 30
0.0
 40
0.27077897
100
AcDbArc
 50
81.40466153831978
 51
98.59533846168023
  0
ARC
  5
526
330
1F
100
AcDbEntity
  8
4
100
AcDbCircle
 10
6.81007692790477
 20
7.367978353216469
 30
0.0
 40
0.0785742546875
100
AcDbArc
 50
167.5762104955835
 51
192.4237895044164
  0
LINE
  5
527
330
1F
100
AcDbEntity
  8
4
100
AcDbLine
 10
6.737546846654771
 20
7.364496909316471
 30
0.0
 11
6.737546846654771
 21
7.371459797116469
 31
0.0
  0
LINE
  5
528
330
1F
100
AcDbEntity
  8
4
100
AcDbLine
 10
6.734065402754771
 20
7.367978353216469
 30
0.0
 11
6.741028290554771
 21
7.367978353216469
 31
0.0
  0
CIRCLE
  5
529
330
1F
100
AcDbEntity
  8
4
100
AcDbCircle
 10
6.737546846654771
 20
7.367978353216469
 30
0.0
 40
0.00263042428
  0
ARC
  5
52A
330
1F
100
AcDbEntity
  8
4
100
AcDbCircle
 10
6.737546846654771
 20
7.367978353216469
 30
0.0
 40
0.0785742546875
100
AcDbArc
 50
347.5762104955836
 51
12.42378950441644
  0
LINE
  5
52B
330
1F
100
AcDbEntity
  8
4
100
AcDbLine
 10
6.81007692790477
 20
7.364496909316471
 30
0.0
 11
6.81007692790477
 21
7.371459797116469
 31
0.0
  0
LINE
  5
52C
330
1F
100
AcDbEntity
  8
4
100
AcDbLine
 10
6.80659548400477
 20
7.367978353216469
 30
0.0
 11
6.81355837180477
 21
7.367978353216469
 31
0.0
  0
CIRCLE
  5
52D
330
1F
100
AcDbEntity
  8
4
100
AcDbCircle
 10
6.81007692790477
 20
7.367978353216469
 30
0.0
 40
0.00263042428
  0
LINE
  5
52E
330
1F
100
AcDbEntity
  8
4
100
AcDbLine
 10
8.11562925868602
 20
6.262913653346473
 30
0.0
 11
8.303629258686019
 21
6.262913653346473
 31
0.0
  0
LINE
  5
52F
330
1F
100
AcDbEntity
  8
4
100
AcDbLine
 10
8.11562925868602
 20
6.324913653346472
 30
0.0
 11
8.303629258686019
 21
6.324913653346472
 31
0.0
  0
LINE
  5
530
330
1F
100
AcDbEntity
  8
4
100
AcDbLine
 10
8.11562925868602
 20
6.893713653346472
 30
0.0
 11
8.303629258686019
 21
6.893713653346472
 31
0.0
  0
LINE
  5
531
330
1F
100
AcDbEntity
  8
4
100
AcDbLine
 10
8.11562925868602
 20
6.831713653346472
 30
0.0
 11
8.303629258686019
 21
6.831713653346472
 31
0.0
  0
LINE
  5
532
330
1F
100
AcDbEntity
  8
4
100
AcDbLine
 10
7.80262925868602
 20
6.262913653346473
 30
0.0
 11
7.99062925868602
 21
6.262913653346473
 31
0.0
  0
LINE
  5
533
330
1F
100
AcDbEntity
  8
4
100
AcDbLine
 10
7.80262925868602
 20
6.324913653346472
 30
0.0
 11
7.99062925868602
 21
6.324913653346472
 31
0.0
  0
LINE
  5
534
330
1F
100
AcDbEntity
  8
4
100
AcDbLine
 10
7.80262925868602
 20
6.893713653346472
 30
0.0
 11
7.99062925868602
 21
6.893713653346472
 31
0.0
  0
LINE
  5
535
330
1F
100
AcDbEntity
  8
4
100
AcDbLine
 10
7.80262925868602
 20
6.831713653346472
 30
0.0
 11
7.99062925868602
 21
6.831713653346472
 31
0.0
  0
LINE
  5
536
330
1F
100
AcDbEntity
  8
4
100
AcDbLine
 10
8.427629258686021
 20
6.262913653346473
 30
0.0
 11
8.928629258686019
 21
6.262913653346473
 31
0.0
  0
LINE
  5
537
330
1F
100
AcDbEntity
  8
4
100
AcDbLine
 10
8.427629258686021
 20
6.324913653346472
 30
0.0
 11
8.928629258686019
 21
6.324913653346472
 31
0.0
  0
LINE
  5
538
330
1F
100
AcDbEntity
  8
4
100
AcDbLine
 10
8.427629258686021
 20
6.893713653346472
 30
0.0
 11
8.928629258686019
 21
6.893713653346472
 31
0.0
  0
LINE
  5
539
330
1F
100
AcDbEntity
  8
4
100
AcDbLine
 10
8.427629258686021
 20
6.831713653346472
 30
0.0
 11
8.928629258686019
 21
6.831713653346472
 31
0.0
  0
LINE
  5
53A
330
1F
100
AcDbEntity
  8
4
100
AcDbLine
 10
10.55612925868602
 20
6.276913653346471
 30
0.0
 11
10.55612925868602
 21
5.740113653346472
 31
0.0
  0
LINE
  5
53B
330
1F
100
AcDbEntity
  8
4
100
AcDbLine
 10
11.86612925868602
 20
6.276913653346471
 30
0.0
 11
11.86612925868602
 21
5.740113653346472
 31
0.0
  0
LINE
  5
53C
330
1F
100
AcDbEntity
  8
4
100
AcDbLine
 10
13.15012925868602
 20
6.276913653346471
 30
0.0
 11
13.15012925868602
 21
5.740113653346472
 31
0.0
  0
LINE
  5
53D
330
1F
100
AcDbEntity
  8
4
100
AcDbLine
 10
12.54512925868602
 20
5.187313653346471
 30
0.0
 11
13.08812925868602
 21
5.187313653346471
 31
0.0
  0
LINE
  5
53E
330
1F
100
AcDbEntity
  8
4
100
AcDbLine
 10
12.54512925868602
 20
5.756113653346472
 30
0.0
 11
13.08812925868602
 21
5.756113653346472
 31
0.0
  0
LINE
  5
53F
330
1F
100
AcDbEntity
  8
4
100
AcDbLine
 10
11.16112925868602
 20
5.187313653346471
 30
0.0
 11
10.61812925868602
 21
5.187313653346471
 31
0.0
  0
LINE
  5
540
330
1F
100
AcDbEntity
  8
4
100
AcDbLine
 10
11.16112925868602
 20
5.756113653346472
 30
0.0
 11
10.61812925868602
 21
5.756113653346472
 31
0.0
  0
MTEXT
  5
541
330
1F
100
AcDbEntity
  8
8
100
AcDbMText
 10
9.957942861751043
 20
5.346583170043958
 30
0.0
 40
0.1
 41
0.1869
 71
     5
 72
     5
  1
72
 11
0.0000000000000001
 21
1.0
 31
0.0
 73
     1
 44
1.0
1001
ACAD
1000
MTEXTBEGIN
1070
    73
1070
     1
1070
    44
1040
1.0
1070
    74
1070
     0
1000
MTEXTEND
  0
LINE
  5
542
330
1F
100
AcDbEntity
  8
4
100
AcDbLine
 10
10.55612925868602
 20
5.708113653346472
 30
0.0
 11
10.55612925868602
 21
5.171313653346471
 31
0.0
  0
LINE
  5
543
330
1F
100
AcDbEntity
  8
4
100
AcDbLine
 10
10.61812925868602
 20
5.125313653346471
 30
0.0
 11
10.64912925868602
 21
5.156313653346471
 31
0.0
  0
LINE
  5
544
330
1F
100
AcDbEntity
  8
4
100
AcDbLine
 10
10.55612925868602
 20
5.139313653346471
 30
0.0
 11
10.55612925868602
 21
4.602513653346471
 31
0.0
  0
LINE
  5
545
330
1F
100
AcDbEntity
  8
4
100
AcDbLine
 10
10.55612925868602
 20
4.602513653346471
 30
0.0
 11
10.61812925868602
 21
4.602513653346471
 31
0.0
  0
LINE
  5
546
330
1F
100
AcDbEntity
  8
4
100
AcDbLine
 10
10.61812925868602
 20
5.187313653346471
 30
0.0
 11
10.61812925868602
 21
5.125313653346471
 31
0.0
  0
LINE
  5
547
330
1F
100
AcDbEntity
  8
4
100
AcDbLine
 10
10.55612925868602
 20
5.171313653346471
 30
0.0
 11
10.61812925868602
 21
5.171313653346471
 31
0.0
  0
LINE
  5
548
330
1F
100
AcDbEntity
  8
4
100
AcDbLine
 10
10.55612925868602
 20
5.139313653346471
 30
0.0
 11
10.61812925868602
 21
5.139313653346471
 31
0.0
  0
LINE
  5
549
330
1F
100
AcDbEntity
  8
4
100
AcDbLine
 10
10.61812925868602
 20
5.694113653346471
 30
0.0
 11
10.64912925868602
 21
5.725113653346472
 31
0.0
  0
LINE
  5
54A
330
1F
100
AcDbEntity
  8
4
100
AcDbLine
 10
10.61812925868602
 20
5.756113653346472
 30
0.0
 11
10.61812925868602
 21
5.694113653346471
 31
0.0
  0
LINE
  5
54B
330
1F
100
AcDbEntity
  8
4
100
AcDbLine
 10
10.55612925868602
 20
5.708113653346472
 30
0.0
 11
10.61812925868602
 21
5.708113653346472
 31
0.0
  0
LINE
  5
54C
330
1F
100
AcDbEntity
  8
4
100
AcDbLine
 10
10.55612925868602
 20
5.740113653346472
 30
0.0
 11
10.61812925868602
 21
5.740113653346472
 31
0.0
  0
LINE
  5
54D
330
1F
100
AcDbEntity
  8
4
100
AcDbLine
 10
12.47112925868602
 20
5.187313653346471
 30
0.0
 11
11.92812925868602
 21
5.187313653346471
 31
0.0
  0
LINE
  5
54E
330
1F
100
AcDbEntity
  8
4
100
AcDbLine
 10
12.47112925868602
 20
5.756113653346472
 30
0.0
 11
11.92812925868602
 21
5.756113653346472
 31
0.0
  0
LINE
  5
54F
330
1F
100
AcDbEntity
  8
4
100
AcDbLine
 10
11.86612925868602
 20
5.708113653346472
 30
0.0
 11
11.86612925868602
 21
5.171313653346471
 31
0.0
  0
LINE
  5
550
330
1F
100
AcDbEntity
  8
4
100
AcDbLine
 10
11.16112925868602
 20
5.125313653346471
 30
0.0
 11
11.16112925868602
 21
5.187313653346471
 31
0.0
  0
LINE
  5
551
330
1F
100
AcDbEntity
  8
4
100
AcDbLine
 10
11.86612925868602
 20
5.139313653346471
 30
0.0
 11
11.86612925868602
 21
4.602513653346471
 31
0.0
  0
LINE
  5
552
330
1F
100
AcDbEntity
  8
4
100
AcDbLine
 10
11.86612925868602
 20
4.602513653346471
 30
0.0
 11
11.92812925868602
 21
4.602513653346471
 31
0.0
  0
LINE
  5
553
330
1F
100
AcDbEntity
  8
4
100
AcDbLine
 10
11.86612925868602
 20
5.171313653346471
 30
0.0
 11
11.92812925868602
 21
5.171313653346471
 31
0.0
  0
LINE
  5
554
330
1F
100
AcDbEntity
  8
4
100
AcDbLine
 10
11.86612925868602
 20
5.139313653346471
 30
0.0
 11
11.92812925868602
 21
5.139313653346471
 31
0.0
  0
LINE
  5
555
330
1F
100
AcDbEntity
  8
4
100
AcDbLine
 10
11.92812925868602
 20
5.125313653346471
 30
0.0
 11
11.95912925868602
 21
5.156313653346471
 31
0.0
  0
LINE
  5
556
330
1F
100
AcDbEntity
  8
4
100
AcDbLine
 10
11.92812925868602
 20
5.187313653346471
 30
0.0
 11
11.92812925868602
 21
5.125313653346471
 31
0.0
  0
LINE
  5
557
330
1F
100
AcDbEntity
  8
4
100
AcDbLine
 10
11.16112925868602
 20
5.694113653346471
 30
0.0
 11
11.16112925868602
 21
5.756113653346472
 31
0.0
  0
LINE
  5
558
330
1F
100
AcDbEntity
  8
4
100
AcDbLine
 10
11.86612925868602
 20
5.708113653346472
 30
0.0
 11
11.92812925868602
 21
5.708113653346472
 31
0.0
  0
LINE
  5
559
330
1F
100
AcDbEntity
  8
4
100
AcDbLine
 10
11.86612925868602
 20
5.740113653346472
 30
0.0
 11
11.92812925868602
 21
5.740113653346472
 31
0.0
  0
LINE
  5
55A
330
1F
100
AcDbEntity
  8
4
100
AcDbLine
 10
11.92812925868602
 20
5.694113653346471
 30
0.0
 11
11.95912925868602
 21
5.725113653346472
 31
0.0
  0
LINE
  5
55B
330
1F
100
AcDbEntity
  8
4
100
AcDbLine
 10
11.92812925868602
 20
5.756113653346472
 30
0.0
 11
11.92812925868602
 21
5.694113653346471
 31
0.0
  0
LINE
  5
55C
330
1F
100
AcDbEntity
  8
4
100
AcDbLine
 10
12.47112925868602
 20
5.125313653346471
 30
0.0
 11
12.47112925868602
 21
5.187313653346471
 31
0.0
  0
LINE
  5
55D
330
1F
100
AcDbEntity
  8
4
100
AcDbLine
 10
12.54512925868602
 20
5.125313653346471
 30
0.0
 11
12.54512925868602
 21
5.187313653346471
 31
0.0
  0
LINE
  5
55E
330
1F
100
AcDbEntity
  8
4
100
AcDbLine
 10
12.54512925868602
 20
5.694113653346471
 30
0.0
 11
12.54512925868602
 21
5.756113653346472
 31
0.0
  0
LINE
  5
55F
330
1F
100
AcDbEntity
  8
4
100
AcDbLine
 10
12.47112925868602
 20
5.694113653346471
 30
0.0
 11
12.47112925868602
 21
5.756113653346472
 31
0.0
  0
LINE
  5
560
330
1F
100
AcDbEntity
  8
4
100
AcDbLine
 10
13.15012925868602
 20
5.708113653346472
 30
0.0
 11
13.15012925868602
 21
5.171313653346471
 31
0.0
  0
LINE
  5
561
330
1F
100
AcDbEntity
  8
4
100
AcDbLine
 10
13.15012925868602
 20
5.139313653346471
 30
0.0
 11
13.15012925868602
 21
4.602513653346471
 31
0.0
  0
LINE
  5
562
330
1F
100
AcDbEntity
  8
4
100
AcDbLine
 10
13.15012925868602
 20
4.602513653346471
 30
0.0
 11
13.08812925868602
 21
4.602513653346471
 31
0.0
  0
LINE
  5
563
330
1F
100
AcDbEntity
  8
4
100
AcDbLine
 10
13.08812925868602
 20
5.171313653346471
 30
0.0
 11
13.15012925868602
 21
5.171313653346471
 31
0.0
  0
LINE
  5
564
330
1F
100
AcDbEntity
  8
4
100
AcDbLine
 10
13.08812925868602
 20
5.139313653346471
 30
0.0
 11
13.15012925868602
 21
5.139313653346471
 31
0.0
  0
LINE
  5
565
330
1F
100
AcDbEntity
  8
4
100
AcDbLine
 10
13.08812925868602
 20
5.187313653346471
 30
0.0
 11
13.08812925868602
 21
5.125313653346471
 31
0.0
  0
LINE
  5
566
330
1F
100
AcDbEntity
  8
4
100
AcDbLine
 10
13.08812925868602
 20
5.125313653346471
 30
0.0
 11
13.05712925868602
 21
5.156313653346471
 31
0.0
  0
LINE
  5
567
330
1F
100
AcDbEntity
  8
4
100
AcDbLine
 10
13.08812925868602
 20
5.708113653346472
 30
0.0
 11
13.15012925868602
 21
5.708113653346472
 31
0.0
  0
LINE
  5
568
330
1F
100
AcDbEntity
  8
4
100
AcDbLine
 10
13.08812925868602
 20
5.740113653346472
 30
0.0
 11
13.15012925868602
 21
5.740113653346472
 31
0.0
  0
LINE
  5
569
330
1F
100
AcDbEntity
  8
4
100
AcDbLine
 10
13.08812925868602
 20
5.756113653346472
 30
0.0
 11
13.08812925868602
 21
5.694113653346471
 31
0.0
  0
LINE
  5
56A
330
1F
100
AcDbEntity
  8
4
100
AcDbLine
 10
13.08812925868602
 20
5.694113653346471
 30
0.0
 11
13.05712925868602
 21
5.725113653346472
 31
0.0
  0
LINE
  5
56B
330
1F
100
AcDbEntity
  8
4
100
AcDbLine
 10
12.54512925868602
 20
6.324913653346472
 30
0.0
 11
13.08812925868602
 21
6.324913653346472
 31
0.0
  0
LINE
  5
56C
330
1F
100
AcDbEntity
  8
4
100
AcDbLine
 10
12.54512925868602
 20
6.893713653346471
 30
0.0
 11
13.08812925868602
 21
6.893713653346471
 31
0.0
  0
LINE
  5
56D
330
1F
100
AcDbEntity
  8
4
100
AcDbLine
 10
11.16112925868602
 20
6.324913653346472
 30
0.0
 11
10.61812925868602
 21
6.324913653346472
 31
0.0
  0
LINE
  5
56E
330
1F
100
AcDbEntity
  8
4
100
AcDbLine
 10
11.16112925868602
 20
6.893713653346471
 30
0.0
 11
10.61812925868601
 21
6.893713653346471
 31
0.0
  0
LINE
  5
56F
330
1F
100
AcDbEntity
  8
4
100
AcDbLine
 10
10.55612925868602
 20
7.414513653346471
 30
0.0
 11
10.55612925868602
 21
6.877713653346471
 31
0.0
  0
LINE
  5
570
330
1F
100
AcDbEntity
  8
4
100
AcDbLine
 10
10.55612925868602
 20
6.845713653346471
 30
0.0
 11
10.55612925868602
 21
6.308913653346471
 31
0.0
  0
LINE
  5
571
330
1F
100
AcDbEntity
  8
4
100
AcDbLine
 10
10.61812925868602
 20
6.262913653346471
 30
0.0
 11
10.64912925868602
 21
6.293913653346471
 31
0.0
  0
LINE
  5
572
330
1F
100
AcDbEntity
  8
4
100
AcDbLine
 10
10.61812925868602
 20
6.324913653346472
 30
0.0
 11
10.61812925868602
 21
6.262913653346471
 31
0.0
  0
LINE
  5
573
330
1F
100
AcDbEntity
  8
4
100
AcDbLine
 10
10.55612925868602
 20
6.276913653346471
 30
0.0
 11
10.61812925868602
 21
6.276913653346471
 31
0.0
  0
LINE
  5
574
330
1F
100
AcDbEntity
  8
4
100
AcDbLine
 10
10.55612925868602
 20
6.308913653346471
 30
0.0
 11
10.61812925868602
 21
6.308913653346471
 31
0.0
  0
LINE
  5
575
330
1F
100
AcDbEntity
  8
4
100
AcDbLine
 10
10.61812925868601
 20
6.83171365334647
 30
0.0
 11
10.64912925868601
 21
6.86271365334647
 31
0.0
  0
LINE
  5
576
330
1F
100
AcDbEntity
  8
4
100
AcDbLine
 10
10.61812925868601
 20
6.893713653346471
 30
0.0
 11
10.61812925868601
 21
6.83171365334647
 31
0.0
  0
LINE
  5
577
330
1F
100
AcDbEntity
  8
4
100
AcDbLine
 10
10.55612925868602
 20
6.877713653346471
 30
0.0
 11
10.61812925868601
 21
6.877713653346471
 31
0.0
  0
LINE
  5
578
330
1F
100
AcDbEntity
  8
4
100
AcDbLine
 10
10.55612925868602
 20
6.845713653346471
 30
0.0
 11
10.61812925868601
 21
6.845713653346471
 31
0.0
  0
LINE
  5
579
330
1F
100
AcDbEntity
  8
4
100
AcDbLine
 10
10.55612925868602
 20
7.414513653346471
 30
0.0
 11
10.61812925868602
 21
7.414513653346471
 31
0.0
  0
LINE
  5
57A
330
1F
100
AcDbEntity
  8
4
100
AcDbLine
 10
11.86612925868602
 20
7.414513653346471
 30
0.0
 11
11.86612925868602
 21
6.877713653346471
 31
0.0
  0
LINE
  5
57B
330
1F
100
AcDbEntity
  8
4
100
AcDbLine
 10
12.47112925868602
 20
6.324913653346472
 30
0.0
 11
11.92812925868602
 21
6.324913653346472
 31
0.0
  0
LINE
  5
57C
330
1F
100
AcDbEntity
  8
4
100
AcDbLine
 10
12.47112925868602
 20
6.893713653346471
 30
0.0
 11
11.92812925868602
 21
6.893713653346471
 31
0.0
  0
LINE
  5
57D
330
1F
100
AcDbEntity
  8
4
100
AcDbLine
 10
11.86612925868602
 20
6.845713653346471
 30
0.0
 11
11.86612925868602
 21
6.308913653346471
 31
0.0
  0
LINE
  5
57E
330
1F
100
AcDbEntity
  8
4
100
AcDbLine
 10
11.16112925868602
 20
6.262913653346471
 30
0.0
 11
11.16112925868602
 21
6.324913653346472
 31
0.0
  0
LINE
  5
57F
330
1F
100
AcDbEntity
  8
4
100
AcDbLine
 10
11.92812925868602
 20
6.262913653346471
 30
0.0
 11
11.95912925868602
 21
6.293913653346471
 31
0.0
  0
LINE
  5
580
330
1F
100
AcDbEntity
  8
4
100
AcDbLine
 10
11.92812925868602
 20
6.324913653346472
 30
0.0
 11
11.92812925868602
 21
6.262913653346471
 31
0.0
  0
LINE
  5
581
330
1F
100
AcDbEntity
  8
4
100
AcDbLine
 10
11.86612925868602
 20
6.276913653346471
 30
0.0
 11
11.92812925868602
 21
6.276913653346471
 31
0.0
  0
LINE
  5
582
330
1F
100
AcDbEntity
  8
4
100
AcDbLine
 10
11.86612925868602
 20
6.308913653346471
 30
0.0
 11
11.92812925868602
 21
6.308913653346471
 31
0.0
  0
LINE
  5
583
330
1F
100
AcDbEntity
  8
4
100
AcDbLine
 10
11.16112925868602
 20
6.83171365334647
 30
0.0
 11
11.16112925868602
 21
6.893713653346471
 31
0.0
  0
LINE
  5
584
330
1F
100
AcDbEntity
  8
4
100
AcDbLine
 10
11.86612925868602
 20
6.845713653346471
 30
0.0
 11
11.92812925868602
 21
6.845713653346471
 31
0.0
  0
LINE
  5
585
330
1F
100
AcDbEntity
  8
4
100
AcDbLine
 10
11.86612925868602
 20
6.877713653346471
 30
0.0
 11
11.92812925868602
 21
6.877713653346471
 31
0.0
  0
LINE
  5
586
330
1F
100
AcDbEntity
  8
4
100
AcDbLine
 10
11.92812925868602
 20
6.83171365334647
 30
0.0
 11
11.95912925868602
 21
6.86271365334647
 31
0.0
  0
LINE
  5
587
330
1F
100
AcDbEntity
  8
4
100
AcDbLine
 10
11.92812925868602
 20
6.893713653346471
 30
0.0
 11
11.92812925868602
 21
6.83171365334647
 31
0.0
  0
LINE
  5
588
330
1F
100
AcDbEntity
  8
4
100
AcDbLine
 10
12.54512925868602
 20
6.262913653346471
 30
0.0
 11
12.54512925868602
 21
6.324913653346472
 31
0.0
  0
LINE
  5
589
330
1F
100
AcDbEntity
  8
4
100
AcDbLine
 10
12.47112925868602
 20
6.262913653346471
 30
0.0
 11
12.47112925868602
 21
6.324913653346472
 31
0.0
  0
LINE
  5
58A
330
1F
100
AcDbEntity
  8
4
100
AcDbLine
 10
12.47112925868602
 20
6.83171365334647
 30
0.0
 11
12.47112925868602
 21
6.893713653346471
 31
0.0
  0
LINE
  5
58B
330
1F
100
AcDbEntity
  8
4
100
AcDbLine
 10
12.54512925868602
 20
6.83171365334647
 30
0.0
 11
12.54512925868602
 21
6.893713653346471
 31
0.0
  0
LINE
  5
58C
330
1F
100
AcDbEntity
  8
4
100
AcDbLine
 10
11.86612925868602
 20
7.414513653346471
 30
0.0
 11
11.92812925868602
 21
7.414513653346471
 31
0.0
  0
LINE
  5
58D
330
1F
100
AcDbEntity
  8
4
100
AcDbLine
 10
13.15012925868602
 20
7.414513653346471
 30
0.0
 11
13.15012925868602
 21
6.877713653346471
 31
0.0
  0
LINE
  5
58E
330
1F
100
AcDbEntity
  8
4
100
AcDbLine
 10
13.15012925868602
 20
6.84571365334647
 30
0.0
 11
13.15012925868602
 21
6.308913653346471
 31
0.0
  0
LINE
  5
58F
330
1F
100
AcDbEntity
  8
4
100
AcDbLine
 10
13.08812925868602
 20
6.324913653346472
 30
0.0
 11
13.08812925868602
 21
6.262913653346471
 31
0.0
  0
LINE
  5
590
330
1F
100
AcDbEntity
  8
4
100
AcDbLine
 10
13.08812925868602
 20
6.262913653346471
 30
0.0
 11
13.05712925868602
 21
6.293913653346471
 31
0.0
  0
LINE
  5
591
330
1F
100
AcDbEntity
  8
4
100
AcDbLine
 10
13.08812925868602
 20
6.276913653346471
 30
0.0
 11
13.15012925868602
 21
6.276913653346471
 31
0.0
  0
LINE
  5
592
330
1F
100
AcDbEntity
  8
4
100
AcDbLine
 10
13.08812925868602
 20
6.308913653346471
 30
0.0
 11
13.15012925868602
 21
6.308913653346471
 31
0.0
  0
LINE
  5
593
330
1F
100
AcDbEntity
  8
4
100
AcDbLine
 10
13.08812925868602
 20
6.845713653346471
 30
0.0
 11
13.15012925868602
 21
6.845713653346471
 31
0.0
  0
LINE
  5
594
330
1F
100
AcDbEntity
  8
4
100
AcDbLine
 10
13.08812925868602
 20
6.877713653346471
 30
0.0
 11
13.15012925868602
 21
6.877713653346471
 31
0.0
  0
LINE
  5
595
330
1F
100
AcDbEntity
  8
4
100
AcDbLine
 10
13.08812925868602
 20
6.893713653346471
 30
0.0
 11
13.08812925868602
 21
6.83171365334647
 31
0.0
  0
LINE
  5
596
330
1F
100
AcDbEntity
  8
4
100
AcDbLine
 10
13.08812925868602
 20
6.83171365334647
 30
0.0
 11
13.05712925868602
 21
6.86271365334647
 31
0.0
  0
LINE
  5
597
330
1F
100
AcDbEntity
  8
4
100
AcDbLine
 10
13.15012925868602
 20
7.414513653346471
 30
0.0
 11
13.08812925868602
 21
7.414513653346471
 31
0.0
  0
LINE
  5
598
330
1F
100
AcDbEntity
  8
1
100
AcDbLine
 10
12.52262925868602
 20
4.508516662269549
 30
0.0
 11
12.52262925868602
 21
7.508516662269549
 31
0.0
  0
ENDSEC
  0
SECTION
  2
OBJECTS
  0
DICTIONARY
  5
C
330
0
100
AcDbDictionary
281
     1
  3
ACAD_COLOR
350
312
  3
ACAD_GROUP
350
D
  3
ACAD_LAYOUT
350
1A
  3
ACAD_MATERIAL
350
311
  3
ACAD_MLINESTYLE
350
17
  3
ACAD_PLOTSETTINGS
350
19
  3
ACAD_PLOTSTYLENAME
350
E
  3
ACDBHEADERROUNDTRIPXREC
350
5C6
  3
AcDbVariableDictionary
350
5BE
  0
DICTIONARY
  5
312
102
{ACAD_REACTORS
330
C
102
}
330
C
100
AcDbDictionary
281
     1
  0
DICTIONARY
  5
D
102
{ACAD_REACTORS
330
C
102
}
330
C
100
AcDbDictionary
281
     1
  0
DICTIONARY
  5
1A
102
{ACAD_REACTORS
330
C
102
}
330
C
100
AcDbDictionary
281
     1
  3
Layout1
350
59
  3
Layout2
350
5E
  3
Model
350
22
  0
DICTIONARY
  5
311
102
{ACAD_REACTORS
330
C
102
}
330
C
100
AcDbDictionary
281
     1
  0
DICTIONARY
  5
17
102
{ACAD_REACTORS
330
C
102
}
330
C
100
AcDbDictionary
281
     1
  3
Standard
350
18
  0
DICTIONARY
  5
19
102
{ACAD_REACTORS
330
C
102
}
330
C
100
AcDbDictionary
281
     1
  0
ACDBDICTIONARYWDFLT
  5
E
102
{ACAD_REACTORS
330
C
102
}
330
C
100
AcDbDictionary
281
     1
  3
Normal
350
F
100
AcDbDictionaryWithDefault
340
F
  0
DICTIONARY
  5
5C6
102
{ACAD_REACTORS
330
C
102
}
330
C
100
AcDbDictionary
281
     1
  3
COLORDICT
350
5C8
  3
MATERIALDICT
350
5C7
  0
DICTIONARY
  5
5BE
102
{ACAD_REACTORS
330
C
102
}
330
C
100
AcDbDictionary
281
     1
  3
DIMASSOC
350
5BF
  3
PROJECTNAME
350
5C0
  0
LAYOUT
  5
59
102
{ACAD_XDICTIONARY
360
5CB
102
}
102
{ACAD_REACTORS
330
1A
102
}
330
1A
100
AcDbPlotSettings
  1

  2
None
  4

  6

 40
0.0
 41
0.0
 42
0.0
 43
0.0
 44
0.0
 45
0.0
 46
0.0
 47
0.0
 48
0.0
 49
0.0
140
0.0
141
0.0
142
1.0
143
1.0
 70
   688
 72
     0
 73
     0
 74
     5
  7

 75
    16
147
1.0
148
0.0
149
0.0
100
AcDbLayout
  1
Layout1
 70
     1
 71
     1
 10
0.0
 20
0.0
 11
12.0
 21
9.0
 12
0.0
 22
0.0
 32
0.0
 14
0.0
 24
0.0
 34
0.0
 15
0.0
 25
0.0
 35
0.0
146
0.0
 13
0.0
 23
0.0
 33
0.0
 16
1.0
 26
0.0
 36
0.0
 17
0.0
 27
1.0
 37
0.0
 76
     0
330
58
  0
LAYOUT
  5
5E
102
{ACAD_XDICTIONARY
360
5CD
102
}
102
{ACAD_REACTORS
330
1A
102
}
330
1A
100
AcDbPlotSettings
  1

  2
None
  4

  6

 40
0.0
 41
0.0
 42
0.0
 43
0.0
 44
0.0
 45
0.0
 46
0.0
 47
0.0
 48
0.0
 49
0.0
140
0.0
141
0.0
142
1.0
143
1.0
 70
   688
 72
     0
 73
     0
 74
     5
  7

 75
    16
147
1.0
148
0.0
149
0.0
100
AcDbLayout
  1
Layout2
 70
     1
 71
     2
 10
0.0
 20
0.0
 11
12.0
 21
9.0
 12
0.0
 22
0.0
 32
0.0
 14
0.0
 24
0.0
 34
0.0
 15
0.0
 25
0.0
 35
0.0
146
0.0
 13
0.0
 23
0.0
 33
0.0
 16
1.0
 26
0.0
 36
0.0
 17
0.0
 27
1.0
 37
0.0
 76
     0
330
5D
  0
LAYOUT
  5
22
102
{ACAD_XDICTIONARY
360
5C9
102
}
102
{ACAD_REACTORS
330
1A
102
}
330
1A
100
AcDbPlotSettings
  1

  2
none_device
  4
ANSI_A_(8.50_x_11.00_Inches)
  6

 40
6.349999904632568
 41
19.04999923706055
 42
6.350006103515625
 43
19.04998779296875
 44
215.8999938964844
 45
279.3999938964844
 46
0.0
 47
0.0
 48
0.0
 49
0.0
140
0.0
141
0.0
142
1.0
143
2.584895464708373
 70
 11952
 72
     0
 73
     1
 74
     0
  7

 75
     0
147
0.3868628397755418
148
0.0
149
0.0
100
AcDbLayout
  1
Model
 70
     1
 71
     0
 10
0.0
 20
0.0
 11
12.0
 21
9.0
 12
0.0
 22
0.0
 32
0.0
 14
0.0
 24
0.0
 34
0.0
 15
0.0
 25
0.0
 35
0.0
146
0.0
 13
0.0
 23
0.0
 33
0.0
 16
1.0
 26
0.0
 36
0.0
 17
0.0
 27
1.0
 37
0.0
 76
     0
330
1F
  0
MLINESTYLE
  5
18
102
{ACAD_REACTORS
330
17
102
}
330
17
100
AcDbMlineStyle
  2
STANDARD
 70
     0
  3

 62
   256
 51
90.0
 52
90.0
 71
     2
 49
0.5
 62
   256
  6
BYLAYER
 49
-0.5
 62
   256
  6
BYLAYER
  0
ACDBPLACEHOLDER
  5
F
102
{ACAD_REACTORS
330
E
102
}
330
E
  0
XRECORD
  5
5C8
102
{ACAD_REACTORS
330
5C6
102
}
330
5C6
100
AcDbXrecord
280
     1
340
312
  0
XRECORD
  5
5C7
102
{ACAD_REACTORS
330
5C6
102
}
330
5C6
100
AcDbXrecord
280
     1
340
311
  0
DICTIONARYVAR
  5
5BF
102
{ACAD_REACTORS
330
5BE
102
}
330
5BE
100
DictionaryVariables
280
     0
  1
1
  0
DICTIONARYVAR
  5
5C0
102
{ACAD_REACTORS
330
5BE
102
}
330
5BE
100
DictionaryVariables
280
     0
  1

  0
DICTIONARY
  5
5CB
330
59
100
AcDbDictionary
280
     1
281
     1
  3
ACAD_XREC_ROUNDTRIP
360
5CC
  0
DICTIONARY
  5
5CD
330
5E
100
AcDbDictionary
280
     1
281
     1
  3
ACAD_XREC_ROUNDTRIP
360
5CE
  0
DICTIONARY
  5
5C9
330
22
100
AcDbDictionary
280
     1
281
     1
  3
ACAD_XREC_ROUNDTRIP
360
5CA
  0
XRECORD
  5
5CC
102
{ACAD_REACTORS
330
5CB
102
}
330
5CB
100
AcDbXrecord
280
     1
102
SHADEPLOT
 70
     0
102
SHADEPLOTRESLEVEL
 70
     2
102
SHADEPLOTCUSTOMDPI
 70
   300
  0
XRECORD
  5
5CE
102
{ACAD_REACTORS
330
5CD
102
}
330
5CD
100
AcDbXrecord
280
     1
102
SHADEPLOT
 70
     0
102
SHADEPLOTRESLEVEL
 70
     2
102
SHADEPLOTCUSTOMDPI
 70
   300
  0
XRECORD
  5
5CA
102
{ACAD_REACTORS
330
5C9
102
}
330
5C9
100
AcDbXrecord
280
     1
102
SHADEPLOT
 70
     0
102
SHADEPLOTRESLEVEL
 70
     2
102
SHADEPLOTCUSTOMDPI
 70
   300
  0
ENDSEC
  0
EOF
