  0
SECTION
  2
HEADER
  9
$ACADVER
  1
AC1015
  9
$ACADMAINTVER
 70
    20
  9
$DWGCODEPAGE
  3
ANSI_1252
  9
$INSBASE
 10
0.0
 20
0.0
 30
0.0
  9
$EXTMIN
 10
2.070556670975122
 20
1.674453758255641
 30
-0.0000000000000058
  9
$EXTMAX
 10
10.32220461583021
 20
6.92523195213316
 30
0.0000000000000104
  9
$LIMMIN
 10
0.0
 20
0.0
  9
$LIMMAX
 10
12.0
 20
9.0
  9
$ORTHOMODE
 70
     1
  9
$REGENMODE
 70
     1
  9
$FILLMODE
 70
     1
  9
$QTEXTMODE
 70
     0
  9
$MIRRTEXT
 70
     1
  9
$LTSCALE
 40
1.0
  9
$ATTMODE
 70
     1
  9
$TEXTSIZE
 40
0.2
  9
$TRACEWID
 40
0.05
  9
$TEXTSTYLE
  7
Standard
  9
$CLAYER
  8
0
  9
$CELTYPE
  6
ByLayer
  9
$CECOLOR
 62
   256
  9
$CELTSCALE
 40
1.0
  9
$DISPSILH
 70
     0
  9
$DIMSCALE
 40
1.0
  9
$DIMASZ
 40
0.18
  9
$DIMEXO
 40
0.0625
  9
$DIMDLI
 40
0.38
  9
$DIMRND
 40
0.0
  9
$DIMDLE
 40
0.0
  9
$DIMEXE
 40
0.18
  9
$DIMTP
 40
0.0
  9
$DIMTM
 40
0.0
  9
$DIMTXT
 40
0.18
  9
$DIMCEN
 40
0.09
  9
$DIMTSZ
 40
0.0
  9
$DIMTOL
 70
     0
  9
$DIMLIM
 70
     0
  9
$DIMTIH
 70
     1
  9
$DIMTOH
 70
     1
  9
$DIMSE1
 70
     0
  9
$DIMSE2
 70
     0
  9
$DIMTAD
 70
     0
  9
$DIMZIN
 70
     0
  9
$DIMBLK
  1

  9
$DIMASO
 70
     1
  9
$DIMSHO
 70
     1
  9
$DIMPOST
  1

  9
$DIMAPOST
  1

  9
$DIMALT
 70
     0
  9
$DIMALTD
 70
     2
  9
$DIMALTF
 40
25.4
  9
$DIMLFAC
 40
1.0
  9
$DIMTOFL
 70
     0
  9
$DIMTVP
 40
0.0
  9
$DIMTIX
 70
     0
  9
$DIMSOXD
 70
     0
  9
$DIMSAH
 70
     0
  9
$DIMBLK1
  1

  9
$DIMBLK2
  1

  9
$DIMSTYLE
  2
Standard
  9
$DIMCLRD
 70
     0
  9
$DIMCLRE
 70
     0
  9
$DIMCLRT
 70
     0
  9
$DIMTFAC
 40
1.0
  9
$DIMGAP
 40
0.09
  9
$DIMJUST
 70
     0
  9
$DIMSD1
 70
     0
  9
$DIMSD2
 70
     0
  9
$DIMTOLJ
 70
     1
  9
$DIMTZIN
 70
     0
  9
$DIMALTZ
 70
     0
  9
$DIMALTTZ
 70
     0
  9
$DIMUPT
 70
     0
  9
$DIMDEC
 70
     4
  9
$DIMTDEC
 70
     4
  9
$DIMALTU
 70
     2
  9
$DIMALTTD
 70
     2
  9
$DIMTXSTY
  7
Standard
  9
$DIMAUNIT
 70
     0
  9
$DIMADEC
 70
     0
  9
$DIMALTRND
 40
0.0
  9
$DIMAZIN
 70
     0
  9
$DIMDSEP
 70
    46
  9
$DIMATFIT
 70
     3
  9
$DIMFRAC
 70
     0
  9
$DIMLDRBLK
  1

  9
$DIMLUNIT
 70
     2
  9
$DIMLWD
 70
    -2
  9
$DIMLWE
 70
    -2
  9
$DIMTMOVE
 70
     0
  9
$LUNITS
 70
     2
  9
$LUPREC
 70
     4
  9
$SKETCHINC
 40
0.1
  9
$FILLETRAD
 40
0.5
  9
$AUNITS
 70
     0
  9
$AUPREC
 70
     0
  9
$MENU
  1
.
  9
$ELEVATION
 40
0.0
  9
$PELEVATION
 40
0.0
  9
$THICKNESS
 40
0.0
  9
$LIMCHECK
 70
     0
  9
$CHAMFERA
 40
0.5
  9
$CHAMFERB
 40
0.5
  9
$CHAMFERC
 40
1.0
  9
$CHAMFERD
 40
0.0
  9
$SKPOLY
 70
     0
  9
$TDCREATE
 40
2452633.675076158
  9
$TDUCREATE
 40
2452633.883409491
  9
$TDUPDATE
 40
2454728.626935035
  9
$TDUUPDATE
 40
2454728.835268368
  9
$TDINDWG
 40
0.2093469444
  9
$TDUSRTIMER
 40
0.2093469444
  9
$USRTIMER
 70
     1
  9
$ANGBASE
 50
0.0
  9
$ANGDIR
 70
     0
  9
$PDMODE
 70
     0
  9
$PDSIZE
 40
0.0
  9
$PLINEWID
 40
0.0
  9
$SPLFRAME
 70
     0
  9
$SPLINETYPE
 70
     6
  9
$SPLINESEGS
 70
     8
  9
$HANDSEED
  5
445
  9
$SURFTAB1
 70
     6
  9
$SURFTAB2
 70
     6
  9
$SURFTYPE
 70
     6
  9
$SURFU
 70
     6
  9
$SURFV
 70
     6
  9
$UCSBASE
  2

  9
$UCSNAME
  2

  9
$UCSORG
 10
0.0
 20
0.0
 30
0.0
  9
$UCSXDIR
 10
1.0
 20
0.0
 30
0.0
  9
$UCSYDIR
 10
0.0
 20
1.0
 30
0.0
  9
$UCSORTHOREF
  2

  9
$UCSORTHOVIEW
 70
     0
  9
$UCSORGTOP
 10
0.0
 20
0.0
 30
0.0
  9
$UCSORGBOTTOM
 10
0.0
 20
0.0
 30
0.0
  9
$UCSORGLEFT
 10
0.0
 20
0.0
 30
0.0
  9
$UCSORGRIGHT
 10
0.0
 20
0.0
 30
0.0
  9
$UCSORGFRONT
 10
0.0
 20
0.0
 30
0.0
  9
$UCSORGBACK
 10
0.0
 20
0.0
 30
0.0
  9
$PUCSBASE
  2

  9
$PUCSNAME
  2

  9
$PUCSORG
 10
0.0
 20
0.0
 30
0.0
  9
$PUCSXDIR
 10
1.0
 20
0.0
 30
0.0
  9
$PUCSYDIR
 10
0.0
 20
1.0
 30
0.0
  9
$PUCSORTHOREF
  2

  9
$PUCSORTHOVIEW
 70
     0
  9
$PUCSORGTOP
 10
0.0
 20
0.0
 30
0.0
  9
$PUCSORGBOTTOM
 10
0.0
 20
0.0
 30
0.0
  9
$PUCSORGLEFT
 10
0.0
 20
0.0
 30
0.0
  9
$PUCSORGRIGHT
 10
0.0
 20
0.0
 30
0.0
  9
$PUCSORGFRONT
 10
0.0
 20
0.0
 30
0.0
  9
$PUCSORGBACK
 10
0.0
 20
0.0
 30
0.0
  9
$USERI1
 70
     0
  9
$USERI2
 70
     0
  9
$USERI3
 70
     0
  9
$USERI4
 70
     0
  9
$USERI5
 70
     0
  9
$USERR1
 40
0.0
  9
$USERR2
 40
0.0
  9
$USERR3
 40
0.0
  9
$USERR4
 40
0.0
  9
$USERR5
 40
0.0
  9
$WORLDVIEW
 70
     1
  9
$SHADEDGE
 70
     3
  9
$SHADEDIF
 70
    70
  9
$TILEMODE
 70
     1
  9
$MAXACTVP
 70
    64
  9
$PINSBASE
 10
0.0
 20
0.0
 30
0.0
  9
$PLIMCHECK
 70
     0
  9
$PEXTMIN
 10
1.000000000000000E+20
 20
1.000000000000000E+20
 30
1.000000000000000E+20
  9
$PEXTMAX
 10
-1.000000000000000E+20
 20
-1.000000000000000E+20
 30
-1.000000000000000E+20
  9
$PLIMMIN
 10
0.0
 20
0.0
  9
$PLIMMAX
 10
12.0
 20
9.0
  9
$UNITMODE
 70
     0
  9
$VISRETAIN
 70
     1
  9
$PLINEGEN
 70
     0
  9
$PSLTSCALE
 70
     1
  9
$TREEDEPTH
 70
  3020
  9
$CMLSTYLE
  2
Standard
  9
$CMLJUST
 70
     0
  9
$CMLSCALE
 40
1.0
  9
$PROXYGRAPHICS
 70
     1
  9
$MEASUREMENT
 70
     0
  9
$CELWEIGHT
370
    -1
  9
$ENDCAPS
280
     0
  9
$JOINSTYLE
280
     0
  9
$LWDISPLAY
290
     0
  9
$INSUNITS
 70
     1
  9
$HYPERLINKBASE
  1

  9
$STYLESHEET
  1
monochrome.ctb
  9
$XEDIT
290
     1
  9
$CEPSNTYPE
380
     0
  9
$PSTYLEMODE
290
     1
  9
$FINGERPRINTGUID
  2
{85513396-1751-11D7-8CE2-BBD0884F8F23}
  9
$VERSIONGUID
  2
{B2F76609-2EA4-48FD-A2CB-3D00BB303CBF}
  9
$EXTNAMES
290
     1
  9
$PSVPSCALE
 40
0.0
  9
$OLESTARTUP
290
     0
  0
ENDSEC
  0
SECTION
  2
CLASSES
  0
CLASS
  1
ACDBDICTIONARYWDFLT
  2
AcDbDictionaryWithDefault
  3
ObjectDBX Classes
 90
        0
280
     0
281
     0
  0
CLASS
  1
ACDBPLACEHOLDER
  2
AcDbPlaceHolder
  3
ObjectDBX Classes
 90
        0
280
     0
281
     0
  0
CLASS
  1
LAYOUT
  2
AcDbLayout
  3
ObjectDBX Classes
 90
        0
280
     0
281
     0
  0
CLASS
  1
DICTIONARYVAR
  2
AcDbDictionaryVar
  3
ObjectDBX Classes
 90
        0
280
     0
281
     0
  0
ENDSEC
  0
SECTION
  2
TABLES
  0
TABLE
  2
VPORT
  5
8
330
0
100
AcDbSymbolTable
 70
     2
  0
VPORT
  5
43B
330
8
100
AcDbSymbolTableRecord
100
AcDbViewportTableRecord
  2
*Active
 70
     0
 10
0.0
 20
0.0
 11
1.0
 21
1.0
 12
6.19638064340267
 22
4.2998428551944
 13
0.0
 23
0.0
 14
0.5
 24
0.5
 15
0.5
 25
0.5
 16
0.0
 26
0.0
 36
1.0
 17
0.0
 27
0.0
 37
0.0
 40
5.545804809020239
 41
1.495145631067961
 42
50.0
 43
0.0
 44
0.0
 50
0.0
 51
0.0
 71
     0
 72
   100
 73
     1
 74
     3
 75
     0
 76
     0
 77
     0
 78
     0
281
     0
 65
     1
110
0.0
120
0.0
130
0.0
111
1.0
121
0.0
131
0.0
112
0.0
122
1.0
132
0.0
 79
     0
146
0.0
  0
ENDTAB
  0
TABLE
  2
LTYPE
  5
5
330
0
100
AcDbSymbolTable
 70
     2
  0
LTYPE
  5
14
330
5
100
AcDbSymbolTableRecord
100
AcDbLinetypeTableRecord
  2
ByBlock
 70
     0
  3

 72
    65
 73
     0
 40
0.0
  0
LTYPE
  5
15
330
5
100
AcDbSymbolTableRecord
100
AcDbLinetypeTableRecord
  2
ByLayer
 70
     0
  3

 72
    65
 73
     0
 40
0.0
  0
LTYPE
  5
16
330
5
100
AcDbSymbolTableRecord
100
AcDbLinetypeTableRecord
  2
Continuous
 70
     0
  3
Solid line
 72
    65
 73
     0
 40
0.0
  0
LTYPE
  5
209
330
5
100
AcDbSymbolTableRecord
100
AcDbLinetypeTableRecord
  2
HIDDEN
 70
     0
  3
_ _ _ _ _ _ _ _ _ _ _ _ _ _ _ _ _ _ _ _ _ _ _
 72
    65
 73
     2
 40
0.375
 49
0.25
 74
     0
 49
-0.125
 74
     0
  0
ENDTAB
  0
TABLE
  2
LAYER
  5
2
330
0
100
AcDbSymbolTable
 70
     4
  0
LAYER
  5
10
330
2
100
AcDbSymbolTableRecord
100
AcDbLayerTableRecord
  2
0
 70
     0
 62
     7
  6
Continuous
370
    -3
390
F
  0
LAYER
  5
33
330
2
100
AcDbSymbolTableRecord
100
AcDbLayerTableRecord
  2
1
 70
     0
 62
     1
  6
Continuous
370
    -3
390
F
  0
LAYER
  5
34
330
2
100
AcDbSymbolTableRecord
100
AcDbLayerTableRecord
  2
4
 70
     0
 62
     4
  6
Continuous
370
    -3
390
F
  0
LAYER
  5
35
330
2
100
AcDbSymbolTableRecord
100
AcDbLayerTableRecord
  2
8
 70
     0
 62
     2
  6
Continuous
370
    -3
390
F
  0
ENDTAB
  0
TABLE
  2
STYLE
  5
3
330
0
100
AcDbSymbolTable
 70
     2
  0
STYLE
  5
11
330
3
100
AcDbSymbolTableRecord
100
AcDbTextStyleTableRecord
  2
Standard
 70
     0
 40
0.0
 41
1.0
 50
0.0
 71
     0
 42
0.2
  3
txt
  4

  0
STYLE
  5
36
330
3
100
AcDbSymbolTableRecord
100
AcDbTextStyleTableRecord
  2
ROMANS
 70
     0
 40
0.0
 41
1.0
 50
0.0
 71
     0
 42
0.07
  3
ROMANS
  4

  0
ENDTAB
  0
TABLE
  2
VIEW
  5
6
330
0
100
AcDbSymbolTable
 70
     0
  0
ENDTAB
  0
TABLE
  2
UCS
  5
7
330
0
100
AcDbSymbolTable
 70
     0
  0
ENDTAB
  0
TABLE
  2
APPID
  5
9
330
0
100
AcDbSymbolTable
 70
     1
  0
APPID
  5
12
330
9
100
AcDbSymbolTableRecord
100
AcDbRegAppTableRecord
  2
ACAD
 70
     0
  0
ENDTAB
  0
TABLE
  2
DIMSTYLE
  5
A
330
0
100
AcDbSymbolTable
 70
     1
100
AcDbDimStyleTable
 71
     0
  0
DIMSTYLE
105
27
330
A
100
AcDbSymbolTableRecord
100
AcDbDimStyleTableRecord
  2
Standard
 70
     0
340
11
  0
ENDTAB
  0
TABLE
  2
BLOCK_RECORD
  5
1
330
0
100
AcDbSymbolTable
 70
     7
  0
BLOCK_RECORD
  5
1F
330
1
100
AcDbSymbolTableRecord
100
AcDbBlockTableRecord
  2
*Model_Space
340
22
  0
BLOCK_RECORD
  5
1B
330
1
100
AcDbSymbolTableRecord
100
AcDbBlockTableRecord
  2
*Paper_Space
340
1E
  0
BLOCK_RECORD
  5
23
330
1
100
AcDbSymbolTableRecord
100
AcDbBlockTableRecord
  2
*Paper_Space0
340
26
  0
BLOCK_RECORD
  5
2B
330
1
100
AcDbSymbolTableRecord
100
AcDbBlockTableRecord
  2
ARRO
340
0
102
{BLKREFS
331
3F
331
87
331
88
331
8C
331
8D
331
91
331
92
331
93
331
94
331
95
331
16D
331
16E
331
1B8
331
1BD
331
1D5
331
347
331
38F
331
390
331
394
331
395
331
399
331
39A
331
39B
102
}
  0
BLOCK_RECORD
  5
37
330
1
100
AcDbSymbolTableRecord
100
AcDbBlockTableRecord
  2
LE1002
340
0
  0
BLOCK_RECORD
  5
FF
330
1
100
AcDbSymbolTableRecord
100
AcDbBlockTableRecord
  2
TEMP3
340
0
102
{BLKREFS
331
11F
102
}
  0
BLOCK_RECORD
  5
104
330
1
100
AcDbSymbolTableRecord
100
AcDbBlockTableRecord
  2
ARRO2
340
0
102
{BLKREFS
331
1C9
102
}
  0
BLOCK_RECORD
  5
111
330
1
100
AcDbSymbolTableRecord
100
AcDbBlockTableRecord
  2
SPL2CORRIDORDT72
340
0
310
28000000200000002000000001000800000000000004000000000000000000000000000000000000000000004000000080000000FF000000002000004020000080200000FF200000004000004040000080400000FF400000006000004060000080600000FF600000008000004080000080800000FF80000000A0000040A000
310
0080A00000FFA0000000C0000040C0000080C00000FFC0000000FF000040FF000080FF0000FFFF0000000020004000200080002000FF002000002020004020200080202000FF202000004020004040200080402000FF402000006020004060200080602000FF602000008020004080200080802000FF80200000A0200040A0
310
200080A02000FFA0200000C0200040C0200080C02000FFC0200000FF200040FF200080FF2000FFFF2000000040004000400080004000FF004000002040004020400080204000FF204000004040004040400080404000FF404000006040004060400080604000FF604000008040004080400080804000FF80400000A0400040
310
A0400080A04000FFA0400000C0400040C0400080C04000FFC0400000FF400040FF400080FF4000FFFF4000000060004000600080006000FF006000002060004020600080206000FF206000004060004040600080406000FF406000006060004060600080606000FF606000008060004080600080806000FF80600000A06000
310
40A0600080A06000FFA0600000C0600040C0600080C06000FFC0600000FF600040FF600080FF6000FFFF6000000080004000800080008000FF008000002080004020800080208000FF208000004080004040800080408000FF408000006080004060800080608000FF608000008080004080800080808000FF80800000A080
310
0040A0800080A08000FFA0800000C0800040C0800080C08000FFC0800000FF800040FF800080FF8000FFFF80000000A0004000A0008000A000FF00A0000020A0004020A0008020A000FF20A0000040A0004040A0008040A000FF40A0000060A0004060A0008060A000FF60A0000080A0004080A0008080A000FF80A00000A0
310
A00040A0A00080A0A000FFA0A00000C0A00040C0A00080C0A000FFC0A00000FFA00040FFA00080FFA000FFFFA0000000C0004000C0008000C000FF00C0000020C0004020C0008020C000FF20C0000040C0004040C0008040C000FF40C0000060C0004060C0008060C000FF60C0000080C0004080C0008080C000FF80C00000
310
A0C00040A0C00080A0C000FFA0C00000C0C00040C0C00080C0C000FFC0C00000FFC00040FFC00080FFC000FFFFC0000000FF004000FF008000FF00FF00FF000020FF004020FF008020FF00FF20FF000040FF004040FF008040FF00FF40FF000060FF004060FF008060FF00FF60FF000080FF004080FF008080FF00FF80FF00
310
00A0FF0040A0FF0080A0FF00FFA0FF0000C0FF0040C0FF0080C0FF00FFC0FF0000FFFF0040FFFF0080FFFF00FFFFFF0000000000000000000000000000000000000000000000000000000000000000000000000000000000000000000000000000000000000000000000000000000000000000000000000000000000000000
310
00000000000000000000000000000000000000000000000000000000000000000000000000000000000000000000000000000000000000000000000000000000000000000000000000000000000000000000000000000000000000000000000000000000000000000000000000000000000000000000000000000000000000
310
000000000000000000000000000000000000001F0000000000FCFCFCFCFCFCFCFCFCFCFCFCFCFCFCFCFCFCFCFCFC000000000000000000000000000000000000000000000000000000000000000000000000000000000000000000000000000000000000000000000000000000000000000000000000000000000000000000
310
00000000000000000000000000000000000000000000000000000000000000000000000000000000000000000000000000000000000000001F1F1F00000000000000000000001F1F000000001F0000001F1F0000000000001F001F00000000000000000000001F1F000000001F000000001F0000000000001F001F00000000
310
00000000000000FC1F000000001F000000001F0000000000001F1F1F00000000000000000000FCFC1F000000001F000000001F00000000FCFC1F001F0000000000000000000000FC1F000000001F000000001F00000000FCFC1F1F1F1F1F1F001F1F1F000000001F1F1F1F00001F1F1F1F1F1F00000000FCFC1F1F1F1F1F1F
310
1F1F1F1F000000001F1F1F1F00001F1F1F1F1F1F00000000FCFC1F001F00000000000000000000001F1F000000001F000000001F00000000FC1F1F1F1F0000000000000000000000FC1F000000001F000000001F00000000FC1F1F1F1F0000000000000000000000FC1F000000001F000000001F00000000FCFC1F001F0000
310
0000000000000000001F1F000000001F000000001F00000000FCFC1F1F1F1F1F1F001F1F1F000000001F1F1F1F00001F1F1F1F1F1F00000000FCFC0000000000000000000000000000000000000000000000000000000000000000000000000000000000000000000000000000000000000000000000000000000000000000
310
00000000000000000000000000000000000000000000000000000000000000000000000000000000000000000000000000000000000000000000000000000000000000000000000000000000000000000000000000000000000000000000000000000000000000000000000000000000000000000000000000000000000000
310
0000000000000000000000000000000000000000000000000000000000000000000000000000000000000000000000000000000000000000
102
{BLKREFS
331
20B
102
}
1001
ACAD
1000
DesignCenter Data
1002
{
1070
     1
1070
     1
1002
}
  0
BLOCK_RECORD
  5
20A
330
1
100
AcDbSymbolTableRecord
100
AcDbBlockTableRecord
  2
LE1216
340
0
1001
ACAD
1000
DesignCenter Data
1002
{
1070
     1
1070
     1
1002
}
  0
ENDTAB
  0
ENDSEC
  0
SECTION
  2
BLOCKS
  0
BLOCK
  5
20
330
1F
100
AcDbEntity
  8
0
100
AcDbBlockBegin
  2
*Model_Space
 70
     0
 10
0.0
 20
0.0
 30
0.0
  3
*Model_Space
  1

  0
ENDBLK
  5
21
330
1F
100
AcDbEntity
  8
0
100
AcDbBlockEnd
  0
BLOCK
  5
1C
330
1B
100
AcDbEntity
 67
     1
  8
0
100
AcDbBlockBegin
  2
*Paper_Space
 70
     0
 10
0.0
 20
0.0
 30
0.0
  3
*Paper_Space
  1

  0
ENDBLK
  5
1D
330
1B
100
AcDbEntity
 67
     1
  8
0
100
AcDbBlockEnd
  0
BLOCK
  5
24
330
23
100
AcDbEntity
  8
0
100
AcDbBlockBegin
  2
*Paper_Space0
 70
     0
 10
0.0
 20
0.0
 30
0.0
  3
*Paper_Space0
  1

  0
ENDBLK
  5
25
330
23
100
AcDbEntity
  8
0
100
AcDbBlockEnd
  0
BLOCK
  5
31
330
2B
100
AcDbEntity
  8
4
100
AcDbBlockBegin
  2
ARRO
 70
     0
 10
0.0
 20
0.0
 30
0.0
  3
ARRO
  1

  0
LINE
  5
2C
330
2B
100
AcDbEntity
  8
4
100
AcDbLine
 10
0.1250000000000018
 20
0.0199999999999996
 30
0.0
 11
0.1250000000000018
 21
-0.0200000000000005
 31
0.0
  0
LINE
  5
2D
330
2B
100
AcDbEntity
  8
4
100
AcDbLine
 10
0.1250000000000018
 20
-0.0100000000000007
 30
0.0
 11
0.0000000000000009
 21
0.0
 31
0.0
  0
LINE
  5
2E
330
2B
100
AcDbEntity
  8
4
100
AcDbLine
 10
0.1250000000000018
 20
0.0099999999999989
 30
0.0
 11
0.0000000000000018
 21
0.0
 31
0.0
  0
LINE
  5
2F
330
2B
100
AcDbEntity
  8
4
100
AcDbLine
 10
0.0000000000000018
 20
0.0
 30
0.0
 11
0.1250000000000018
 21
-0.0200000000000005
 31
0.0
  0
LINE
  5
30
330
2B
100
AcDbEntity
  8
4
100
AcDbLine
 10
0.1250000000000018
 20
0.0199999999999996
 30
0.0
 11
0.0000000000000018
 21
0.0
 31
0.0
  0
ENDBLK
  5
32
330
2B
100
AcDbEntity
  8
4
100
AcDbBlockEnd
  0
BLOCK
  5
FB
330
37
100
AcDbEntity
  8
0
100
AcDbBlockBegin
  2
LE1002
 70
     0
 10
0.0
 20
0.0
 30
0.0
  3
LE1002
  1

  0
TEXT
  5
38
330
37
100
AcDbEntity
  8
8
100
AcDbText
 10
5.2125
 20
1.708979331896792
 30
0.0
 40
0.07
  1
DEPTH
  7
ROMANS
 72
     1
 11
5.3775
 21
1.708979331896792
 31
0.0
100
AcDbText
  0
TEXT
  5
39
330
37
100
AcDbEntity
  8
8
100
AcDbText
 10
6.834999999999999
 20
1.708979331896792
 30
0.0
 40
0.07
  1
DEPTH
  7
ROMANS
 72
     1
 11
7.0
 21
1.708979331896792
 31
0.0
100
AcDbText
  0
TEXT
  5
3A
330
37
100
AcDbEntity
  8
8
100
AcDbText
 10
6.899267058502116
 20
0.7466010068253098
 30
0.0
 40
0.1
  1
DR
  7
ROMANS
 72
     1
 11
7.001648010883068
 21
0.7466010068253098
 31
0.0
100
AcDbText
  0
TEXT
  5
3B
330
37
100
AcDbEntity
  8
8
100
AcDbText
 10
5.794389324558379
 20
0.5620000000000003
 30
0.0
 40
0.1
  1
SECTIONS
  7
ROMANS
 72
     1
 11
6.146770276939331
 21
0.5620000000000003
 31
0.0
100
AcDbText
  0
TEXT
  5
3C
330
37
100
AcDbEntity
  8
8
100
AcDbText
 10
5.302053163126957
 20
0.7466010068253098
 30
0.0
 40
0.1
  1
SR
  7
ROMANS
 72
     1
 11
5.399672210746004
 21
0.7466010068253098
 31
0.0
100
AcDbText
  0
LINE
  5
3D
330
37
100
AcDbEntity
  8
4
100
AcDbLine
 10
5.628
 20
4.25
 30
0.0
 11
5.891731602665403
 21
4.25
 31
0.0
  0
LINE
  5
3E
330
37
100
AcDbEntity
  8
4
100
AcDbLine
 10
5.93215881233783
 20
4.25
 30
0.0
 11
6.112622609161773
 21
4.25
 31
0.0
  0
INSERT
  5
3F
330
37
100
AcDbEntity
  8
4
100
AcDbBlockReference
  2
ARRO
 10
5.93215881233783
 20
4.25
 30
0.0
  0
LINE
  5
40
330
37
100
AcDbEntity
  8
4
100
AcDbLine
 10
6.112622609161773
 20
4.25
 30
0.0
 11
6.112622609161773
 21
4.047012330209487
 31
0.0
  0
TEXT
  5
41
330
37
100
AcDbEntity
  8
8
100
AcDbText
 10
6.147622609161773
 20
2.671678996876154
 30
0.0
 40
0.07
  1
ANCHORING BY ERECTOR
 50
90.0
  7
ROMANS
 72
     2
 11
6.147622609161773
 21
3.985012330209487
 31
0.0
100
AcDbText
  0
TEXT
  5
42
330
37
100
AcDbEntity
  8
8
100
AcDbText
 10
4.500499999999999
 20
2.578333333333333
 30
0.0
 40
0.07
  1
LOCKER HEIGHT
 50
90.0
  7
ROMANS
 72
     1
 11
4.500499999999999
 21
3.0
 31
0.0
100
AcDbText
  0
TEXT
  5
43
330
37
100
AcDbEntity
  8
8
100
AcDbText
 10
1.344999999999998
 20
1.062
 30
0.0
 40
0.07
  1
LOCKER WIDTH - SEE SCHEDULE
  7
ROMANS
 72
     1
 11
2.249999999999999
 21
1.062
 31
0.0
100
AcDbText
  0
TEXT
  5
44
330
37
100
AcDbEntity
  8
8
100
AcDbText
 10
1.585714285714285
 20
0.5620000000000003
 30
0.0
 40
0.1
  1
FRONT ELEVATION
  7
ROMANS
 72
     1
 11
2.249999999999999
 21
0.5620000000000003
 31
0.0
100
AcDbText
  0
LINE
  5
45
330
37
100
AcDbEntity
  8
1
100
AcDbLine
 10
0.0
 20
0.0
 30
0.0
 11
8.25
 21
0.0
 31
0.0
  0
LINE
  5
46
330
37
100
AcDbEntity
  8
1
100
AcDbLine
 10
8.25
 20
0.0
 30
0.0
 11
8.25
 21
5.25
 31
0.0
  0
LINE
  5
47
330
37
100
AcDbEntity
  8
1
100
AcDbLine
 10
8.25
 20
5.25
 30
0.0
 11
0.0
 21
5.25
 31
0.0
  0
LINE
  5
48
330
37
100
AcDbEntity
  8
1
100
AcDbLine
 10
0.0
 20
5.25
 30
0.0
 11
0.0
 21
0.0
 31
0.0
  0
LINE
  5
49
330
37
100
AcDbEntity
  8
1
100
AcDbLine
 10
1.0
 20
1.5
 30
0.0
 11
2.5
 21
1.5
 31
0.0
  0
LINE
  5
4A
330
37
100
AcDbEntity
  8
1
100
AcDbLine
 10
1.0
 20
1.5
 30
0.0
 11
1.0
 21
4.5
 31
0.0
  0
LINE
  5
4B
330
37
100
AcDbEntity
  8
1
100
AcDbLine
 10
1.0
 20
4.5
 30
0.0
 11
2.5
 21
4.5
 31
0.0
  0
LINE
  5
4C
330
37
100
AcDbEntity
  8
1
100
AcDbLine
 10
2.625
 20
4.5
 30
0.0
 11
3.5
 21
4.5
 31
0.0
  0
LINE
  5
4D
330
37
100
AcDbEntity
  8
1
100
AcDbLine
 10
3.5
 20
4.5
 30
0.0
 11
3.499999999999999
 21
1.5
 31
0.0
  0
LINE
  5
4E
330
37
100
AcDbEntity
  8
1
100
AcDbLine
 10
3.499999999999999
 20
1.5
 30
0.0
 11
2.624999999999999
 21
1.5
 31
0.0
  0
LINE
  5
4F
330
37
100
AcDbEntity
  8
1
100
AcDbLine
 10
7.0
 20
1.5
 30
0.0
 11
7.0
 21
4.5
 31
0.0
  0
LINE
  5
50
330
37
100
AcDbEntity
  8
1
100
AcDbLine
 10
5.75
 20
1.5
 30
0.0
 11
5.75
 21
4.875
 31
0.0
  0
CIRCLE
  5
51
330
37
100
AcDbEntity
  8
1
100
AcDbCircle
 10
4.125
 20
0.5
 30
0.0
 40
0.1875
  0
LINE
  5
52
330
37
100
AcDbEntity
  8
1
100
AcDbLine
 10
2.625
 20
4.625
 30
0.0
 11
2.625
 21
3.709974179311579
 31
0.0
  0
LINE
  5
53
330
37
100
AcDbEntity
  8
1
100
AcDbLine
 10
2.5
 20
4.625
 30
0.0
 11
2.5
 21
4.344974179311579
 31
0.0
  0
LINE
  5
54
330
37
100
AcDbEntity
  8
1
100
AcDbLine
 10
2.455
 20
4.389974179311579
 30
0.0
 11
2.544999999999999
 21
4.299974179311579
 31
0.0
  0
LINE
  5
55
330
37
100
AcDbEntity
  8
1
100
AcDbLine
 10
2.544999999999999
 20
4.299974179311579
 30
0.0
 11
2.455
 21
4.299974179311579
 31
0.0
  0
LINE
  5
56
330
37
100
AcDbEntity
  8
1
100
AcDbLine
 10
2.455
 20
4.299974179311579
 30
0.0
 11
2.544999999999999
 21
4.209974179311579
 31
0.0
  0
LINE
  5
57
330
37
100
AcDbEntity
  8
1
100
AcDbLine
 10
2.512196030826982
 20
4.242778148484597
 30
0.0
 11
2.512196030826982
 21
3.07567852914767
 31
0.0
  0
LINE
  5
58
330
37
100
AcDbEntity
  8
1
100
AcDbLine
 10
2.454999999999999
 20
3.049974179311579
 30
0.0
 11
2.544999999999999
 21
2.959974179311579
 31
0.0
  0
LINE
  5
59
330
37
100
AcDbEntity
  8
1
100
AcDbLine
 10
2.544999999999999
 20
3.049974179311579
 30
0.0
 11
2.454999999999999
 21
3.049974179311579
 31
0.0
  0
LINE
  5
5A
330
37
100
AcDbEntity
  8
1
100
AcDbLine
 10
2.454999999999999
 20
3.139974179311579
 30
0.0
 11
2.544999999999999
 21
3.049974179311579
 31
0.0
  0
LINE
  5
5B
330
37
100
AcDbEntity
  8
1
100
AcDbLine
 10
2.454999999999999
 20
1.799974179311579
 30
0.0
 11
2.544999999999999
 21
1.709974179311579
 31
0.0
  0
LINE
  5
5C
330
37
100
AcDbEntity
  8
1
100
AcDbLine
 10
2.544999999999999
 20
1.799974179311579
 30
0.0
 11
2.454999999999999
 21
1.799974179311579
 31
0.0
  0
LINE
  5
5D
330
37
100
AcDbEntity
  8
1
100
AcDbLine
 10
2.454999999999999
 20
1.889974179311579
 30
0.0
 11
2.544999999999999
 21
1.799974179311579
 31
0.0
  0
LINE
  5
5E
330
37
100
AcDbEntity
  8
1
100
AcDbLine
 10
2.5
 20
3.004974179311579
 30
0.0
 11
2.5
 21
2.469974179311579
 31
0.0
  0
LINE
  5
5F
330
37
100
AcDbEntity
  8
1
100
AcDbLine
 10
2.5
 20
2.469974179311579
 30
0.0
 11
2.499999999999999
 21
1.844974179311579
 31
0.0
  0
LINE
  5
60
330
37
100
AcDbEntity
  8
1
100
AcDbLine
 10
2.499999999999999
 20
1.754974179311579
 30
0.0
 11
2.499999999999999
 21
1.375
 31
0.0
  0
LINE
  5
61
330
37
100
AcDbEntity
  8
1
100
AcDbLine
 10
2.579999999999999
 20
2.514974179311579
 30
0.0
 11
2.669999999999999
 21
2.424974179311579
 31
0.0
  0
LINE
  5
62
330
37
100
AcDbEntity
  8
1
100
AcDbLine
 10
2.669999999999999
 20
2.424974179311579
 30
0.0
 11
2.579999999999999
 21
2.424974179311579
 31
0.0
  0
LINE
  5
63
330
37
100
AcDbEntity
  8
1
100
AcDbLine
 10
2.579999999999999
 20
2.424974179311579
 30
0.0
 11
2.669999999999999
 21
2.334974179311579
 31
0.0
  0
LINE
  5
64
330
37
100
AcDbEntity
  8
1
100
AcDbLine
 10
2.58
 20
3.754974179311579
 30
0.0
 11
2.669999999999999
 21
3.664974179311579
 31
0.0
  0
LINE
  5
65
330
37
100
AcDbEntity
  8
1
100
AcDbLine
 10
2.669999999999999
 20
3.664974179311579
 30
0.0
 11
2.58
 21
3.664974179311579
 31
0.0
  0
LINE
  5
66
330
37
100
AcDbEntity
  8
1
100
AcDbLine
 10
2.58
 20
3.664974179311579
 30
0.0
 11
2.669999999999999
 21
3.574974179311579
 31
0.0
  0
LINE
  5
67
330
37
100
AcDbEntity
  8
1
100
AcDbLine
 10
2.625
 20
3.625967704151865
 30
0.0
 11
2.625
 21
2.782474179311579
 31
0.0
  0
LINE
  5
68
330
37
100
AcDbEntity
  8
1
100
AcDbLine
 10
2.625
 20
2.782474179311579
 30
0.0
 11
2.625
 21
2.469974179311579
 31
0.0
  0
LINE
  5
69
330
37
100
AcDbEntity
  8
1
100
AcDbLine
 10
2.625
 20
2.379974179311579
 30
0.0
 11
2.624999999999999
 21
1.375
 31
0.0
  0
LINE
  5
6A
330
37
100
AcDbEntity
  8
1
100
AcDbLine
 10
5.75
 20
1.5
 30
0.0
 11
5.937999999999999
 21
1.687999999999999
 31
0.0
  0
LINE
  5
6B
330
37
100
AcDbEntity
  8
1
100
AcDbLine
 10
5.75
 20
1.625
 30
0.0
 11
5.937999999999999
 21
1.812999999999999
 31
0.0
  0
LINE
  5
6C
330
37
100
AcDbEntity
  8
1
100
AcDbLine
 10
5.75
 20
2.0
 30
0.0
 11
5.937999999999999
 21
2.187999999999999
 31
0.0
  0
LINE
  5
6D
330
37
100
AcDbEntity
  8
1
100
AcDbLine
 10
5.75
 20
2.125
 30
0.0
 11
5.937999999999999
 21
2.312999999999999
 31
0.0
  0
LINE
  5
6E
330
37
100
AcDbEntity
  8
1
100
AcDbLine
 10
5.75
 20
2.25
 30
0.0
 11
5.937999999999999
 21
2.437999999999999
 31
0.0
  0
LINE
  5
6F
330
37
100
AcDbEntity
  8
1
100
AcDbLine
 10
5.75
 20
2.375
 30
0.0
 11
5.937999999999999
 21
2.562999999999999
 31
0.0
  0
LINE
  5
70
330
37
100
AcDbEntity
  8
1
100
AcDbLine
 10
5.75
 20
2.5
 30
0.0
 11
5.937999999999999
 21
2.687999999999999
 31
0.0
  0
LINE
  5
71
330
37
100
AcDbEntity
  8
1
100
AcDbLine
 10
5.75
 20
2.625
 30
0.0
 11
5.937999999999999
 21
2.812999999999999
 31
0.0
  0
LINE
  5
72
330
37
100
AcDbEntity
  8
1
100
AcDbLine
 10
5.75
 20
2.75
 30
0.0
 11
5.937999999999999
 21
2.937999999999999
 31
0.0
  0
LINE
  5
73
330
37
100
AcDbEntity
  8
1
100
AcDbLine
 10
5.75
 20
2.875
 30
0.0
 11
5.937999999999999
 21
3.062999999999999
 31
0.0
  0
LINE
  5
74
330
37
100
AcDbEntity
  8
1
100
AcDbLine
 10
5.75
 20
3.0
 30
0.0
 11
5.937999999999999
 21
3.187999999999999
 31
0.0
  0
LINE
  5
75
330
37
100
AcDbEntity
  8
1
100
AcDbLine
 10
5.75
 20
3.125
 30
0.0
 11
5.937999999999999
 21
3.312999999999999
 31
0.0
  0
LINE
  5
76
330
37
100
AcDbEntity
  8
1
100
AcDbLine
 10
5.75
 20
3.25
 30
0.0
 11
5.937999999999999
 21
3.437999999999999
 31
0.0
  0
LINE
  5
77
330
37
100
AcDbEntity
  8
1
100
AcDbLine
 10
5.75
 20
3.375
 30
0.0
 11
5.937999999999999
 21
3.562999999999999
 31
0.0
  0
LINE
  5
78
330
37
100
AcDbEntity
  8
1
100
AcDbLine
 10
5.75
 20
3.5
 30
0.0
 11
5.937999999999999
 21
3.687999999999999
 31
0.0
  0
LINE
  5
79
330
37
100
AcDbEntity
  8
1
100
AcDbLine
 10
5.75
 20
3.625
 30
0.0
 11
5.937999999999999
 21
3.812999999999999
 31
0.0
  0
LINE
  5
7A
330
37
100
AcDbEntity
  8
1
100
AcDbLine
 10
5.75
 20
3.75
 30
0.0
 11
5.937999999999999
 21
3.937999999999999
 31
0.0
  0
LINE
  5
7B
330
37
100
AcDbEntity
  8
1
100
AcDbLine
 10
5.75
 20
3.875
 30
0.0
 11
5.937999999999999
 21
4.062999999999999
 31
0.0
  0
LINE
  5
7C
330
37
100
AcDbEntity
  8
1
100
AcDbLine
 10
5.75
 20
4.0
 30
0.0
 11
5.937999999999999
 21
4.187999999999999
 31
0.0
  0
LINE
  5
7D
330
37
100
AcDbEntity
  8
1
100
AcDbLine
 10
5.75
 20
4.125
 30
0.0
 11
5.937999999999999
 21
4.312999999999999
 31
0.0
  0
LINE
  5
7E
330
37
100
AcDbEntity
  8
1
100
AcDbLine
 10
5.75
 20
4.25
 30
0.0
 11
5.937999999999999
 21
4.437999999999999
 31
0.0
  0
LINE
  5
7F
330
37
100
AcDbEntity
  8
1
100
AcDbLine
 10
5.75
 20
4.375
 30
0.0
 11
5.937999999999999
 21
4.562999999999999
 31
0.0
  0
LINE
  5
80
330
37
100
AcDbEntity
  8
1
100
AcDbLine
 10
5.75
 20
4.5
 30
0.0
 11
5.937999999999999
 21
4.687999999999999
 31
0.0
  0
LINE
  5
81
330
37
100
AcDbEntity
  8
1
100
AcDbLine
 10
5.75
 20
4.625
 30
0.0
 11
5.937999999999999
 21
4.812999999999999
 31
0.0
  0
LINE
  5
82
330
37
100
AcDbEntity
  8
1
100
AcDbLine
 10
5.75
 20
4.75
 30
0.0
 11
5.875
 21
4.875
 31
0.0
  0
LINE
  5
83
330
37
100
AcDbEntity
  8
1
100
AcDbLine
 10
5.69
 20
1.5
 30
0.0
 11
5.69
 21
4.5
 31
0.0
  0
LINE
  5
84
330
37
100
AcDbEntity
  8
4
100
AcDbLine
 10
1.0
 20
1.437999999999999
 30
0.0
 11
0.9999999999999998
 21
0.9379999999999999
 31
0.0
  0
LINE
  5
85
330
37
100
AcDbEntity
  8
4
100
AcDbLine
 10
3.499999999999999
 20
1.437999999999999
 30
0.0
 11
3.499999999999999
 21
0.9379999999999999
 31
0.0
  0
LINE
  5
86
330
37
100
AcDbEntity
  8
4
100
AcDbLine
 10
3.499999999999999
 20
1.0
 30
0.0
 11
0.9999999999999998
 21
1.0
 31
0.0
  0
INSERT
  5
87
330
37
100
AcDbEntity
  8
4
100
AcDbBlockReference
  2
ARRO
 10
0.9999999999999998
 20
1.0
 30
0.0
  0
INSERT
  5
88
330
37
100
AcDbEntity
  8
4
100
AcDbBlockReference
  2
ARRO
 10
3.499999999999999
 20
0.9999999999999998
 30
0.0
 50
180.0
  0
LINE
  5
89
330
37
100
AcDbEntity
  8
4
100
AcDbLine
 10
5.0025
 20
1.5
 30
0.0
 11
4.5025
 21
1.5
 31
0.0
  0
LINE
  5
8A
330
37
100
AcDbEntity
  8
4
100
AcDbLine
 10
4.5625
 20
1.5
 30
0.0
 11
4.5625
 21
4.5
 31
0.0
  0
LINE
  5
8B
330
37
100
AcDbEntity
  8
4
100
AcDbLine
 10
5.0025
 20
4.5
 30
0.0
 11
4.5025
 21
4.5
 31
0.0
  0
INSERT
  5
8C
330
37
100
AcDbEntity
  8
4
100
AcDbBlockReference
  2
ARRO
 10
4.5625
 20
4.5
 30
0.0
 50
270.0
  0
INSERT
  5
8D
330
37
100
AcDbEntity
  8
4
100
AcDbBlockReference
  2
ARRO
 10
4.5625
 20
1.5
 30
0.0
 50
90.0
  0
LINE
  5
8E
330
37
100
AcDbEntity
  8
4
100
AcDbLine
 10
5.69
 20
1.8125
 30
0.0
 11
5.065
 21
1.8125
 31
0.0
  0
LINE
  5
8F
330
37
100
AcDbEntity
  8
4
100
AcDbLine
 10
5.75
 20
1.8125
 30
0.0
 11
6.0
 21
1.8125
 31
0.0
  0
LINE
  5
90
330
37
100
AcDbEntity
  8
4
100
AcDbLine
 10
6.375
 20
1.8125
 30
0.0
 11
7.625
 21
1.8125
 31
0.0
  0
INSERT
  5
91
330
37
100
AcDbEntity
  8
4
100
AcDbBlockReference
  2
ARRO
 10
5.065
 20
1.8125
 30
0.0
  0
INSERT
  5
92
330
37
100
AcDbEntity
  8
4
100
AcDbBlockReference
  2
ARRO
 10
5.69
 20
1.8125
 30
0.0
 50
180.0
  0
INSERT
  5
93
330
37
100
AcDbEntity
  8
4
100
AcDbBlockReference
  2
ARRO
 10
5.75
 20
1.8125
 30
0.0
  0
INSERT
  5
94
330
37
100
AcDbEntity
  8
4
100
AcDbBlockReference
  2
ARRO
 10
6.375
 20
1.8125
 30
0.0
  0
INSERT
  5
95
330
37
100
AcDbEntity
  8
4
100
AcDbBlockReference
  2
ARRO
 10
7.625
 20
1.8125
 30
0.0
 50
180.0
  0
LINE
  5
96
330
37
100
AcDbEntity
  8
1
100
AcDbLine
 10
1.062
 20
1.562
 30
0.0
 11
1.062
 21
2.96900587855713
 31
0.0
  0
LINE
  5
97
330
37
100
AcDbEntity
  8
1
100
AcDbLine
 10
1.062
 20
4.438
 30
0.0
 11
1.563
 21
4.438
 31
0.0
  0
LINE
  5
98
330
37
100
AcDbEntity
  8
1
100
AcDbLine
 10
1.563
 20
4.438
 30
0.0
 11
1.562999999999999
 21
3.03100587855713
 31
0.0
  0
LINE
  5
99
330
37
100
AcDbEntity
  8
1
100
AcDbLine
 10
1.687
 20
1.562
 30
0.0
 11
1.687
 21
2.96900587855713
 31
0.0
  0
LINE
  5
9A
330
37
100
AcDbEntity
  8
1
100
AcDbLine
 10
1.687
 20
4.438
 30
0.0
 11
2.188
 21
4.438
 31
0.0
  0
LINE
  5
9B
330
37
100
AcDbEntity
  8
1
100
AcDbLine
 10
2.188
 20
4.438
 30
0.0
 11
2.188
 21
3.03100587855713
 31
0.0
  0
LINE
  5
9C
330
37
100
AcDbEntity
  8
1
100
AcDbLine
 10
2.187999999999999
 20
1.562
 30
0.0
 11
1.687
 21
1.562
 31
0.0
  0
LINE
  5
9D
330
37
100
AcDbEntity
  8
1
100
AcDbLine
 10
2.312
 20
1.562
 30
0.0
 11
2.312
 21
2.96900587855713
 31
0.0
  0
LINE
  5
9E
330
37
100
AcDbEntity
  8
1
100
AcDbLine
 10
2.312
 20
4.438
 30
0.0
 11
2.5
 21
4.438
 31
0.0
  0
LINE
  5
9F
330
37
100
AcDbEntity
  8
1
100
AcDbLine
 10
2.813
 20
4.438
 30
0.0
 11
2.813
 21
3.03100587855713
 31
0.0
  0
LINE
  5
A0
330
37
100
AcDbEntity
  8
1
100
AcDbLine
 10
2.812999999999999
 20
1.562
 30
0.0
 11
2.625
 21
1.562
 31
0.0
  0
LINE
  5
A1
330
37
100
AcDbEntity
  8
1
100
AcDbLine
 10
2.937
 20
1.562
 30
0.0
 11
2.937
 21
2.96900587855713
 31
0.0
  0
LINE
  5
A2
330
37
100
AcDbEntity
  8
1
100
AcDbLine
 10
2.937
 20
4.438
 30
0.0
 11
3.438
 21
4.438
 31
0.0
  0
LINE
  5
A3
330
37
100
AcDbEntity
  8
1
100
AcDbLine
 10
3.438
 20
4.438
 30
0.0
 11
3.438
 21
3.03100587855713
 31
0.0
  0
LINE
  5
A4
330
37
100
AcDbEntity
  8
1
100
AcDbLine
 10
3.437999999999999
 20
1.562
 30
0.0
 11
2.937
 21
1.562
 31
0.0
  0
LINE
  5
A5
330
37
100
AcDbEntity
  8
1
100
AcDbLine
 10
1.625
 20
1.5
 30
0.0
 11
1.625
 21
4.5
 31
0.0
  0
LINE
  5
A6
330
37
100
AcDbEntity
  8
1
100
AcDbLine
 10
2.25
 20
1.5
 30
0.0
 11
2.25
 21
4.5
 31
0.0
  0
LINE
  5
A7
330
37
100
AcDbEntity
  8
1
100
AcDbLine
 10
2.875
 20
1.5
 30
0.0
 11
2.875
 21
4.5
 31
0.0
  0
LINE
  5
A8
330
37
100
AcDbEntity
  8
1
100
AcDbLine
 10
2.625
 20
4.438
 30
0.0
 11
2.813
 21
4.438
 31
0.0
  0
LINE
  5
A9
330
37
100
AcDbEntity
  8
1
100
AcDbLine
 10
2.499999999999999
 20
1.562
 30
0.0
 11
2.312
 21
1.562
 31
0.0
  0
LINE
  5
AA
330
37
100
AcDbEntity
  8
4
100
AcDbLine
 10
1.9375
 20
4.406
 30
0.0
 11
1.9375
 21
4.531
 31
0.0
  0
CIRCLE
  5
AB
330
37
100
AcDbEntity
  8
4
100
AcDbCircle
 10
1.9375
 20
4.312
 30
0.0
 40
0.094
  0
CIRCLE
  5
AC
330
37
100
AcDbEntity
  8
4
100
AcDbCircle
 10
1.778866710308013
 20
1.373999999999999
 30
0.0
 40
0.094
  0
LINE
  5
AD
330
37
100
AcDbEntity
  8
4
100
AcDbLine
 10
1.778866710308013
 20
1.467999999999999
 30
0.0
 11
1.778866710308013
 21
1.592999999999999
 31
0.0
  0
CIRCLE
  5
AE
330
37
100
AcDbEntity
  8
4
100
AcDbCircle
 10
2.028866710308013
 20
1.373999999999999
 30
0.0
 40
0.094
  0
LINE
  5
AF
330
37
100
AcDbEntity
  8
4
100
AcDbLine
 10
1.872866710308013
 20
1.373999999999999
 30
0.0
 11
1.934866710308013
 21
1.373999999999999
 31
0.0
  0
LINE
  5
B0
330
37
100
AcDbEntity
  8
1
100
AcDbLine
 10
1.062
 20
1.562
 30
0.0
 11
1.562999999999999
 21
1.562
 31
0.0
  0
LINE
  5
B1
330
37
100
AcDbEntity
  8
1
100
AcDbLine
 10
5.203499999999999
 20
4.5
 30
0.0
 11
5.188499999999999
 21
4.484999999999999
 31
0.0
  0
LINE
  5
B2
330
37
100
AcDbEntity
  8
1
100
AcDbLine
 10
5.188499999999999
 20
4.484999999999999
 30
0.0
 11
5.090499999999999
 21
4.484999999999999
 31
0.0
  0
LINE
  5
B3
330
37
100
AcDbEntity
  8
1
100
AcDbLine
 10
5.090499999999999
 20
4.484999999999999
 30
0.0
 11
5.090499999999999
 21
4.456753857562439
 31
0.0
  0
LINE
  5
B4
330
37
100
AcDbEntity
  8
1
100
AcDbLine
 10
5.265499999999999
 20
4.437999999999999
 30
0.0
 11
5.203499999999999
 21
4.5
 31
0.0
  0
LINE
  5
B5
330
37
100
AcDbEntity
  8
1
100
AcDbLine
 10
5.630499999999999
 20
4.437999999999999
 30
0.0
 11
5.265499999999999
 21
4.437999999999999
 31
0.0
  0
LINE
  5
B6
330
37
100
AcDbEntity
  8
1
100
AcDbLine
 10
5.630499999999999
 20
4.5
 30
0.0
 11
5.630499999999999
 21
4.437999999999999
 31
0.0
  0
LINE
  5
B7
330
37
100
AcDbEntity
  8
1
100
AcDbLine
 10
5.670499999999999
 20
4.5
 30
0.0
 11
5.670499999999999
 21
4.437999999999999
 31
0.0
  0
LINE
  5
B8
330
37
100
AcDbEntity
  8
1
100
AcDbLine
 10
5.065499999999999
 20
4.5
 30
0.0
 11
5.173499999999998
 21
4.5
 31
0.0
  0
LINE
  5
B9
330
37
100
AcDbEntity
  8
1
100
AcDbLine
 10
5.065499999999999
 20
4.437999999999999
 30
0.0
 11
5.065499999999999
 21
4.5
 31
0.0
  0
LINE
  5
BA
330
37
100
AcDbEntity
  8
1
100
AcDbLine
 10
5.127499999999999
 20
4.437999999999999
 30
0.0
 11
5.065499999999999
 21
4.437999999999999
 31
0.0
  0
LINE
  5
BB
330
37
100
AcDbEntity
  8
1
100
AcDbLine
 10
5.203499999999999
 20
4.5
 30
0.0
 11
5.670499999999999
 21
4.5
 31
0.0
  0
LINE
  5
BC
330
37
100
AcDbEntity
  8
1
100
AcDbLine
 10
6.513499999999998
 20
4.5
 30
0.0
 11
6.980499999999999
 21
4.5
 31
0.0
  0
LINE
  5
BD
330
37
100
AcDbEntity
  8
1
100
AcDbLine
 10
6.437499999999999
 20
4.437999999999999
 30
0.0
 11
6.375499999999998
 21
4.437999999999999
 31
0.0
  0
LINE
  5
BE
330
37
100
AcDbEntity
  8
1
100
AcDbLine
 10
6.375499999999998
 20
4.437999999999999
 30
0.0
 11
6.375499999999998
 21
4.5
 31
0.0
  0
LINE
  5
BF
330
37
100
AcDbEntity
  8
1
100
AcDbLine
 10
6.375499999999998
 20
4.5
 30
0.0
 11
6.483499999999998
 21
4.5
 31
0.0
  0
LINE
  5
C0
330
37
100
AcDbEntity
  8
1
100
AcDbLine
 10
6.980499999999999
 20
4.5
 30
0.0
 11
6.980499999999999
 21
4.437999999999999
 31
0.0
  0
LINE
  5
C1
330
37
100
AcDbEntity
  8
1
100
AcDbLine
 10
6.940499999999999
 20
4.5
 30
0.0
 11
6.940499999999999
 21
4.437999999999999
 31
0.0
  0
LINE
  5
C2
330
37
100
AcDbEntity
  8
1
100
AcDbLine
 10
6.940499999999999
 20
4.437999999999999
 30
0.0
 11
6.575499999999999
 21
4.437999999999999
 31
0.0
  0
LINE
  5
C3
330
37
100
AcDbEntity
  8
1
100
AcDbLine
 10
6.575499999999999
 20
4.437999999999999
 30
0.0
 11
6.513499999999998
 21
4.5
 31
0.0
  0
LINE
  5
C4
330
37
100
AcDbEntity
  8
1
100
AcDbLine
 10
6.400499999999999
 20
4.484999999999999
 30
0.0
 11
6.400499999999999
 21
4.456753857562439
 31
0.0
  0
LINE
  5
C5
330
37
100
AcDbEntity
  8
1
100
AcDbLine
 10
6.498499999999999
 20
4.484999999999999
 30
0.0
 11
6.400499999999999
 21
4.484999999999999
 31
0.0
  0
LINE
  5
C6
330
37
100
AcDbEntity
  8
1
100
AcDbLine
 10
6.513499999999998
 20
4.5
 30
0.0
 11
6.498499999999999
 21
4.484999999999999
 31
0.0
  0
LINE
  5
C7
330
37
100
AcDbEntity
  8
1
100
AcDbLine
 10
7.486500000000001
 20
4.5
 30
0.0
 11
7.5015
 21
4.484999999999999
 31
0.0
  0
LINE
  5
C8
330
37
100
AcDbEntity
  8
1
100
AcDbLine
 10
7.5015
 20
4.484999999999999
 30
0.0
 11
7.5995
 21
4.484999999999999
 31
0.0
  0
LINE
  5
C9
330
37
100
AcDbEntity
  8
1
100
AcDbLine
 10
7.5995
 20
4.484999999999999
 30
0.0
 11
7.5995
 21
4.456753857562439
 31
0.0
  0
LINE
  5
CA
330
37
100
AcDbEntity
  8
1
100
AcDbLine
 10
7.4245
 20
4.437999999999999
 30
0.0
 11
7.486500000000001
 21
4.5
 31
0.0
  0
LINE
  5
CB
330
37
100
AcDbEntity
  8
1
100
AcDbLine
 10
7.0595
 20
4.437999999999999
 30
0.0
 11
7.4245
 21
4.437999999999999
 31
0.0
  0
LINE
  5
CC
330
37
100
AcDbEntity
  8
1
100
AcDbLine
 10
7.0595
 20
4.5
 30
0.0
 11
7.0595
 21
4.437999999999999
 31
0.0
  0
LINE
  5
CD
330
37
100
AcDbEntity
  8
1
100
AcDbLine
 10
7.0195
 20
4.5
 30
0.0
 11
7.0195
 21
4.437999999999999
 31
0.0
  0
LINE
  5
CE
330
37
100
AcDbEntity
  8
1
100
AcDbLine
 10
7.624500000000001
 20
4.5
 30
0.0
 11
7.516500000000001
 21
4.5
 31
0.0
  0
LINE
  5
CF
330
37
100
AcDbEntity
  8
1
100
AcDbLine
 10
7.624500000000001
 20
4.437999999999999
 30
0.0
 11
7.624500000000001
 21
4.5
 31
0.0
  0
LINE
  5
D0
330
37
100
AcDbEntity
  8
1
100
AcDbLine
 10
7.5625
 20
4.437999999999999
 30
0.0
 11
7.624500000000001
 21
4.437999999999999
 31
0.0
  0
LINE
  5
D1
330
37
100
AcDbEntity
  8
1
100
AcDbLine
 10
7.486500000000001
 20
4.5
 30
0.0
 11
7.0195
 21
4.5
 31
0.0
  0
LINE
  5
D2
330
37
100
AcDbEntity
  8
1
100
AcDbLine
 10
7.486500000000001
 20
1.5625
 30
0.0
 11
7.0195
 21
1.5625
 31
0.0
  0
LINE
  5
D3
330
37
100
AcDbEntity
  8
1
100
AcDbLine
 10
7.5625
 20
1.500499999999999
 30
0.0
 11
7.624500000000001
 21
1.500499999999999
 31
0.0
  0
LINE
  5
D4
330
37
100
AcDbEntity
  8
1
100
AcDbLine
 10
7.624500000000001
 20
1.500499999999999
 30
0.0
 11
7.624500000000001
 21
1.5625
 31
0.0
  0
LINE
  5
D5
330
37
100
AcDbEntity
  8
1
100
AcDbLine
 10
7.624500000000001
 20
1.5625
 30
0.0
 11
7.516500000000001
 21
1.5625
 31
0.0
  0
LINE
  5
D6
330
37
100
AcDbEntity
  8
1
100
AcDbLine
 10
7.0195
 20
1.5625
 30
0.0
 11
7.0195
 21
1.500499999999999
 31
0.0
  0
LINE
  5
D7
330
37
100
AcDbEntity
  8
1
100
AcDbLine
 10
7.0595
 20
1.5625
 30
0.0
 11
7.0595
 21
1.500499999999999
 31
0.0
  0
LINE
  5
D8
330
37
100
AcDbEntity
  8
1
100
AcDbLine
 10
7.0595
 20
1.500499999999999
 30
0.0
 11
7.4245
 21
1.500499999999999
 31
0.0
  0
LINE
  5
D9
330
37
100
AcDbEntity
  8
1
100
AcDbLine
 10
7.4245
 20
1.500499999999999
 30
0.0
 11
7.486500000000001
 21
1.5625
 31
0.0
  0
LINE
  5
DA
330
37
100
AcDbEntity
  8
1
100
AcDbLine
 10
7.5995
 20
1.547499999999999
 30
0.0
 11
7.5995
 21
1.519253857562439
 31
0.0
  0
LINE
  5
DB
330
37
100
AcDbEntity
  8
1
100
AcDbLine
 10
7.5015
 20
1.547499999999999
 30
0.0
 11
7.5995
 21
1.547499999999999
 31
0.0
  0
LINE
  5
DC
330
37
100
AcDbEntity
  8
1
100
AcDbLine
 10
7.486500000000001
 20
1.5625
 30
0.0
 11
7.5015
 21
1.547499999999999
 31
0.0
  0
LINE
  5
DD
330
37
100
AcDbEntity
  8
1
100
AcDbLine
 10
6.513499999999998
 20
1.5625
 30
0.0
 11
6.498499999999999
 21
1.547499999999999
 31
0.0
  0
LINE
  5
DE
330
37
100
AcDbEntity
  8
1
100
AcDbLine
 10
6.498499999999999
 20
1.547499999999999
 30
0.0
 11
6.400499999999999
 21
1.547499999999999
 31
0.0
  0
LINE
  5
DF
330
37
100
AcDbEntity
  8
1
100
AcDbLine
 10
6.400499999999999
 20
1.547499999999999
 30
0.0
 11
6.400499999999999
 21
1.519253857562439
 31
0.0
  0
LINE
  5
E0
330
37
100
AcDbEntity
  8
1
100
AcDbLine
 10
6.575499999999999
 20
1.500499999999999
 30
0.0
 11
6.513499999999998
 21
1.5625
 31
0.0
  0
LINE
  5
E1
330
37
100
AcDbEntity
  8
1
100
AcDbLine
 10
6.940499999999999
 20
1.500499999999999
 30
0.0
 11
6.575499999999999
 21
1.500499999999999
 31
0.0
  0
LINE
  5
E2
330
37
100
AcDbEntity
  8
1
100
AcDbLine
 10
6.940499999999999
 20
1.5625
 30
0.0
 11
6.940499999999999
 21
1.500499999999999
 31
0.0
  0
LINE
  5
E3
330
37
100
AcDbEntity
  8
1
100
AcDbLine
 10
6.980499999999999
 20
1.5625
 30
0.0
 11
6.980499999999999
 21
1.500499999999999
 31
0.0
  0
LINE
  5
E4
330
37
100
AcDbEntity
  8
1
100
AcDbLine
 10
6.375499999999998
 20
1.5625
 30
0.0
 11
6.483499999999998
 21
1.5625
 31
0.0
  0
LINE
  5
E5
330
37
100
AcDbEntity
  8
1
100
AcDbLine
 10
6.375499999999998
 20
1.500499999999999
 30
0.0
 11
6.375499999999998
 21
1.5625
 31
0.0
  0
LINE
  5
E6
330
37
100
AcDbEntity
  8
1
100
AcDbLine
 10
6.437499999999999
 20
1.500499999999999
 30
0.0
 11
6.375499999999998
 21
1.500499999999999
 31
0.0
  0
LINE
  5
E7
330
37
100
AcDbEntity
  8
1
100
AcDbLine
 10
6.513499999999998
 20
1.5625
 30
0.0
 11
6.980499999999999
 21
1.5625
 31
0.0
  0
LINE
  5
E8
330
37
100
AcDbEntity
  8
1
100
AcDbLine
 10
5.203499999999999
 20
1.5625
 30
0.0
 11
5.670499999999999
 21
1.5625
 31
0.0
  0
LINE
  5
E9
330
37
100
AcDbEntity
  8
1
100
AcDbLine
 10
5.127499999999999
 20
1.500499999999999
 30
0.0
 11
5.065499999999999
 21
1.500499999999999
 31
0.0
  0
LINE
  5
EA
330
37
100
AcDbEntity
  8
1
100
AcDbLine
 10
5.065499999999999
 20
1.500499999999999
 30
0.0
 11
5.065499999999999
 21
1.5625
 31
0.0
  0
LINE
  5
EB
330
37
100
AcDbEntity
  8
1
100
AcDbLine
 10
5.065499999999999
 20
1.5625
 30
0.0
 11
5.173499999999998
 21
1.5625
 31
0.0
  0
LINE
  5
EC
330
37
100
AcDbEntity
  8
1
100
AcDbLine
 10
5.670499999999999
 20
1.5625
 30
0.0
 11
5.670499999999999
 21
1.500499999999999
 31
0.0
  0
LINE
  5
ED
330
37
100
AcDbEntity
  8
1
100
AcDbLine
 10
5.630499999999999
 20
1.5625
 30
0.0
 11
5.630499999999999
 21
1.500499999999999
 31
0.0
  0
LINE
  5
EE
330
37
100
AcDbEntity
  8
1
100
AcDbLine
 10
5.630499999999999
 20
1.500499999999999
 30
0.0
 11
5.265499999999999
 21
1.500499999999999
 31
0.0
  0
LINE
  5
EF
330
37
100
AcDbEntity
  8
1
100
AcDbLine
 10
5.265499999999999
 20
1.500499999999999
 30
0.0
 11
5.203499999999999
 21
1.5625
 31
0.0
  0
LINE
  5
F0
330
37
100
AcDbEntity
  8
1
100
AcDbLine
 10
5.090499999999999
 20
1.547499999999999
 30
0.0
 11
5.090499999999999
 21
1.519253857562439
 31
0.0
  0
LINE
  5
F1
330
37
100
AcDbEntity
  8
1
100
AcDbLine
 10
5.188499999999999
 20
1.547499999999999
 30
0.0
 11
5.090499999999999
 21
1.547499999999999
 31
0.0
  0
LINE
  5
F2
330
37
100
AcDbEntity
  8
1
100
AcDbLine
 10
5.203499999999999
 20
1.5625
 30
0.0
 11
5.188499999999999
 21
1.547499999999999
 31
0.0
  0
LINE
  5
F3
330
37
100
AcDbEntity
  8
1
100
AcDbLine
 10
1.062
 20
3.03100587855713
 30
0.0
 11
1.062
 21
4.438
 31
0.0
  0
LINE
  5
F4
330
37
100
AcDbEntity
  8
1
100
AcDbLine
 10
1.562999999999999
 20
2.96900587855713
 30
0.0
 11
1.562999999999999
 21
1.562
 31
0.0
  0
LINE
  5
F5
330
37
100
AcDbEntity
  8
1
100
AcDbLine
 10
1.687
 20
3.03100587855713
 30
0.0
 11
1.687
 21
4.438
 31
0.0
  0
LINE
  5
F6
330
37
100
AcDbEntity
  8
1
100
AcDbLine
 10
2.187999999999999
 20
2.96900587855713
 30
0.0
 11
2.187999999999999
 21
1.562
 31
0.0
  0
LINE
  5
F7
330
37
100
AcDbEntity
  8
1
100
AcDbLine
 10
2.312
 20
3.03100587855713
 30
0.0
 11
2.312
 21
4.438
 31
0.0
  0
LINE
  5
F8
330
37
100
AcDbEntity
  8
1
100
AcDbLine
 10
2.812999999999999
 20
2.96900587855713
 30
0.0
 11
2.812999999999999
 21
1.562
 31
0.0
  0
LINE
  5
F9
330
37
100
AcDbEntity
  8
1
100
AcDbLine
 10
2.937
 20
3.03100587855713
 30
0.0
 11
2.937
 21
4.438
 31
0.0
  0
LINE
  5
FA
330
37
100
AcDbEntity
  8
1
100
AcDbLine
 10
3.437999999999999
 20
2.96900587855713
 30
0.0
 11
3.437999999999999
 21
1.562
 31
0.0
  0
ENDBLK
  5
FC
330
37
100
AcDbEntity
  8
0
100
AcDbBlockEnd
  0
BLOCK
  5
102
330
FF
100
AcDbEntity
  8
8
100
AcDbBlockBegin
  2
TEMP3
 70
     0
 10
0.0
 20
0.0
 30
0.0
  3
TEMP3
  1

  0
TEXT
  5
100
330
FF
100
AcDbEntity
  8
8
100
AcDbText
 10
0.03
 20
0.0619999999999998
 30
0.0
 40
0.07
  1
HANDLE & P/A
 50
90.0
  7
ROMANS
100
AcDbText
  0
TEXT
  5
101
330
FF
100
AcDbEntity
  8
8
100
AcDbText
 10
0.03
 20
-1.33310960351371
 30
0.0
 40
0.07
  1
LOCK ESCUTCHEON
 50
90.0
  7
ROMANS
 72
     2
 11
0.03
 21
-0.3264429368470441
 31
0.0
100
AcDbText
  0
ENDBLK
  5
103
330
FF
100
AcDbEntity
  8
8
100
AcDbBlockEnd
  0
BLOCK
  5
10F
330
104
100
AcDbEntity
  8
4
100
AcDbBlockBegin
  2
ARRO2
 70
     0
 10
0.0
 20
0.0
 30
0.0
  3
ARRO2
  1

  0
LINE
  5
105
330
104
100
AcDbEntity
  8
4
100
AcDbLine
 10
-0.124999999999992
 20
-0.0200000000000005
 30
0.0
 11
0.000000000000008
 21
-0.0000000000000009
 31
0.0
  0
LINE
  5
106
330
104
100
AcDbEntity
  8
4
100
AcDbLine
 10
0.000000000000008
 20
-0.0000000000000009
 30
0.0
 11
-0.124999999999992
 21
0.0199999999999996
 31
0.0
  0
LINE
  5
107
330
104
100
AcDbEntity
  8
4
100
AcDbLine
 10
-0.124999999999992
 20
-0.0099999999999998
 30
0.0
 11
0.000000000000008
 21
-0.0000000000000009
 31
0.0
  0
LINE
  5
108
330
104
100
AcDbEntity
  8
4
100
AcDbLine
 10
-0.124999999999992
 20
0.0099999999999998
 30
0.0
 11
0.0000000000000089
 21
-0.0000000000000009
 31
0.0
  0
LINE
  5
109
330
104
100
AcDbEntity
  8
4
100
AcDbLine
 10
-0.124999999999992
 20
-0.0200000000000005
 30
0.0
 11
-0.124999999999992
 21
0.0199999999999996
 31
0.0
  0
LINE
  5
10A
330
104
100
AcDbEntity
  8
4
100
AcDbLine
 10
0.1250000000000124
 20
0.0199999999999987
 30
0.0
 11
0.1250000000000124
 21
-0.0200000000000014
 31
0.0
  0
LINE
  5
10B
330
104
100
AcDbEntity
  8
4
100
AcDbLine
 10
0.1250000000000124
 20
-0.0100000000000016
 30
0.0
 11
0.0000000000000115
 21
-0.0000000000000009
 31
0.0
  0
LINE
  5
10C
330
104
100
AcDbEntity
  8
4
100
AcDbLine
 10
0.1250000000000124
 20
0.009999999999998
 30
0.0
 11
0.0000000000000124
 21
-0.0000000000000009
 31
0.0
  0
LINE
  5
10D
330
104
100
AcDbEntity
  8
4
100
AcDbLine
 10
0.0000000000000124
 20
-0.0000000000000009
 30
0.0
 11
0.1250000000000124
 21
-0.0200000000000014
 31
0.0
  0
LINE
  5
10E
330
104
100
AcDbEntity
  8
4
100
AcDbLine
 10
0.1250000000000124
 20
0.0199999999999987
 30
0.0
 11
0.0000000000000124
 21
-0.0000000000000009
 31
0.0
  0
ENDBLK
  5
110
330
104
100
AcDbEntity
  8
4
100
AcDbBlockEnd
  0
BLOCK
  5
207
330
111
100
AcDbEntity
  8
0
100
AcDbBlockBegin
  2
SPL2CORRIDORDT72
 70
     0
 10
0.0
 20
0.0
 30
0.0
  3
SPL2CORRIDORDT72
  1

  4
SPL2 CORRIDOR DT 72
  0
TEXT
  5
112
330
111
100
AcDbEntity
  8
8
100
AcDbText
 10
1.422619047619047
 20
0.0940382753335138
 30
0.0
 40
0.125
  1
SINGLE POINT 2 ATHLETIC LOCKER - 72" DOUBLE TIER
  7
ROMANS
 72
     1
 11
4.125
 21
0.0940382753335138
 31
0.0
100
AcDbText
  0
LINE
  5
113
330
111
100
AcDbEntity
  8
4
100
AcDbLine
 10
1.531
 20
1.594042637600133
 30
0.0
 11
1.531
 21
2.93706547269071
 31
0.0
  0
LINE
  5
114
330
111
100
AcDbEntity
  8
4
100
AcDbLine
 10
1.094
 20
2.937044153890644
 30
0.0
 11
1.094
 21
1.594021318800067
 31
0.0
  0
LINE
  5
115
330
111
100
AcDbEntity
  8
4
100
AcDbLine
 10
1.967
 20
2.911084459323294
 30
0.0
 11
1.967
 21
2.849084459323293
 31
0.0
  0
LINE
  5
116
330
111
100
AcDbEntity
  8
4
100
AcDbLine
 10
1.905
 20
2.911084459323294
 30
0.0
 11
1.905
 21
2.849084459323293
 31
0.0
  0
LINE
  5
117
330
111
100
AcDbEntity
  8
4
100
AcDbLine
 10
3.155
 20
2.911084459323294
 30
0.0
 11
3.155
 21
2.849084459323293
 31
0.0
  0
LINE
  5
118
330
111
100
AcDbEntity
  8
4
100
AcDbLine
 10
3.217
 20
2.911084459323294
 30
0.0
 11
3.217
 21
2.849084459323293
 31
0.0
  0
ARC
  5
119
330
111
100
AcDbEntity
  8
4
100
AcDbCircle
 10
1.712
 20
2.874084459323295
 30
0.0
 40
0.025
100
AcDbArc
 50
180.0
 51
0.0
  0
ARC
  5
11A
330
111
100
AcDbEntity
  8
4
100
AcDbCircle
 10
2.163
 20
2.874084459323295
 30
0.0
 40
0.025
100
AcDbArc
 50
180.0
 51
0.0
  0
ARC
  5
11B
330
111
100
AcDbEntity
  8
4
100
AcDbCircle
 10
2.336999999999999
 20
2.874084459323295
 30
0.0
 40
0.025
100
AcDbArc
 50
180.0
 51
0.0
  0
ARC
  5
11C
330
111
100
AcDbEntity
  8
4
100
AcDbCircle
 10
2.788
 20
2.874084459323295
 30
0.0
 40
0.025
100
AcDbArc
 50
180.0
 51
0.0
  0
ARC
  5
11D
330
111
100
AcDbEntity
  8
4
100
AcDbCircle
 10
2.961999999999999
 20
2.874084459323295
 30
0.0
 40
0.025
100
AcDbArc
 50
180.0
 51
0.0
  0
ARC
  5
11E
330
111
100
AcDbEntity
  8
4
100
AcDbCircle
 10
3.413
 20
2.874084459323295
 30
0.0
 40
0.025
100
AcDbArc
 50
180.0
 51
0.0
  0
INSERT
  5
11F
330
111
100
AcDbEntity
  8
8
100
AcDbBlockReference
  2
TEMP3
 10
0.585911882523317
 20
3.936866340648614
 30
0.0
  0
LINE
  5
120
330
111
100
AcDbEntity
  8
4
  6
HIDDEN
100
AcDbLine
 10
1.505822237817195
 20
1.602421185526712
 30
0.0
 11
1.505822237817193
 21
2.933061388106862
 31
0.0
  0
LINE
  5
121
330
111
100
AcDbEntity
  8
4
  6
HIDDEN
100
AcDbLine
 10
1.434551490212087
 20
1.602421185526708
 30
0.0
 11
1.434551490212085
 21
2.933061388106855
 31
0.0
  0
LINE
  5
122
330
111
100
AcDbEntity
  8
4
  6
HIDDEN
100
AcDbLine
 10
1.48408857577278
 20
1.602421185526708
 30
0.0
 11
1.48408857577278
 21
2.933061388106859
 31
0.0
  0
LINE
  5
123
330
111
100
AcDbEntity
  8
4
  6
HIDDEN
100
AcDbLine
 10
1.412817828167671
 20
1.602421185526708
 30
0.0
 11
1.412817828167671
 21
2.933061388106855
 31
0.0
  0
POINT
  5
124
330
111
100
AcDbEntity
  8
4
100
AcDbPoint
 10
0.0
 20
0.0
 30
0.0
  0
ARC
  5
125
330
111
100
AcDbEntity
  8
4
100
AcDbCircle
 10
1.244149660466558
 20
2.186885603436721
 30
0.0
 40
0.0256985868768425
100
AcDbArc
 50
270.0
 51
356.4236656250017
  0
ARC
  5
126
330
111
100
AcDbEntity
  8
4
100
AcDbCircle
 10
1.151953069968031
 20
2.186885603436721
 30
0.0
 40
0.0256985868768425
100
AcDbArc
 50
183.5763343749981
 51
270.0
  0
LINE
  5
127
330
111
100
AcDbEntity
  8
4
100
AcDbLine
 10
1.094
 20
1.594021318800067
 30
0.0
 11
1.531
 21
1.594042637600133
 31
0.0
  0
LINE
  5
128
330
111
100
AcDbEntity
  8
4
100
AcDbLine
 10
1.505822237817195
 20
1.602421185526712
 30
0.0
 11
1.412817828167671
 21
1.602421185526708
 31
0.0
  0
LINE
  5
129
330
111
100
AcDbEntity
  8
4
100
AcDbLine
 10
1.52426941772273
 20
1.904511645446078
 30
0.0
 11
1.52426941772273
 21
1.825580271467206
 31
0.0
  0
LINE
  5
12A
330
111
100
AcDbEntity
  8
4
100
AcDbLine
 10
1.52426941772273
 20
1.825580271467206
 30
0.0
 11
1.531
 21
1.825580271467206
 31
0.0
  0
LINE
  5
12B
330
111
100
AcDbEntity
  8
4
100
AcDbLine
 10
1.544852619642949
 20
1.86351921764771
 30
0.0
 11
1.514478865504616
 21
1.86351921764771
 31
0.0
  0
LINE
  5
12C
330
111
100
AcDbEntity
  8
4
100
AcDbLine
 10
1.531
 20
1.904511645446078
 30
0.0
 11
1.52426941772273
 21
1.904511645446078
 31
0.0
  0
ARC
  5
12D
330
111
100
AcDbEntity
  8
4
100
AcDbCircle
 10
1.145459102735284
 20
2.349643320323391
 30
0.0
 40
0.0293698135735343
100
AcDbArc
 50
90.0
 51
183.5763343749981
  0
LINE
  5
12E
330
111
100
AcDbEntity
  8
4
100
AcDbLine
 10
1.116146484568654
 20
2.347811281687974
 30
0.0
 11
1.126304529072233
 21
2.185282569630736
 31
0.0
  0
LINE
  5
12F
330
111
100
AcDbEntity
  8
4
100
AcDbLine
 10
1.279956245865935
 20
2.347811281687974
 30
0.0
 11
1.269798201362358
 21
2.185282569630736
 31
0.0
  0
LINE
  5
130
330
111
100
AcDbEntity
  8
4
100
AcDbLine
 10
1.264668981930719
 20
2.338632023375272
 30
0.0
 11
1.256397779607717
 21
2.20631122328864
 31
0.0
  0
LINE
  5
131
330
111
100
AcDbEntity
  8
4
100
AcDbLine
 10
1.149472065679888
 20
2.3394613988734
 30
0.0
 11
1.171956447818694
 21
2.316977016734594
 31
0.0
  0
LINE
  5
132
330
111
100
AcDbEntity
  8
4
 62
   130
100
AcDbLine
 10
1.147713772250281
 20
2.336012551315049
 30
0.0
 11
1.168507600260344
 21
2.315218723304984
 31
0.0
  0
LINE
  5
133
330
111
100
AcDbEntity
  8
4
100
AcDbLine
 10
1.152933331403227
 20
2.342922664596738
 30
0.0
 11
1.175417713542033
 21
2.320438282457932
 31
0.0
  0
LINE
  5
134
330
111
100
AcDbEntity
  8
4
 62
   130
100
AcDbLine
 10
1.156353091495735
 20
2.344651870560497
 30
0.0
 11
1.177146919505798
 21
2.323858042550439
 31
0.0
  0
LINE
  5
135
330
111
100
AcDbEntity
  8
4
100
AcDbLine
 10
1.131433748503869
 20
2.338632023375272
 30
0.0
 11
1.139704950826872
 21
2.20629278620723
 31
0.0
  0
LINE
  5
136
330
111
100
AcDbEntity
  8
4
100
AcDbLine
 10
1.198051365217294
 20
2.161187016559879
 30
0.0
 11
1.244149660466558
 21
2.161187016559879
 31
0.0
  0
ARC
  5
137
330
111
100
AcDbEntity
  8
4
100
AcDbCircle
 10
1.236856034163298
 20
2.207532582378919
 30
0.0
 40
0.0195798757156895
100
AcDbArc
 50
270.0
 51
356.4236656250017
  0
CIRCLE
  5
138
330
111
100
AcDbEntity
  8
4
100
AcDbCircle
 10
1.198051365217294
 20
2.307394843497864
 30
0.0
 40
0.0042684129060203
  0
CIRCLE
  5
139
330
111
100
AcDbEntity
  8
4
100
AcDbCircle
 10
1.198051365217294
 20
2.221791626868867
 30
0.0
 40
0.0042684129060203
  0
CIRCLE
  5
13A
330
111
100
AcDbEntity
  8
4
100
AcDbCircle
 10
1.198051365217294
 20
2.172200696649957
 30
0.0
 40
0.0070448392825051
  0
LINE
  5
13B
330
111
100
AcDbEntity
  8
4
100
AcDbLine
 10
1.198051365217294
 20
2.187952706663225
 30
0.0
 11
1.236856034163298
 21
2.18795270666323
 31
0.0
  0
LINE
  5
13C
330
111
100
AcDbEntity
  8
4
100
AcDbLine
 10
1.170211969894131
 20
2.325644026105834
 30
0.0
 11
1.166750704170794
 21
2.322182760382496
 31
0.0
  0
LINE
  5
13D
330
111
100
AcDbEntity
  8
4
100
AcDbLine
 10
1.171956447818694
 20
2.316977016734594
 30
0.0
 11
1.175417713542033
 21
2.320438282457932
 31
0.0
  0
ARC
  5
13E
330
111
100
AcDbEntity
  8
4
 62
   130
100
AcDbCircle
 10
1.172827259883071
 20
2.319538382927714
 30
0.0
 40
0.0061089212232951
100
AcDbArc
 50
224.9999999999999
 51
44.99999999999996
  0
ARC
  5
13F
330
111
100
AcDbEntity
  8
4
100
AcDbCircle
 10
1.159246696271291
 20
2.207532582378919
 30
0.0
 40
0.0195798757156895
100
AcDbArc
 50
183.5763343749981
 51
270.0
  0
CIRCLE
  5
140
330
111
100
AcDbEntity
  8
4
100
AcDbCircle
 10
1.198051365217294
 20
2.264593235183364
 30
0.0
 40
0.0128492934384212
  0
LINE
  5
141
330
111
100
AcDbEntity
  8
4
100
AcDbLine
 10
1.198051365217294
 20
2.161187016559879
 30
0.0
 11
1.151953069968031
 21
2.161187016559879
 31
0.0
  0
LINE
  5
142
330
111
100
AcDbEntity
  8
4
100
AcDbLine
 10
1.198051365217294
 20
2.187952706663225
 30
0.0
 11
1.159246696271291
 21
2.18795270666323
 31
0.0
  0
LINE
  5
143
330
111
100
AcDbEntity
  8
4
100
AcDbLine
 10
1.198051365217294
 20
2.359433258181236
 30
0.0
 11
1.245127236486302
 21
2.359433258181236
 31
0.0
  0
LINE
  5
144
330
111
100
AcDbEntity
  8
4
100
AcDbLine
 10
1.198051365217294
 20
2.379013133896924
 30
0.0
 11
1.250643627699306
 21
2.379013133896924
 31
0.0
  0
LINE
  5
145
330
111
100
AcDbEntity
  8
4
100
AcDbLine
 10
1.152933331403227
 20
2.342922664596738
 30
0.0
 11
1.149472065679888
 21
2.3394613988734
 31
0.0
  0
ARC
  5
146
330
111
100
AcDbEntity
  8
4
 62
   130
100
AcDbCircle
 10
1.152033431873008
 20
2.340332210937774
 30
0.0
 40
0.0061089212232951
100
AcDbArc
 50
44.99999999999996
 51
224.9999999999999
  0
LINE
  5
147
330
111
100
AcDbEntity
  8
4
100
AcDbLine
 10
1.158139075051126
 20
2.337716920948841
 30
0.0
 11
1.154677809327789
 21
2.334255655225503
 31
0.0
  0
ARC
  5
148
330
111
100
AcDbEntity
  8
4
100
AcDbCircle
 10
1.150975493948287
 20
2.339853382465545
 30
0.0
 40
0.0195798757156895
100
AcDbArc
 50
90.0
 51
183.5763343749981
  0
LINE
  5
149
330
111
100
AcDbEntity
  8
4
100
AcDbLine
 10
1.198051365217294
 20
2.359433258181236
 30
0.0
 11
1.150975493948287
 21
2.359433258181236
 31
0.0
  0
LINE
  5
14A
330
111
100
AcDbEntity
  8
4
100
AcDbLine
 10
1.198051365217294
 20
2.379013133896924
 30
0.0
 11
1.145459102735284
 21
2.379013133896924
 31
0.0
  0
ARC
  5
14B
330
111
100
AcDbEntity
  8
4
100
AcDbCircle
 10
1.250643627699306
 20
2.349643320323391
 30
0.0
 40
0.0293698135735343
100
AcDbArc
 50
356.4236656250017
 51
90.0
  0
ARC
  5
14C
330
111
100
AcDbEntity
  8
4
100
AcDbCircle
 10
1.245127236486302
 20
2.339853382465545
 30
0.0
 40
0.0195798757156895
100
AcDbArc
 50
356.4236656250017
 51
90.0
  0
LINE
  5
14D
330
111
100
AcDbEntity
  8
4
100
AcDbLine
 10
1.524269417722734
 20
2.707264855301528
 30
0.0
 11
1.52426941772273
 21
2.628333481322656
 31
0.0
  0
LINE
  5
14E
330
111
100
AcDbEntity
  8
4
100
AcDbLine
 10
1.536633794702242
 20
2.666272427503157
 30
0.0
 11
1.516086921089397
 21
2.666272427503157
 31
0.0
  0
LINE
  5
14F
330
111
100
AcDbEntity
  8
4
100
AcDbLine
 10
1.52426941772273
 20
2.628333481322656
 30
0.0
 11
1.531
 21
2.628333481322656
 31
0.0
  0
LINE
  5
150
330
111
100
AcDbEntity
  8
4
100
AcDbLine
 10
1.531
 20
2.707264855301528
 30
0.0
 11
1.524269417722734
 21
2.707264855301528
 31
0.0
  0
LINE
  5
151
330
111
100
AcDbEntity
  8
4
  6
HIDDEN
100
AcDbLine
 10
1.412817828167671
 20
3.071399866726641
 30
0.0
 11
1.412817828167671
 21
4.402040069306789
 31
0.0
  0
LINE
  5
152
330
111
100
AcDbEntity
  8
4
  6
HIDDEN
100
AcDbLine
 10
1.505822237817195
 20
3.071399866726645
 30
0.0
 11
1.505822237817193
 21
4.402040069306796
 31
0.0
  0
LINE
  5
153
330
111
100
AcDbEntity
  8
4
  6
HIDDEN
100
AcDbLine
 10
1.434551490212087
 20
3.071399866726641
 30
0.0
 11
1.434551490212085
 21
4.402040069306789
 31
0.0
  0
LINE
  5
154
330
111
100
AcDbEntity
  8
4
  6
HIDDEN
100
AcDbLine
 10
1.48408857577278
 20
3.071399866726641
 30
0.0
 11
1.48408857577278
 21
4.402040069306792
 31
0.0
  0
LINE
  5
155
330
111
100
AcDbEntity
  8
4
100
AcDbLine
 10
1.094
 20
4.406022835090578
 30
0.0
 11
1.094
 21
3.063
 31
0.0
  0
LINE
  5
156
330
111
100
AcDbEntity
  8
4
100
AcDbLine
 10
1.531
 20
3.063021318800066
 30
0.0
 11
1.531
 21
4.406044153890643
 31
0.0
  0
LINE
  5
157
330
111
100
AcDbEntity
  8
4
100
AcDbLine
 10
0.9609118825233169
 20
3.734522076945322
 30
0.0
 11
0.585911882523317
 21
3.734522076945322
 31
0.0
  0
LINE
  5
158
330
111
100
AcDbEntity
  8
4
100
AcDbLine
 10
0.9609118825233169
 20
3.874866340648615
 30
0.0
 11
0.585911882523317
 21
3.874866340648615
 31
0.0
  0
LINE
  5
159
330
111
100
AcDbEntity
  8
4
100
AcDbLine
 10
0.585911882523317
 20
3.874866340648615
 30
0.0
 11
0.585911882523317
 21
3.936866340648614
 31
0.0
  0
LINE
  5
15A
330
111
100
AcDbEntity
  8
4
100
AcDbLine
 10
0.585911882523317
 20
3.734522076945322
 30
0.0
 11
0.585911882523317
 21
3.672522076945323
 31
0.0
  0
LINE
  5
15B
330
111
100
AcDbEntity
  8
4
100
AcDbLine
 10
1.531
 20
2.93706547269071
 30
0.0
 11
1.094
 21
2.937044153890644
 31
0.0
  0
LINE
  5
15C
330
111
100
AcDbEntity
  8
4
100
AcDbLine
 10
1.094
 20
3.063
 30
0.0
 11
1.531
 21
3.063021318800066
 31
0.0
  0
LINE
  5
15D
330
111
100
AcDbEntity
  8
4
100
AcDbLine
 10
1.062
 20
3.031044153890644
 30
0.0
 11
1.562999999999999
 21
3.031044153890644
 31
0.0
  0
LINE
  5
15E
330
111
100
AcDbEntity
  8
4
100
AcDbLine
 10
1.062
 20
2.969044153890644
 30
0.0
 11
1.562999999999999
 21
2.969044153890644
 31
0.0
  0
CIRCLE
  5
15F
330
111
100
AcDbEntity
  8
4
100
AcDbCircle
 10
1.335110495227122
 20
2.892967739042524
 30
0.0
 40
0.0026628630973338
  0
ARC
  5
160
330
111
100
AcDbEntity
  8
4
100
AcDbCircle
 10
1.261685961293286
 20
2.892967739042524
 30
0.0
 40
0.0795432450949886
100
AcDbArc
 50
347.5762104955836
 51
12.42378950441639
  0
CIRCLE
  5
161
330
111
100
AcDbEntity
  8
4
100
AcDbCircle
 10
1.261685961293286
 20
2.892967739042524
 30
0.0
 40
0.0026628630973338
  0
ARC
  5
162
330
111
100
AcDbEntity
  8
4
100
AcDbCircle
 10
1.335110495227122
 20
2.892967739042524
 30
0.0
 40
0.0795432450949886
100
AcDbArc
 50
167.5762104955836
 51
192.4237895044163
  0
ARC
  5
163
330
111
100
AcDbEntity
  8
4
100
AcDbCircle
 10
1.298398228260205
 20
2.639041225854676
 30
0.0
 40
0.274118260019653
100
AcDbArc
 50
81.40466153832003
 51
98.59533846167998
  0
ARC
  5
164
330
111
100
AcDbEntity
  8
4
100
AcDbCircle
 10
1.298398228260205
 20
3.146894252230371
 30
0.0
 40
0.274118260019653
100
AcDbArc
 50
261.40466153832
 51
278.5953384616799
  0
LINE
  5
165
330
111
100
AcDbEntity
  8
4
100
AcDbLine
 10
1.505822237817193
 20
2.933061388106862
 30
0.0
 11
1.412817828167671
 21
2.933061388106855
 31
0.0
  0
LINE
  5
166
330
111
100
AcDbEntity
  8
4
100
AcDbLine
 10
1.505822237817195
 20
3.071399866726645
 30
0.0
 11
1.412817828167671
 21
3.071399866726641
 31
0.0
  0
LINE
  5
167
330
111
100
AcDbEntity
  8
4
100
AcDbLine
 10
1.52426941772273
 20
3.373490326646012
 30
0.0
 11
1.52426941772273
 21
3.29455895266714
 31
0.0
  0
LINE
  5
168
330
111
100
AcDbEntity
  8
4
100
AcDbLine
 10
1.531
 20
3.373490326646012
 30
0.0
 11
1.52426941772273
 21
3.373490326646012
 31
0.0
  0
LINE
  5
169
330
111
100
AcDbEntity
  8
4
100
AcDbLine
 10
1.52426941772273
 20
3.29455895266714
 30
0.0
 11
1.531
 21
3.29455895266714
 31
0.0
  0
LINE
  5
16A
330
111
100
AcDbEntity
  8
4
100
AcDbLine
 10
1.544852619642949
 20
3.332497898847643
 30
0.0
 11
1.514478865504616
 21
3.332497898847643
 31
0.0
  0
LINE
  5
16B
330
111
100
AcDbEntity
  8
4
100
AcDbLine
 10
1.116146484568654
 20
3.816789962887908
 30
0.0
 11
1.126304529072233
 21
3.65426125083067
 31
0.0
  0
ARC
  5
16C
330
111
100
AcDbEntity
  8
4
100
AcDbCircle
 10
1.145459102735284
 20
3.818622001523324
 30
0.0
 40
0.0293698135735343
100
AcDbArc
 50
90.0
 51
183.5763343749981
  0
INSERT
  5
16D
330
111
100
AcDbEntity
  8
4
100
AcDbBlockReference
  2
ARRO
 10
0.9609118825233169
 20
3.734522076945322
 30
0.0
 50
180.0
  0
INSERT
  5
16E
330
111
100
AcDbEntity
  8
4
100
AcDbBlockReference
  2
ARRO
 10
0.9609118825233169
 20
3.874866340648615
 30
0.0
 50
180.0
  0
LINE
  5
16F
330
111
100
AcDbEntity
  8
4
100
AcDbLine
 10
1.279956245865935
 20
3.816789962887908
 30
0.0
 11
1.269798201362358
 21
3.65426125083067
 31
0.0
  0
LINE
  5
170
330
111
100
AcDbEntity
  8
4
100
AcDbLine
 10
1.264668981930719
 20
3.807610704575205
 30
0.0
 11
1.256397779607717
 21
3.675289904488573
 31
0.0
  0
CIRCLE
  5
171
330
111
100
AcDbEntity
  8
4
100
AcDbCircle
 10
1.198051365217294
 20
3.733571916383297
 30
0.0
 40
0.0128492934384212
  0
LINE
  5
172
330
111
100
AcDbEntity
  8
4
100
AcDbLine
 10
1.131433748503869
 20
3.807610704575205
 30
0.0
 11
1.139704950826872
 21
3.675271467407163
 31
0.0
  0
LINE
  5
173
330
111
100
AcDbEntity
  8
4
100
AcDbLine
 10
1.198051365217294
 20
3.630165697759812
 30
0.0
 11
1.244149660466558
 21
3.630165697759812
 31
0.0
  0
ARC
  5
174
330
111
100
AcDbEntity
  8
4
100
AcDbCircle
 10
1.236856034163298
 20
3.676511263578852
 30
0.0
 40
0.0195798757156895
100
AcDbArc
 50
270.0
 51
356.4236656250018
  0
CIRCLE
  5
175
330
111
100
AcDbEntity
  8
4
100
AcDbCircle
 10
1.198051365217294
 20
3.6907703080688
 30
0.0
 40
0.0042684129060203
  0
CIRCLE
  5
176
330
111
100
AcDbEntity
  8
4
100
AcDbCircle
 10
1.198051365217294
 20
3.64117937784989
 30
0.0
 40
0.0070448392825051
  0
LINE
  5
177
330
111
100
AcDbEntity
  8
4
100
AcDbLine
 10
1.198051365217294
 20
3.656931387863158
 30
0.0
 11
1.236856034163298
 21
3.656931387863163
 31
0.0
  0
ARC
  5
178
330
111
100
AcDbEntity
  8
4
100
AcDbCircle
 10
1.159246696271291
 20
3.676511263578852
 30
0.0
 40
0.0195798757156895
100
AcDbArc
 50
183.5763343749981
 51
270.0
  0
LINE
  5
179
330
111
100
AcDbEntity
  8
4
100
AcDbLine
 10
1.198051365217294
 20
3.630165697759812
 30
0.0
 11
1.151953069968031
 21
3.630165697759812
 31
0.0
  0
LINE
  5
17A
330
111
100
AcDbEntity
  8
4
100
AcDbLine
 10
1.198051365217294
 20
3.656931387863158
 30
0.0
 11
1.159246696271291
 21
3.656931387863163
 31
0.0
  0
ARC
  5
17B
330
111
100
AcDbEntity
  8
4
100
AcDbCircle
 10
1.151953069968031
 20
3.655864284636654
 30
0.0
 40
0.0256985868768425
100
AcDbArc
 50
183.5763343749981
 51
270.0
  0
ARC
  5
17C
330
111
100
AcDbEntity
  8
4
100
AcDbCircle
 10
1.244149660466558
 20
3.655864284636654
 30
0.0
 40
0.0256985868768425
100
AcDbArc
 50
270.0
 51
356.4236656250018
  0
LINE
  5
17D
330
111
100
AcDbEntity
  8
4
100
AcDbLine
 10
1.198051365217294
 20
3.828411939381168
 30
0.0
 11
1.245127236486302
 21
3.828411939381168
 31
0.0
  0
LINE
  5
17E
330
111
100
AcDbEntity
  8
4
100
AcDbLine
 10
1.198051365217294
 20
3.847991815096858
 30
0.0
 11
1.250643627699306
 21
3.847991815096858
 31
0.0
  0
CIRCLE
  5
17F
330
111
100
AcDbEntity
  8
4
100
AcDbCircle
 10
1.198051365217294
 20
3.776373524697797
 30
0.0
 40
0.0042684129060203
  0
LINE
  5
180
330
111
100
AcDbEntity
  8
4
100
AcDbLine
 10
1.149472065679888
 20
3.808440080073333
 30
0.0
 11
1.171956447818694
 21
3.785955697934527
 31
0.0
  0
LINE
  5
181
330
111
100
AcDbEntity
  8
4
100
AcDbLine
 10
1.152933331403227
 20
3.811901345796672
 30
0.0
 11
1.149472065679888
 21
3.808440080073333
 31
0.0
  0
LINE
  5
182
330
111
100
AcDbEntity
  8
4
 62
   130
100
AcDbLine
 10
1.147713772250281
 20
3.804991232514982
 30
0.0
 11
1.168507600260344
 21
3.784197404504917
 31
0.0
  0
ARC
  5
183
330
111
100
AcDbEntity
  8
4
 62
   130
100
AcDbCircle
 10
1.152033431873008
 20
3.809310892137707
 30
0.0
 40
0.0061089212232951
100
AcDbArc
 50
44.99999999999997
 51
224.9999999999999
  0
LINE
  5
184
330
111
100
AcDbEntity
  8
4
100
AcDbLine
 10
1.158139075051126
 20
3.806695602148775
 30
0.0
 11
1.154677809327789
 21
3.803234336425436
 31
0.0
  0
LINE
  5
185
330
111
100
AcDbEntity
  8
4
100
AcDbLine
 10
1.170211969894131
 20
3.794622707305768
 30
0.0
 11
1.166750704170794
 21
3.791161441582429
 31
0.0
  0
LINE
  5
186
330
111
100
AcDbEntity
  8
4
100
AcDbLine
 10
1.171956447818694
 20
3.785955697934527
 30
0.0
 11
1.175417713542033
 21
3.789416963657866
 31
0.0
  0
LINE
  5
187
330
111
100
AcDbEntity
  8
4
100
AcDbLine
 10
1.152933331403227
 20
3.811901345796672
 30
0.0
 11
1.175417713542033
 21
3.789416963657866
 31
0.0
  0
LINE
  5
188
330
111
100
AcDbEntity
  8
4
 62
   130
100
AcDbLine
 10
1.156353091495735
 20
3.813630551760431
 30
0.0
 11
1.177146919505798
 21
3.792836723750372
 31
0.0
  0
ARC
  5
189
330
111
100
AcDbEntity
  8
4
 62
   130
100
AcDbCircle
 10
1.172827259883071
 20
3.788517064127647
 30
0.0
 40
0.0061089212232951
100
AcDbArc
 50
224.9999999999999
 51
44.99999999999997
  0
LINE
  5
18A
330
111
100
AcDbEntity
  8
4
100
AcDbLine
 10
1.198051365217294
 20
3.828411939381168
 30
0.0
 11
1.150975493948287
 21
3.828411939381168
 31
0.0
  0
LINE
  5
18B
330
111
100
AcDbEntity
  8
4
100
AcDbLine
 10
1.198051365217294
 20
3.847991815096858
 30
0.0
 11
1.145459102735284
 21
3.847991815096858
 31
0.0
  0
ARC
  5
18C
330
111
100
AcDbEntity
  8
4
100
AcDbCircle
 10
1.150975493948287
 20
3.808832063665478
 30
0.0
 40
0.0195798757156895
100
AcDbArc
 50
90.0
 51
183.5763343749981
  0
ARC
  5
18D
330
111
100
AcDbEntity
  8
4
100
AcDbCircle
 10
1.250643627699306
 20
3.818622001523324
 30
0.0
 40
0.0293698135735343
100
AcDbArc
 50
356.4236656250018
 51
90.0
  0
ARC
  5
18E
330
111
100
AcDbEntity
  8
4
100
AcDbCircle
 10
1.245127236486302
 20
3.808832063665478
 30
0.0
 40
0.0195798757156895
100
AcDbArc
 50
356.4236656250018
 51
90.0
  0
LINE
  5
18F
330
111
100
AcDbEntity
  8
4
100
AcDbLine
 10
1.536633794702242
 20
4.135251108703091
 30
0.0
 11
1.516086921089397
 21
4.135251108703091
 31
0.0
  0
LINE
  5
190
330
111
100
AcDbEntity
  8
4
100
AcDbLine
 10
1.531
 20
4.176243536501461
 30
0.0
 11
1.524269417722734
 21
4.176243536501461
 31
0.0
  0
LINE
  5
191
330
111
100
AcDbEntity
  8
4
100
AcDbLine
 10
1.52426941772273
 20
4.097312162522589
 30
0.0
 11
1.531
 21
4.097312162522589
 31
0.0
  0
LINE
  5
192
330
111
100
AcDbEntity
  8
4
100
AcDbLine
 10
1.524269417722734
 20
4.176243536501461
 30
0.0
 11
1.52426941772273
 21
4.097312162522589
 31
0.0
  0
LINE
  5
193
330
111
100
AcDbEntity
  8
4
100
AcDbLine
 10
1.531
 20
4.406044153890643
 30
0.0
 11
1.094
 21
4.406022835090578
 31
0.0
  0
CIRCLE
  5
194
330
111
100
AcDbEntity
  8
4
100
AcDbCircle
 10
1.335110495227122
 20
4.361946420242457
 30
0.0
 40
0.0026628630973338
  0
ARC
  5
195
330
111
100
AcDbEntity
  8
4
100
AcDbCircle
 10
1.261685961293286
 20
4.361946420242457
 30
0.0
 40
0.0795432450949886
100
AcDbArc
 50
347.5762104955836
 51
12.42378950441639
  0
CIRCLE
  5
196
330
111
100
AcDbEntity
  8
4
100
AcDbCircle
 10
1.261685961293286
 20
4.361946420242457
 30
0.0
 40
0.0026628630973338
  0
ARC
  5
197
330
111
100
AcDbEntity
  8
4
100
AcDbCircle
 10
1.335110495227122
 20
4.361946420242457
 30
0.0
 40
0.0795432450949886
100
AcDbArc
 50
167.5762104955836
 51
192.4237895044163
  0
ARC
  5
198
330
111
100
AcDbEntity
  8
4
100
AcDbCircle
 10
1.298398228260205
 20
4.108019907054609
 30
0.0
 40
0.274118260019653
100
AcDbArc
 50
81.40466153832003
 51
98.59533846167998
  0
ARC
  5
199
330
111
100
AcDbEntity
  8
4
100
AcDbCircle
 10
1.298398228260205
 20
4.615872933430305
 30
0.0
 40
0.274118260019653
100
AcDbArc
 50
261.40466153832
 51
278.5953384616799
  0
LINE
  5
19A
330
111
100
AcDbEntity
  8
4
100
AcDbLine
 10
1.505822237817193
 20
4.402040069306796
 30
0.0
 11
1.412817828167671
 21
4.402040069306789
 31
0.0
  0
LINE
  5
19B
330
111
100
AcDbEntity
  8
4
100
AcDbLine
 10
1.687
 20
2.969044153890644
 30
0.0
 11
2.187999999999999
 21
2.969044153890644
 31
0.0
  0
LINE
  5
19C
330
111
100
AcDbEntity
  8
4
100
AcDbLine
 10
1.687
 20
3.031044153890644
 30
0.0
 11
2.187999999999999
 21
3.031044153890644
 31
0.0
  0
LINE
  5
19D
330
111
100
AcDbEntity
  8
4
100
AcDbLine
 10
1.905
 20
2.911084459323294
 30
0.0
 11
1.967
 21
2.911084459323294
 31
0.0
  0
LINE
  5
19E
330
111
100
AcDbEntity
  8
4
100
AcDbLine
 10
2.312
 20
2.969044153890644
 30
0.0
 11
2.5
 21
2.969044153890644
 31
0.0
  0
LINE
  5
19F
330
111
100
AcDbEntity
  8
4
100
AcDbLine
 10
2.312
 20
3.031044153890644
 30
0.0
 11
2.473968300754448
 21
3.031044153890644
 31
0.0
  0
LINE
  5
1A0
330
111
100
AcDbEntity
  8
4
100
AcDbLine
 10
2.937
 20
2.969044153890644
 30
0.0
 11
3.437999999999999
 21
2.969044153890644
 31
0.0
  0
LINE
  5
1A1
330
111
100
AcDbEntity
  8
4
100
AcDbLine
 10
2.937
 20
3.031044153890644
 30
0.0
 11
3.437999999999999
 21
3.031044153890644
 31
0.0
  0
LINE
  5
1A2
330
111
100
AcDbEntity
  8
4
100
AcDbLine
 10
2.625
 20
3.031044153890644
 30
0.0
 11
2.812999999999999
 21
3.031044153890644
 31
0.0
  0
LINE
  5
1A3
330
111
100
AcDbEntity
  8
4
100
AcDbLine
 10
2.625
 20
2.969044153890644
 30
0.0
 11
2.812999999999999
 21
2.969044153890644
 31
0.0
  0
LINE
  5
1A4
330
111
100
AcDbEntity
  8
4
100
AcDbLine
 10
3.155
 20
2.911084459323294
 30
0.0
 11
3.217
 21
2.911084459323294
 31
0.0
  0
ARC
  5
1A5
330
111
100
AcDbEntity
  8
4
100
AcDbCircle
 10
1.712
 20
4.343038275333514
 30
0.0
 40
0.025
100
AcDbArc
 50
180.0
 51
0.0
  0
ARC
  5
1A6
330
111
100
AcDbEntity
  8
4
100
AcDbCircle
 10
2.163
 20
4.343038275333514
 30
0.0
 40
0.025
100
AcDbArc
 50
180.0
 51
0.0
  0
ARC
  5
1A7
330
111
100
AcDbEntity
  8
4
100
AcDbCircle
 10
2.336999999999999
 20
4.343038275333514
 30
0.0
 40
0.025
100
AcDbArc
 50
180.0
 51
0.0
  0
ARC
  5
1A8
330
111
100
AcDbEntity
  8
4
100
AcDbCircle
 10
2.788
 20
4.343038275333514
 30
0.0
 40
0.025
100
AcDbArc
 50
180.0
 51
0.0
  0
ARC
  5
1A9
330
111
100
AcDbEntity
  8
4
100
AcDbCircle
 10
2.961999999999999
 20
4.343038275333514
 30
0.0
 40
0.025
100
AcDbArc
 50
180.0
 51
0.0
  0
LINE
  5
1AA
330
111
100
AcDbEntity
  8
4
100
AcDbLine
 10
3.155
 20
4.380038275333513
 30
0.0
 11
3.217
 21
4.380038275333513
 31
0.0
  0
LINE
  5
1AB
330
111
100
AcDbEntity
  8
4
100
AcDbLine
 10
3.217
 20
4.380038275333513
 30
0.0
 11
3.217
 21
4.318038275333513
 31
0.0
  0
LINE
  5
1AC
330
111
100
AcDbEntity
  8
4
100
AcDbLine
 10
3.155
 20
4.380038275333513
 30
0.0
 11
3.155
 21
4.318038275333513
 31
0.0
  0
ARC
  5
1AD
330
111
100
AcDbEntity
  8
4
100
AcDbCircle
 10
3.413
 20
4.343038275333514
 30
0.0
 40
0.025
100
AcDbArc
 50
180.0
 51
0.0
  0
ARC
  5
1AE
330
111
100
AcDbEntity
  8
4
100
AcDbCircle
 10
5.645500000000001
 20
2.874084459323295
 30
0.0
 40
0.025
100
AcDbArc
 50
180.0
 51
0.0
  0
LINE
  5
1AF
330
111
100
AcDbEntity
  8
4
100
AcDbLine
 10
5.388479890102485
 20
2.911084459323294
 30
0.0
 11
5.388479890102485
 21
2.849084459323293
 31
0.0
  0
LINE
  5
1B0
330
111
100
AcDbEntity
  8
4
100
AcDbLine
 10
6.698479890102484
 20
2.911084459323294
 30
0.0
 11
6.698479890102484
 21
2.849084459323293
 31
0.0
  0
ARC
  5
1B1
330
111
100
AcDbEntity
  8
4
100
AcDbCircle
 10
6.9555
 20
2.874084459323295
 30
0.0
 40
0.025
100
AcDbArc
 50
180.0
 51
0.0
  0
ARC
  5
1B2
330
111
100
AcDbEntity
  8
4
100
AcDbCircle
 10
7.044499999999999
 20
2.874084459323295
 30
0.0
 40
0.025
100
AcDbArc
 50
180.0
 51
0.0
  0
LINE
  5
1B3
330
111
100
AcDbEntity
  8
4
100
AcDbLine
 10
7.301520109897516
 20
2.911084459323294
 30
0.0
 11
7.301520109897516
 21
2.849084459323293
 31
0.0
  0
LINE
  5
1B4
330
111
100
AcDbEntity
  8
4
100
AcDbLine
 10
4.8125
 20
4.500038275333514
 30
0.0
 11
4.8125
 21
1.562038275333514
 31
0.0
  0
LINE
  5
1B5
330
111
100
AcDbEntity
  8
4
100
AcDbLine
 10
5.0655
 20
2.937044153890644
 30
0.0
 11
5.0655
 21
1.594038275333514
 31
0.0
  0
LINE
  5
1B6
330
111
100
AcDbEntity
  8
4
100
AcDbLine
 10
6.375499999999998
 20
2.937044153890644
 30
0.0
 11
6.375499999999998
 21
1.594038275333514
 31
0.0
  0
LINE
  5
1B7
330
111
100
AcDbEntity
  8
4
100
AcDbLine
 10
7.624500000000001
 20
2.937044153890644
 30
0.0
 11
7.624500000000001
 21
1.594038275333514
 31
0.0
  0
INSERT
  5
1B8
330
111
100
AcDbEntity
  8
4
100
AcDbBlockReference
  2
ARRO
 10
4.8125
 20
1.500038275333513
 30
0.0
 50
270.0
  0
LINE
  5
1B9
330
111
100
AcDbEntity
  8
4
100
AcDbLine
 10
4.8125
 20
1.500038275333513
 30
0.0
 11
4.8125
 21
1.375038275333513
 31
0.0
  0
TEXT
  5
1BA
330
111
100
AcDbEntity
  8
8
100
AcDbText
 10
4.750499999999999
 20
1.408109215387377
 30
0.0
 40
0.07
  1
1
 50
90.0
 72
     1
 11
4.750499999999999
 21
1.419775882054044
 31
0.0
100
AcDbText
  0
MTEXT
  5
1BB
330
111
100
AcDbEntity
  8
8
100
AcDbMText
 10
4.748177449888846
 20
2.313605900677721
 30
0.0
 40
0.075
 41
0.6894000000000001
 71
     5
 72
     5
  1
35-1/2"
 11
0.0000000000000001
 21
1.0
 31
0.0
 73
     1
 44
1.0
1001
ACAD
1000
MTEXTBEGIN
1070
    73
1070
     1
1070
    44
1040
1.0
1070
    74
1070
     0
1000
MTEXTEND
  0
LINE
  5
1BC
330
111
100
AcDbEntity
  8
4
100
AcDbLine
 10
5.0025
 20
1.562038275333514
 30
0.0
 11
4.8125
 21
1.562038275333514
 31
0.0
  0
INSERT
  5
1BD
330
111
100
AcDbEntity
  8
4
100
AcDbBlockReference
  2
ARRO
 10
4.8125
 20
1.562038275333514
 30
0.0
 50
90.0
  0
LINE
  5
1BE
330
111
100
AcDbEntity
  8
4
100
AcDbLine
 10
4.8125
 20
1.562038275333514
 30
0.0
 11
4.750499999999999
 21
1.562038275333514
 31
0.0
  0
LINE
  5
1BF
330
111
100
AcDbEntity
  8
4
100
AcDbLine
 10
5.0655
 20
1.594038275333514
 30
0.0
 11
5.1275
 21
1.594038275333514
 31
0.0
  0
TEXT
  5
1C0
330
111
100
AcDbEntity
  8
8
100
AcDbText
 10
4.500499999999999
 20
2.177513740545082
 30
0.0
 40
0.07
  1
72
 50
90.0
 72
     1
 11
4.500499999999999
 21
2.235847073878415
 31
0.0
100
AcDbText
  0
LINE
  5
1C1
330
111
100
AcDbEntity
  8
4
100
AcDbLine
 10
6.375499999999998
 20
1.594038275333514
 30
0.0
 11
6.4375
 21
1.594038275333514
 31
0.0
  0
LINE
  5
1C2
330
111
100
AcDbEntity
  8
4
100
AcDbLine
 10
7.624500000000001
 20
1.594038275333514
 30
0.0
 11
7.5625
 21
1.594038275333514
 31
0.0
  0
LINE
  5
1C3
330
111
100
AcDbEntity
  8
4
100
AcDbLine
 10
7.059499999999999
 20
2.969044153890644
 30
0.0
 11
7.424500000000001
 21
2.969044153890644
 31
0.0
  0
LINE
  5
1C4
330
111
100
AcDbEntity
  8
4
100
AcDbLine
 10
7.486500000000001
 20
3.031044153890644
 30
0.0
 11
7.0195
 21
3.031044153890644
 31
0.0
  0
LINE
  5
1C5
330
111
100
AcDbEntity
  8
4
100
AcDbLine
 10
5.630499999999999
 20
2.969044153890644
 30
0.0
 11
5.265499999999999
 21
2.969044153890644
 31
0.0
  0
LINE
  5
1C6
330
111
100
AcDbEntity
  8
4
100
AcDbLine
 10
5.203499999999999
 20
3.031044153890644
 30
0.0
 11
5.6705
 21
3.031044153890644
 31
0.0
  0
LINE
  5
1C7
330
111
100
AcDbEntity
  8
4
100
AcDbLine
 10
5.0655
 20
4.406038275333514
 30
0.0
 11
5.0655
 21
3.063
 31
0.0
  0
LINE
  5
1C8
330
111
100
AcDbEntity
  8
4
100
AcDbLine
 10
5.0025
 20
3.031044153890644
 30
0.0
 11
4.8125
 21
3.031044153890644
 31
0.0
  0
INSERT
  5
1C9
330
111
100
AcDbEntity
  8
4
100
AcDbBlockReference
  2
ARRO2
 10
4.8125
 20
3.031044153890644
 30
0.0
 50
90.0
  0
LINE
  5
1CA
330
111
100
AcDbEntity
  8
4
100
AcDbLine
 10
4.8125
 20
3.031044153890644
 30
0.0
 11
4.750499999999999
 21
3.031044153890644
 31
0.0
  0
LINE
  5
1CB
330
111
100
AcDbEntity
  8
4
100
AcDbLine
 10
5.188499999999999
 20
3.016044153890643
 30
0.0
 11
5.090499999999999
 21
3.016044153890643
 31
0.0
  0
LINE
  5
1CC
330
111
100
AcDbEntity
  8
4
100
AcDbLine
 10
5.065499999999999
 20
3.031044153890644
 30
0.0
 11
5.173499999999998
 21
3.031044153890644
 31
0.0
  0
LINE
  5
1CD
330
111
100
AcDbEntity
  8
4
100
AcDbLine
 10
5.127499999999999
 20
2.969044153890644
 30
0.0
 11
5.065499999999999
 21
2.969044153890644
 31
0.0
  0
LINE
  5
1CE
330
111
100
AcDbEntity
  8
4
100
AcDbLine
 10
5.0655
 20
3.063000000000001
 30
0.0
 11
5.127499999999999
 21
3.063000000000001
 31
0.0
  0
LINE
  5
1CF
330
111
100
AcDbEntity
  8
4
100
AcDbLine
 10
5.0655
 20
2.937044153890644
 30
0.0
 11
5.1275
 21
2.937044153890644
 31
0.0
  0
LINE
  5
1D0
330
111
100
AcDbEntity
  8
4
100
AcDbLine
 10
5.090499999999999
 20
3.016044153890643
 30
0.0
 11
5.090499999999999
 21
2.987798011453083
 31
0.0
  0
LINE
  5
1D1
330
111
100
AcDbEntity
  8
4
100
AcDbLine
 10
5.065499999999999
 20
2.969044153890644
 30
0.0
 11
5.065499999999999
 21
3.031044153890644
 31
0.0
  0
LINE
  5
1D2
330
111
100
AcDbEntity
  8
4
100
AcDbLine
 10
5.265499999999999
 20
2.969044153890644
 30
0.0
 11
5.203499999999999
 21
3.031044153890644
 31
0.0
  0
LINE
  5
1D3
330
111
100
AcDbEntity
  8
4
100
AcDbLine
 10
5.203499999999999
 20
3.031044153890644
 30
0.0
 11
5.188499999999999
 21
3.016044153890643
 31
0.0
  0
MTEXT
  5
1D4
330
111
100
AcDbEntity
  8
8
100
AcDbMText
 10
4.752888858737847
 20
3.805493279185378
 30
0.0
 40
0.075
 41
0.6894000000000001
 71
     5
 72
     5
  1
35-1/2"
 11
0.0000000000000001
 21
1.0
 31
0.0
 73
     1
 44
1.0
1001
ACAD
1000
MTEXTBEGIN
1070
    73
1070
     1
1070
    44
1040
1.0
1070
    74
1070
     0
1000
MTEXTEND
  0
INSERT
  5
1D5
330
111
100
AcDbEntity
  8
4
100
AcDbBlockReference
  2
ARRO
 10
4.8125
 20
4.500038275333514
 30
0.0
 50
270.0
  0
LINE
  5
1D6
330
111
100
AcDbEntity
  8
4
100
AcDbLine
 10
5.065499999999999
 20
4.406038275333514
 30
0.0
 11
5.127499999999999
 21
4.406038275333514
 31
0.0
  0
LINE
  5
1D7
330
111
100
AcDbEntity
  8
4
100
AcDbLine
 10
6.375499999999998
 20
4.406038275333514
 30
0.0
 11
6.375499999999998
 21
3.063
 31
0.0
  0
LINE
  5
1D8
330
111
100
AcDbEntity
  8
4
100
AcDbLine
 10
5.357479890102485
 20
2.911084459323294
 30
0.0
 11
5.419479890102484
 21
2.911084459323294
 31
0.0
  0
LINE
  5
1D9
330
111
100
AcDbEntity
  8
4
100
AcDbLine
 10
5.630499999999999
 20
3.031044153890644
 30
0.0
 11
5.630499999999999
 21
2.969044153890644
 31
0.0
  0
LINE
  5
1DA
330
111
100
AcDbEntity
  8
4
100
AcDbLine
 10
5.6705
 20
3.031044153890644
 30
0.0
 11
5.6705
 21
2.969044153890644
 31
0.0
  0
LINE
  5
1DB
330
111
100
AcDbEntity
  8
4
100
AcDbLine
 10
5.6705
 20
2.874084459323295
 30
0.0
 11
5.6705
 21
2.924084459323294
 31
0.0
  0
LINE
  5
1DC
330
111
100
AcDbEntity
  8
4
100
AcDbLine
 10
6.513499999999998
 20
3.031044153890644
 30
0.0
 11
6.980499999999999
 21
3.031044153890644
 31
0.0
  0
LINE
  5
1DD
330
111
100
AcDbEntity
  8
4
100
AcDbLine
 10
6.9405
 20
2.969044153890644
 30
0.0
 11
6.575499999999998
 21
2.969044153890644
 31
0.0
  0
LINE
  5
1DE
330
111
100
AcDbEntity
  8
4
100
AcDbLine
 10
6.513499999999998
 20
3.031044153890644
 30
0.0
 11
6.498499999999999
 21
3.016044153890643
 31
0.0
  0
LINE
  5
1DF
330
111
100
AcDbEntity
  8
4
100
AcDbLine
 10
6.4375
 20
2.969044153890644
 30
0.0
 11
6.375499999999998
 21
2.969044153890644
 31
0.0
  0
LINE
  5
1E0
330
111
100
AcDbEntity
  8
4
100
AcDbLine
 10
6.375499999999998
 20
3.031044153890644
 30
0.0
 11
6.483499999999999
 21
3.031044153890644
 31
0.0
  0
LINE
  5
1E1
330
111
100
AcDbEntity
  8
4
100
AcDbLine
 10
6.375499999999998
 20
2.937044153890644
 30
0.0
 11
6.4375
 21
2.937044153890644
 31
0.0
  0
LINE
  5
1E2
330
111
100
AcDbEntity
  8
4
100
AcDbLine
 10
6.375499999999998
 20
2.969044153890644
 30
0.0
 11
6.375499999999998
 21
3.031044153890644
 31
0.0
  0
LINE
  5
1E3
330
111
100
AcDbEntity
  8
4
100
AcDbLine
 10
6.400499999999999
 20
3.016044153890643
 30
0.0
 11
6.400499999999999
 21
2.987798011453083
 31
0.0
  0
LINE
  5
1E4
330
111
100
AcDbEntity
  8
4
100
AcDbLine
 10
6.498499999999999
 20
3.016044153890643
 30
0.0
 11
6.400499999999999
 21
3.016044153890643
 31
0.0
  0
LINE
  5
1E5
330
111
100
AcDbEntity
  8
4
100
AcDbLine
 10
6.375499999999998
 20
3.063
 30
0.0
 11
6.4375
 21
3.063
 31
0.0
  0
LINE
  5
1E6
330
111
100
AcDbEntity
  8
4
100
AcDbLine
 10
6.575499999999998
 20
2.969044153890644
 30
0.0
 11
6.513499999999998
 21
3.031044153890644
 31
0.0
  0
LINE
  5
1E7
330
111
100
AcDbEntity
  8
4
100
AcDbLine
 10
6.667479890102484
 20
2.911084459323294
 30
0.0
 11
6.729479890102485
 21
2.911084459323294
 31
0.0
  0
LINE
  5
1E8
330
111
100
AcDbEntity
  8
4
100
AcDbLine
 10
6.9405
 20
3.031044153890644
 30
0.0
 11
6.9405
 21
2.969044153890644
 31
0.0
  0
LINE
  5
1E9
330
111
100
AcDbEntity
  8
4
100
AcDbLine
 10
6.980499999999999
 20
3.031044153890644
 30
0.0
 11
6.980499999999999
 21
2.969044153890644
 31
0.0
  0
LINE
  5
1EA
330
111
100
AcDbEntity
  8
4
100
AcDbLine
 10
7.059499999999999
 20
3.031044153890644
 30
0.0
 11
7.059499999999999
 21
2.969044153890644
 31
0.0
  0
LINE
  5
1EB
330
111
100
AcDbEntity
  8
4
100
AcDbLine
 10
7.0195
 20
3.031044153890644
 30
0.0
 11
7.0195
 21
2.969044153890644
 31
0.0
  0
LINE
  5
1EC
330
111
100
AcDbEntity
  8
4
100
AcDbLine
 10
6.980499999999999
 20
2.874084459323295
 30
0.0
 11
6.980499999999999
 21
2.924084459323294
 31
0.0
  0
LINE
  5
1ED
330
111
100
AcDbEntity
  8
4
100
AcDbLine
 10
7.0195
 20
2.874084459323295
 30
0.0
 11
7.0195
 21
2.924084459323294
 31
0.0
  0
LINE
  5
1EE
330
111
100
AcDbEntity
  8
4
100
AcDbLine
 10
5.388479890102485
 20
4.380038275333513
 30
0.0
 11
5.388479890102485
 21
4.318038275333513
 31
0.0
  0
LINE
  5
1EF
330
111
100
AcDbEntity
  8
4
100
AcDbLine
 10
5.357479890102485
 20
4.380038275333513
 30
0.0
 11
5.419479890102484
 21
4.380038275333513
 31
0.0
  0
LINE
  5
1F0
330
111
100
AcDbEntity
  8
4
100
AcDbLine
 10
5.6705
 20
4.343038275333515
 30
0.0
 11
5.6705
 21
4.393038275333514
 31
0.0
  0
ARC
  5
1F1
330
111
100
AcDbEntity
  8
4
100
AcDbCircle
 10
5.645500000000001
 20
4.343038275333515
 30
0.0
 40
0.025
100
AcDbArc
 50
180.0
 51
0.0
  0
LINE
  5
1F2
330
111
100
AcDbEntity
  8
4
100
AcDbLine
 10
6.375499999999998
 20
4.406038275333514
 30
0.0
 11
6.4375
 21
4.406038275333514
 31
0.0
  0
LINE
  5
1F3
330
111
100
AcDbEntity
  8
4
100
AcDbLine
 10
6.667479890102484
 20
4.380038275333513
 30
0.0
 11
6.729479890102485
 21
4.380038275333513
 31
0.0
  0
LINE
  5
1F4
330
111
100
AcDbEntity
  8
4
100
AcDbLine
 10
6.698479890102484
 20
4.380038275333513
 30
0.0
 11
6.698479890102484
 21
4.318038275333513
 31
0.0
  0
ARC
  5
1F5
330
111
100
AcDbEntity
  8
4
100
AcDbCircle
 10
6.9555
 20
4.343038275333515
 30
0.0
 40
0.025
100
AcDbArc
 50
180.0
 51
0.0
  0
LINE
  5
1F6
330
111
100
AcDbEntity
  8
4
100
AcDbLine
 10
7.0195
 20
4.343038275333515
 30
0.0
 11
7.0195
 21
4.393038275333514
 31
0.0
  0
ARC
  5
1F7
330
111
100
AcDbEntity
  8
4
100
AcDbCircle
 10
7.044499999999999
 20
4.343038275333515
 30
0.0
 40
0.025
100
AcDbArc
 50
180.0
 51
0.0
  0
LINE
  5
1F8
330
111
100
AcDbEntity
  8
4
100
AcDbLine
 10
6.980499999999999
 20
4.343038275333515
 30
0.0
 11
6.980499999999999
 21
4.393038275333514
 31
0.0
  0
LINE
  5
1F9
330
111
100
AcDbEntity
  8
4
100
AcDbLine
 10
7.624500000000001
 20
4.406038275333514
 30
0.0
 11
7.624500000000001
 21
3.063
 31
0.0
  0
LINE
  5
1FA
330
111
100
AcDbEntity
  8
4
100
AcDbLine
 10
7.424500000000001
 20
2.969044153890644
 30
0.0
 11
7.486500000000001
 21
3.031044153890644
 31
0.0
  0
LINE
  5
1FB
330
111
100
AcDbEntity
  8
4
100
AcDbLine
 10
7.332520109897515
 20
2.911084459323294
 30
0.0
 11
7.270520109897516
 21
2.911084459323294
 31
0.0
  0
LINE
  5
1FC
330
111
100
AcDbEntity
  8
4
100
AcDbLine
 10
7.5015
 20
3.016044153890643
 30
0.0
 11
7.5995
 21
3.016044153890643
 31
0.0
  0
LINE
  5
1FD
330
111
100
AcDbEntity
  8
4
100
AcDbLine
 10
7.624500000000001
 20
3.031044153890644
 30
0.0
 11
7.5165
 21
3.031044153890644
 31
0.0
  0
LINE
  5
1FE
330
111
100
AcDbEntity
  8
4
100
AcDbLine
 10
7.5625
 20
2.969044153890644
 30
0.0
 11
7.624500000000001
 21
2.969044153890644
 31
0.0
  0
LINE
  5
1FF
330
111
100
AcDbEntity
  8
4
100
AcDbLine
 10
7.5625
 20
2.937044153890644
 30
0.0
 11
7.624499999999999
 21
2.937044153890644
 31
0.0
  0
LINE
  5
200
330
111
100
AcDbEntity
  8
4
100
AcDbLine
 10
7.486500000000001
 20
3.031044153890644
 30
0.0
 11
7.5015
 21
3.016044153890643
 31
0.0
  0
LINE
  5
201
330
111
100
AcDbEntity
  8
4
100
AcDbLine
 10
7.5995
 20
3.016044153890643
 30
0.0
 11
7.5995
 21
2.987798011453083
 31
0.0
  0
LINE
  5
202
330
111
100
AcDbEntity
  8
4
100
AcDbLine
 10
7.624500000000001
 20
2.969044153890644
 30
0.0
 11
7.624500000000001
 21
3.031044153890644
 31
0.0
  0
LINE
  5
203
330
111
100
AcDbEntity
  8
4
100
AcDbLine
 10
7.5625
 20
3.063
 30
0.0
 11
7.624499999999999
 21
3.063
 31
0.0
  0
LINE
  5
204
330
111
100
AcDbEntity
  8
4
100
AcDbLine
 10
7.332520109897515
 20
4.380038275333513
 30
0.0
 11
7.270520109897516
 21
4.380038275333513
 31
0.0
  0
LINE
  5
205
330
111
100
AcDbEntity
  8
4
100
AcDbLine
 10
7.301520109897516
 20
4.380038275333513
 30
0.0
 11
7.301520109897516
 21
4.318038275333513
 31
0.0
  0
LINE
  5
206
330
111
100
AcDbEntity
  8
4
100
AcDbLine
 10
7.624500000000001
 20
4.406038275333514
 30
0.0
 11
7.5625
 21
4.406038275333514
 31
0.0
  0
ENDBLK
  5
208
330
111
100
AcDbEntity
  8
0
100
AcDbBlockEnd
  0
BLOCK
  5
20C
330
20A
100
AcDbEntity
  8
0
100
AcDbBlockBegin
  2
LE1216
 70
     0
 10
0.0
 20
0.0
 30
0.0
  3
LE1216
  1

  0
INSERT
  5
20B
330
20A
100
AcDbEntity
  8
4
100
AcDbBlockReference
  2
SPL2CORRIDORDT72
 10
0.0
 20
0.0
 30
0.0
  0
ENDBLK
  5
20D
330
20A
100
AcDbEntity
  8
0
100
AcDbBlockEnd
  0
ENDSEC
  0
SECTION
  2
ENTITIES
  0
TEXT
  5
21A
102
{ACAD_REACTORS
330
310
102
}
330
1F
100
AcDbEntity
  8
8
100
AcDbText
 10
3.434498315047745
 20
1.768656597199875
 30
0.0
 40
0.125
  1
SINGLE POINT 2 CORRIDOR LOCKER - 72" DOUBLE TIER
  7
ROMANS
 72
     1
 11
6.196403076952506
 21
1.768656597199875
 31
0.0
100
AcDbText
  0
LINE
  5
21B
102
{ACAD_REACTORS
330
310
102
}
330
1F
100
AcDbEntity
  8
4
100
AcDbLine
 10
3.602403076952507
 20
3.268660959466494
 30
0.0
 11
3.602403076952507
 21
4.611683794557071
 31
0.0
  0
LINE
  5
21C
102
{ACAD_REACTORS
330
310
102
}
330
1F
100
AcDbEntity
  8
4
100
AcDbLine
 10
3.165403076952506
 20
4.611662475757006
 30
0.0
 11
3.165403076952506
 21
3.268639640666429
 31
0.0
  0
LINE
  5
21D
102
{ACAD_REACTORS
330
310
102
}
330
1F
100
AcDbEntity
  8
4
100
AcDbLine
 10
4.038403076952507
 20
4.585702781189656
 30
0.0
 11
4.038403076952507
 21
4.523702781189655
 31
0.0
  0
LINE
  5
21E
102
{ACAD_REACTORS
330
310
102
}
330
1F
100
AcDbEntity
  8
4
100
AcDbLine
 10
3.976403076952506
 20
4.585702781189656
 30
0.0
 11
3.976403076952506
 21
4.523702781189655
 31
0.0
  0
LINE
  5
21F
102
{ACAD_REACTORS
330
310
102
}
330
1F
100
AcDbEntity
  8
4
100
AcDbLine
 10
5.226403076952506
 20
4.585702781189656
 30
0.0
 11
5.226403076952506
 21
4.523702781189655
 31
0.0
  0
LINE
  5
220
102
{ACAD_REACTORS
330
310
102
}
330
1F
100
AcDbEntity
  8
4
100
AcDbLine
 10
5.288403076952507
 20
4.585702781189656
 30
0.0
 11
5.288403076952507
 21
4.523702781189655
 31
0.0
  0
ARC
  5
221
102
{ACAD_REACTORS
330
310
102
}
330
1F
100
AcDbEntity
  8
4
100
AcDbCircle
 10
3.783403076952507
 20
4.548702781189657
 30
0.0
 40
0.025
100
AcDbArc
 50
180.0
 51
0.0
  0
ARC
  5
222
102
{ACAD_REACTORS
330
310
102
}
330
1F
100
AcDbEntity
  8
4
100
AcDbCircle
 10
4.234403076952506
 20
4.548702781189657
 30
0.0
 40
0.025
100
AcDbArc
 50
180.0
 51
0.0
  0
ARC
  5
223
102
{ACAD_REACTORS
330
310
102
}
330
1F
100
AcDbEntity
  8
4
100
AcDbCircle
 10
4.408403076952506
 20
4.548702781189657
 30
0.0
 40
0.025
100
AcDbArc
 50
180.0
 51
0.0
  0
ARC
  5
224
102
{ACAD_REACTORS
330
310
102
}
330
1F
100
AcDbEntity
  8
4
100
AcDbCircle
 10
4.859403076952506
 20
4.548702781189657
 30
0.0
 40
0.025
100
AcDbArc
 50
180.0
 51
0.0
  0
ARC
  5
225
102
{ACAD_REACTORS
330
310
102
}
330
1F
100
AcDbEntity
  8
4
100
AcDbCircle
 10
5.033403076952506
 20
4.548702781189657
 30
0.0
 40
0.025
100
AcDbArc
 50
180.0
 51
0.0
  0
ARC
  5
226
102
{ACAD_REACTORS
330
310
102
}
330
1F
100
AcDbEntity
  8
4
100
AcDbCircle
 10
5.484403076952506
 20
4.548702781189657
 30
0.0
 40
0.025
100
AcDbArc
 50
180.0
 51
0.0
  0
LINE
  5
228
102
{ACAD_REACTORS
330
310
102
}
330
1F
100
AcDbEntity
  8
4
  6
HIDDEN
100
AcDbLine
 10
3.577225314769702
 20
3.277039507393074
 30
0.0
 11
3.5772253147697
 21
4.607679709973224
 31
0.0
  0
LINE
  5
229
102
{ACAD_REACTORS
330
310
102
}
330
1F
100
AcDbEntity
  8
4
  6
HIDDEN
100
AcDbLine
 10
3.505954567164594
 20
3.27703950739307
 30
0.0
 11
3.505954567164591
 21
4.607679709973217
 31
0.0
  0
LINE
  5
22A
102
{ACAD_REACTORS
330
310
102
}
330
1F
100
AcDbEntity
  8
4
  6
HIDDEN
100
AcDbLine
 10
3.555491652725287
 20
3.27703950739307
 30
0.0
 11
3.555491652725287
 21
4.60767970997322
 31
0.0
  0
LINE
  5
22B
102
{ACAD_REACTORS
330
310
102
}
330
1F
100
AcDbEntity
  8
4
  6
HIDDEN
100
AcDbLine
 10
3.484220905120178
 20
3.27703950739307
 30
0.0
 11
3.484220905120178
 21
4.607679709973217
 31
0.0
  0
POINT
  5
22C
102
{ACAD_REACTORS
330
310
102
}
330
1F
100
AcDbEntity
  8
4
100
AcDbPoint
 10
2.071403076952506
 20
1.674618321866361
 30
0.0
  0
ARC
  5
22D
102
{ACAD_REACTORS
330
310
102
}
330
1F
100
AcDbEntity
  8
4
100
AcDbCircle
 10
3.315552737419064
 20
3.861503925303083
 30
0.0
 40
0.0256985868768425
100
AcDbArc
 50
270.0
 51
356.4236656250017
  0
ARC
  5
22E
102
{ACAD_REACTORS
330
310
102
}
330
1F
100
AcDbEntity
  8
4
100
AcDbCircle
 10
3.223356146920537
 20
3.861503925303083
 30
0.0
 40
0.0256985868768425
100
AcDbArc
 50
183.5763343749981
 51
270.0
  0
LINE
  5
22F
102
{ACAD_REACTORS
330
310
102
}
330
1F
100
AcDbEntity
  8
4
100
AcDbLine
 10
3.165403076952506
 20
3.268639640666429
 30
0.0
 11
3.602403076952507
 21
3.268660959466494
 31
0.0
  0
LINE
  5
230
102
{ACAD_REACTORS
330
310
102
}
330
1F
100
AcDbEntity
  8
4
100
AcDbLine
 10
3.577225314769702
 20
3.277039507393074
 30
0.0
 11
3.484220905120178
 21
3.27703950739307
 31
0.0
  0
LINE
  5
231
102
{ACAD_REACTORS
330
310
102
}
330
1F
100
AcDbEntity
  8
4
100
AcDbLine
 10
3.595672494675237
 20
3.57912996731244
 30
0.0
 11
3.595672494675237
 21
3.500198593333568
 31
0.0
  0
LINE
  5
232
102
{ACAD_REACTORS
330
310
102
}
330
1F
100
AcDbEntity
  8
4
100
AcDbLine
 10
3.595672494675237
 20
3.500198593333568
 30
0.0
 11
3.602403076952507
 21
3.500198593333568
 31
0.0
  0
LINE
  5
233
102
{ACAD_REACTORS
330
310
102
}
330
1F
100
AcDbEntity
  8
4
100
AcDbLine
 10
3.616255696595455
 20
3.538137539514071
 30
0.0
 11
3.585881942457123
 21
3.538137539514071
 31
0.0
  0
LINE
  5
234
102
{ACAD_REACTORS
330
310
102
}
330
1F
100
AcDbEntity
  8
4
100
AcDbLine
 10
3.602403076952507
 20
3.57912996731244
 30
0.0
 11
3.595672494675237
 21
3.57912996731244
 31
0.0
  0
ARC
  5
235
102
{ACAD_REACTORS
330
310
102
}
330
1F
100
AcDbEntity
  8
4
100
AcDbCircle
 10
3.21686217968779
 20
4.024261642189753
 30
0.0
 40
0.0293698135735343
100
AcDbArc
 50
90.0
 51
183.5763343749981
  0
LINE
  5
236
102
{ACAD_REACTORS
330
310
102
}
330
1F
100
AcDbEntity
  8
4
100
AcDbLine
 10
3.187549561521161
 20
4.022429603554336
 30
0.0
 11
3.19770760602474
 21
3.859900891497098
 31
0.0
  0
LINE
  5
237
102
{ACAD_REACTORS
330
310
102
}
330
1F
100
AcDbEntity
  8
4
100
AcDbLine
 10
3.351359322818441
 20
4.022429603554336
 30
0.0
 11
3.341201278314864
 21
3.859900891497098
 31
0.0
  0
LINE
  5
238
102
{ACAD_REACTORS
330
310
102
}
330
1F
100
AcDbEntity
  8
4
100
AcDbLine
 10
3.336072058883226
 20
4.013250345241633
 30
0.0
 11
3.327800856560224
 21
3.880929545155002
 31
0.0
  0
LINE
  5
239
102
{ACAD_REACTORS
330
310
102
}
330
1F
100
AcDbEntity
  8
4
100
AcDbLine
 10
3.220875142632395
 20
4.014079720739761
 30
0.0
 11
3.243359524771201
 21
3.991595338600955
 31
0.0
  0
LINE
  5
23A
102
{ACAD_REACTORS
330
310
102
}
330
1F
100
AcDbEntity
  8
4
 62
   130
100
AcDbLine
 10
3.219116849202788
 20
4.01063087318141
 30
0.0
 11
3.23991067721285
 21
3.989837045171345
 31
0.0
  0
LINE
  5
23B
102
{ACAD_REACTORS
330
310
102
}
330
1F
100
AcDbEntity
  8
4
100
AcDbLine
 10
3.224336408355734
 20
4.017540986463099
 30
0.0
 11
3.24682079049454
 21
3.995056604324294
 31
0.0
  0
LINE
  5
23C
102
{ACAD_REACTORS
330
310
102
}
330
1F
100
AcDbEntity
  8
4
 62
   130
100
AcDbLine
 10
3.227756168448242
 20
4.019270192426859
 30
0.0
 11
3.248549996458304
 21
3.998476364416801
 31
0.0
  0
LINE
  5
23D
102
{ACAD_REACTORS
330
310
102
}
330
1F
100
AcDbEntity
  8
4
100
AcDbLine
 10
3.202836825456376
 20
4.013250345241633
 30
0.0
 11
3.211108027779379
 21
3.880911108073592
 31
0.0
  0
LINE
  5
23E
102
{ACAD_REACTORS
330
310
102
}
330
1F
100
AcDbEntity
  8
4
100
AcDbLine
 10
3.2694544421698
 20
3.83580533842624
 30
0.0
 11
3.315552737419064
 21
3.83580533842624
 31
0.0
  0
ARC
  5
23F
102
{ACAD_REACTORS
330
310
102
}
330
1F
100
AcDbEntity
  8
4
100
AcDbCircle
 10
3.308259111115805
 20
3.88215090424528
 30
0.0
 40
0.0195798757156895
100
AcDbArc
 50
270.0
 51
356.4236656250017
  0
CIRCLE
  5
240
102
{ACAD_REACTORS
330
310
102
}
330
1F
100
AcDbEntity
  8
4
100
AcDbCircle
 10
3.2694544421698
 20
3.982013165364226
 30
0.0
 40
0.0042684129060203
  0
CIRCLE
  5
241
102
{ACAD_REACTORS
330
310
102
}
330
1F
100
AcDbEntity
  8
4
100
AcDbCircle
 10
3.2694544421698
 20
3.896409948735229
 30
0.0
 40
0.0042684129060203
  0
CIRCLE
  5
242
102
{ACAD_REACTORS
330
310
102
}
330
1F
100
AcDbEntity
  8
4
100
AcDbCircle
 10
3.2694544421698
 20
3.846819018516319
 30
0.0
 40
0.0070448392825051
  0
LINE
  5
243
102
{ACAD_REACTORS
330
310
102
}
330
1F
100
AcDbEntity
  8
4
100
AcDbLine
 10
3.2694544421698
 20
3.862571028529587
 30
0.0
 11
3.308259111115805
 21
3.862571028529592
 31
0.0
  0
LINE
  5
244
102
{ACAD_REACTORS
330
310
102
}
330
1F
100
AcDbEntity
  8
4
100
AcDbLine
 10
3.241615046846638
 20
4.000262347972196
 30
0.0
 11
3.238153781123301
 21
3.996801082248858
 31
0.0
  0
LINE
  5
245
102
{ACAD_REACTORS
330
310
102
}
330
1F
100
AcDbEntity
  8
4
100
AcDbLine
 10
3.243359524771201
 20
3.991595338600955
 30
0.0
 11
3.24682079049454
 21
3.995056604324294
 31
0.0
  0
ARC
  5
246
102
{ACAD_REACTORS
330
310
102
}
330
1F
100
AcDbEntity
  8
4
 62
   130
100
AcDbCircle
 10
3.244230336835578
 20
3.994156704794076
 30
0.0
 40
0.0061089212232951
100
AcDbArc
 50
224.9999999999999
 51
44.99999999999996
  0
ARC
  5
247
102
{ACAD_REACTORS
330
310
102
}
330
1F
100
AcDbEntity
  8
4
100
AcDbCircle
 10
3.230649773223797
 20
3.88215090424528
 30
0.0
 40
0.0195798757156895
100
AcDbArc
 50
183.5763343749981
 51
270.0
  0
CIRCLE
  5
248
102
{ACAD_REACTORS
330
310
102
}
330
1F
100
AcDbEntity
  8
4
100
AcDbCircle
 10
3.2694544421698
 20
3.939211557049726
 30
0.0
 40
0.0128492934384212
  0
LINE
  5
249
102
{ACAD_REACTORS
330
310
102
}
330
1F
100
AcDbEntity
  8
4
100
AcDbLine
 10
3.2694544421698
 20
3.83580533842624
 30
0.0
 11
3.223356146920537
 21
3.83580533842624
 31
0.0
  0
LINE
  5
24A
102
{ACAD_REACTORS
330
310
102
}
330
1F
100
AcDbEntity
  8
4
100
AcDbLine
 10
3.2694544421698
 20
3.862571028529587
 30
0.0
 11
3.230649773223797
 21
3.862571028529592
 31
0.0
  0
LINE
  5
24B
102
{ACAD_REACTORS
330
310
102
}
330
1F
100
AcDbEntity
  8
4
100
AcDbLine
 10
3.2694544421698
 20
4.034051580047597
 30
0.0
 11
3.316530313438808
 21
4.034051580047597
 31
0.0
  0
LINE
  5
24C
102
{ACAD_REACTORS
330
310
102
}
330
1F
100
AcDbEntity
  8
4
100
AcDbLine
 10
3.2694544421698
 20
4.053631455763285
 30
0.0
 11
3.322046704651813
 21
4.053631455763285
 31
0.0
  0
LINE
  5
24D
102
{ACAD_REACTORS
330
310
102
}
330
1F
100
AcDbEntity
  8
4
100
AcDbLine
 10
3.224336408355734
 20
4.017540986463099
 30
0.0
 11
3.220875142632395
 21
4.014079720739761
 31
0.0
  0
ARC
  5
24E
102
{ACAD_REACTORS
330
310
102
}
330
1F
100
AcDbEntity
  8
4
 62
   130
100
AcDbCircle
 10
3.223436508825515
 20
4.014950532804135
 30
0.0
 40
0.0061089212232951
100
AcDbArc
 50
44.99999999999996
 51
224.9999999999999
  0
LINE
  5
24F
102
{ACAD_REACTORS
330
310
102
}
330
1F
100
AcDbEntity
  8
4
100
AcDbLine
 10
3.229542152003633
 20
4.012335242815202
 30
0.0
 11
3.226080886280295
 21
4.008873977091864
 31
0.0
  0
ARC
  5
250
102
{ACAD_REACTORS
330
310
102
}
330
1F
100
AcDbEntity
  8
4
100
AcDbCircle
 10
3.222378570900793
 20
4.014471704331906
 30
0.0
 40
0.0195798757156895
100
AcDbArc
 50
90.0
 51
183.5763343749981
  0
LINE
  5
251
102
{ACAD_REACTORS
330
310
102
}
330
1F
100
AcDbEntity
  8
4
100
AcDbLine
 10
3.2694544421698
 20
4.034051580047597
 30
0.0
 11
3.222378570900793
 21
4.034051580047597
 31
0.0
  0
LINE
  5
252
102
{ACAD_REACTORS
330
310
102
}
330
1F
100
AcDbEntity
  8
4
100
AcDbLine
 10
3.2694544421698
 20
4.053631455763285
 30
0.0
 11
3.21686217968779
 21
4.053631455763285
 31
0.0
  0
ARC
  5
253
102
{ACAD_REACTORS
330
310
102
}
330
1F
100
AcDbEntity
  8
4
100
AcDbCircle
 10
3.322046704651813
 20
4.024261642189753
 30
0.0
 40
0.0293698135735343
100
AcDbArc
 50
356.4236656250017
 51
90.0
  0
ARC
  5
254
102
{ACAD_REACTORS
330
310
102
}
330
1F
100
AcDbEntity
  8
4
100
AcDbCircle
 10
3.316530313438808
 20
4.014471704331906
 30
0.0
 40
0.0195798757156895
100
AcDbArc
 50
356.4236656250017
 51
90.0
  0
LINE
  5
255
102
{ACAD_REACTORS
330
310
102
}
330
1F
100
AcDbEntity
  8
4
100
AcDbLine
 10
3.59567249467524
 20
4.381883177167889
 30
0.0
 11
3.595672494675237
 21
4.302951803189017
 31
0.0
  0
LINE
  5
256
102
{ACAD_REACTORS
330
310
102
}
330
1F
100
AcDbEntity
  8
4
100
AcDbLine
 10
3.608036871654749
 20
4.340890749369519
 30
0.0
 11
3.587489998041903
 21
4.340890749369519
 31
0.0
  0
LINE
  5
257
102
{ACAD_REACTORS
330
310
102
}
330
1F
100
AcDbEntity
  8
4
100
AcDbLine
 10
3.595672494675237
 20
4.302951803189017
 30
0.0
 11
3.602403076952507
 21
4.302951803189017
 31
0.0
  0
LINE
  5
258
102
{ACAD_REACTORS
330
310
102
}
330
1F
100
AcDbEntity
  8
4
100
AcDbLine
 10
3.602403076952507
 20
4.381883177167889
 30
0.0
 11
3.59567249467524
 21
4.381883177167889
 31
0.0
  0
LINE
  5
259
102
{ACAD_REACTORS
330
310
102
}
330
1F
100
AcDbEntity
  8
4
  6
HIDDEN
100
AcDbLine
 10
3.484220905120178
 20
4.746018188593003
 30
0.0
 11
3.484220905120178
 21
6.07665839117315
 31
0.0
  0
LINE
  5
25A
102
{ACAD_REACTORS
330
310
102
}
330
1F
100
AcDbEntity
  8
4
  6
HIDDEN
100
AcDbLine
 10
3.577225314769702
 20
4.746018188593007
 30
0.0
 11
3.5772253147697
 21
6.076658391173157
 31
0.0
  0
LINE
  5
25B
102
{ACAD_REACTORS
330
310
102
}
330
1F
100
AcDbEntity
  8
4
  6
HIDDEN
100
AcDbLine
 10
3.505954567164594
 20
4.746018188593003
 30
0.0
 11
3.505954567164591
 21
6.07665839117315
 31
0.0
  0
LINE
  5
25C
102
{ACAD_REACTORS
330
310
102
}
330
1F
100
AcDbEntity
  8
4
  6
HIDDEN
100
AcDbLine
 10
3.555491652725287
 20
4.746018188593003
 30
0.0
 11
3.555491652725287
 21
6.076658391173154
 31
0.0
  0
LINE
  5
25D
102
{ACAD_REACTORS
330
310
102
}
330
1F
100
AcDbEntity
  8
4
100
AcDbLine
 10
3.165403076952506
 20
6.080641156956939
 30
0.0
 11
3.165403076952506
 21
4.737618321866362
 31
0.0
  0
LINE
  5
25E
102
{ACAD_REACTORS
330
310
102
}
330
1F
100
AcDbEntity
  8
4
100
AcDbLine
 10
3.602403076952507
 20
4.737639640666428
 30
0.0
 11
3.602403076952507
 21
6.080662475757005
 31
0.0
  0
LINE
  5
25F
102
{ACAD_REACTORS
330
310
102
}
330
1F
100
AcDbEntity
  8
4
100
AcDbLine
 10
3.032314959475823
 20
5.409140398811684
 30
0.0
 11
2.657314959475823
 21
5.409140398811684
 31
0.0
  0
LINE
  5
260
102
{ACAD_REACTORS
330
310
102
}
330
1F
100
AcDbEntity
  8
4
100
AcDbLine
 10
3.032314959475823
 20
5.549484662514977
 30
0.0
 11
2.657314959475823
 21
5.549484662514977
 31
0.0
  0
LINE
  5
261
102
{ACAD_REACTORS
330
310
102
}
330
1F
100
AcDbEntity
  8
4
100
AcDbLine
 10
2.657314959475823
 20
5.549484662514977
 30
0.0
 11
2.657314959475823
 21
5.611484662514977
 31
0.0
  0
LINE
  5
262
102
{ACAD_REACTORS
330
310
102
}
330
1F
100
AcDbEntity
  8
4
100
AcDbLine
 10
2.657314959475823
 20
5.409140398811684
 30
0.0
 11
2.657314959475823
 21
5.347140398811685
 31
0.0
  0
LINE
  5
263
102
{ACAD_REACTORS
330
310
102
}
330
1F
100
AcDbEntity
  8
4
100
AcDbLine
 10
3.602403076952507
 20
4.611683794557071
 30
0.0
 11
3.165403076952506
 21
4.611662475757006
 31
0.0
  0
LINE
  5
264
102
{ACAD_REACTORS
330
310
102
}
330
1F
100
AcDbEntity
  8
4
100
AcDbLine
 10
3.165403076952506
 20
4.737618321866362
 30
0.0
 11
3.602403076952507
 21
4.737639640666428
 31
0.0
  0
LINE
  5
265
102
{ACAD_REACTORS
330
310
102
}
330
1F
100
AcDbEntity
  8
4
100
AcDbLine
 10
3.133403076952506
 20
4.705662475757005
 30
0.0
 11
3.634403076952506
 21
4.705662475757005
 31
0.0
  0
LINE
  5
266
102
{ACAD_REACTORS
330
310
102
}
330
1F
100
AcDbEntity
  8
4
100
AcDbLine
 10
3.133403076952506
 20
4.643662475757006
 30
0.0
 11
3.634403076952506
 21
4.643662475757006
 31
0.0
  0
CIRCLE
  5
267
102
{ACAD_REACTORS
330
310
102
}
330
1F
100
AcDbEntity
  8
4
100
AcDbCircle
 10
3.406513572179628
 20
4.567586060908885
 30
0.0
 40
0.0026628630973338
  0
ARC
  5
268
102
{ACAD_REACTORS
330
310
102
}
330
1F
100
AcDbEntity
  8
4
100
AcDbCircle
 10
3.333089038245793
 20
4.567586060908885
 30
0.0
 40
0.0795432450949886
100
AcDbArc
 50
347.5762104955836
 51
12.42378950441639
  0
CIRCLE
  5
269
102
{ACAD_REACTORS
330
310
102
}
330
1F
100
AcDbEntity
  8
4
100
AcDbCircle
 10
3.333089038245793
 20
4.567586060908885
 30
0.0
 40
0.0026628630973338
  0
ARC
  5
26A
102
{ACAD_REACTORS
330
310
102
}
330
1F
100
AcDbEntity
  8
4
100
AcDbCircle
 10
3.406513572179628
 20
4.567586060908885
 30
0.0
 40
0.0795432450949886
100
AcDbArc
 50
167.5762104955836
 51
192.4237895044163
  0
ARC
  5
26B
102
{ACAD_REACTORS
330
310
102
}
330
1F
100
AcDbEntity
  8
4
100
AcDbCircle
 10
3.369801305212711
 20
4.313659547721037
 30
0.0
 40
0.274118260019653
100
AcDbArc
 50
81.40466153832001
 51
98.59533846167998
  0
ARC
  5
26C
102
{ACAD_REACTORS
330
310
102
}
330
1F
100
AcDbEntity
  8
4
100
AcDbCircle
 10
3.369801305212711
 20
4.821512574096733
 30
0.0
 40
0.274118260019653
100
AcDbArc
 50
261.40466153832
 51
278.5953384616799
  0
LINE
  5
26D
102
{ACAD_REACTORS
330
310
102
}
330
1F
100
AcDbEntity
  8
4
100
AcDbLine
 10
3.5772253147697
 20
4.607679709973224
 30
0.0
 11
3.484220905120178
 21
4.607679709973217
 31
0.0
  0
LINE
  5
26E
102
{ACAD_REACTORS
330
310
102
}
330
1F
100
AcDbEntity
  8
4
100
AcDbLine
 10
3.577225314769702
 20
4.746018188593007
 30
0.0
 11
3.484220905120178
 21
4.746018188593003
 31
0.0
  0
LINE
  5
26F
102
{ACAD_REACTORS
330
310
102
}
330
1F
100
AcDbEntity
  8
4
100
AcDbLine
 10
3.595672494675237
 20
5.048108648512373
 30
0.0
 11
3.595672494675237
 21
4.969177274533501
 31
0.0
  0
LINE
  5
270
102
{ACAD_REACTORS
330
310
102
}
330
1F
100
AcDbEntity
  8
4
100
AcDbLine
 10
3.602403076952507
 20
5.048108648512373
 30
0.0
 11
3.595672494675237
 21
5.048108648512373
 31
0.0
  0
LINE
  5
271
102
{ACAD_REACTORS
330
310
102
}
330
1F
100
AcDbEntity
  8
4
100
AcDbLine
 10
3.595672494675237
 20
4.969177274533501
 30
0.0
 11
3.602403076952507
 21
4.969177274533501
 31
0.0
  0
LINE
  5
272
102
{ACAD_REACTORS
330
310
102
}
330
1F
100
AcDbEntity
  8
4
100
AcDbLine
 10
3.616255696595455
 20
5.007116220714005
 30
0.0
 11
3.585881942457123
 21
5.007116220714005
 31
0.0
  0
LINE
  5
273
102
{ACAD_REACTORS
330
310
102
}
330
1F
100
AcDbEntity
  8
4
100
AcDbLine
 10
3.187549561521161
 20
5.491408284754269
 30
0.0
 11
3.19770760602474
 21
5.328879572697031
 31
0.0
  0
ARC
  5
274
102
{ACAD_REACTORS
330
310
102
}
330
1F
100
AcDbEntity
  8
4
100
AcDbCircle
 10
3.21686217968779
 20
5.493240323389686
 30
0.0
 40
0.0293698135735343
100
AcDbArc
 50
90.0
 51
183.5763343749981
  0
LINE
  5
277
102
{ACAD_REACTORS
330
310
102
}
330
1F
100
AcDbEntity
  8
4
100
AcDbLine
 10
3.351359322818441
 20
5.491408284754269
 30
0.0
 11
3.341201278314864
 21
5.328879572697031
 31
0.0
  0
LINE
  5
278
102
{ACAD_REACTORS
330
310
102
}
330
1F
100
AcDbEntity
  8
4
100
AcDbLine
 10
3.336072058883226
 20
5.482229026441567
 30
0.0
 11
3.327800856560224
 21
5.349908226354935
 31
0.0
  0
CIRCLE
  5
279
102
{ACAD_REACTORS
330
310
102
}
330
1F
100
AcDbEntity
  8
4
100
AcDbCircle
 10
3.2694544421698
 20
5.408190238249659
 30
0.0
 40
0.0128492934384212
  0
LINE
  5
27A
102
{ACAD_REACTORS
330
310
102
}
330
1F
100
AcDbEntity
  8
4
100
AcDbLine
 10
3.202836825456376
 20
5.482229026441567
 30
0.0
 11
3.211108027779379
 21
5.349889789273525
 31
0.0
  0
LINE
  5
27B
102
{ACAD_REACTORS
330
310
102
}
330
1F
100
AcDbEntity
  8
4
100
AcDbLine
 10
3.2694544421698
 20
5.304784019626174
 30
0.0
 11
3.315552737419064
 21
5.304784019626174
 31
0.0
  0
ARC
  5
27C
102
{ACAD_REACTORS
330
310
102
}
330
1F
100
AcDbEntity
  8
4
100
AcDbCircle
 10
3.308259111115805
 20
5.351129585445214
 30
0.0
 40
0.0195798757156895
100
AcDbArc
 50
270.0
 51
356.4236656250018
  0
CIRCLE
  5
27D
102
{ACAD_REACTORS
330
310
102
}
330
1F
100
AcDbEntity
  8
4
100
AcDbCircle
 10
3.2694544421698
 20
5.365388629935162
 30
0.0
 40
0.0042684129060203
  0
CIRCLE
  5
27E
102
{ACAD_REACTORS
330
310
102
}
330
1F
100
AcDbEntity
  8
4
100
AcDbCircle
 10
3.2694544421698
 20
5.315797699716252
 30
0.0
 40
0.0070448392825051
  0
LINE
  5
27F
102
{ACAD_REACTORS
330
310
102
}
330
1F
100
AcDbEntity
  8
4
100
AcDbLine
 10
3.2694544421698
 20
5.33154970972952
 30
0.0
 11
3.308259111115805
 21
5.331549709729525
 31
0.0
  0
ARC
  5
280
102
{ACAD_REACTORS
330
310
102
}
330
1F
100
AcDbEntity
  8
4
100
AcDbCircle
 10
3.230649773223797
 20
5.351129585445214
 30
0.0
 40
0.0195798757156895
100
AcDbArc
 50
183.5763343749981
 51
270.0
  0
LINE
  5
281
102
{ACAD_REACTORS
330
310
102
}
330
1F
100
AcDbEntity
  8
4
100
AcDbLine
 10
3.2694544421698
 20
5.304784019626174
 30
0.0
 11
3.223356146920537
 21
5.304784019626174
 31
0.0
  0
LINE
  5
282
102
{ACAD_REACTORS
330
310
102
}
330
1F
100
AcDbEntity
  8
4
100
AcDbLine
 10
3.2694544421698
 20
5.33154970972952
 30
0.0
 11
3.230649773223797
 21
5.331549709729525
 31
0.0
  0
ARC
  5
283
102
{ACAD_REACTORS
330
310
102
}
330
1F
100
AcDbEntity
  8
4
100
AcDbCircle
 10
3.223356146920537
 20
5.330482606503016
 30
0.0
 40
0.0256985868768425
100
AcDbArc
 50
183.5763343749981
 51
270.0
  0
ARC
  5
284
102
{ACAD_REACTORS
330
310
102
}
330
1F
100
AcDbEntity
  8
4
100
AcDbCircle
 10
3.315552737419064
 20
5.330482606503016
 30
0.0
 40
0.0256985868768425
100
AcDbArc
 50
270.0
 51
356.4236656250018
  0
LINE
  5
285
102
{ACAD_REACTORS
330
310
102
}
330
1F
100
AcDbEntity
  8
4
100
AcDbLine
 10
3.2694544421698
 20
5.503030261247531
 30
0.0
 11
3.316530313438808
 21
5.503030261247531
 31
0.0
  0
LINE
  5
286
102
{ACAD_REACTORS
330
310
102
}
330
1F
100
AcDbEntity
  8
4
100
AcDbLine
 10
3.2694544421698
 20
5.522610136963219
 30
0.0
 11
3.322046704651813
 21
5.522610136963219
 31
0.0
  0
CIRCLE
  5
287
102
{ACAD_REACTORS
330
310
102
}
330
1F
100
AcDbEntity
  8
4
100
AcDbCircle
 10
3.2694544421698
 20
5.450991846564159
 30
0.0
 40
0.0042684129060203
  0
LINE
  5
288
102
{ACAD_REACTORS
330
310
102
}
330
1F
100
AcDbEntity
  8
4
100
AcDbLine
 10
3.220875142632395
 20
5.483058401939695
 30
0.0
 11
3.243359524771201
 21
5.460574019800889
 31
0.0
  0
LINE
  5
289
102
{ACAD_REACTORS
330
310
102
}
330
1F
100
AcDbEntity
  8
4
100
AcDbLine
 10
3.224336408355734
 20
5.486519667663033
 30
0.0
 11
3.220875142632395
 21
5.483058401939695
 31
0.0
  0
LINE
  5
28A
102
{ACAD_REACTORS
330
310
102
}
330
1F
100
AcDbEntity
  8
4
 62
   130
100
AcDbLine
 10
3.219116849202788
 20
5.479609554381344
 30
0.0
 11
3.23991067721285
 21
5.458815726371279
 31
0.0
  0
ARC
  5
28B
102
{ACAD_REACTORS
330
310
102
}
330
1F
100
AcDbEntity
  8
4
 62
   130
100
AcDbCircle
 10
3.223436508825515
 20
5.483929214004069
 30
0.0
 40
0.0061089212232951
100
AcDbArc
 50
44.99999999999996
 51
224.9999999999999
  0
LINE
  5
28C
102
{ACAD_REACTORS
330
310
102
}
330
1F
100
AcDbEntity
  8
4
100
AcDbLine
 10
3.229542152003633
 20
5.481313924015136
 30
0.0
 11
3.226080886280295
 21
5.477852658291798
 31
0.0
  0
LINE
  5
28D
102
{ACAD_REACTORS
330
310
102
}
330
1F
100
AcDbEntity
  8
4
100
AcDbLine
 10
3.241615046846638
 20
5.469241029172129
 30
0.0
 11
3.238153781123301
 21
5.465779763448791
 31
0.0
  0
LINE
  5
28E
102
{ACAD_REACTORS
330
310
102
}
330
1F
100
AcDbEntity
  8
4
100
AcDbLine
 10
3.243359524771201
 20
5.460574019800889
 30
0.0
 11
3.24682079049454
 21
5.464035285524227
 31
0.0
  0
LINE
  5
28F
102
{ACAD_REACTORS
330
310
102
}
330
1F
100
AcDbEntity
  8
4
100
AcDbLine
 10
3.224336408355734
 20
5.486519667663033
 30
0.0
 11
3.24682079049454
 21
5.464035285524227
 31
0.0
  0
LINE
  5
290
102
{ACAD_REACTORS
330
310
102
}
330
1F
100
AcDbEntity
  8
4
 62
   130
100
AcDbLine
 10
3.227756168448242
 20
5.488248873626792
 30
0.0
 11
3.248549996458304
 21
5.467455045616734
 31
0.0
  0
ARC
  5
291
102
{ACAD_REACTORS
330
310
102
}
330
1F
100
AcDbEntity
  8
4
 62
   130
100
AcDbCircle
 10
3.244230336835578
 20
5.463135385994009
 30
0.0
 40
0.0061089212232951
100
AcDbArc
 50
224.9999999999999
 51
44.99999999999996
  0
LINE
  5
292
102
{ACAD_REACTORS
330
310
102
}
330
1F
100
AcDbEntity
  8
4
100
AcDbLine
 10
3.2694544421698
 20
5.503030261247531
 30
0.0
 11
3.222378570900793
 21
5.503030261247531
 31
0.0
  0
LINE
  5
293
102
{ACAD_REACTORS
330
310
102
}
330
1F
100
AcDbEntity
  8
4
100
AcDbLine
 10
3.2694544421698
 20
5.522610136963219
 30
0.0
 11
3.21686217968779
 21
5.522610136963219
 31
0.0
  0
ARC
  5
294
102
{ACAD_REACTORS
330
310
102
}
330
1F
100
AcDbEntity
  8
4
100
AcDbCircle
 10
3.222378570900793
 20
5.48345038553184
 30
0.0
 40
0.0195798757156895
100
AcDbArc
 50
90.0
 51
183.5763343749981
  0
ARC
  5
295
102
{ACAD_REACTORS
330
310
102
}
330
1F
100
AcDbEntity
  8
4
100
AcDbCircle
 10
3.322046704651813
 20
5.493240323389686
 30
0.0
 40
0.0293698135735343
100
AcDbArc
 50
356.4236656250018
 51
90.0
  0
ARC
  5
296
102
{ACAD_REACTORS
330
310
102
}
330
1F
100
AcDbEntity
  8
4
100
AcDbCircle
 10
3.316530313438808
 20
5.48345038553184
 30
0.0
 40
0.0195798757156895
100
AcDbArc
 50
356.4236656250018
 51
90.0
  0
LINE
  5
297
102
{ACAD_REACTORS
330
310
102
}
330
1F
100
AcDbEntity
  8
4
100
AcDbLine
 10
3.608036871654749
 20
5.809869430569452
 30
0.0
 11
3.587489998041903
 21
5.809869430569452
 31
0.0
  0
LINE
  5
298
102
{ACAD_REACTORS
330
310
102
}
330
1F
100
AcDbEntity
  8
4
100
AcDbLine
 10
3.602403076952507
 20
5.850861858367823
 30
0.0
 11
3.59567249467524
 21
5.850861858367823
 31
0.0
  0
LINE
  5
299
102
{ACAD_REACTORS
330
310
102
}
330
1F
100
AcDbEntity
  8
4
100
AcDbLine
 10
3.595672494675237
 20
5.771930484388951
 30
0.0
 11
3.602403076952507
 21
5.771930484388951
 31
0.0
  0
LINE
  5
29A
102
{ACAD_REACTORS
330
310
102
}
330
1F
100
AcDbEntity
  8
4
100
AcDbLine
 10
3.59567249467524
 20
5.850861858367823
 30
0.0
 11
3.595672494675237
 21
5.771930484388951
 31
0.0
  0
LINE
  5
29B
102
{ACAD_REACTORS
330
310
102
}
330
1F
100
AcDbEntity
  8
4
100
AcDbLine
 10
3.602403076952507
 20
6.080662475757005
 30
0.0
 11
3.165403076952506
 21
6.080641156956939
 31
0.0
  0
CIRCLE
  5
29C
102
{ACAD_REACTORS
330
310
102
}
330
1F
100
AcDbEntity
  8
4
100
AcDbCircle
 10
3.406513572179628
 20
6.036564742108819
 30
0.0
 40
0.0026628630973338
  0
ARC
  5
29D
102
{ACAD_REACTORS
330
310
102
}
330
1F
100
AcDbEntity
  8
4
100
AcDbCircle
 10
3.333089038245793
 20
6.036564742108819
 30
0.0
 40
0.0795432450949886
100
AcDbArc
 50
347.5762104955836
 51
12.42378950441639
  0
CIRCLE
  5
29E
102
{ACAD_REACTORS
330
310
102
}
330
1F
100
AcDbEntity
  8
4
100
AcDbCircle
 10
3.333089038245793
 20
6.036564742108819
 30
0.0
 40
0.0026628630973338
  0
ARC
  5
29F
102
{ACAD_REACTORS
330
310
102
}
330
1F
100
AcDbEntity
  8
4
100
AcDbCircle
 10
3.406513572179628
 20
6.036564742108819
 30
0.0
 40
0.0795432450949886
100
AcDbArc
 50
167.5762104955836
 51
192.4237895044163
  0
ARC
  5
2A0
102
{ACAD_REACTORS
330
310
102
}
330
1F
100
AcDbEntity
  8
4
100
AcDbCircle
 10
3.369801305212711
 20
5.782638228920971
 30
0.0
 40
0.274118260019653
100
AcDbArc
 50
81.40466153832001
 51
98.59533846167998
  0
ARC
  5
2A1
102
{ACAD_REACTORS
330
310
102
}
330
1F
100
AcDbEntity
  8
4
100
AcDbCircle
 10
3.369801305212711
 20
6.290491255296666
 30
0.0
 40
0.274118260019653
100
AcDbArc
 50
261.40466153832
 51
278.5953384616799
  0
LINE
  5
2A2
102
{ACAD_REACTORS
330
310
102
}
330
1F
100
AcDbEntity
  8
4
100
AcDbLine
 10
3.5772253147697
 20
6.076658391173157
 30
0.0
 11
3.484220905120178
 21
6.07665839117315
 31
0.0
  0
LINE
  5
2A3
102
{ACAD_REACTORS
330
310
102
}
330
1F
100
AcDbEntity
  8
4
100
AcDbLine
 10
3.758403076952506
 20
4.643662475757006
 30
0.0
 11
4.259403076952506
 21
4.643662475757006
 31
0.0
  0
LINE
  5
2A4
102
{ACAD_REACTORS
330
310
102
}
330
1F
100
AcDbEntity
  8
4
100
AcDbLine
 10
3.758403076952506
 20
4.705662475757005
 30
0.0
 11
4.259403076952506
 21
4.705662475757005
 31
0.0
  0
LINE
  5
2A5
102
{ACAD_REACTORS
330
310
102
}
330
1F
100
AcDbEntity
  8
4
100
AcDbLine
 10
3.976403076952506
 20
4.585702781189656
 30
0.0
 11
4.038403076952507
 21
4.585702781189656
 31
0.0
  0
LINE
  5
2A6
102
{ACAD_REACTORS
330
310
102
}
330
1F
100
AcDbEntity
  8
4
100
AcDbLine
 10
4.383403076952506
 20
4.643662475757006
 30
0.0
 11
4.571403076952506
 21
4.643662475757006
 31
0.0
  0
LINE
  5
2A7
102
{ACAD_REACTORS
330
310
102
}
330
1F
100
AcDbEntity
  8
4
100
AcDbLine
 10
4.383403076952506
 20
4.705662475757005
 30
0.0
 11
4.545371377706954
 21
4.705662475757005
 31
0.0
  0
LINE
  5
2A8
102
{ACAD_REACTORS
330
310
102
}
330
1F
100
AcDbEntity
  8
4
100
AcDbLine
 10
5.008403076952506
 20
4.643662475757006
 30
0.0
 11
5.509403076952506
 21
4.643662475757006
 31
0.0
  0
LINE
  5
2A9
102
{ACAD_REACTORS
330
310
102
}
330
1F
100
AcDbEntity
  8
4
100
AcDbLine
 10
5.008403076952506
 20
4.705662475757005
 30
0.0
 11
5.509403076952506
 21
4.705662475757005
 31
0.0
  0
LINE
  5
2AA
102
{ACAD_REACTORS
330
310
102
}
330
1F
100
AcDbEntity
  8
4
100
AcDbLine
 10
4.696403076952506
 20
4.705662475757005
 30
0.0
 11
4.884403076952506
 21
4.705662475757005
 31
0.0
  0
LINE
  5
2AB
102
{ACAD_REACTORS
330
310
102
}
330
1F
100
AcDbEntity
  8
4
100
AcDbLine
 10
4.696403076952506
 20
4.643662475757006
 30
0.0
 11
4.884403076952506
 21
4.643662475757006
 31
0.0
  0
LINE
  5
2AC
102
{ACAD_REACTORS
330
310
102
}
330
1F
100
AcDbEntity
  8
4
100
AcDbLine
 10
5.226403076952506
 20
4.585702781189656
 30
0.0
 11
5.288403076952507
 21
4.585702781189656
 31
0.0
  0
ARC
  5
2AD
102
{ACAD_REACTORS
330
310
102
}
330
1F
100
AcDbEntity
  8
4
100
AcDbCircle
 10
3.783403076952507
 20
6.017656597199875
 30
0.0
 40
0.025
100
AcDbArc
 50
180.0
 51
0.0
  0
ARC
  5
2AE
102
{ACAD_REACTORS
330
310
102
}
330
1F
100
AcDbEntity
  8
4
100
AcDbCircle
 10
4.234403076952506
 20
6.017656597199875
 30
0.0
 40
0.025
100
AcDbArc
 50
180.0
 51
0.0
  0
ARC
  5
2AF
102
{ACAD_REACTORS
330
310
102
}
330
1F
100
AcDbEntity
  8
4
100
AcDbCircle
 10
4.408403076952506
 20
6.017656597199875
 30
0.0
 40
0.025
100
AcDbArc
 50
180.0
 51
0.0
  0
ARC
  5
2B0
102
{ACAD_REACTORS
330
310
102
}
330
1F
100
AcDbEntity
  8
4
100
AcDbCircle
 10
4.859403076952506
 20
6.017656597199875
 30
0.0
 40
0.025
100
AcDbArc
 50
180.0
 51
0.0
  0
ARC
  5
2B1
102
{ACAD_REACTORS
330
310
102
}
330
1F
100
AcDbEntity
  8
4
100
AcDbCircle
 10
5.033403076952506
 20
6.017656597199875
 30
0.0
 40
0.025
100
AcDbArc
 50
180.0
 51
0.0
  0
LINE
  5
2B2
102
{ACAD_REACTORS
330
310
102
}
330
1F
100
AcDbEntity
  8
4
100
AcDbLine
 10
5.226403076952506
 20
6.054656597199874
 30
0.0
 11
5.288403076952507
 21
6.054656597199874
 31
0.0
  0
LINE
  5
2B3
102
{ACAD_REACTORS
330
310
102
}
330
1F
100
AcDbEntity
  8
4
100
AcDbLine
 10
5.288403076952507
 20
6.054656597199874
 30
0.0
 11
5.288403076952507
 21
5.992656597199875
 31
0.0
  0
LINE
  5
2B4
102
{ACAD_REACTORS
330
310
102
}
330
1F
100
AcDbEntity
  8
4
100
AcDbLine
 10
5.226403076952506
 20
6.054656597199874
 30
0.0
 11
5.226403076952506
 21
5.992656597199875
 31
0.0
  0
ARC
  5
2B5
102
{ACAD_REACTORS
330
310
102
}
330
1F
100
AcDbEntity
  8
4
100
AcDbCircle
 10
5.484403076952506
 20
6.017656597199875
 30
0.0
 40
0.025
100
AcDbArc
 50
180.0
 51
0.0
  0
ARC
  5
2B6
102
{ACAD_REACTORS
330
310
102
}
330
1F
100
AcDbEntity
  8
4
100
AcDbCircle
 10
7.716903076952508
 20
4.548702781189657
 30
0.0
 40
0.025
100
AcDbArc
 50
180.0
 51
0.0
  0
LINE
  5
2B7
102
{ACAD_REACTORS
330
310
102
}
330
1F
100
AcDbEntity
  8
4
100
AcDbLine
 10
7.459882967054991
 20
4.585702781189656
 30
0.0
 11
7.459882967054991
 21
4.523702781189655
 31
0.0
  0
LINE
  5
2B8
102
{ACAD_REACTORS
330
310
102
}
330
1F
100
AcDbEntity
  8
4
100
AcDbLine
 10
8.769882967054991
 20
4.585702781189656
 30
0.0
 11
8.769882967054991
 21
4.523702781189655
 31
0.0
  0
ARC
  5
2B9
102
{ACAD_REACTORS
330
310
102
}
330
1F
100
AcDbEntity
  8
4
100
AcDbCircle
 10
9.026903076952507
 20
4.548702781189657
 30
0.0
 40
0.025
100
AcDbArc
 50
180.0
 51
0.0
  0
ARC
  5
2BA
102
{ACAD_REACTORS
330
310
102
}
330
1F
100
AcDbEntity
  8
4
100
AcDbCircle
 10
9.150903076952506
 20
4.548702781189657
 30
0.0
 40
0.025
100
AcDbArc
 50
180.0
 51
0.0
  0
LINE
  5
2BB
102
{ACAD_REACTORS
330
310
102
}
330
1F
100
AcDbEntity
  8
4
100
AcDbLine
 10
9.407923186850023
 20
4.585702781189656
 30
0.0
 11
9.407923186850023
 21
4.523702781189655
 31
0.0
  0
LINE
  5
2BC
102
{ACAD_REACTORS
330
310
102
}
330
1F
100
AcDbEntity
  8
4
100
AcDbLine
 10
6.883903076952506
 20
6.174656597199875
 30
0.0
 11
6.883903076952506
 21
3.236656597199875
 31
0.0
  0
LINE
  5
2BD
102
{ACAD_REACTORS
330
310
102
}
330
1F
100
AcDbEntity
  8
4
100
AcDbLine
 10
7.136903076952506
 20
4.611662475757006
 30
0.0
 11
7.136903076952506
 21
3.268656597199876
 31
0.0
  0
LINE
  5
2BE
102
{ACAD_REACTORS
330
310
102
}
330
1F
100
AcDbEntity
  8
4
100
AcDbLine
 10
8.446903076952505
 20
4.611662475757006
 30
0.0
 11
8.446903076952505
 21
3.268656597199876
 31
0.0
  0
LINE
  5
2BF
102
{ACAD_REACTORS
330
310
102
}
330
1F
100
AcDbEntity
  8
4
100
AcDbLine
 10
9.730903076952508
 20
4.611662475757006
 30
0.0
 11
9.730903076952508
 21
3.268656597199876
 31
0.0
  0
LINE
  5
2C1
102
{ACAD_REACTORS
330
310
102
}
330
1F
100
AcDbEntity
  8
4
100
AcDbLine
 10
6.883903076952506
 20
3.174656597199875
 30
0.0
 11
6.883903076952506
 21
3.049656597199875
 31
0.0
  0
TEXT
  5
2C2
102
{ACAD_REACTORS
330
310
102
}
330
1F
100
AcDbEntity
  8
8
100
AcDbText
 10
6.821903076952506
 20
3.082727537253739
 30
0.0
 40
0.07
  1
1
 50
90.0
 72
     1
 11
6.821903076952506
 21
3.094394203920405
 31
0.0
100
AcDbText
  0
LINE
  5
2C4
102
{ACAD_REACTORS
330
310
102
}
330
1F
100
AcDbEntity
  8
4
100
AcDbLine
 10
7.073903076952507
 20
3.236656597199875
 30
0.0
 11
6.883903076952506
 21
3.236656597199875
 31
0.0
  0
LINE
  5
2C6
102
{ACAD_REACTORS
330
310
102
}
330
1F
100
AcDbEntity
  8
4
100
AcDbLine
 10
6.883903076952506
 20
3.236656597199875
 30
0.0
 11
6.821903076952506
 21
3.236656597199875
 31
0.0
  0
LINE
  5
2C7
102
{ACAD_REACTORS
330
310
102
}
330
1F
100
AcDbEntity
  8
4
100
AcDbLine
 10
7.136903076952506
 20
3.268656597199876
 30
0.0
 11
7.198903076952507
 21
3.268656597199876
 31
0.0
  0
TEXT
  5
2C8
102
{ACAD_REACTORS
330
310
102
}
330
1F
100
AcDbEntity
  8
8
100
AcDbText
 10
6.571903076952506
 20
3.852132062411444
 30
0.0
 40
0.07
  1
72
 50
90.0
 72
     1
 11
6.571903076952506
 21
3.910465395744777
 31
0.0
100
AcDbText
  0
LINE
  5
2C9
102
{ACAD_REACTORS
330
310
102
}
330
1F
100
AcDbEntity
  8
4
100
AcDbLine
 10
8.446903076952505
 20
3.268656597199876
 30
0.0
 11
8.508903076952506
 21
3.268656597199876
 31
0.0
  0
LINE
  5
2CA
102
{ACAD_REACTORS
330
310
102
}
330
1F
100
AcDbEntity
  8
4
100
AcDbLine
 10
9.730903076952508
 20
3.268656597199876
 30
0.0
 11
9.668903076952506
 21
3.268656597199876
 31
0.0
  0
LINE
  5
2CB
102
{ACAD_REACTORS
330
310
102
}
330
1F
100
AcDbEntity
  8
4
100
AcDbLine
 10
9.165903076952506
 20
4.643662475757006
 30
0.0
 11
9.530903076952508
 21
4.643662475757006
 31
0.0
  0
LINE
  5
2CC
102
{ACAD_REACTORS
330
310
102
}
330
1F
100
AcDbEntity
  8
4
100
AcDbLine
 10
9.592903076952508
 20
4.705662475757005
 30
0.0
 11
9.125903076952507
 21
4.705662475757005
 31
0.0
  0
LINE
  5
2CD
102
{ACAD_REACTORS
330
310
102
}
330
1F
100
AcDbEntity
  8
4
100
AcDbLine
 10
7.701903076952506
 20
4.643662475757006
 30
0.0
 11
7.336903076952506
 21
4.643662475757006
 31
0.0
  0
LINE
  5
2CE
102
{ACAD_REACTORS
330
310
102
}
330
1F
100
AcDbEntity
  8
4
100
AcDbLine
 10
7.274903076952505
 20
4.705662475757005
 30
0.0
 11
7.741903076952507
 21
4.705662475757005
 31
0.0
  0
LINE
  5
2CF
102
{ACAD_REACTORS
330
310
102
}
330
1F
100
AcDbEntity
  8
4
100
AcDbLine
 10
7.136903076952506
 20
6.080656597199876
 30
0.0
 11
7.136903076952506
 21
4.737618321866362
 31
0.0
  0
LINE
  5
2D0
102
{ACAD_REACTORS
330
310
102
}
330
1F
100
AcDbEntity
  8
4
100
AcDbLine
 10
7.073903076952507
 20
4.705662475757005
 30
0.0
 11
6.883903076952506
 21
4.705662475757005
 31
0.0
  0
LINE
  5
2D2
102
{ACAD_REACTORS
330
310
102
}
330
1F
100
AcDbEntity
  8
4
100
AcDbLine
 10
6.883903076952506
 20
4.705662475757005
 30
0.0
 11
6.821903076952506
 21
4.705662475757005
 31
0.0
  0
LINE
  5
2D3
102
{ACAD_REACTORS
330
310
102
}
330
1F
100
AcDbEntity
  8
4
100
AcDbLine
 10
7.259903076952506
 20
4.690662475757005
 30
0.0
 11
7.161903076952506
 21
4.690662475757005
 31
0.0
  0
LINE
  5
2D4
102
{ACAD_REACTORS
330
310
102
}
330
1F
100
AcDbEntity
  8
4
100
AcDbLine
 10
7.136903076952505
 20
4.705662475757005
 30
0.0
 11
7.244903076952505
 21
4.705662475757005
 31
0.0
  0
LINE
  5
2D5
102
{ACAD_REACTORS
330
310
102
}
330
1F
100
AcDbEntity
  8
4
100
AcDbLine
 10
7.198903076952506
 20
4.643662475757006
 30
0.0
 11
7.136903076952505
 21
4.643662475757006
 31
0.0
  0
LINE
  5
2D6
102
{ACAD_REACTORS
330
310
102
}
330
1F
100
AcDbEntity
  8
4
100
AcDbLine
 10
7.136903076952506
 20
4.737618321866362
 30
0.0
 11
7.198903076952506
 21
4.737618321866362
 31
0.0
  0
LINE
  5
2D7
102
{ACAD_REACTORS
330
310
102
}
330
1F
100
AcDbEntity
  8
4
100
AcDbLine
 10
7.136903076952506
 20
4.611662475757006
 30
0.0
 11
7.198903076952507
 21
4.611662475757006
 31
0.0
  0
LINE
  5
2D8
102
{ACAD_REACTORS
330
310
102
}
330
1F
100
AcDbEntity
  8
4
100
AcDbLine
 10
7.161903076952506
 20
4.690662475757005
 30
0.0
 11
7.161903076952506
 21
4.662416333319445
 31
0.0
  0
LINE
  5
2D9
102
{ACAD_REACTORS
330
310
102
}
330
1F
100
AcDbEntity
  8
4
100
AcDbLine
 10
7.136903076952505
 20
4.643662475757006
 30
0.0
 11
7.136903076952505
 21
4.705662475757005
 31
0.0
  0
LINE
  5
2DA
102
{ACAD_REACTORS
330
310
102
}
330
1F
100
AcDbEntity
  8
4
100
AcDbLine
 10
7.336903076952506
 20
4.643662475757006
 30
0.0
 11
7.274903076952505
 21
4.705662475757005
 31
0.0
  0
LINE
  5
2DB
102
{ACAD_REACTORS
330
310
102
}
330
1F
100
AcDbEntity
  8
4
100
AcDbLine
 10
7.274903076952505
 20
4.705662475757005
 30
0.0
 11
7.259903076952506
 21
4.690662475757005
 31
0.0
  0
LINE
  5
2DE
102
{ACAD_REACTORS
330
310
102
}
330
1F
100
AcDbEntity
  8
4
100
AcDbLine
 10
7.136903076952505
 20
6.080656597199876
 30
0.0
 11
7.198903076952506
 21
6.080656597199876
 31
0.0
  0
LINE
  5
2DF
102
{ACAD_REACTORS
330
310
102
}
330
1F
100
AcDbEntity
  8
4
100
AcDbLine
 10
8.446903076952505
 20
6.080656597199876
 30
0.0
 11
8.446903076952505
 21
4.737618321866362
 31
0.0
  0
LINE
  5
2E0
102
{ACAD_REACTORS
330
310
102
}
330
1F
100
AcDbEntity
  8
4
100
AcDbLine
 10
7.428882967054992
 20
4.585702781189656
 30
0.0
 11
7.490882967054991
 21
4.585702781189656
 31
0.0
  0
LINE
  5
2E1
102
{ACAD_REACTORS
330
310
102
}
330
1F
100
AcDbEntity
  8
4
100
AcDbLine
 10
7.701903076952506
 20
4.705662475757005
 30
0.0
 11
7.701903076952506
 21
4.643662475757006
 31
0.0
  0
LINE
  5
2E2
102
{ACAD_REACTORS
330
310
102
}
330
1F
100
AcDbEntity
  8
4
100
AcDbLine
 10
7.741903076952507
 20
4.705662475757005
 30
0.0
 11
7.741903076952507
 21
4.643662475757006
 31
0.0
  0
LINE
  5
2E3
102
{ACAD_REACTORS
330
310
102
}
330
1F
100
AcDbEntity
  8
4
100
AcDbLine
 10
7.741903076952507
 20
4.548702781189657
 30
0.0
 11
7.741903076952507
 21
4.598702781189656
 31
0.0
  0
LINE
  5
2E4
102
{ACAD_REACTORS
330
310
102
}
330
1F
100
AcDbEntity
  8
4
100
AcDbLine
 10
8.584903076952505
 20
4.705662475757005
 30
0.0
 11
9.051903076952505
 21
4.705662475757005
 31
0.0
  0
LINE
  5
2E5
102
{ACAD_REACTORS
330
310
102
}
330
1F
100
AcDbEntity
  8
4
100
AcDbLine
 10
9.011903076952506
 20
4.643662475757006
 30
0.0
 11
8.646903076952504
 21
4.643662475757006
 31
0.0
  0
LINE
  5
2E6
102
{ACAD_REACTORS
330
310
102
}
330
1F
100
AcDbEntity
  8
4
100
AcDbLine
 10
8.584903076952505
 20
4.705662475757005
 30
0.0
 11
8.569903076952506
 21
4.690662475757005
 31
0.0
  0
LINE
  5
2E7
102
{ACAD_REACTORS
330
310
102
}
330
1F
100
AcDbEntity
  8
4
100
AcDbLine
 10
8.508903076952506
 20
4.643662475757006
 30
0.0
 11
8.446903076952505
 21
4.643662475757006
 31
0.0
  0
LINE
  5
2E8
102
{ACAD_REACTORS
330
310
102
}
330
1F
100
AcDbEntity
  8
4
100
AcDbLine
 10
8.446903076952505
 20
4.705662475757005
 30
0.0
 11
8.554903076952506
 21
4.705662475757005
 31
0.0
  0
LINE
  5
2E9
102
{ACAD_REACTORS
330
310
102
}
330
1F
100
AcDbEntity
  8
4
100
AcDbLine
 10
8.446903076952505
 20
4.611662475757006
 30
0.0
 11
8.508903076952506
 21
4.611662475757006
 31
0.0
  0
LINE
  5
2EA
102
{ACAD_REACTORS
330
310
102
}
330
1F
100
AcDbEntity
  8
4
100
AcDbLine
 10
8.446903076952505
 20
4.643662475757006
 30
0.0
 11
8.446903076952505
 21
4.705662475757005
 31
0.0
  0
LINE
  5
2EB
102
{ACAD_REACTORS
330
310
102
}
330
1F
100
AcDbEntity
  8
4
100
AcDbLine
 10
8.471903076952505
 20
4.690662475757005
 30
0.0
 11
8.471903076952505
 21
4.662416333319445
 31
0.0
  0
LINE
  5
2EC
102
{ACAD_REACTORS
330
310
102
}
330
1F
100
AcDbEntity
  8
4
100
AcDbLine
 10
8.569903076952506
 20
4.690662475757005
 30
0.0
 11
8.471903076952505
 21
4.690662475757005
 31
0.0
  0
LINE
  5
2ED
102
{ACAD_REACTORS
330
310
102
}
330
1F
100
AcDbEntity
  8
4
100
AcDbLine
 10
8.446903076952505
 20
4.737618321866362
 30
0.0
 11
8.508903076952506
 21
4.737618321866362
 31
0.0
  0
LINE
  5
2EE
102
{ACAD_REACTORS
330
310
102
}
330
1F
100
AcDbEntity
  8
4
100
AcDbLine
 10
8.646903076952504
 20
4.643662475757006
 30
0.0
 11
8.584903076952505
 21
4.705662475757005
 31
0.0
  0
LINE
  5
2EF
102
{ACAD_REACTORS
330
310
102
}
330
1F
100
AcDbEntity
  8
4
100
AcDbLine
 10
8.738882967054991
 20
4.585702781189656
 30
0.0
 11
8.800882967054992
 21
4.585702781189656
 31
0.0
  0
LINE
  5
2F0
102
{ACAD_REACTORS
330
310
102
}
330
1F
100
AcDbEntity
  8
4
100
AcDbLine
 10
9.011903076952506
 20
4.705662475757005
 30
0.0
 11
9.011903076952506
 21
4.643662475757006
 31
0.0
  0
LINE
  5
2F1
102
{ACAD_REACTORS
330
310
102
}
330
1F
100
AcDbEntity
  8
4
100
AcDbLine
 10
9.051903076952505
 20
4.705662475757005
 30
0.0
 11
9.051903076952505
 21
4.643662475757006
 31
0.0
  0
LINE
  5
2F2
102
{ACAD_REACTORS
330
310
102
}
330
1F
100
AcDbEntity
  8
4
100
AcDbLine
 10
9.165903076952506
 20
4.705662475757005
 30
0.0
 11
9.165903076952506
 21
4.643662475757006
 31
0.0
  0
LINE
  5
2F3
102
{ACAD_REACTORS
330
310
102
}
330
1F
100
AcDbEntity
  8
4
100
AcDbLine
 10
9.125903076952507
 20
4.705662475757005
 30
0.0
 11
9.125903076952507
 21
4.643662475757006
 31
0.0
  0
LINE
  5
2F4
102
{ACAD_REACTORS
330
310
102
}
330
1F
100
AcDbEntity
  8
4
100
AcDbLine
 10
9.051903076952505
 20
4.548702781189657
 30
0.0
 11
9.051903076952505
 21
4.598702781189656
 31
0.0
  0
LINE
  5
2F5
102
{ACAD_REACTORS
330
310
102
}
330
1F
100
AcDbEntity
  8
4
100
AcDbLine
 10
9.125903076952507
 20
4.548702781189657
 30
0.0
 11
9.125903076952507
 21
4.598702781189656
 31
0.0
  0
LINE
  5
2F6
102
{ACAD_REACTORS
330
310
102
}
330
1F
100
AcDbEntity
  8
4
100
AcDbLine
 10
7.459882967054991
 20
6.054656597199874
 30
0.0
 11
7.459882967054991
 21
5.992656597199875
 31
0.0
  0
LINE
  5
2F7
102
{ACAD_REACTORS
330
310
102
}
330
1F
100
AcDbEntity
  8
4
100
AcDbLine
 10
7.428882967054992
 20
6.054656597199874
 30
0.0
 11
7.490882967054991
 21
6.054656597199874
 31
0.0
  0
LINE
  5
2F8
102
{ACAD_REACTORS
330
310
102
}
330
1F
100
AcDbEntity
  8
4
100
AcDbLine
 10
7.741903076952507
 20
6.017656597199877
 30
0.0
 11
7.741903076952507
 21
6.067656597199876
 31
0.0
  0
ARC
  5
2F9
102
{ACAD_REACTORS
330
310
102
}
330
1F
100
AcDbEntity
  8
4
100
AcDbCircle
 10
7.716903076952508
 20
6.017656597199877
 30
0.0
 40
0.025
100
AcDbArc
 50
180.0
 51
0.0
  0
LINE
  5
2FA
102
{ACAD_REACTORS
330
310
102
}
330
1F
100
AcDbEntity
  8
4
100
AcDbLine
 10
8.446903076952505
 20
6.080656597199876
 30
0.0
 11
8.508903076952506
 21
6.080656597199876
 31
0.0
  0
LINE
  5
2FB
102
{ACAD_REACTORS
330
310
102
}
330
1F
100
AcDbEntity
  8
4
100
AcDbLine
 10
8.738882967054991
 20
6.054656597199874
 30
0.0
 11
8.800882967054992
 21
6.054656597199874
 31
0.0
  0
LINE
  5
2FC
102
{ACAD_REACTORS
330
310
102
}
330
1F
100
AcDbEntity
  8
4
100
AcDbLine
 10
8.769882967054991
 20
6.054656597199874
 30
0.0
 11
8.769882967054991
 21
5.992656597199875
 31
0.0
  0
ARC
  5
2FD
102
{ACAD_REACTORS
330
310
102
}
330
1F
100
AcDbEntity
  8
4
100
AcDbCircle
 10
9.026903076952507
 20
6.017656597199877
 30
0.0
 40
0.025
100
AcDbArc
 50
180.0
 51
0.0
  0
LINE
  5
2FE
102
{ACAD_REACTORS
330
310
102
}
330
1F
100
AcDbEntity
  8
4
100
AcDbLine
 10
9.125903076952507
 20
6.017656597199877
 30
0.0
 11
9.125903076952507
 21
6.067656597199876
 31
0.0
  0
ARC
  5
2FF
102
{ACAD_REACTORS
330
310
102
}
330
1F
100
AcDbEntity
  8
4
100
AcDbCircle
 10
9.150903076952506
 20
6.017656597199877
 30
0.0
 40
0.025
100
AcDbArc
 50
180.0
 51
0.0
  0
LINE
  5
300
102
{ACAD_REACTORS
330
310
102
}
330
1F
100
AcDbEntity
  8
4
100
AcDbLine
 10
9.051903076952505
 20
6.017656597199877
 30
0.0
 11
9.051903076952505
 21
6.067656597199876
 31
0.0
  0
LINE
  5
301
102
{ACAD_REACTORS
330
310
102
}
330
1F
100
AcDbEntity
  8
4
100
AcDbLine
 10
9.730903076952508
 20
6.080656597199876
 30
0.0
 11
9.730903076952508
 21
4.737618321866362
 31
0.0
  0
LINE
  5
302
102
{ACAD_REACTORS
330
310
102
}
330
1F
100
AcDbEntity
  8
4
100
AcDbLine
 10
9.530903076952508
 20
4.643662475757006
 30
0.0
 11
9.592903076952508
 21
4.705662475757005
 31
0.0
  0
LINE
  5
303
102
{ACAD_REACTORS
330
310
102
}
330
1F
100
AcDbEntity
  8
4
100
AcDbLine
 10
9.438923186850022
 20
4.585702781189656
 30
0.0
 11
9.376923186850023
 21
4.585702781189656
 31
0.0
  0
LINE
  5
304
102
{ACAD_REACTORS
330
310
102
}
330
1F
100
AcDbEntity
  8
4
100
AcDbLine
 10
9.607903076952506
 20
4.690662475757005
 30
0.0
 11
9.705903076952507
 21
4.690662475757005
 31
0.0
  0
LINE
  5
305
102
{ACAD_REACTORS
330
310
102
}
330
1F
100
AcDbEntity
  8
4
100
AcDbLine
 10
9.730903076952508
 20
4.705662475757005
 30
0.0
 11
9.622903076952507
 21
4.705662475757005
 31
0.0
  0
LINE
  5
306
102
{ACAD_REACTORS
330
310
102
}
330
1F
100
AcDbEntity
  8
4
100
AcDbLine
 10
9.668903076952506
 20
4.643662475757006
 30
0.0
 11
9.730903076952508
 21
4.643662475757006
 31
0.0
  0
LINE
  5
307
102
{ACAD_REACTORS
330
310
102
}
330
1F
100
AcDbEntity
  8
4
100
AcDbLine
 10
9.668903076952506
 20
4.611662475757006
 30
0.0
 11
9.730903076952506
 21
4.611662475757006
 31
0.0
  0
LINE
  5
308
102
{ACAD_REACTORS
330
310
102
}
330
1F
100
AcDbEntity
  8
4
100
AcDbLine
 10
9.592903076952508
 20
4.705662475757005
 30
0.0
 11
9.607903076952506
 21
4.690662475757005
 31
0.0
  0
LINE
  5
309
102
{ACAD_REACTORS
330
310
102
}
330
1F
100
AcDbEntity
  8
4
100
AcDbLine
 10
9.705903076952507
 20
4.690662475757005
 30
0.0
 11
9.705903076952507
 21
4.662416333319445
 31
0.0
  0
LINE
  5
30A
102
{ACAD_REACTORS
330
310
102
}
330
1F
100
AcDbEntity
  8
4
100
AcDbLine
 10
9.730903076952508
 20
4.643662475757006
 30
0.0
 11
9.730903076952508
 21
4.705662475757005
 31
0.0
  0
LINE
  5
30B
102
{ACAD_REACTORS
330
310
102
}
330
1F
100
AcDbEntity
  8
4
100
AcDbLine
 10
9.668903076952506
 20
4.737618321866362
 30
0.0
 11
9.730903076952506
 21
4.737618321866362
 31
0.0
  0
LINE
  5
30C
102
{ACAD_REACTORS
330
310
102
}
330
1F
100
AcDbEntity
  8
4
100
AcDbLine
 10
9.438923186850022
 20
6.054656597199874
 30
0.0
 11
9.376923186850023
 21
6.054656597199874
 31
0.0
  0
LINE
  5
30D
102
{ACAD_REACTORS
330
310
102
}
330
1F
100
AcDbEntity
  8
4
100
AcDbLine
 10
9.407923186850023
 20
6.054656597199874
 30
0.0
 11
9.407923186850023
 21
5.992656597199875
 31
0.0
  0
LINE
  5
30E
102
{ACAD_REACTORS
330
310
102
}
330
1F
100
AcDbEntity
  8
4
100
AcDbLine
 10
9.730903076952508
 20
6.080656597199876
 30
0.0
 11
9.668903076952506
 21
6.080656597199876
 31
0.0
  0
LINE
  5
319
330
1F
100
AcDbEntity
  8
4
100
AcDbLine
 10
6.903903076952506
 20
6.049656597199874
 30
0.0
 11
6.863903076952506
 21
6.049656597199874
 31
0.0
  0
LINE
  5
31A
330
1F
100
AcDbEntity
  8
4
100
AcDbLine
 10
6.873903076952506
 20
6.049656597199874
 30
0.0
 11
6.883903076952506
 21
6.174656597199875
 31
0.0
  0
LINE
  5
31B
330
1F
100
AcDbEntity
  8
4
100
AcDbLine
 10
6.893903076952505
 20
6.049656597199874
 30
0.0
 11
6.883903076952506
 21
6.174656597199874
 31
0.0
  0
LINE
  5
31C
330
1F
100
AcDbEntity
  8
4
100
AcDbLine
 10
6.883903076952506
 20
6.174656597199874
 30
0.0
 11
6.863903076952506
 21
6.049656597199874
 31
0.0
  0
LINE
  5
31D
330
1F
100
AcDbEntity
  8
4
100
AcDbLine
 10
6.903903076952506
 20
6.049656597199874
 30
0.0
 11
6.883903076952506
 21
6.174656597199874
 31
0.0
  0
TEXT
  5
31E
330
1F
100
AcDbEntity
  8
0
100
AcDbText
 10
6.861791935690353
 20
5.255111601051741
 30
0.0
 40
0.075
  1
35-1/2"
 50
90.0
100
AcDbText
  0
LINE
  5
31F
330
1F
100
AcDbEntity
  8
4
100
AcDbLine
 10
6.903903076952507
 20
4.580662475757013
 30
0.0
 11
6.883903076952507
 21
4.705662475757013
 31
0.0
  0
LINE
  5
320
330
1F
100
AcDbEntity
  8
4
100
AcDbLine
 10
6.883903076952507
 20
4.705662475757013
 30
0.0
 11
6.863903076952507
 21
4.580662475757013
 31
0.0
  0
LINE
  5
321
330
1F
100
AcDbEntity
  8
4
100
AcDbLine
 10
6.893903076952506
 20
4.580662475757013
 30
0.0
 11
6.883903076952507
 21
4.705662475757013
 31
0.0
  0
LINE
  5
322
330
1F
100
AcDbEntity
  8
4
100
AcDbLine
 10
6.873903076952506
 20
4.580662475757013
 30
0.0
 11
6.883903076952507
 21
4.705662475757014
 31
0.0
  0
LINE
  5
323
330
1F
100
AcDbEntity
  8
4
100
AcDbLine
 10
6.903903076952507
 20
4.580662475757013
 30
0.0
 11
6.863903076952507
 21
4.580662475757013
 31
0.0
  0
LINE
  5
324
330
1F
100
AcDbEntity
  8
4
100
AcDbLine
 10
6.863903076952508
 20
4.830662475757018
 30
0.0
 11
6.903903076952508
 21
4.830662475757018
 31
0.0
  0
LINE
  5
325
330
1F
100
AcDbEntity
  8
4
100
AcDbLine
 10
6.893903076952508
 20
4.830662475757018
 30
0.0
 11
6.883903076952507
 21
4.705662475757017
 31
0.0
  0
LINE
  5
326
330
1F
100
AcDbEntity
  8
4
100
AcDbLine
 10
6.873903076952508
 20
4.830662475757018
 30
0.0
 11
6.883903076952507
 21
4.705662475757018
 31
0.0
  0
LINE
  5
327
330
1F
100
AcDbEntity
  8
4
100
AcDbLine
 10
6.883903076952507
 20
4.705662475757018
 30
0.0
 11
6.903903076952508
 21
4.830662475757018
 31
0.0
  0
LINE
  5
328
330
1F
100
AcDbEntity
  8
4
100
AcDbLine
 10
6.863903076952508
 20
4.830662475757018
 30
0.0
 11
6.883903076952507
 21
4.705662475757018
 31
0.0
  0
LINE
  5
329
330
1F
100
AcDbEntity
  8
4
100
AcDbLine
 10
6.863903076952507
 20
3.361656597199877
 30
0.0
 11
6.903903076952507
 21
3.361656597199877
 31
0.0
  0
LINE
  5
32A
330
1F
100
AcDbEntity
  8
4
100
AcDbLine
 10
6.893903076952507
 20
3.361656597199877
 30
0.0
 11
6.883903076952506
 21
3.236656597199876
 31
0.0
  0
LINE
  5
32B
330
1F
100
AcDbEntity
  8
4
100
AcDbLine
 10
6.873903076952507
 20
3.361656597199877
 30
0.0
 11
6.883903076952506
 21
3.236656597199877
 31
0.0
  0
LINE
  5
32C
330
1F
100
AcDbEntity
  8
4
100
AcDbLine
 10
6.883903076952506
 20
3.236656597199877
 30
0.0
 11
6.903903076952507
 21
3.361656597199877
 31
0.0
  0
LINE
  5
32D
330
1F
100
AcDbEntity
  8
4
100
AcDbLine
 10
6.863903076952507
 20
3.361656597199877
 30
0.0
 11
6.883903076952506
 21
3.236656597199877
 31
0.0
  0
TEXT
  5
32E
330
1F
100
AcDbEntity
  8
0
100
AcDbText
 10
6.857080526841352
 20
3.763224222544083
 30
0.0
 40
0.075
  1
35-1/2"
 50
90.0
100
AcDbText
  0
LINE
  5
32F
330
1F
100
AcDbEntity
  8
4
100
AcDbLine
 10
6.903903076952506
 20
3.049656597199873
 30
0.0
 11
6.863903076952506
 21
3.049656597199873
 31
0.0
  0
LINE
  5
330
330
1F
100
AcDbEntity
  8
4
100
AcDbLine
 10
6.873903076952506
 20
3.049656597199873
 30
0.0
 11
6.883903076952506
 21
3.174656597199874
 31
0.0
  0
LINE
  5
331
330
1F
100
AcDbEntity
  8
4
100
AcDbLine
 10
6.893903076952505
 20
3.049656597199873
 30
0.0
 11
6.883903076952506
 21
3.174656597199873
 31
0.0
  0
LINE
  5
332
330
1F
100
AcDbEntity
  8
4
100
AcDbLine
 10
6.883903076952506
 20
3.174656597199873
 30
0.0
 11
6.863903076952506
 21
3.049656597199873
 31
0.0
  0
LINE
  5
333
330
1F
100
AcDbEntity
  8
4
100
AcDbLine
 10
6.903903076952506
 20
3.049656597199873
 30
0.0
 11
6.883903076952506
 21
3.174656597199873
 31
0.0
  0
LINE
  5
334
330
1F
100
AcDbEntity
  8
4
100
AcDbLine
 10
2.907314959475821
 20
5.529484662514978
 30
0.0
 11
2.907314959475821
 21
5.569484662514978
 31
0.0
  0
LINE
  5
335
330
1F
100
AcDbEntity
  8
4
100
AcDbLine
 10
2.907314959475821
 20
5.559484662514978
 30
0.0
 11
3.032314959475822
 21
5.549484662514977
 31
0.0
  0
LINE
  5
336
330
1F
100
AcDbEntity
  8
4
100
AcDbLine
 10
2.907314959475821
 20
5.539484662514978
 30
0.0
 11
3.032314959475821
 21
5.549484662514977
 31
0.0
  0
LINE
  5
337
330
1F
100
AcDbEntity
  8
4
100
AcDbLine
 10
3.032314959475821
 20
5.549484662514977
 30
0.0
 11
2.907314959475821
 21
5.569484662514978
 31
0.0
  0
LINE
  5
338
330
1F
100
AcDbEntity
  8
4
100
AcDbLine
 10
2.907314959475821
 20
5.529484662514978
 30
0.0
 11
3.032314959475821
 21
5.549484662514977
 31
0.0
  0
LINE
  5
339
330
1F
100
AcDbEntity
  8
4
100
AcDbLine
 10
2.907314959475821
 20
5.389140398811685
 30
0.0
 11
2.907314959475821
 21
5.429140398811685
 31
0.0
  0
LINE
  5
33A
330
1F
100
AcDbEntity
  8
4
100
AcDbLine
 10
2.907314959475821
 20
5.419140398811685
 30
0.0
 11
3.032314959475822
 21
5.409140398811684
 31
0.0
  0
LINE
  5
33B
330
1F
100
AcDbEntity
  8
4
100
AcDbLine
 10
2.907314959475821
 20
5.399140398811685
 30
0.0
 11
3.032314959475821
 21
5.409140398811684
 31
0.0
  0
LINE
  5
33C
330
1F
100
AcDbEntity
  8
4
100
AcDbLine
 10
3.032314959475821
 20
5.409140398811684
 30
0.0
 11
2.907314959475821
 21
5.429140398811685
 31
0.0
  0
LINE
  5
33D
330
1F
100
AcDbEntity
  8
4
100
AcDbLine
 10
2.907314959475821
 20
5.389140398811685
 30
0.0
 11
3.032314959475821
 21
5.409140398811684
 31
0.0
  0
TEXT
  5
33E
330
1F
100
AcDbEntity
  8
8
100
AcDbText
 10
2.687314959475823
 20
5.673484662514976
 30
0.0
 40
0.07
  1
HANDLE & P/A
 50
90.0
  7
ROMANS
100
AcDbText
  0
TEXT
  5
33F
330
1F
100
AcDbEntity
  8
8
100
AcDbText
 10
2.687314959475823
 20
4.278375059001265
 30
0.0
 40
0.07
  1
LOCK ESCUTCHEON
 50
90.0
  7
ROMANS
 72
     2
 11
2.687314959475823
 21
5.285041725667932
 31
0.0
100
AcDbText
  0
TEXT
  5
340
330
1F
100
AcDbEntity
  8
8
100
AcDbText
 10
7.283903076952507
 20
3.383597653763154
 30
0.0
 40
0.07
  1
DEPTH
  7
ROMANS
 72
     1
 11
7.448903076952507
 21
3.383597653763154
 31
0.0
100
AcDbText
  0
TEXT
  5
341
330
1F
100
AcDbEntity
  8
8
100
AcDbText
 10
8.906403076952507
 20
3.383597653763154
 30
0.0
 40
0.07
  1
DEPTH
  7
ROMANS
 72
     1
 11
9.071403076952506
 21
3.383597653763154
 31
0.0
100
AcDbText
  0
TEXT
  5
342
330
1F
100
AcDbEntity
  8
8
100
AcDbText
 10
8.349241564026051
 20
2.421219328691671
 30
0.0
 40
0.1
  1
SR BACK TO BACK
  7
ROMANS
 72
     1
 11
9.073051087835574
 21
2.421219328691671
 31
0.0
100
AcDbText
  0
TEXT
  5
343
330
1F
100
AcDbEntity
  8
8
100
AcDbText
 10
7.865792401510886
 20
2.236618321866362
 30
0.0
 40
0.1
  1
SECTIONS
  7
ROMANS
 72
     1
 11
8.218173353891838
 21
2.236618321866362
 31
0.0
100
AcDbText
  0
TEXT
  5
344
330
1F
100
AcDbEntity
  8
8
100
AcDbText
 10
7.373456240079463
 20
2.421219328691671
 30
0.0
 40
0.1
  1
SR
  7
ROMANS
 72
     1
 11
7.471075287698511
 21
2.421219328691671
 31
0.0
100
AcDbText
  0
LINE
  5
345
330
1F
100
AcDbEntity
  8
4
100
AcDbLine
 10
7.699403076952506
 20
5.924618321866361
 30
0.0
 11
7.96313467961791
 21
5.924618321866361
 31
0.0
  0
LINE
  5
346
330
1F
100
AcDbEntity
  8
4
100
AcDbLine
 10
8.003561889290336
 20
5.924618321866361
 30
0.0
 11
8.18402568611428
 21
5.924618321866361
 31
0.0
  0
INSERT
  5
347
330
1F
100
AcDbEntity
  8
4
100
AcDbBlockReference
  2
ARRO
 10
8.003561889290336
 20
5.924618321866361
 30
0.0
  0
LINE
  5
348
330
1F
100
AcDbEntity
  8
4
100
AcDbLine
 10
8.18402568611428
 20
5.924618321866361
 30
0.0
 11
8.18402568611428
 21
5.721630652075849
 31
0.0
  0
TEXT
  5
349
330
1F
100
AcDbEntity
  8
8
100
AcDbText
 10
8.21902568611428
 20
4.346297318742515
 30
0.0
 40
0.07
  1
ANCHORING BY ERECTOR
 50
90.0
  7
ROMANS
 72
     2
 11
8.21902568611428
 21
5.659630652075849
 31
0.0
100
AcDbText
  0
TEXT
  5
34A
330
1F
100
AcDbEntity
  8
8
100
AcDbText
 10
6.571903076952506
 20
4.252951655199694
 30
0.0
 40
0.07
  1
LOCKER HEIGHT
 50
90.0
  7
ROMANS
 72
     1
 11
6.571903076952506
 21
4.674618321866361
 31
0.0
100
AcDbText
  0
TEXT
  5
34B
330
1F
100
AcDbEntity
  8
8
100
AcDbText
 10
3.416403076952506
 20
2.736618321866362
 30
0.0
 40
0.07
  1
LOCKER WIDTH - SEE SCHEDULE
  7
ROMANS
 72
     1
 11
4.321403076952506
 21
2.736618321866362
 31
0.0
100
AcDbText
  0
TEXT
  5
34C
330
1F
100
AcDbEntity
  8
8
100
AcDbText
 10
3.657117362666792
 20
2.236618321866362
 30
0.0
 40
0.1
  1
FRONT ELEVATION
  7
ROMANS
 72
     1
 11
4.321403076952506
 21
2.236618321866362
 31
0.0
100
AcDbText
  0
LINE
  5
34D
330
1F
100
AcDbEntity
  8
1
100
AcDbLine
 10
2.071403076952506
 20
1.674618321866361
 30
0.0
 11
10.3214030769525
 21
1.674618321866361
 31
0.0
  0
LINE
  5
34E
330
1F
100
AcDbEntity
  8
1
100
AcDbLine
 10
10.3214030769525
 20
1.674618321866361
 30
0.0
 11
10.3214030769525
 21
6.924618321866361
 31
0.0
  0
LINE
  5
34F
330
1F
100
AcDbEntity
  8
1
100
AcDbLine
 10
10.3214030769525
 20
6.924618321866361
 30
0.0
 11
2.071403076952506
 21
6.924618321866361
 31
0.0
  0
LINE
  5
350
330
1F
100
AcDbEntity
  8
1
100
AcDbLine
 10
2.071403076952506
 20
6.924618321866361
 30
0.0
 11
2.071403076952506
 21
1.674618321866361
 31
0.0
  0
LINE
  5
351
330
1F
100
AcDbEntity
  8
1
100
AcDbLine
 10
3.071403076952506
 20
3.174618321866361
 30
0.0
 11
4.571403076952506
 21
3.174618321866361
 31
0.0
  0
LINE
  5
352
330
1F
100
AcDbEntity
  8
1
100
AcDbLine
 10
3.071403076952506
 20
3.174618321866361
 30
0.0
 11
3.071403076952506
 21
6.174618321866361
 31
0.0
  0
LINE
  5
353
330
1F
100
AcDbEntity
  8
1
100
AcDbLine
 10
3.071403076952506
 20
6.174618321866361
 30
0.0
 11
4.571403076952506
 21
6.174618321866361
 31
0.0
  0
LINE
  5
354
330
1F
100
AcDbEntity
  8
1
100
AcDbLine
 10
4.696403076952506
 20
6.174618321866361
 30
0.0
 11
5.571403076952506
 21
6.174618321866361
 31
0.0
  0
LINE
  5
355
330
1F
100
AcDbEntity
  8
1
100
AcDbLine
 10
5.571403076952506
 20
6.174618321866361
 30
0.0
 11
5.571403076952506
 21
3.174618321866361
 31
0.0
  0
LINE
  5
356
330
1F
100
AcDbEntity
  8
1
100
AcDbLine
 10
5.571403076952506
 20
3.174618321866361
 30
0.0
 11
4.696403076952506
 21
3.174618321866361
 31
0.0
  0
LINE
  5
357
330
1F
100
AcDbEntity
  8
1
100
AcDbLine
 10
9.071403076952506
 20
3.174618321866361
 30
0.0
 11
9.071403076952506
 21
6.174618321866361
 31
0.0
  0
LINE
  5
358
330
1F
100
AcDbEntity
  8
1
100
AcDbLine
 10
7.821403076952506
 20
3.174618321866361
 30
0.0
 11
7.821403076952506
 21
6.549618321866361
 31
0.0
  0
CIRCLE
  5
359
330
1F
100
AcDbEntity
  8
1
100
AcDbCircle
 10
6.196403076952506
 20
2.174618321866361
 30
0.0
 40
0.1875
  0
LINE
  5
35A
330
1F
100
AcDbEntity
  8
1
100
AcDbLine
 10
4.696403076952506
 20
6.299618321866361
 30
0.0
 11
4.696403076952506
 21
5.384592501177941
 31
0.0
  0
LINE
  5
35B
330
1F
100
AcDbEntity
  8
1
100
AcDbLine
 10
4.571403076952506
 20
6.299618321866361
 30
0.0
 11
4.571403076952506
 21
6.019592501177941
 31
0.0
  0
LINE
  5
35C
330
1F
100
AcDbEntity
  8
1
100
AcDbLine
 10
4.526403076952506
 20
6.064592501177941
 30
0.0
 11
4.616403076952506
 21
5.974592501177941
 31
0.0
  0
LINE
  5
35D
330
1F
100
AcDbEntity
  8
1
100
AcDbLine
 10
4.616403076952506
 20
5.974592501177941
 30
0.0
 11
4.526403076952506
 21
5.974592501177941
 31
0.0
  0
LINE
  5
35E
330
1F
100
AcDbEntity
  8
1
100
AcDbLine
 10
4.526403076952506
 20
5.974592501177941
 30
0.0
 11
4.616403076952506
 21
5.884592501177941
 31
0.0
  0
LINE
  5
35F
330
1F
100
AcDbEntity
  8
1
100
AcDbLine
 10
4.583599107779488
 20
5.917396470350959
 30
0.0
 11
4.583599107779488
 21
4.750296851014031
 31
0.0
  0
LINE
  5
360
330
1F
100
AcDbEntity
  8
1
100
AcDbLine
 10
4.526403076952506
 20
4.724592501177941
 30
0.0
 11
4.616403076952506
 21
4.634592501177941
 31
0.0
  0
LINE
  5
361
330
1F
100
AcDbEntity
  8
1
100
AcDbLine
 10
4.616403076952506
 20
4.724592501177941
 30
0.0
 11
4.526403076952506
 21
4.724592501177941
 31
0.0
  0
LINE
  5
362
330
1F
100
AcDbEntity
  8
1
100
AcDbLine
 10
4.526403076952506
 20
4.814592501177941
 30
0.0
 11
4.616403076952506
 21
4.724592501177941
 31
0.0
  0
LINE
  5
363
330
1F
100
AcDbEntity
  8
1
100
AcDbLine
 10
4.526403076952506
 20
3.474592501177941
 30
0.0
 11
4.616403076952506
 21
3.384592501177941
 31
0.0
  0
LINE
  5
364
330
1F
100
AcDbEntity
  8
1
100
AcDbLine
 10
4.616403076952506
 20
3.474592501177941
 30
0.0
 11
4.526403076952506
 21
3.474592501177941
 31
0.0
  0
LINE
  5
365
330
1F
100
AcDbEntity
  8
1
100
AcDbLine
 10
4.526403076952506
 20
3.564592501177941
 30
0.0
 11
4.616403076952506
 21
3.474592501177941
 31
0.0
  0
LINE
  5
366
330
1F
100
AcDbEntity
  8
1
100
AcDbLine
 10
4.571403076952506
 20
4.679592501177941
 30
0.0
 11
4.571403076952506
 21
4.144592501177941
 31
0.0
  0
LINE
  5
367
330
1F
100
AcDbEntity
  8
1
100
AcDbLine
 10
4.571403076952506
 20
4.144592501177941
 30
0.0
 11
4.571403076952506
 21
3.519592501177941
 31
0.0
  0
LINE
  5
368
330
1F
100
AcDbEntity
  8
1
100
AcDbLine
 10
4.571403076952506
 20
3.429592501177941
 30
0.0
 11
4.571403076952506
 21
3.049618321866361
 31
0.0
  0
LINE
  5
369
330
1F
100
AcDbEntity
  8
1
100
AcDbLine
 10
4.651403076952506
 20
4.189592501177941
 30
0.0
 11
4.741403076952506
 21
4.099592501177941
 31
0.0
  0
LINE
  5
36A
330
1F
100
AcDbEntity
  8
1
100
AcDbLine
 10
4.741403076952506
 20
4.099592501177941
 30
0.0
 11
4.651403076952506
 21
4.099592501177941
 31
0.0
  0
LINE
  5
36B
330
1F
100
AcDbEntity
  8
1
100
AcDbLine
 10
4.651403076952506
 20
4.099592501177941
 30
0.0
 11
4.741403076952506
 21
4.009592501177941
 31
0.0
  0
LINE
  5
36C
330
1F
100
AcDbEntity
  8
1
100
AcDbLine
 10
4.651403076952506
 20
5.429592501177941
 30
0.0
 11
4.741403076952506
 21
5.339592501177941
 31
0.0
  0
LINE
  5
36D
330
1F
100
AcDbEntity
  8
1
100
AcDbLine
 10
4.741403076952506
 20
5.339592501177941
 30
0.0
 11
4.651403076952506
 21
5.339592501177941
 31
0.0
  0
LINE
  5
36E
330
1F
100
AcDbEntity
  8
1
100
AcDbLine
 10
4.651403076952506
 20
5.339592501177941
 30
0.0
 11
4.741403076952506
 21
5.249592501177941
 31
0.0
  0
LINE
  5
36F
330
1F
100
AcDbEntity
  8
1
100
AcDbLine
 10
4.696403076952506
 20
5.300586026018227
 30
0.0
 11
4.696403076952506
 21
4.457092501177941
 31
0.0
  0
LINE
  5
370
330
1F
100
AcDbEntity
  8
1
100
AcDbLine
 10
4.696403076952506
 20
4.457092501177941
 30
0.0
 11
4.696403076952506
 21
4.144592501177941
 31
0.0
  0
LINE
  5
371
330
1F
100
AcDbEntity
  8
1
100
AcDbLine
 10
4.696403076952506
 20
4.054592501177941
 30
0.0
 11
4.696403076952506
 21
3.049618321866361
 31
0.0
  0
LINE
  5
372
330
1F
100
AcDbEntity
  8
1
100
AcDbLine
 10
7.821403076952506
 20
3.174618321866361
 30
0.0
 11
8.009403076952505
 21
3.362618321866361
 31
0.0
  0
LINE
  5
373
330
1F
100
AcDbEntity
  8
1
100
AcDbLine
 10
7.821403076952506
 20
3.299618321866361
 30
0.0
 11
8.009403076952505
 21
3.487618321866361
 31
0.0
  0
LINE
  5
374
330
1F
100
AcDbEntity
  8
1
100
AcDbLine
 10
7.821403076952506
 20
3.674618321866361
 30
0.0
 11
8.009403076952505
 21
3.862618321866361
 31
0.0
  0
LINE
  5
375
330
1F
100
AcDbEntity
  8
1
100
AcDbLine
 10
7.821403076952506
 20
3.799618321866361
 30
0.0
 11
8.009403076952505
 21
3.987618321866361
 31
0.0
  0
LINE
  5
376
330
1F
100
AcDbEntity
  8
1
100
AcDbLine
 10
7.821403076952506
 20
3.924618321866361
 30
0.0
 11
8.009403076952505
 21
4.112618321866361
 31
0.0
  0
LINE
  5
377
330
1F
100
AcDbEntity
  8
1
100
AcDbLine
 10
7.821403076952506
 20
4.049618321866361
 30
0.0
 11
8.009403076952505
 21
4.237618321866361
 31
0.0
  0
LINE
  5
378
330
1F
100
AcDbEntity
  8
1
100
AcDbLine
 10
7.821403076952506
 20
4.174618321866361
 30
0.0
 11
8.009403076952505
 21
4.362618321866361
 31
0.0
  0
LINE
  5
379
330
1F
100
AcDbEntity
  8
1
100
AcDbLine
 10
7.821403076952506
 20
4.299618321866361
 30
0.0
 11
8.009403076952505
 21
4.487618321866361
 31
0.0
  0
LINE
  5
37A
330
1F
100
AcDbEntity
  8
1
100
AcDbLine
 10
7.821403076952506
 20
4.424618321866361
 30
0.0
 11
8.009403076952505
 21
4.612618321866361
 31
0.0
  0
LINE
  5
37B
330
1F
100
AcDbEntity
  8
1
100
AcDbLine
 10
7.821403076952506
 20
4.549618321866361
 30
0.0
 11
8.009403076952505
 21
4.737618321866361
 31
0.0
  0
LINE
  5
37C
330
1F
100
AcDbEntity
  8
1
100
AcDbLine
 10
7.821403076952506
 20
4.674618321866361
 30
0.0
 11
8.009403076952505
 21
4.862618321866361
 31
0.0
  0
LINE
  5
37D
330
1F
100
AcDbEntity
  8
1
100
AcDbLine
 10
7.821403076952506
 20
4.799618321866361
 30
0.0
 11
8.009403076952505
 21
4.987618321866361
 31
0.0
  0
LINE
  5
37E
330
1F
100
AcDbEntity
  8
1
100
AcDbLine
 10
7.821403076952506
 20
4.924618321866361
 30
0.0
 11
8.009403076952505
 21
5.112618321866361
 31
0.0
  0
LINE
  5
37F
330
1F
100
AcDbEntity
  8
1
100
AcDbLine
 10
7.821403076952506
 20
5.049618321866361
 30
0.0
 11
8.009403076952505
 21
5.237618321866361
 31
0.0
  0
LINE
  5
380
330
1F
100
AcDbEntity
  8
1
100
AcDbLine
 10
7.821403076952506
 20
5.174618321866361
 30
0.0
 11
8.009403076952505
 21
5.362618321866361
 31
0.0
  0
LINE
  5
381
330
1F
100
AcDbEntity
  8
1
100
AcDbLine
 10
7.821403076952506
 20
5.299618321866361
 30
0.0
 11
8.009403076952505
 21
5.487618321866361
 31
0.0
  0
LINE
  5
382
330
1F
100
AcDbEntity
  8
1
100
AcDbLine
 10
7.821403076952506
 20
5.424618321866361
 30
0.0
 11
8.009403076952505
 21
5.612618321866361
 31
0.0
  0
LINE
  5
383
330
1F
100
AcDbEntity
  8
1
100
AcDbLine
 10
7.821403076952506
 20
5.549618321866361
 30
0.0
 11
8.009403076952505
 21
5.737618321866361
 31
0.0
  0
LINE
  5
384
330
1F
100
AcDbEntity
  8
1
100
AcDbLine
 10
7.821403076952506
 20
5.674618321866361
 30
0.0
 11
8.009403076952505
 21
5.862618321866361
 31
0.0
  0
LINE
  5
385
330
1F
100
AcDbEntity
  8
1
100
AcDbLine
 10
7.821403076952506
 20
5.799618321866361
 30
0.0
 11
8.009403076952505
 21
5.987618321866361
 31
0.0
  0
LINE
  5
386
330
1F
100
AcDbEntity
  8
1
100
AcDbLine
 10
7.821403076952506
 20
5.924618321866361
 30
0.0
 11
8.009403076952505
 21
6.112618321866361
 31
0.0
  0
LINE
  5
387
330
1F
100
AcDbEntity
  8
1
100
AcDbLine
 10
7.821403076952506
 20
6.049618321866361
 30
0.0
 11
8.009403076952505
 21
6.237618321866361
 31
0.0
  0
LINE
  5
388
330
1F
100
AcDbEntity
  8
1
100
AcDbLine
 10
7.821403076952506
 20
6.174618321866361
 30
0.0
 11
8.009403076952505
 21
6.362618321866361
 31
0.0
  0
LINE
  5
389
330
1F
100
AcDbEntity
  8
1
100
AcDbLine
 10
7.821403076952506
 20
6.299618321866361
 30
0.0
 11
8.009403076952505
 21
6.487618321866361
 31
0.0
  0
LINE
  5
38A
330
1F
100
AcDbEntity
  8
1
100
AcDbLine
 10
7.821403076952506
 20
6.424618321866361
 30
0.0
 11
7.946403076952506
 21
6.549618321866361
 31
0.0
  0
LINE
  5
38B
330
1F
100
AcDbEntity
  8
1
100
AcDbLine
 10
7.761403076952507
 20
3.174618321866361
 30
0.0
 11
7.761403076952507
 21
6.174618321866361
 31
0.0
  0
LINE
  5
38C
330
1F
100
AcDbEntity
  8
4
100
AcDbLine
 10
3.071403076952506
 20
3.112618321866361
 30
0.0
 11
3.071403076952506
 21
2.612618321866361
 31
0.0
  0
LINE
  5
38D
330
1F
100
AcDbEntity
  8
4
100
AcDbLine
 10
5.571403076952506
 20
3.112618321866361
 30
0.0
 11
5.571403076952506
 21
2.612618321866361
 31
0.0
  0
LINE
  5
38E
330
1F
100
AcDbEntity
  8
4
100
AcDbLine
 10
5.571403076952506
 20
2.674618321866361
 30
0.0
 11
3.071403076952506
 21
2.674618321866362
 31
0.0
  0
INSERT
  5
38F
330
1F
100
AcDbEntity
  8
4
100
AcDbBlockReference
  2
ARRO
 10
3.071403076952506
 20
2.674618321866362
 30
0.0
  0
INSERT
  5
390
330
1F
100
AcDbEntity
  8
4
100
AcDbBlockReference
  2
ARRO
 10
5.571403076952506
 20
2.674618321866361
 30
0.0
 50
180.0
  0
LINE
  5
391
330
1F
100
AcDbEntity
  8
4
100
AcDbLine
 10
7.073903076952507
 20
3.174618321866361
 30
0.0
 11
6.573903076952507
 21
3.174618321866361
 31
0.0
  0
LINE
  5
392
330
1F
100
AcDbEntity
  8
4
100
AcDbLine
 10
6.633903076952506
 20
3.174618321866361
 30
0.0
 11
6.633903076952506
 21
6.174618321866361
 31
0.0
  0
LINE
  5
393
330
1F
100
AcDbEntity
  8
4
100
AcDbLine
 10
7.073903076952507
 20
6.174618321866361
 30
0.0
 11
6.573903076952507
 21
6.174618321866361
 31
0.0
  0
INSERT
  5
394
330
1F
100
AcDbEntity
  8
4
100
AcDbBlockReference
  2
ARRO
 10
6.633903076952506
 20
6.174618321866361
 30
0.0
 50
270.0
  0
INSERT
  5
395
330
1F
100
AcDbEntity
  8
4
100
AcDbBlockReference
  2
ARRO
 10
6.633903076952506
 20
3.174618321866361
 30
0.0
 50
90.0
  0
LINE
  5
396
330
1F
100
AcDbEntity
  8
4
100
AcDbLine
 10
7.761403076952507
 20
3.487118321866361
 30
0.0
 11
7.136403076952507
 21
3.487118321866361
 31
0.0
  0
LINE
  5
397
330
1F
100
AcDbEntity
  8
4
100
AcDbLine
 10
7.821403076952506
 20
3.487118321866361
 30
0.0
 11
8.071403076952506
 21
3.487118321866361
 31
0.0
  0
LINE
  5
398
330
1F
100
AcDbEntity
  8
4
100
AcDbLine
 10
8.446403076952506
 20
3.487118321866361
 30
0.0
 11
9.696403076952506
 21
3.487118321866361
 31
0.0
  0
INSERT
  5
399
330
1F
100
AcDbEntity
  8
4
100
AcDbBlockReference
  2
ARRO
 10
7.136403076952507
 20
3.487118321866361
 30
0.0
  0
INSERT
  5
39A
330
1F
100
AcDbEntity
  8
4
100
AcDbBlockReference
  2
ARRO
 10
7.761403076952507
 20
3.487118321866361
 30
0.0
 50
180.0
  0
INSERT
  5
39B
330
1F
100
AcDbEntity
  8
4
100
AcDbBlockReference
  2
ARRO
 10
7.821403076952506
 20
3.487118321866361
 30
0.0
  0
LINE
  5
39E
330
1F
100
AcDbEntity
  8
1
100
AcDbLine
 10
3.133403076952506
 20
3.236618321866362
 30
0.0
 11
3.133403076952506
 21
4.643624200423491
 31
0.0
  0
LINE
  5
39F
330
1F
100
AcDbEntity
  8
1
100
AcDbLine
 10
3.133403076952506
 20
6.112618321866362
 30
0.0
 11
3.634403076952506
 21
6.112618321866362
 31
0.0
  0
LINE
  5
3A0
330
1F
100
AcDbEntity
  8
1
100
AcDbLine
 10
3.634403076952506
 20
6.112618321866362
 30
0.0
 11
3.634403076952506
 21
4.705624200423492
 31
0.0
  0
LINE
  5
3A1
330
1F
100
AcDbEntity
  8
1
100
AcDbLine
 10
3.758403076952506
 20
3.236618321866362
 30
0.0
 11
3.758403076952506
 21
4.643624200423491
 31
0.0
  0
LINE
  5
3A2
330
1F
100
AcDbEntity
  8
1
100
AcDbLine
 10
3.758403076952506
 20
6.112618321866362
 30
0.0
 11
4.259403076952507
 21
6.112618321866362
 31
0.0
  0
LINE
  5
3A3
330
1F
100
AcDbEntity
  8
1
100
AcDbLine
 10
4.259403076952507
 20
6.112618321866362
 30
0.0
 11
4.259403076952507
 21
4.705624200423492
 31
0.0
  0
LINE
  5
3A4
330
1F
100
AcDbEntity
  8
1
100
AcDbLine
 10
4.259403076952506
 20
3.236618321866362
 30
0.0
 11
3.758403076952506
 21
3.236618321866362
 31
0.0
  0
LINE
  5
3A5
330
1F
100
AcDbEntity
  8
1
100
AcDbLine
 10
4.383403076952506
 20
3.236618321866362
 30
0.0
 11
4.383403076952506
 21
4.643624200423491
 31
0.0
  0
LINE
  5
3A6
330
1F
100
AcDbEntity
  8
1
100
AcDbLine
 10
4.383403076952506
 20
6.112618321866362
 30
0.0
 11
4.571403076952506
 21
6.112618321866362
 31
0.0
  0
LINE
  5
3A7
330
1F
100
AcDbEntity
  8
1
100
AcDbLine
 10
4.884403076952507
 20
6.112618321866362
 30
0.0
 11
4.884403076952507
 21
4.705624200423492
 31
0.0
  0
LINE
  5
3A8
330
1F
100
AcDbEntity
  8
1
100
AcDbLine
 10
4.884403076952506
 20
3.236618321866362
 30
0.0
 11
4.696403076952506
 21
3.236618321866362
 31
0.0
  0
LINE
  5
3A9
330
1F
100
AcDbEntity
  8
1
100
AcDbLine
 10
5.008403076952506
 20
3.236618321866362
 30
0.0
 11
5.008403076952506
 21
4.643624200423491
 31
0.0
  0
LINE
  5
3AA
330
1F
100
AcDbEntity
  8
1
100
AcDbLine
 10
5.008403076952506
 20
6.112618321866362
 30
0.0
 11
5.509403076952507
 21
6.112618321866362
 31
0.0
  0
LINE
  5
3AB
330
1F
100
AcDbEntity
  8
1
100
AcDbLine
 10
5.509403076952507
 20
6.112618321866362
 30
0.0
 11
5.509403076952507
 21
4.705624200423492
 31
0.0
  0
LINE
  5
3AC
330
1F
100
AcDbEntity
  8
1
100
AcDbLine
 10
5.509403076952506
 20
3.236618321866362
 30
0.0
 11
5.008403076952506
 21
3.236618321866362
 31
0.0
  0
LINE
  5
3AD
330
1F
100
AcDbEntity
  8
1
100
AcDbLine
 10
3.696403076952506
 20
3.174618321866361
 30
0.0
 11
3.696403076952506
 21
6.174618321866361
 31
0.0
  0
LINE
  5
3AE
330
1F
100
AcDbEntity
  8
1
100
AcDbLine
 10
4.321403076952506
 20
3.174618321866361
 30
0.0
 11
4.321403076952506
 21
6.174618321866361
 31
0.0
  0
LINE
  5
3AF
330
1F
100
AcDbEntity
  8
1
100
AcDbLine
 10
4.946403076952506
 20
3.174618321866361
 30
0.0
 11
4.946403076952506
 21
6.174618321866361
 31
0.0
  0
LINE
  5
3B0
330
1F
100
AcDbEntity
  8
1
100
AcDbLine
 10
4.696403076952506
 20
6.112618321866362
 30
0.0
 11
4.884403076952507
 21
6.112618321866362
 31
0.0
  0
LINE
  5
3B1
330
1F
100
AcDbEntity
  8
1
100
AcDbLine
 10
4.571403076952505
 20
3.236618321866362
 30
0.0
 11
4.383403076952506
 21
3.236618321866362
 31
0.0
  0
LINE
  5
3B2
330
1F
100
AcDbEntity
  8
4
100
AcDbLine
 10
4.008903076952506
 20
6.080618321866362
 30
0.0
 11
4.008903076952506
 21
6.205618321866362
 31
0.0
  0
CIRCLE
  5
3B3
330
1F
100
AcDbEntity
  8
4
100
AcDbCircle
 10
4.008903076952506
 20
5.986618321866362
 30
0.0
 40
0.094
  0
CIRCLE
  5
3B4
330
1F
100
AcDbEntity
  8
4
100
AcDbCircle
 10
3.850269787260519
 20
3.048618321866361
 30
0.0
 40
0.094
  0
LINE
  5
3B5
330
1F
100
AcDbEntity
  8
4
100
AcDbLine
 10
3.850269787260519
 20
3.142618321866361
 30
0.0
 11
3.850269787260519
 21
3.267618321866361
 31
0.0
  0
CIRCLE
  5
3B6
330
1F
100
AcDbEntity
  8
4
100
AcDbCircle
 10
4.100269787260519
 20
3.048618321866361
 30
0.0
 40
0.094
  0
LINE
  5
3B7
330
1F
100
AcDbEntity
  8
4
100
AcDbLine
 10
3.94426978726052
 20
3.048618321866361
 30
0.0
 11
4.006269787260519
 21
3.048618321866361
 31
0.0
  0
LINE
  5
3B8
330
1F
100
AcDbEntity
  8
1
100
AcDbLine
 10
3.133403076952506
 20
3.236618321866362
 30
0.0
 11
3.634403076952506
 21
3.236618321866362
 31
0.0
  0
LINE
  5
3B9
330
1F
100
AcDbEntity
  8
1
100
AcDbLine
 10
7.274903076952505
 20
6.174618321866361
 30
0.0
 11
7.259903076952506
 21
6.159618321866361
 31
0.0
  0
LINE
  5
3BA
330
1F
100
AcDbEntity
  8
1
100
AcDbLine
 10
7.259903076952506
 20
6.159618321866361
 30
0.0
 11
7.161903076952506
 21
6.159618321866361
 31
0.0
  0
LINE
  5
3BB
330
1F
100
AcDbEntity
  8
1
100
AcDbLine
 10
7.161903076952506
 20
6.159618321866361
 30
0.0
 11
7.161903076952506
 21
6.131372179428801
 31
0.0
  0
LINE
  5
3BC
330
1F
100
AcDbEntity
  8
1
100
AcDbLine
 10
7.336903076952506
 20
6.112618321866361
 30
0.0
 11
7.274903076952505
 21
6.174618321866361
 31
0.0
  0
LINE
  5
3BD
330
1F
100
AcDbEntity
  8
1
100
AcDbLine
 10
7.701903076952506
 20
6.112618321866361
 30
0.0
 11
7.336903076952506
 21
6.112618321866361
 31
0.0
  0
LINE
  5
3BE
330
1F
100
AcDbEntity
  8
1
100
AcDbLine
 10
7.701903076952506
 20
6.174618321866361
 30
0.0
 11
7.701903076952506
 21
6.112618321866361
 31
0.0
  0
LINE
  5
3BF
330
1F
100
AcDbEntity
  8
1
100
AcDbLine
 10
7.741903076952506
 20
6.174618321866361
 30
0.0
 11
7.741903076952506
 21
6.112618321866361
 31
0.0
  0
LINE
  5
3C0
330
1F
100
AcDbEntity
  8
1
100
AcDbLine
 10
7.136903076952505
 20
6.174618321866361
 30
0.0
 11
7.244903076952505
 21
6.174618321866361
 31
0.0
  0
LINE
  5
3C1
330
1F
100
AcDbEntity
  8
1
100
AcDbLine
 10
7.136903076952505
 20
6.112618321866361
 30
0.0
 11
7.136903076952505
 21
6.174618321866361
 31
0.0
  0
LINE
  5
3C2
330
1F
100
AcDbEntity
  8
1
100
AcDbLine
 10
7.198903076952506
 20
6.112618321866361
 30
0.0
 11
7.136903076952505
 21
6.112618321866361
 31
0.0
  0
LINE
  5
3C3
330
1F
100
AcDbEntity
  8
1
100
AcDbLine
 10
7.274903076952505
 20
6.174618321866361
 30
0.0
 11
7.741903076952506
 21
6.174618321866361
 31
0.0
  0
LINE
  5
3C4
330
1F
100
AcDbEntity
  8
1
100
AcDbLine
 10
8.584903076952505
 20
6.174618321866361
 30
0.0
 11
9.051903076952505
 21
6.174618321866361
 31
0.0
  0
LINE
  5
3C5
330
1F
100
AcDbEntity
  8
1
100
AcDbLine
 10
8.508903076952506
 20
6.112618321866361
 30
0.0
 11
8.446903076952505
 21
6.112618321866361
 31
0.0
  0
LINE
  5
3C6
330
1F
100
AcDbEntity
  8
1
100
AcDbLine
 10
8.446903076952505
 20
6.112618321866361
 30
0.0
 11
8.446903076952505
 21
6.174618321866361
 31
0.0
  0
LINE
  5
3C7
330
1F
100
AcDbEntity
  8
1
100
AcDbLine
 10
8.446903076952505
 20
6.174618321866361
 30
0.0
 11
8.554903076952506
 21
6.174618321866361
 31
0.0
  0
LINE
  5
3C8
330
1F
100
AcDbEntity
  8
1
100
AcDbLine
 10
9.051903076952505
 20
6.174618321866361
 30
0.0
 11
9.051903076952505
 21
6.112618321866361
 31
0.0
  0
LINE
  5
3C9
330
1F
100
AcDbEntity
  8
1
100
AcDbLine
 10
9.011903076952506
 20
6.174618321866361
 30
0.0
 11
9.011903076952506
 21
6.112618321866361
 31
0.0
  0
LINE
  5
3CA
330
1F
100
AcDbEntity
  8
1
100
AcDbLine
 10
9.011903076952506
 20
6.112618321866361
 30
0.0
 11
8.646903076952504
 21
6.112618321866361
 31
0.0
  0
LINE
  5
3CB
330
1F
100
AcDbEntity
  8
1
100
AcDbLine
 10
8.646903076952504
 20
6.112618321866361
 30
0.0
 11
8.584903076952505
 21
6.174618321866361
 31
0.0
  0
LINE
  5
3CC
330
1F
100
AcDbEntity
  8
1
100
AcDbLine
 10
8.471903076952505
 20
6.159618321866361
 30
0.0
 11
8.471903076952505
 21
6.131372179428801
 31
0.0
  0
LINE
  5
3CD
330
1F
100
AcDbEntity
  8
1
100
AcDbLine
 10
8.569903076952506
 20
6.159618321866361
 30
0.0
 11
8.471903076952505
 21
6.159618321866361
 31
0.0
  0
LINE
  5
3CE
330
1F
100
AcDbEntity
  8
1
100
AcDbLine
 10
8.584903076952505
 20
6.174618321866361
 30
0.0
 11
8.569903076952506
 21
6.159618321866361
 31
0.0
  0
LINE
  5
3CF
330
1F
100
AcDbEntity
  8
1
100
AcDbLine
 10
9.592903076952508
 20
6.174618321866361
 30
0.0
 11
9.607903076952506
 21
6.159618321866361
 31
0.0
  0
LINE
  5
3D0
330
1F
100
AcDbEntity
  8
1
100
AcDbLine
 10
9.607903076952506
 20
6.159618321866361
 30
0.0
 11
9.705903076952507
 21
6.159618321866361
 31
0.0
  0
LINE
  5
3D1
330
1F
100
AcDbEntity
  8
1
100
AcDbLine
 10
9.705903076952507
 20
6.159618321866361
 30
0.0
 11
9.705903076952507
 21
6.131372179428801
 31
0.0
  0
LINE
  5
3D2
330
1F
100
AcDbEntity
  8
1
100
AcDbLine
 10
9.530903076952508
 20
6.112618321866361
 30
0.0
 11
9.592903076952508
 21
6.174618321866361
 31
0.0
  0
LINE
  5
3D3
330
1F
100
AcDbEntity
  8
1
100
AcDbLine
 10
9.165903076952506
 20
6.112618321866361
 30
0.0
 11
9.530903076952508
 21
6.112618321866361
 31
0.0
  0
LINE
  5
3D4
330
1F
100
AcDbEntity
  8
1
100
AcDbLine
 10
9.165903076952506
 20
6.174618321866361
 30
0.0
 11
9.165903076952506
 21
6.112618321866361
 31
0.0
  0
LINE
  5
3D5
330
1F
100
AcDbEntity
  8
1
100
AcDbLine
 10
9.125903076952507
 20
6.174618321866361
 30
0.0
 11
9.125903076952507
 21
6.112618321866361
 31
0.0
  0
LINE
  5
3D6
330
1F
100
AcDbEntity
  8
1
100
AcDbLine
 10
9.730903076952508
 20
6.174618321866361
 30
0.0
 11
9.622903076952507
 21
6.174618321866361
 31
0.0
  0
LINE
  5
3D7
330
1F
100
AcDbEntity
  8
1
100
AcDbLine
 10
9.730903076952508
 20
6.112618321866361
 30
0.0
 11
9.730903076952508
 21
6.174618321866361
 31
0.0
  0
LINE
  5
3D8
330
1F
100
AcDbEntity
  8
1
100
AcDbLine
 10
9.668903076952506
 20
6.112618321866361
 30
0.0
 11
9.730903076952508
 21
6.112618321866361
 31
0.0
  0
LINE
  5
3D9
330
1F
100
AcDbEntity
  8
1
100
AcDbLine
 10
9.592903076952508
 20
6.174618321866361
 30
0.0
 11
9.125903076952507
 21
6.174618321866361
 31
0.0
  0
LINE
  5
3DA
330
1F
100
AcDbEntity
  8
1
100
AcDbLine
 10
9.592828333083268
 20
3.237118321866361
 30
0.0
 11
9.125828333083267
 21
3.237118321866361
 31
0.0
  0
LINE
  5
3DB
330
1F
100
AcDbEntity
  8
1
100
AcDbLine
 10
9.668828333083267
 20
3.175118321866361
 30
0.0
 11
9.730828333083268
 21
3.175118321866361
 31
0.0
  0
LINE
  5
3DC
330
1F
100
AcDbEntity
  8
1
100
AcDbLine
 10
9.730828333083268
 20
3.175118321866361
 30
0.0
 11
9.730828333083268
 21
3.237118321866361
 31
0.0
  0
LINE
  5
3DD
330
1F
100
AcDbEntity
  8
1
100
AcDbLine
 10
9.730828333083268
 20
3.237118321866361
 30
0.0
 11
9.622828333083267
 21
3.237118321866361
 31
0.0
  0
LINE
  5
3DE
330
1F
100
AcDbEntity
  8
1
100
AcDbLine
 10
9.125828333083267
 20
3.237118321866361
 30
0.0
 11
9.125828333083267
 21
3.175118321866361
 31
0.0
  0
LINE
  5
3DF
330
1F
100
AcDbEntity
  8
1
100
AcDbLine
 10
9.165828333083267
 20
3.237118321866361
 30
0.0
 11
9.165828333083267
 21
3.175118321866361
 31
0.0
  0
LINE
  5
3E0
330
1F
100
AcDbEntity
  8
1
100
AcDbLine
 10
9.165828333083267
 20
3.175118321866361
 30
0.0
 11
9.530828333083269
 21
3.175118321866361
 31
0.0
  0
LINE
  5
3E1
330
1F
100
AcDbEntity
  8
1
100
AcDbLine
 10
9.530828333083269
 20
3.175118321866361
 30
0.0
 11
9.592828333083268
 21
3.237118321866361
 31
0.0
  0
LINE
  5
3E2
330
1F
100
AcDbEntity
  8
1
100
AcDbLine
 10
9.705828333083267
 20
3.222118321866361
 30
0.0
 11
9.705828333083267
 21
3.193872179428801
 31
0.0
  0
LINE
  5
3E3
330
1F
100
AcDbEntity
  8
1
100
AcDbLine
 10
9.607828333083267
 20
3.222118321866361
 30
0.0
 11
9.705828333083267
 21
3.222118321866361
 31
0.0
  0
LINE
  5
3E4
330
1F
100
AcDbEntity
  8
1
100
AcDbLine
 10
9.592828333083268
 20
3.237118321866361
 30
0.0
 11
9.607828333083267
 21
3.222118321866361
 31
0.0
  0
LINE
  5
3E5
330
1F
100
AcDbEntity
  8
1
100
AcDbLine
 10
8.584903076952505
 20
3.237118321866361
 30
0.0
 11
8.569903076952506
 21
3.222118321866361
 31
0.0
  0
LINE
  5
3E6
330
1F
100
AcDbEntity
  8
1
100
AcDbLine
 10
8.569903076952506
 20
3.222118321866361
 30
0.0
 11
8.471903076952505
 21
3.222118321866361
 31
0.0
  0
LINE
  5
3E7
330
1F
100
AcDbEntity
  8
1
100
AcDbLine
 10
8.471903076952505
 20
3.222118321866361
 30
0.0
 11
8.471903076952505
 21
3.193872179428801
 31
0.0
  0
LINE
  5
3E8
330
1F
100
AcDbEntity
  8
1
100
AcDbLine
 10
8.646903076952504
 20
3.175118321866361
 30
0.0
 11
8.584903076952505
 21
3.237118321866361
 31
0.0
  0
LINE
  5
3E9
330
1F
100
AcDbEntity
  8
1
100
AcDbLine
 10
9.011903076952506
 20
3.175118321866361
 30
0.0
 11
8.646903076952504
 21
3.175118321866361
 31
0.0
  0
LINE
  5
3EA
330
1F
100
AcDbEntity
  8
1
100
AcDbLine
 10
9.011903076952506
 20
3.237118321866361
 30
0.0
 11
9.011903076952506
 21
3.175118321866361
 31
0.0
  0
LINE
  5
3EB
330
1F
100
AcDbEntity
  8
1
100
AcDbLine
 10
9.051903076952505
 20
3.237118321866361
 30
0.0
 11
9.051903076952505
 21
3.175118321866361
 31
0.0
  0
LINE
  5
3EC
330
1F
100
AcDbEntity
  8
1
100
AcDbLine
 10
8.446903076952505
 20
3.237118321866361
 30
0.0
 11
8.554903076952506
 21
3.237118321866361
 31
0.0
  0
LINE
  5
3ED
330
1F
100
AcDbEntity
  8
1
100
AcDbLine
 10
8.446903076952505
 20
3.175118321866361
 30
0.0
 11
8.446903076952505
 21
3.237118321866361
 31
0.0
  0
LINE
  5
3EE
330
1F
100
AcDbEntity
  8
1
100
AcDbLine
 10
8.508903076952506
 20
3.175118321866361
 30
0.0
 11
8.446903076952505
 21
3.175118321866361
 31
0.0
  0
LINE
  5
3EF
330
1F
100
AcDbEntity
  8
1
100
AcDbLine
 10
8.584903076952505
 20
3.237118321866361
 30
0.0
 11
9.051903076952505
 21
3.237118321866361
 31
0.0
  0
LINE
  5
3F0
330
1F
100
AcDbEntity
  8
1
100
AcDbLine
 10
7.274903076952505
 20
3.237118321866361
 30
0.0
 11
7.741903076952506
 21
3.237118321866361
 31
0.0
  0
LINE
  5
3F1
330
1F
100
AcDbEntity
  8
1
100
AcDbLine
 10
7.198903076952506
 20
3.175118321866361
 30
0.0
 11
7.136903076952505
 21
3.175118321866361
 31
0.0
  0
LINE
  5
3F2
330
1F
100
AcDbEntity
  8
1
100
AcDbLine
 10
7.136903076952505
 20
3.175118321866361
 30
0.0
 11
7.136903076952505
 21
3.237118321866361
 31
0.0
  0
LINE
  5
3F3
330
1F
100
AcDbEntity
  8
1
100
AcDbLine
 10
7.136903076952505
 20
3.237118321866361
 30
0.0
 11
7.244903076952505
 21
3.237118321866361
 31
0.0
  0
LINE
  5
3F4
330
1F
100
AcDbEntity
  8
1
100
AcDbLine
 10
7.741903076952506
 20
3.237118321866361
 30
0.0
 11
7.741903076952506
 21
3.175118321866361
 31
0.0
  0
LINE
  5
3F5
330
1F
100
AcDbEntity
  8
1
100
AcDbLine
 10
7.701903076952506
 20
3.237118321866361
 30
0.0
 11
7.701903076952506
 21
3.175118321866361
 31
0.0
  0
LINE
  5
3F6
330
1F
100
AcDbEntity
  8
1
100
AcDbLine
 10
7.701903076952506
 20
3.175118321866361
 30
0.0
 11
7.336903076952506
 21
3.175118321866361
 31
0.0
  0
LINE
  5
3F7
330
1F
100
AcDbEntity
  8
1
100
AcDbLine
 10
7.336903076952506
 20
3.175118321866361
 30
0.0
 11
7.274903076952505
 21
3.237118321866361
 31
0.0
  0
LINE
  5
3F8
330
1F
100
AcDbEntity
  8
1
100
AcDbLine
 10
7.161903076952506
 20
3.222118321866361
 30
0.0
 11
7.161903076952506
 21
3.193872179428801
 31
0.0
  0
LINE
  5
3F9
330
1F
100
AcDbEntity
  8
1
100
AcDbLine
 10
7.259903076952506
 20
3.222118321866361
 30
0.0
 11
7.161903076952506
 21
3.222118321866361
 31
0.0
  0
LINE
  5
3FA
330
1F
100
AcDbEntity
  8
1
100
AcDbLine
 10
7.274903076952505
 20
3.237118321866361
 30
0.0
 11
7.259903076952506
 21
3.222118321866361
 31
0.0
  0
LINE
  5
3FB
330
1F
100
AcDbEntity
  8
1
100
AcDbLine
 10
3.133403076952506
 20
4.705624200423492
 30
0.0
 11
3.133403076952506
 21
6.112618321866362
 31
0.0
  0
LINE
  5
3FC
330
1F
100
AcDbEntity
  8
1
100
AcDbLine
 10
3.634403076952506
 20
4.643624200423491
 30
0.0
 11
3.634403076952506
 21
3.236618321866362
 31
0.0
  0
LINE
  5
3FD
330
1F
100
AcDbEntity
  8
1
100
AcDbLine
 10
3.758403076952506
 20
4.705624200423492
 30
0.0
 11
3.758403076952506
 21
6.112618321866362
 31
0.0
  0
LINE
  5
3FE
330
1F
100
AcDbEntity
  8
1
100
AcDbLine
 10
4.259403076952506
 20
4.643624200423491
 30
0.0
 11
4.259403076952506
 21
3.236618321866362
 31
0.0
  0
LINE
  5
3FF
330
1F
100
AcDbEntity
  8
1
100
AcDbLine
 10
4.383403076952506
 20
4.705624200423493
 30
0.0
 11
4.383403076952506
 21
6.112618321866362
 31
0.0
  0
LINE
  5
400
330
1F
100
AcDbEntity
  8
1
100
AcDbLine
 10
4.884403076952506
 20
4.643624200423491
 30
0.0
 11
4.884403076952506
 21
3.236618321866362
 31
0.0
  0
LINE
  5
401
330
1F
100
AcDbEntity
  8
1
100
AcDbLine
 10
5.008403076952506
 20
4.705624200423492
 30
0.0
 11
5.008403076952506
 21
6.112618321866362
 31
0.0
  0
LINE
  5
402
330
1F
100
AcDbEntity
  8
1
100
AcDbLine
 10
5.509403076952506
 20
4.643624200423491
 30
0.0
 11
5.509403076952506
 21
3.236618321866362
 31
0.0
  0
LINE
  5
427
330
1F
100
AcDbEntity
  8
4
100
AcDbLine
 10
9.571403076952504
 20
3.467118321866362
 30
0.0
 11
9.571403076952504
 21
3.507118321866362
 31
0.0
  0
LINE
  5
428
330
1F
100
AcDbEntity
  8
4
100
AcDbLine
 10
9.571403076952504
 20
3.497118321866362
 30
0.0
 11
9.696403076952506
 21
3.487118321866361
 31
0.0
  0
LINE
  5
429
330
1F
100
AcDbEntity
  8
4
100
AcDbLine
 10
9.571403076952504
 20
3.477118321866362
 30
0.0
 11
9.696403076952504
 21
3.487118321866361
 31
0.0
  0
LINE
  5
42A
330
1F
100
AcDbEntity
  8
4
100
AcDbLine
 10
9.696403076952504
 20
3.487118321866361
 30
0.0
 11
9.571403076952504
 21
3.507118321866362
 31
0.0
  0
LINE
  5
42B
330
1F
100
AcDbEntity
  8
4
100
AcDbLine
 10
9.571403076952504
 20
3.467118321866362
 30
0.0
 11
9.696403076952504
 21
3.487118321866361
 31
0.0
  0
LINE
  5
42C
330
1F
100
AcDbEntity
  8
4
100
AcDbLine
 10
8.571403076952508
 20
3.507118321866361
 30
0.0
 11
8.571403076952508
 21
3.467118321866361
 31
0.0
  0
LINE
  5
42D
330
1F
100
AcDbEntity
  8
4
100
AcDbLine
 10
8.571403076952508
 20
3.477118321866361
 30
0.0
 11
8.446403076952506
 21
3.487118321866361
 31
0.0
  0
LINE
  5
42E
330
1F
100
AcDbEntity
  8
4
100
AcDbLine
 10
8.571403076952508
 20
3.49711832186636
 30
0.0
 11
8.446403076952508
 21
3.487118321866361
 31
0.0
  0
LINE
  5
42F
330
1F
100
AcDbEntity
  8
4
100
AcDbLine
 10
8.446403076952508
 20
3.487118321866361
 30
0.0
 11
8.571403076952508
 21
3.467118321866361
 31
0.0
  0
LINE
  5
430
330
1F
100
AcDbEntity
  8
4
100
AcDbLine
 10
8.571403076952508
 20
3.507118321866361
 30
0.0
 11
8.446403076952508
 21
3.487118321866361
 31
0.0
  0
LINE
  5
431
330
1F
100
AcDbEntity
  8
1
100
AcDbLine
 10
9.106403076952506
 20
3.174618321866361
 30
0.0
 11
9.106403076952506
 21
6.174618321866361
 31
0.0
  0
ENDSEC
  0
SECTION
  2
OBJECTS
  0
DICTIONARY
  5
C
330
0
100
AcDbDictionary
281
     1
  3
ACAD_COLOR
350
315
  3
ACAD_GROUP
350
D
  3
ACAD_LAYOUT
350
1A
  3
ACAD_MATERIAL
350
314
  3
ACAD_MLINESTYLE
350
17
  3
ACAD_PLOTSETTINGS
350
19
  3
ACAD_PLOTSTYLENAME
350
E
  3
ACDBHEADERROUNDTRIPXREC
350
43C
  3
AcDbVariableDictionary
350
420
  0
DICTIONARY
  5
315
102
{ACAD_REACTORS
330
C
102
}
330
C
100
AcDbDictionary
281
     1
  0
DICTIONARY
  5
D
102
{ACAD_REACTORS
330
C
102
}
330
C
100
AcDbDictionary
281
     1
  3
*A1
350
310
  0
DICTIONARY
  5
1A
102
{ACAD_REACTORS
330
C
102
}
330
C
100
AcDbDictionary
281
     1
  3
Layout1
350
1E
  3
Layout2
350
26
  3
Model
350
22
  0
DICTIONARY
  5
314
102
{ACAD_REACTORS
330
C
102
}
330
C
100
AcDbDictionary
281
     1
  0
DICTIONARY
  5
17
102
{ACAD_REACTORS
330
C
102
}
330
C
100
AcDbDictionary
281
     1
  3
Standard
350
18
  0
DICTIONARY
  5
19
102
{ACAD_REACTORS
330
C
102
}
330
C
100
AcDbDictionary
281
     1
  0
ACDBDICTIONARYWDFLT
  5
E
102
{ACAD_REACTORS
330
C
102
}
330
C
100
AcDbDictionary
281
     1
  3
Normal
350
F
100
AcDbDictionaryWithDefault
340
F
  0
DICTIONARY
  5
43C
102
{ACAD_REACTORS
330
C
102
}
330
C
100
AcDbDictionary
281
     1
  3
COLORDICT
350
43E
  3
MATERIALDICT
350
43D
  0
DICTIONARY
  5
420
102
{ACAD_REACTORS
330
C
102
}
330
C
100
AcDbDictionary
281
     1
  3
DIMASSOC
350
421
  3
PROJECTNAME
350
422
  0
GROUP
  5
310
102
{ACAD_REACTORS
330
D
102
}
330
D
100
AcDbGroup
300

 70
     1
 71
     1
340
30E
340
30D
340
30C
340
30B
340
30A
340
309
340
308
340
307
340
306
340
305
340
304
340
303
340
302
340
301
340
300
340
2FF
340
2FE
340
2FD
340
2FC
340
2FB
340
2FA
340
2F9
340
2F8
340
2F7
340
2F6
340
2F5
340
2F4
340
2F3
340
2F2
340
2F1
340
2F0
340
2EF
340
2EE
340
2ED
340
2EC
340
2EB
340
2EA
340
2E9
340
2E8
340
2E7
340
2E6
340
2E5
340
2E4
340
2E3
340
2E2
340
2E1
340
2E0
340
2DF
340
2DE
340
2DB
340
2DA
340
2D9
340
2D8
340
2D7
340
2D6
340
2D5
340
2D4
340
2D3
340
2D2
340
2D0
340
2CF
340
2CE
340
2CD
340
2CC
340
2CB
340
2CA
340
2C9
340
2C8
340
2C7
340
2C6
340
2C4
340
2C2
340
2C1
340
2BF
340
2BE
340
2BD
340
2BC
340
2BB
340
2BA
340
2B9
340
2B8
340
2B7
340
2B6
340
2B5
340
2B4
340
2B3
340
2B2
340
2B1
340
2B0
340
2AF
340
2AE
340
2AD
340
2AC
340
2AB
340
2AA
340
2A9
340
2A8
340
2A7
340
2A6
340
2A5
340
2A4
340
2A3
340
2A2
340
2A1
340
2A0
340
29F
340
29E
340
29D
340
29C
340
29B
340
29A
340
299
340
298
340
297
340
296
340
295
340
294
340
293
340
292
340
291
340
290
340
28F
340
28E
340
28D
340
28C
340
28B
340
28A
340
289
340
288
340
287
340
286
340
285
340
284
340
283
340
282
340
281
340
280
340
27F
340
27E
340
27D
340
27C
340
27B
340
27A
340
279
340
278
340
277
340
274
340
273
340
272
340
271
340
270
340
26F
340
26E
340
26D
340
26C
340
26B
340
26A
340
269
340
268
340
267
340
266
340
265
340
264
340
263
340
262
340
261
340
260
340
25F
340
25E
340
25D
340
25C
340
25B
340
25A
340
259
340
258
340
257
340
256
340
255
340
254
340
253
340
252
340
251
340
250
340
24F
340
24E
340
24D
340
24C
340
24B
340
24A
340
249
340
248
340
247
340
246
340
245
340
244
340
243
340
242
340
241
340
240
340
23F
340
23E
340
23D
340
23C
340
23B
340
23A
340
239
340
238
340
237
340
236
340
235
340
234
340
233
340
232
340
231
340
230
340
22F
340
22E
340
22D
340
22C
340
22B
340
22A
340
229
340
228
340
226
340
225
340
224
340
223
340
222
340
221
340
220
340
21F
340
21E
340
21D
340
21C
340
21B
340
21A
  0
LAYOUT
  5
1E
102
{ACAD_XDICTIONARY
360
43F
102
}
102
{ACAD_REACTORS
330
1A
102
}
330
1A
100
AcDbPlotSettings
  1

  2
Lexmark E210
  4

  6

 40
0.0
 41
0.0
 42
0.0
 43
0.0
 44
0.0
 45
0.0
 46
0.0
 47
0.0
 48
0.0
 49
0.0
140
0.0
141
0.0
142
1.0
143
1.0
 70
   688
 72
     0
 73
     0
 74
     5
  7
monochrome.ctb
 75
    16
147
1.0
148
0.0
149
0.0
100
AcDbLayout
  1
Layout1
 70
     1
 71
     1
 10
0.0
 20
0.0
 11
12.0
 21
9.0
 12
0.0
 22
0.0
 32
0.0
 14
1.000000000000000E+20
 24
1.000000000000000E+20
 34
1.000000000000000E+20
 15
-1.000000000000000E+20
 25
-1.000000000000000E+20
 35
-1.000000000000000E+20
146
0.0
 13
0.0
 23
0.0
 33
0.0
 16
1.0
 26
0.0
 36
0.0
 17
0.0
 27
1.0
 37
0.0
 76
     0
330
1B
  0
LAYOUT
  5
26
102
{ACAD_XDICTIONARY
360
443
102
}
102
{ACAD_REACTORS
330
1A
102
}
330
1A
100
AcDbPlotSettings
  1

  2
Lexmark E210
  4

  6

 40
0.0
 41
0.0
 42
0.0
 43
0.0
 44
0.0
 45
0.0
 46
0.0
 47
0.0
 48
0.0
 49
0.0
140
0.0
141
0.0
142
1.0
143
1.0
 70
   688
 72
     0
 73
     0
 74
     5
  7
monochrome.ctb
 75
    16
147
1.0
148
0.0
149
0.0
100
AcDbLayout
  1
Layout2
 70
     1
 71
     2
 10
0.0
 20
0.0
 11
12.0
 21
9.0
 12
0.0
 22
0.0
 32
0.0
 14
0.0
 24
0.0
 34
0.0
 15
0.0
 25
0.0
 35
0.0
146
0.0
 13
0.0
 23
0.0
 33
0.0
 16
1.0
 26
0.0
 36
0.0
 17
0.0
 27
1.0
 37
0.0
 76
     0
330
23
  0
LAYOUT
  5
22
102
{ACAD_XDICTIONARY
360
441
102
}
102
{ACAD_REACTORS
330
1A
102
}
330
1A
100
AcDbPlotSettings
  1

  2
true.pc3
  4
Letter
  6

 40
4.233333110809326
 41
4.233341693878173
 42
8.466659545898437
 43
4.23333740234375
 44
215.8999938964844
 45
279.3999938964844
 46
15.494
 47
0.0
 48
0.0
 49
0.0
140
0.0
141
0.0
142
1.0
143
0.7735920477473758
 70
 11956
 72
     0
 73
     1
 74
     1
  7
monochrome.ctb
 75
     0
147
1.292670992303891
148
-52.59213944276811
149
-42.53112545969329
100
AcDbLayout
  1
Model
 70
     1
 71
     0
 10
0.0
 20
0.0
 11
12.0
 21
9.0
 12
0.0
 22
0.0
 32
0.0
 14
0.0
 24
0.0
 34
0.0
 15
0.0
 25
0.0
 35
0.0
146
0.0
 13
0.0
 23
0.0
 33
0.0
 16
1.0
 26
0.0
 36
0.0
 17
0.0
 27
1.0
 37
0.0
 76
     0
330
1F
  0
MLINESTYLE
  5
18
102
{ACAD_REACTORS
330
17
102
}
330
17
100
AcDbMlineStyle
  2
STANDARD
 70
     0
  3

 62
   256
 51
90.0
 52
90.0
 71
     2
 49
0.5
 62
   256
  6
BYLAYER
 49
-0.5
 62
   256
  6
BYLAYER
  0
ACDBPLACEHOLDER
  5
F
102
{ACAD_REACTORS
330
E
102
}
330
E
  0
XRECORD
  5
43E
102
{ACAD_REACTORS
330
43C
102
}
330
43C
100
AcDbXrecord
280
     1
340
315
  0
XRECORD
  5
43D
102
{ACAD_REACTORS
330
43C
102
}
330
43C
100
AcDbXrecord
280
     1
340
314
  0
DICTIONARYVAR
  5
421
102
{ACAD_REACTORS
330
420
102
}
330
420
100
DictionaryVariables
280
     0
  1
1
  0
DICTIONARYVAR
  5
422
102
{ACAD_REACTORS
330
420
102
}
330
420
100
DictionaryVariables
280
     0
  1

  0
DICTIONARY
  5
43F
330
1E
100
AcDbDictionary
280
     1
281
     1
  3
ACAD_XREC_ROUNDTRIP
360
440
  0
DICTIONARY
  5
443
330
26
100
AcDbDictionary
280
     1
281
     1
  3
ACAD_XREC_ROUNDTRIP
360
444
  0
DICTIONARY
  5
441
330
22
100
AcDbDictionary
280
     1
281
     1
  3
ACAD_XREC_ROUNDTRIP
360
442
  0
XRECORD
  5
440
102
{ACAD_REACTORS
330
43F
102
}
330
43F
100
AcDbXrecord
280
     1
102
SHADEPLOT
 70
     0
102
SHADEPLOTRESLEVEL
 70
     2
102
SHADEPLOTCUSTOMDPI
 70
   300
  0
XRECORD
  5
444
102
{ACAD_REACTORS
330
443
102
}
330
443
100
AcDbXrecord
280
     1
102
SHADEPLOT
 70
     0
102
SHADEPLOTRESLEVEL
 70
     2
102
SHADEPLOTCUSTOMDPI
 70
   300
  0
XRECORD
  5
442
102
{ACAD_REACTORS
330
441
102
}
330
441
100
AcDbXrecord
280
     1
102
SHADEPLOT
 70
     0
102
SHADEPLOTRESLEVEL
 70
     2
102
SHADEPLOTCUSTOMDPI
 70
   300
  0
ENDSEC
  0
EOF
