  0
SECTION
  2
HEADER
  9
$ACADVER
  1
AC1015
  9
$ACADMAINTVER
 70
    20
  9
$DWGCODEPAGE
  3
ANSI_1252
  9
$INSBASE
 10
0.0
 20
0.0
 30
0.0
  9
$EXTMIN
 10
2.277465850903496
 20
1.605789207394455
 30
-0.0000000000000058
  9
$EXTMAX
 10
10.52819826841377
 20
6.856567401271973
 30
0.0000000000000104
  9
$LIMMIN
 10
0.0
 20
0.0
  9
$LIMMAX
 10
12.0
 20
9.0
  9
$ORTHOMODE
 70
     1
  9
$REGENMODE
 70
     1
  9
$FILLMODE
 70
     1
  9
$QTEXTMODE
 70
     0
  9
$MIRRTEXT
 70
     1
  9
$LTSCALE
 40
1.0
  9
$ATTMODE
 70
     1
  9
$TEXTSIZE
 40
0.2
  9
$TRACEWID
 40
0.05
  9
$TEXTSTYLE
  7
Standard
  9
$CLAYER
  8
0
  9
$CELTYPE
  6
ByLayer
  9
$CECOLOR
 62
   256
  9
$CELTSCALE
 40
1.0
  9
$DISPSILH
 70
     0
  9
$DIMSCALE
 40
1.0
  9
$DIMASZ
 40
0.18
  9
$DIMEXO
 40
0.0625
  9
$DIMDLI
 40
0.38
  9
$DIMRND
 40
0.0
  9
$DIMDLE
 40
0.0
  9
$DIMEXE
 40
0.18
  9
$DIMTP
 40
0.0
  9
$DIMTM
 40
0.0
  9
$DIMTXT
 40
0.18
  9
$DIMCEN
 40
0.09
  9
$DIMTSZ
 40
0.0
  9
$DIMTOL
 70
     0
  9
$DIMLIM
 70
     0
  9
$DIMTIH
 70
     1
  9
$DIMTOH
 70
     1
  9
$DIMSE1
 70
     0
  9
$DIMSE2
 70
     0
  9
$DIMTAD
 70
     0
  9
$DIMZIN
 70
     0
  9
$DIMBLK
  1

  9
$DIMASO
 70
     1
  9
$DIMSHO
 70
     1
  9
$DIMPOST
  1

  9
$DIMAPOST
  1

  9
$DIMALT
 70
     0
  9
$DIMALTD
 70
     2
  9
$DIMALTF
 40
25.4
  9
$DIMLFAC
 40
1.0
  9
$DIMTOFL
 70
     0
  9
$DIMTVP
 40
0.0
  9
$DIMTIX
 70
     0
  9
$DIMSOXD
 70
     0
  9
$DIMSAH
 70
     0
  9
$DIMBLK1
  1

  9
$DIMBLK2
  1

  9
$DIMSTYLE
  2
Standard
  9
$DIMCLRD
 70
     0
  9
$DIMCLRE
 70
     0
  9
$DIMCLRT
 70
     0
  9
$DIMTFAC
 40
1.0
  9
$DIMGAP
 40
0.09
  9
$DIMJUST
 70
     0
  9
$DIMSD1
 70
     0
  9
$DIMSD2
 70
     0
  9
$DIMTOLJ
 70
     1
  9
$DIMTZIN
 70
     0
  9
$DIMALTZ
 70
     0
  9
$DIMALTTZ
 70
     0
  9
$DIMUPT
 70
     0
  9
$DIMDEC
 70
     4
  9
$DIMTDEC
 70
     4
  9
$DIMALTU
 70
     2
  9
$DIMALTTD
 70
     2
  9
$DIMTXSTY
  7
Standard
  9
$DIMAUNIT
 70
     0
  9
$DIMADEC
 70
     0
  9
$DIMALTRND
 40
0.0
  9
$DIMAZIN
 70
     0
  9
$DIMDSEP
 70
    46
  9
$DIMATFIT
 70
     3
  9
$DIMFRAC
 70
     0
  9
$DIMLDRBLK
  1

  9
$DIMLUNIT
 70
     2
  9
$DIMLWD
 70
    -2
  9
$DIMLWE
 70
    -2
  9
$DIMTMOVE
 70
     0
  9
$LUNITS
 70
     2
  9
$LUPREC
 70
     4
  9
$SKETCHINC
 40
0.1
  9
$FILLETRAD
 40
0.5
  9
$AUNITS
 70
     0
  9
$AUPREC
 70
     0
  9
$MENU
  1
.
  9
$ELEVATION
 40
0.0
  9
$PELEVATION
 40
0.0
  9
$THICKNESS
 40
0.0
  9
$LIMCHECK
 70
     0
  9
$CHAMFERA
 40
0.5
  9
$CHAMFERB
 40
0.5
  9
$CHAMFERC
 40
1.0
  9
$CHAMFERD
 40
0.0
  9
$SKPOLY
 70
     0
  9
$TDCREATE
 40
2452633.646247917
  9
$TDUCREATE
 40
2452633.854581250
  9
$TDUPDATE
 40
2454728.624820961
  9
$TDUUPDATE
 40
2454728.833154295
  9
$TDINDWG
 40
0.2336889468
  9
$TDUSRTIMER
 40
0.2336889468
  9
$USRTIMER
 70
     1
  9
$ANGBASE
 50
0.0
  9
$ANGDIR
 70
     0
  9
$PDMODE
 70
     0
  9
$PDSIZE
 40
0.0
  9
$PLINEWID
 40
0.0
  9
$SPLFRAME
 70
     0
  9
$SPLINETYPE
 70
     6
  9
$SPLINESEGS
 70
     8
  9
$HANDSEED
  5
635
  9
$SURFTAB1
 70
     6
  9
$SURFTAB2
 70
     6
  9
$SURFTYPE
 70
     6
  9
$SURFU
 70
     6
  9
$SURFV
 70
     6
  9
$UCSBASE
  2

  9
$UCSNAME
  2

  9
$UCSORG
 10
0.0
 20
0.0
 30
0.0
  9
$UCSXDIR
 10
1.0
 20
0.0
 30
0.0
  9
$UCSYDIR
 10
0.0
 20
1.0
 30
0.0
  9
$UCSORTHOREF
  2

  9
$UCSORTHOVIEW
 70
     0
  9
$UCSORGTOP
 10
0.0
 20
0.0
 30
0.0
  9
$UCSORGBOTTOM
 10
0.0
 20
0.0
 30
0.0
  9
$UCSORGLEFT
 10
0.0
 20
0.0
 30
0.0
  9
$UCSORGRIGHT
 10
0.0
 20
0.0
 30
0.0
  9
$UCSORGFRONT
 10
0.0
 20
0.0
 30
0.0
  9
$UCSORGBACK
 10
0.0
 20
0.0
 30
0.0
  9
$PUCSBASE
  2

  9
$PUCSNAME
  2

  9
$PUCSORG
 10
0.0
 20
0.0
 30
0.0
  9
$PUCSXDIR
 10
1.0
 20
0.0
 30
0.0
  9
$PUCSYDIR
 10
0.0
 20
1.0
 30
0.0
  9
$PUCSORTHOREF
  2

  9
$PUCSORTHOVIEW
 70
     0
  9
$PUCSORGTOP
 10
0.0
 20
0.0
 30
0.0
  9
$PUCSORGBOTTOM
 10
0.0
 20
0.0
 30
0.0
  9
$PUCSORGLEFT
 10
0.0
 20
0.0
 30
0.0
  9
$PUCSORGRIGHT
 10
0.0
 20
0.0
 30
0.0
  9
$PUCSORGFRONT
 10
0.0
 20
0.0
 30
0.0
  9
$PUCSORGBACK
 10
0.0
 20
0.0
 30
0.0
  9
$USERI1
 70
     0
  9
$USERI2
 70
     0
  9
$USERI3
 70
     0
  9
$USERI4
 70
     0
  9
$USERI5
 70
     0
  9
$USERR1
 40
0.0
  9
$USERR2
 40
0.0
  9
$USERR3
 40
0.0
  9
$USERR4
 40
0.0
  9
$USERR5
 40
0.0
  9
$WORLDVIEW
 70
     1
  9
$SHADEDGE
 70
     3
  9
$SHADEDIF
 70
    70
  9
$TILEMODE
 70
     1
  9
$MAXACTVP
 70
    64
  9
$PINSBASE
 10
0.0
 20
0.0
 30
0.0
  9
$PLIMCHECK
 70
     0
  9
$PEXTMIN
 10
1.000000000000000E+20
 20
1.000000000000000E+20
 30
1.000000000000000E+20
  9
$PEXTMAX
 10
-1.000000000000000E+20
 20
-1.000000000000000E+20
 30
-1.000000000000000E+20
  9
$PLIMMIN
 10
0.0
 20
0.0
  9
$PLIMMAX
 10
12.0
 20
9.0
  9
$UNITMODE
 70
     0
  9
$VISRETAIN
 70
     1
  9
$PLINEGEN
 70
     0
  9
$PSLTSCALE
 70
     1
  9
$TREEDEPTH
 70
  3020
  9
$CMLSTYLE
  2
Standard
  9
$CMLJUST
 70
     0
  9
$CMLSCALE
 40
1.0
  9
$PROXYGRAPHICS
 70
     1
  9
$MEASUREMENT
 70
     0
  9
$CELWEIGHT
370
    -1
  9
$ENDCAPS
280
     0
  9
$JOINSTYLE
280
     0
  9
$LWDISPLAY
290
     0
  9
$INSUNITS
 70
     1
  9
$HYPERLINKBASE
  1

  9
$STYLESHEET
  1
monochrome.ctb
  9
$XEDIT
290
     1
  9
$CEPSNTYPE
380
     0
  9
$PSTYLEMODE
290
     1
  9
$FINGERPRINTGUID
  2
{85513339-1751-11D7-8CE2-BBD0884F8F23}
  9
$VERSIONGUID
  2
{44928475-4E06-4BA2-9FA3-D1CE2A5BAF6E}
  9
$EXTNAMES
290
     1
  9
$PSVPSCALE
 40
0.0
  9
$OLESTARTUP
290
     0
  0
ENDSEC
  0
SECTION
  2
CLASSES
  0
CLASS
  1
ACDBDICTIONARYWDFLT
  2
AcDbDictionaryWithDefault
  3
ObjectDBX Classes
 90
        0
280
     0
281
     0
  0
CLASS
  1
ACDBPLACEHOLDER
  2
AcDbPlaceHolder
  3
ObjectDBX Classes
 90
        0
280
     0
281
     0
  0
CLASS
  1
LAYOUT
  2
AcDbLayout
  3
ObjectDBX Classes
 90
        0
280
     0
281
     0
  0
CLASS
  1
DICTIONARYVAR
  2
AcDbDictionaryVar
  3
ObjectDBX Classes
 90
        0
280
     0
281
     0
  0
ENDSEC
  0
SECTION
  2
TABLES
  0
TABLE
  2
VPORT
  5
8
330
0
100
AcDbSymbolTable
 70
     2
  0
VPORT
  5
62B
330
8
100
AcDbSymbolTableRecord
100
AcDbViewportTableRecord
  2
*Active
 70
     0
 10
0.0
 20
0.0
 11
1.0
 21
1.0
 12
6.402832059658635
 22
4.231178304333214
 13
0.0
 23
0.0
 14
0.5
 24
0.5
 15
0.5
 25
0.5
 16
0.0
 26
0.0
 36
1.0
 17
0.0
 27
0.0
 37
0.0
 40
5.545189497268501
 41
1.495145631067961
 42
50.0
 43
0.0
 44
0.0
 50
0.0
 51
0.0
 71
     0
 72
   100
 73
     1
 74
     3
 75
     0
 76
     0
 77
     0
 78
     0
281
     0
 65
     1
110
0.0
120
0.0
130
0.0
111
1.0
121
0.0
131
0.0
112
0.0
122
1.0
132
0.0
 79
     0
146
0.0
  0
ENDTAB
  0
TABLE
  2
LTYPE
  5
5
330
0
100
AcDbSymbolTable
 70
     2
  0
LTYPE
  5
14
330
5
100
AcDbSymbolTableRecord
100
AcDbLinetypeTableRecord
  2
ByBlock
 70
     0
  3

 72
    65
 73
     0
 40
0.0
  0
LTYPE
  5
15
330
5
100
AcDbSymbolTableRecord
100
AcDbLinetypeTableRecord
  2
ByLayer
 70
     0
  3

 72
    65
 73
     0
 40
0.0
  0
LTYPE
  5
16
330
5
100
AcDbSymbolTableRecord
100
AcDbLinetypeTableRecord
  2
Continuous
 70
     0
  3
Solid line
 72
    65
 73
     0
 40
0.0
  0
LTYPE
  5
417
330
5
100
AcDbSymbolTableRecord
100
AcDbLinetypeTableRecord
  2
HIDDEN
 70
     0
  3
_ _ _ _ _ _ _ _ _ _ _ _ _ _ _ _ _ _ _ _ _ _ _
 72
    65
 73
     2
 40
0.375
 49
0.25
 74
     0
 49
-0.125
 74
     0
  0
ENDTAB
  0
TABLE
  2
LAYER
  5
2
330
0
100
AcDbSymbolTable
 70
     4
  0
LAYER
  5
10
330
2
100
AcDbSymbolTableRecord
100
AcDbLayerTableRecord
  2
0
 70
     0
 62
     7
  6
Continuous
370
    -3
390
F
  0
LAYER
  5
33
330
2
100
AcDbSymbolTableRecord
100
AcDbLayerTableRecord
  2
1
 70
     0
 62
     1
  6
Continuous
370
    -3
390
F
  0
LAYER
  5
34
330
2
100
AcDbSymbolTableRecord
100
AcDbLayerTableRecord
  2
4
 70
     0
 62
     4
  6
Continuous
370
    -3
390
F
  0
LAYER
  5
35
330
2
100
AcDbSymbolTableRecord
100
AcDbLayerTableRecord
  2
8
 70
     0
 62
     2
  6
Continuous
370
    -3
390
F
  0
ENDTAB
  0
TABLE
  2
STYLE
  5
3
330
0
100
AcDbSymbolTable
 70
     2
  0
STYLE
  5
11
330
3
100
AcDbSymbolTableRecord
100
AcDbTextStyleTableRecord
  2
Standard
 70
     0
 40
0.0
 41
1.0
 50
0.0
 71
     0
 42
0.2
  3
txt
  4

  0
STYLE
  5
36
330
3
100
AcDbSymbolTableRecord
100
AcDbTextStyleTableRecord
  2
ROMANS
 70
     0
 40
0.0
 41
1.0
 50
0.0
 71
     0
 42
0.07
  3
ROMANS
  4

  0
ENDTAB
  0
TABLE
  2
VIEW
  5
6
330
0
100
AcDbSymbolTable
 70
     0
  0
ENDTAB
  0
TABLE
  2
UCS
  5
7
330
0
100
AcDbSymbolTable
 70
     0
  0
ENDTAB
  0
TABLE
  2
APPID
  5
9
330
0
100
AcDbSymbolTable
 70
     1
  0
APPID
  5
12
330
9
100
AcDbSymbolTableRecord
100
AcDbRegAppTableRecord
  2
ACAD
 70
     0
  0
ENDTAB
  0
TABLE
  2
DIMSTYLE
  5
A
330
0
100
AcDbSymbolTable
 70
     1
100
AcDbDimStyleTable
 71
     0
  0
DIMSTYLE
105
27
330
A
100
AcDbSymbolTableRecord
100
AcDbDimStyleTableRecord
  2
Standard
 70
     0
340
11
  0
ENDTAB
  0
TABLE
  2
BLOCK_RECORD
  5
1
330
0
100
AcDbSymbolTable
 70
     7
  0
BLOCK_RECORD
  5
1F
330
1
100
AcDbSymbolTableRecord
100
AcDbBlockTableRecord
  2
*Model_Space
340
22
  0
BLOCK_RECORD
  5
1B
330
1
100
AcDbSymbolTableRecord
100
AcDbBlockTableRecord
  2
*Paper_Space
340
1E
  0
BLOCK_RECORD
  5
23
330
1
100
AcDbSymbolTableRecord
100
AcDbBlockTableRecord
  2
*Paper_Space0
340
26
  0
BLOCK_RECORD
  5
2B
330
1
100
AcDbSymbolTableRecord
100
AcDbBlockTableRecord
  2
ARRO
340
0
102
{BLKREFS
331
3F
331
87
331
88
331
8C
331
8D
331
91
331
92
331
93
331
94
331
95
331
35B
331
36B
331
38F
331
393
331
394
331
432
331
47A
331
47B
331
47F
331
480
331
484
331
485
331
486
331
487
331
488
331
52C
331
53C
331
560
331
564
331
565
102
}
  0
BLOCK_RECORD
  5
37
330
1
100
AcDbSymbolTableRecord
100
AcDbBlockTableRecord
  2
LE1002
340
0
  0
BLOCK_RECORD
  5
301
330
1
100
AcDbSymbolTableRecord
100
AcDbBlockTableRecord
  2
ARRO2
340
0
102
{BLKREFS
331
368
331
539
102
}
  0
BLOCK_RECORD
  5
30E
330
1
100
AcDbSymbolTableRecord
100
AcDbBlockTableRecord
  2
TEMP3
340
0
102
{BLKREFS
331
397
331
568
102
}
  0
BLOCK_RECORD
  5
31F
330
1
100
AcDbSymbolTableRecord
100
AcDbBlockTableRecord
  2
SPL2CORRIDORDT60
340
0
310
28000000200000002000000001000800000000000004000000000000000000000000000000000000000000004000000080000000FF000000002000004020000080200000FF200000004000004040000080400000FF400000006000004060000080600000FF600000008000004080000080800000FF80000000A0000040A000
310
0080A00000FFA0000000C0000040C0000080C00000FFC0000000FF000040FF000080FF0000FFFF0000000020004000200080002000FF002000002020004020200080202000FF202000004020004040200080402000FF402000006020004060200080602000FF602000008020004080200080802000FF80200000A0200040A0
310
200080A02000FFA0200000C0200040C0200080C02000FFC0200000FF200040FF200080FF2000FFFF2000000040004000400080004000FF004000002040004020400080204000FF204000004040004040400080404000FF404000006040004060400080604000FF604000008040004080400080804000FF80400000A0400040
310
A0400080A04000FFA0400000C0400040C0400080C04000FFC0400000FF400040FF400080FF4000FFFF4000000060004000600080006000FF006000002060004020600080206000FF206000004060004040600080406000FF406000006060004060600080606000FF606000008060004080600080806000FF80600000A06000
310
40A0600080A06000FFA0600000C0600040C0600080C06000FFC0600000FF600040FF600080FF6000FFFF6000000080004000800080008000FF008000002080004020800080208000FF208000004080004040800080408000FF408000006080004060800080608000FF608000008080004080800080808000FF80800000A080
310
0040A0800080A08000FFA0800000C0800040C0800080C08000FFC0800000FF800040FF800080FF8000FFFF80000000A0004000A0008000A000FF00A0000020A0004020A0008020A000FF20A0000040A0004040A0008040A000FF40A0000060A0004060A0008060A000FF60A0000080A0004080A0008080A000FF80A00000A0
310
A00040A0A00080A0A000FFA0A00000C0A00040C0A00080C0A000FFC0A00000FFA00040FFA00080FFA000FFFFA0000000C0004000C0008000C000FF00C0000020C0004020C0008020C000FF20C0000040C0004040C0008040C000FF40C0000060C0004060C0008060C000FF60C0000080C0004080C0008080C000FF80C00000
310
A0C00040A0C00080A0C000FFA0C00000C0C00040C0C00080C0C000FFC0C00000FFC00040FFC00080FFC000FFFFC0000000FF004000FF008000FF00FF00FF000020FF004020FF008020FF00FF20FF000040FF004040FF008040FF00FF40FF000060FF004060FF008060FF00FF60FF000080FF004080FF008080FF00FF80FF00
310
00A0FF0040A0FF0080A0FF00FFA0FF0000C0FF0040C0FF0080C0FF00FFC0FF0000FFFF0040FFFF0080FFFF00FFFFFF0000000000000000000000000000000000000000000000000000000000000000000000000000000000000000000000000000000000000000000000000000000000000000000000000000000000000000
310
00000000000000000000000000000000000000000000000000000000000000000000000000000000000000000000000000000000000000000000000000000000000000000000000000000000000000000000000000000000000000000000000000000000000000000000000000000000000000000000000000000000000000
310
000000000000000000000000000000000000001F00000000FCFCFCFCFCFCFCFCFCFCFCFCFCFCFCFCFCFCFCFCFCFC000000000000000000000000000000000000000000000000000000000000000000000000000000000000000000000000000000000000000000000000000000000000000000000000000000000000000000
310
00000000000000000000000000000000000000000000000000000000000000000000000000000000000000000000000000000000000000001F1F1F00000000000000000000001F1F000000001F0000001F1F0000000000001F001F00000000000000000000001F1F000000001F000000001F0000000000001F001F00000000
310
00000000000000FC1F000000001F000000001F0000000000001F1F1F00000000000000000000FCFC1F000000001F000000001F00000000FCFC1F001F0000000000000000000000FC1F000000001F000000001F00000000FCFC1F1F1F1F1F1F001F1F1F000000001F1F1F1F00001F1F1F1F1F1F00000000FCFC1F1F1F1F1F1F
310
1F1F1F1F000000001F1F1F1F00001F1F1F1F1F1F00000000FCFC1F001F00000000000000000000001F1F000000001F000000001F00000000FCFC1F1F1F0000000000000000000000FC1F000000001F000000001F00000000FCFC1F1F1F0000000000000000000000FC1F000000001F000000001F00000000FCFC1F001F0000
310
000000000000000000FC1F000000001F000000001F00000000FCFC1F1F1F1F1F1F001F1F1F000000001F1F1F1F00001F1F1F1F1F1F00000000FCFC0000000000000000000000000000000000000000000000000000000000000000000000000000000000000000000000000000000000000000000000000000000000000000
310
00000000000000000000000000000000000000000000000000000000000000000000000000000000000000000000000000000000000000000000000000000000000000000000000000000000000000000000000000000000000000000000000000000000000000000000000000000000000000000000000000000000000000
310
0000000000000000000000000000000000000000000000000000000000000000000000000000000000000000000000000000000000000000
102
{BLKREFS
331
41A
102
}
  0
BLOCK_RECORD
  5
419
330
1
100
AcDbSymbolTableRecord
100
AcDbBlockTableRecord
  2
LE1215
340
0
  0
ENDTAB
  0
ENDSEC
  0
SECTION
  2
BLOCKS
  0
BLOCK
  5
20
330
1F
100
AcDbEntity
  8
0
100
AcDbBlockBegin
  2
*Model_Space
 70
     0
 10
0.0
 20
0.0
 30
0.0
  3
*Model_Space
  1

  0
ENDBLK
  5
21
330
1F
100
AcDbEntity
  8
0
100
AcDbBlockEnd
  0
BLOCK
  5
1C
330
1B
100
AcDbEntity
 67
     1
  8
0
100
AcDbBlockBegin
  2
*Paper_Space
 70
     0
 10
0.0
 20
0.0
 30
0.0
  3
*Paper_Space
  1

  0
ENDBLK
  5
1D
330
1B
100
AcDbEntity
 67
     1
  8
0
100
AcDbBlockEnd
  0
BLOCK
  5
24
330
23
100
AcDbEntity
  8
0
100
AcDbBlockBegin
  2
*Paper_Space0
 70
     0
 10
0.0
 20
0.0
 30
0.0
  3
*Paper_Space0
  1

  0
ENDBLK
  5
25
330
23
100
AcDbEntity
  8
0
100
AcDbBlockEnd
  0
BLOCK
  5
31
330
2B
100
AcDbEntity
  8
4
100
AcDbBlockBegin
  2
ARRO
 70
     0
 10
0.0
 20
0.0
 30
0.0
  3
ARRO
  1

  0
LINE
  5
2C
330
2B
100
AcDbEntity
  8
4
100
AcDbLine
 10
0.1250000000000018
 20
0.0199999999999996
 30
0.0
 11
0.1250000000000018
 21
-0.0200000000000005
 31
0.0
  0
LINE
  5
2D
330
2B
100
AcDbEntity
  8
4
100
AcDbLine
 10
0.1250000000000018
 20
-0.0100000000000007
 30
0.0
 11
0.0000000000000009
 21
0.0
 31
0.0
  0
LINE
  5
2E
330
2B
100
AcDbEntity
  8
4
100
AcDbLine
 10
0.1250000000000018
 20
0.0099999999999989
 30
0.0
 11
0.0000000000000018
 21
0.0
 31
0.0
  0
LINE
  5
2F
330
2B
100
AcDbEntity
  8
4
100
AcDbLine
 10
0.0000000000000018
 20
0.0
 30
0.0
 11
0.1250000000000018
 21
-0.0200000000000005
 31
0.0
  0
LINE
  5
30
330
2B
100
AcDbEntity
  8
4
100
AcDbLine
 10
0.1250000000000018
 20
0.0199999999999996
 30
0.0
 11
0.0000000000000018
 21
0.0
 31
0.0
  0
ENDBLK
  5
32
330
2B
100
AcDbEntity
  8
4
100
AcDbBlockEnd
  0
BLOCK
  5
FB
330
37
100
AcDbEntity
  8
0
100
AcDbBlockBegin
  2
LE1002
 70
     0
 10
0.0
 20
0.0
 30
0.0
  3
LE1002
  1

  0
TEXT
  5
38
330
37
100
AcDbEntity
  8
8
100
AcDbText
 10
5.2125
 20
1.708979331896792
 30
0.0
 40
0.07
  1
DEPTH
  7
ROMANS
 72
     1
 11
5.3775
 21
1.708979331896792
 31
0.0
100
AcDbText
  0
TEXT
  5
39
330
37
100
AcDbEntity
  8
8
100
AcDbText
 10
6.834999999999999
 20
1.708979331896792
 30
0.0
 40
0.07
  1
DEPTH
  7
ROMANS
 72
     1
 11
7.0
 21
1.708979331896792
 31
0.0
100
AcDbText
  0
TEXT
  5
3A
330
37
100
AcDbEntity
  8
8
100
AcDbText
 10
6.899267058502116
 20
0.7466010068253098
 30
0.0
 40
0.1
  1
DR
  7
ROMANS
 72
     1
 11
7.001648010883068
 21
0.7466010068253098
 31
0.0
100
AcDbText
  0
TEXT
  5
3B
330
37
100
AcDbEntity
  8
8
100
AcDbText
 10
5.794389324558379
 20
0.5620000000000003
 30
0.0
 40
0.1
  1
SECTIONS
  7
ROMANS
 72
     1
 11
6.146770276939331
 21
0.5620000000000003
 31
0.0
100
AcDbText
  0
TEXT
  5
3C
330
37
100
AcDbEntity
  8
8
100
AcDbText
 10
5.302053163126957
 20
0.7466010068253098
 30
0.0
 40
0.1
  1
SR
  7
ROMANS
 72
     1
 11
5.399672210746004
 21
0.7466010068253098
 31
0.0
100
AcDbText
  0
LINE
  5
3D
330
37
100
AcDbEntity
  8
4
100
AcDbLine
 10
5.628
 20
4.25
 30
0.0
 11
5.891731602665403
 21
4.25
 31
0.0
  0
LINE
  5
3E
330
37
100
AcDbEntity
  8
4
100
AcDbLine
 10
5.93215881233783
 20
4.25
 30
0.0
 11
6.112622609161773
 21
4.25
 31
0.0
  0
INSERT
  5
3F
330
37
100
AcDbEntity
  8
4
100
AcDbBlockReference
  2
ARRO
 10
5.93215881233783
 20
4.25
 30
0.0
  0
LINE
  5
40
330
37
100
AcDbEntity
  8
4
100
AcDbLine
 10
6.112622609161773
 20
4.25
 30
0.0
 11
6.112622609161773
 21
4.047012330209487
 31
0.0
  0
TEXT
  5
41
330
37
100
AcDbEntity
  8
8
100
AcDbText
 10
6.147622609161773
 20
2.671678996876154
 30
0.0
 40
0.07
  1
ANCHORING BY ERECTOR
 50
90.0
  7
ROMANS
 72
     2
 11
6.147622609161773
 21
3.985012330209487
 31
0.0
100
AcDbText
  0
TEXT
  5
42
330
37
100
AcDbEntity
  8
8
100
AcDbText
 10
4.500499999999999
 20
2.578333333333333
 30
0.0
 40
0.07
  1
LOCKER HEIGHT
 50
90.0
  7
ROMANS
 72
     1
 11
4.500499999999999
 21
3.0
 31
0.0
100
AcDbText
  0
TEXT
  5
43
330
37
100
AcDbEntity
  8
8
100
AcDbText
 10
1.344999999999998
 20
1.062
 30
0.0
 40
0.07
  1
LOCKER WIDTH - SEE SCHEDULE
  7
ROMANS
 72
     1
 11
2.249999999999999
 21
1.062
 31
0.0
100
AcDbText
  0
TEXT
  5
44
330
37
100
AcDbEntity
  8
8
100
AcDbText
 10
1.585714285714285
 20
0.5620000000000003
 30
0.0
 40
0.1
  1
FRONT ELEVATION
  7
ROMANS
 72
     1
 11
2.249999999999999
 21
0.5620000000000003
 31
0.0
100
AcDbText
  0
LINE
  5
45
330
37
100
AcDbEntity
  8
1
100
AcDbLine
 10
0.0
 20
0.0
 30
0.0
 11
8.25
 21
0.0
 31
0.0
  0
LINE
  5
46
330
37
100
AcDbEntity
  8
1
100
AcDbLine
 10
8.25
 20
0.0
 30
0.0
 11
8.25
 21
5.25
 31
0.0
  0
LINE
  5
47
330
37
100
AcDbEntity
  8
1
100
AcDbLine
 10
8.25
 20
5.25
 30
0.0
 11
0.0
 21
5.25
 31
0.0
  0
LINE
  5
48
330
37
100
AcDbEntity
  8
1
100
AcDbLine
 10
0.0
 20
5.25
 30
0.0
 11
0.0
 21
0.0
 31
0.0
  0
LINE
  5
49
330
37
100
AcDbEntity
  8
1
100
AcDbLine
 10
1.0
 20
1.5
 30
0.0
 11
2.5
 21
1.5
 31
0.0
  0
LINE
  5
4A
330
37
100
AcDbEntity
  8
1
100
AcDbLine
 10
1.0
 20
1.5
 30
0.0
 11
1.0
 21
4.5
 31
0.0
  0
LINE
  5
4B
330
37
100
AcDbEntity
  8
1
100
AcDbLine
 10
1.0
 20
4.5
 30
0.0
 11
2.5
 21
4.5
 31
0.0
  0
LINE
  5
4C
330
37
100
AcDbEntity
  8
1
100
AcDbLine
 10
2.625
 20
4.5
 30
0.0
 11
3.5
 21
4.5
 31
0.0
  0
LINE
  5
4D
330
37
100
AcDbEntity
  8
1
100
AcDbLine
 10
3.5
 20
4.5
 30
0.0
 11
3.499999999999999
 21
1.5
 31
0.0
  0
LINE
  5
4E
330
37
100
AcDbEntity
  8
1
100
AcDbLine
 10
3.499999999999999
 20
1.5
 30
0.0
 11
2.624999999999999
 21
1.5
 31
0.0
  0
LINE
  5
4F
330
37
100
AcDbEntity
  8
1
100
AcDbLine
 10
7.0
 20
1.5
 30
0.0
 11
7.0
 21
4.5
 31
0.0
  0
LINE
  5
50
330
37
100
AcDbEntity
  8
1
100
AcDbLine
 10
5.75
 20
1.5
 30
0.0
 11
5.75
 21
4.875
 31
0.0
  0
CIRCLE
  5
51
330
37
100
AcDbEntity
  8
1
100
AcDbCircle
 10
4.125
 20
0.5
 30
0.0
 40
0.1875
  0
LINE
  5
52
330
37
100
AcDbEntity
  8
1
100
AcDbLine
 10
2.625
 20
4.625
 30
0.0
 11
2.625
 21
3.709974179311579
 31
0.0
  0
LINE
  5
53
330
37
100
AcDbEntity
  8
1
100
AcDbLine
 10
2.5
 20
4.625
 30
0.0
 11
2.5
 21
4.344974179311579
 31
0.0
  0
LINE
  5
54
330
37
100
AcDbEntity
  8
1
100
AcDbLine
 10
2.455
 20
4.389974179311579
 30
0.0
 11
2.544999999999999
 21
4.299974179311579
 31
0.0
  0
LINE
  5
55
330
37
100
AcDbEntity
  8
1
100
AcDbLine
 10
2.544999999999999
 20
4.299974179311579
 30
0.0
 11
2.455
 21
4.299974179311579
 31
0.0
  0
LINE
  5
56
330
37
100
AcDbEntity
  8
1
100
AcDbLine
 10
2.455
 20
4.299974179311579
 30
0.0
 11
2.544999999999999
 21
4.209974179311579
 31
0.0
  0
LINE
  5
57
330
37
100
AcDbEntity
  8
1
100
AcDbLine
 10
2.512196030826982
 20
4.242778148484597
 30
0.0
 11
2.512196030826982
 21
3.07567852914767
 31
0.0
  0
LINE
  5
58
330
37
100
AcDbEntity
  8
1
100
AcDbLine
 10
2.454999999999999
 20
3.049974179311579
 30
0.0
 11
2.544999999999999
 21
2.959974179311579
 31
0.0
  0
LINE
  5
59
330
37
100
AcDbEntity
  8
1
100
AcDbLine
 10
2.544999999999999
 20
3.049974179311579
 30
0.0
 11
2.454999999999999
 21
3.049974179311579
 31
0.0
  0
LINE
  5
5A
330
37
100
AcDbEntity
  8
1
100
AcDbLine
 10
2.454999999999999
 20
3.139974179311579
 30
0.0
 11
2.544999999999999
 21
3.049974179311579
 31
0.0
  0
LINE
  5
5B
330
37
100
AcDbEntity
  8
1
100
AcDbLine
 10
2.454999999999999
 20
1.799974179311579
 30
0.0
 11
2.544999999999999
 21
1.709974179311579
 31
0.0
  0
LINE
  5
5C
330
37
100
AcDbEntity
  8
1
100
AcDbLine
 10
2.544999999999999
 20
1.799974179311579
 30
0.0
 11
2.454999999999999
 21
1.799974179311579
 31
0.0
  0
LINE
  5
5D
330
37
100
AcDbEntity
  8
1
100
AcDbLine
 10
2.454999999999999
 20
1.889974179311579
 30
0.0
 11
2.544999999999999
 21
1.799974179311579
 31
0.0
  0
LINE
  5
5E
330
37
100
AcDbEntity
  8
1
100
AcDbLine
 10
2.5
 20
3.004974179311579
 30
0.0
 11
2.5
 21
2.469974179311579
 31
0.0
  0
LINE
  5
5F
330
37
100
AcDbEntity
  8
1
100
AcDbLine
 10
2.5
 20
2.469974179311579
 30
0.0
 11
2.499999999999999
 21
1.844974179311579
 31
0.0
  0
LINE
  5
60
330
37
100
AcDbEntity
  8
1
100
AcDbLine
 10
2.499999999999999
 20
1.754974179311579
 30
0.0
 11
2.499999999999999
 21
1.375
 31
0.0
  0
LINE
  5
61
330
37
100
AcDbEntity
  8
1
100
AcDbLine
 10
2.579999999999999
 20
2.514974179311579
 30
0.0
 11
2.669999999999999
 21
2.424974179311579
 31
0.0
  0
LINE
  5
62
330
37
100
AcDbEntity
  8
1
100
AcDbLine
 10
2.669999999999999
 20
2.424974179311579
 30
0.0
 11
2.579999999999999
 21
2.424974179311579
 31
0.0
  0
LINE
  5
63
330
37
100
AcDbEntity
  8
1
100
AcDbLine
 10
2.579999999999999
 20
2.424974179311579
 30
0.0
 11
2.669999999999999
 21
2.334974179311579
 31
0.0
  0
LINE
  5
64
330
37
100
AcDbEntity
  8
1
100
AcDbLine
 10
2.58
 20
3.754974179311579
 30
0.0
 11
2.669999999999999
 21
3.664974179311579
 31
0.0
  0
LINE
  5
65
330
37
100
AcDbEntity
  8
1
100
AcDbLine
 10
2.669999999999999
 20
3.664974179311579
 30
0.0
 11
2.58
 21
3.664974179311579
 31
0.0
  0
LINE
  5
66
330
37
100
AcDbEntity
  8
1
100
AcDbLine
 10
2.58
 20
3.664974179311579
 30
0.0
 11
2.669999999999999
 21
3.574974179311579
 31
0.0
  0
LINE
  5
67
330
37
100
AcDbEntity
  8
1
100
AcDbLine
 10
2.625
 20
3.625967704151865
 30
0.0
 11
2.625
 21
2.782474179311579
 31
0.0
  0
LINE
  5
68
330
37
100
AcDbEntity
  8
1
100
AcDbLine
 10
2.625
 20
2.782474179311579
 30
0.0
 11
2.625
 21
2.469974179311579
 31
0.0
  0
LINE
  5
69
330
37
100
AcDbEntity
  8
1
100
AcDbLine
 10
2.625
 20
2.379974179311579
 30
0.0
 11
2.624999999999999
 21
1.375
 31
0.0
  0
LINE
  5
6A
330
37
100
AcDbEntity
  8
1
100
AcDbLine
 10
5.75
 20
1.5
 30
0.0
 11
5.937999999999999
 21
1.687999999999999
 31
0.0
  0
LINE
  5
6B
330
37
100
AcDbEntity
  8
1
100
AcDbLine
 10
5.75
 20
1.625
 30
0.0
 11
5.937999999999999
 21
1.812999999999999
 31
0.0
  0
LINE
  5
6C
330
37
100
AcDbEntity
  8
1
100
AcDbLine
 10
5.75
 20
2.0
 30
0.0
 11
5.937999999999999
 21
2.187999999999999
 31
0.0
  0
LINE
  5
6D
330
37
100
AcDbEntity
  8
1
100
AcDbLine
 10
5.75
 20
2.125
 30
0.0
 11
5.937999999999999
 21
2.312999999999999
 31
0.0
  0
LINE
  5
6E
330
37
100
AcDbEntity
  8
1
100
AcDbLine
 10
5.75
 20
2.25
 30
0.0
 11
5.937999999999999
 21
2.437999999999999
 31
0.0
  0
LINE
  5
6F
330
37
100
AcDbEntity
  8
1
100
AcDbLine
 10
5.75
 20
2.375
 30
0.0
 11
5.937999999999999
 21
2.562999999999999
 31
0.0
  0
LINE
  5
70
330
37
100
AcDbEntity
  8
1
100
AcDbLine
 10
5.75
 20
2.5
 30
0.0
 11
5.937999999999999
 21
2.687999999999999
 31
0.0
  0
LINE
  5
71
330
37
100
AcDbEntity
  8
1
100
AcDbLine
 10
5.75
 20
2.625
 30
0.0
 11
5.937999999999999
 21
2.812999999999999
 31
0.0
  0
LINE
  5
72
330
37
100
AcDbEntity
  8
1
100
AcDbLine
 10
5.75
 20
2.75
 30
0.0
 11
5.937999999999999
 21
2.937999999999999
 31
0.0
  0
LINE
  5
73
330
37
100
AcDbEntity
  8
1
100
AcDbLine
 10
5.75
 20
2.875
 30
0.0
 11
5.937999999999999
 21
3.062999999999999
 31
0.0
  0
LINE
  5
74
330
37
100
AcDbEntity
  8
1
100
AcDbLine
 10
5.75
 20
3.0
 30
0.0
 11
5.937999999999999
 21
3.187999999999999
 31
0.0
  0
LINE
  5
75
330
37
100
AcDbEntity
  8
1
100
AcDbLine
 10
5.75
 20
3.125
 30
0.0
 11
5.937999999999999
 21
3.312999999999999
 31
0.0
  0
LINE
  5
76
330
37
100
AcDbEntity
  8
1
100
AcDbLine
 10
5.75
 20
3.25
 30
0.0
 11
5.937999999999999
 21
3.437999999999999
 31
0.0
  0
LINE
  5
77
330
37
100
AcDbEntity
  8
1
100
AcDbLine
 10
5.75
 20
3.375
 30
0.0
 11
5.937999999999999
 21
3.562999999999999
 31
0.0
  0
LINE
  5
78
330
37
100
AcDbEntity
  8
1
100
AcDbLine
 10
5.75
 20
3.5
 30
0.0
 11
5.937999999999999
 21
3.687999999999999
 31
0.0
  0
LINE
  5
79
330
37
100
AcDbEntity
  8
1
100
AcDbLine
 10
5.75
 20
3.625
 30
0.0
 11
5.937999999999999
 21
3.812999999999999
 31
0.0
  0
LINE
  5
7A
330
37
100
AcDbEntity
  8
1
100
AcDbLine
 10
5.75
 20
3.75
 30
0.0
 11
5.937999999999999
 21
3.937999999999999
 31
0.0
  0
LINE
  5
7B
330
37
100
AcDbEntity
  8
1
100
AcDbLine
 10
5.75
 20
3.875
 30
0.0
 11
5.937999999999999
 21
4.062999999999999
 31
0.0
  0
LINE
  5
7C
330
37
100
AcDbEntity
  8
1
100
AcDbLine
 10
5.75
 20
4.0
 30
0.0
 11
5.937999999999999
 21
4.187999999999999
 31
0.0
  0
LINE
  5
7D
330
37
100
AcDbEntity
  8
1
100
AcDbLine
 10
5.75
 20
4.125
 30
0.0
 11
5.937999999999999
 21
4.312999999999999
 31
0.0
  0
LINE
  5
7E
330
37
100
AcDbEntity
  8
1
100
AcDbLine
 10
5.75
 20
4.25
 30
0.0
 11
5.937999999999999
 21
4.437999999999999
 31
0.0
  0
LINE
  5
7F
330
37
100
AcDbEntity
  8
1
100
AcDbLine
 10
5.75
 20
4.375
 30
0.0
 11
5.937999999999999
 21
4.562999999999999
 31
0.0
  0
LINE
  5
80
330
37
100
AcDbEntity
  8
1
100
AcDbLine
 10
5.75
 20
4.5
 30
0.0
 11
5.937999999999999
 21
4.687999999999999
 31
0.0
  0
LINE
  5
81
330
37
100
AcDbEntity
  8
1
100
AcDbLine
 10
5.75
 20
4.625
 30
0.0
 11
5.937999999999999
 21
4.812999999999999
 31
0.0
  0
LINE
  5
82
330
37
100
AcDbEntity
  8
1
100
AcDbLine
 10
5.75
 20
4.75
 30
0.0
 11
5.875
 21
4.875
 31
0.0
  0
LINE
  5
83
330
37
100
AcDbEntity
  8
1
100
AcDbLine
 10
5.69
 20
1.5
 30
0.0
 11
5.69
 21
4.5
 31
0.0
  0
LINE
  5
84
330
37
100
AcDbEntity
  8
4
100
AcDbLine
 10
1.0
 20
1.437999999999999
 30
0.0
 11
0.9999999999999998
 21
0.9379999999999999
 31
0.0
  0
LINE
  5
85
330
37
100
AcDbEntity
  8
4
100
AcDbLine
 10
3.499999999999999
 20
1.437999999999999
 30
0.0
 11
3.499999999999999
 21
0.9379999999999999
 31
0.0
  0
LINE
  5
86
330
37
100
AcDbEntity
  8
4
100
AcDbLine
 10
3.499999999999999
 20
1.0
 30
0.0
 11
0.9999999999999998
 21
1.0
 31
0.0
  0
INSERT
  5
87
330
37
100
AcDbEntity
  8
4
100
AcDbBlockReference
  2
ARRO
 10
0.9999999999999998
 20
1.0
 30
0.0
  0
INSERT
  5
88
330
37
100
AcDbEntity
  8
4
100
AcDbBlockReference
  2
ARRO
 10
3.499999999999999
 20
0.9999999999999998
 30
0.0
 50
180.0
  0
LINE
  5
89
330
37
100
AcDbEntity
  8
4
100
AcDbLine
 10
5.0025
 20
1.5
 30
0.0
 11
4.5025
 21
1.5
 31
0.0
  0
LINE
  5
8A
330
37
100
AcDbEntity
  8
4
100
AcDbLine
 10
4.5625
 20
1.5
 30
0.0
 11
4.5625
 21
4.5
 31
0.0
  0
LINE
  5
8B
330
37
100
AcDbEntity
  8
4
100
AcDbLine
 10
5.0025
 20
4.5
 30
0.0
 11
4.5025
 21
4.5
 31
0.0
  0
INSERT
  5
8C
330
37
100
AcDbEntity
  8
4
100
AcDbBlockReference
  2
ARRO
 10
4.5625
 20
4.5
 30
0.0
 50
270.0
  0
INSERT
  5
8D
330
37
100
AcDbEntity
  8
4
100
AcDbBlockReference
  2
ARRO
 10
4.5625
 20
1.5
 30
0.0
 50
90.0
  0
LINE
  5
8E
330
37
100
AcDbEntity
  8
4
100
AcDbLine
 10
5.69
 20
1.8125
 30
0.0
 11
5.065
 21
1.8125
 31
0.0
  0
LINE
  5
8F
330
37
100
AcDbEntity
  8
4
100
AcDbLine
 10
5.75
 20
1.8125
 30
0.0
 11
6.0
 21
1.8125
 31
0.0
  0
LINE
  5
90
330
37
100
AcDbEntity
  8
4
100
AcDbLine
 10
6.375
 20
1.8125
 30
0.0
 11
7.625
 21
1.8125
 31
0.0
  0
INSERT
  5
91
330
37
100
AcDbEntity
  8
4
100
AcDbBlockReference
  2
ARRO
 10
5.065
 20
1.8125
 30
0.0
  0
INSERT
  5
92
330
37
100
AcDbEntity
  8
4
100
AcDbBlockReference
  2
ARRO
 10
5.69
 20
1.8125
 30
0.0
 50
180.0
  0
INSERT
  5
93
330
37
100
AcDbEntity
  8
4
100
AcDbBlockReference
  2
ARRO
 10
5.75
 20
1.8125
 30
0.0
  0
INSERT
  5
94
330
37
100
AcDbEntity
  8
4
100
AcDbBlockReference
  2
ARRO
 10
6.375
 20
1.8125
 30
0.0
  0
INSERT
  5
95
330
37
100
AcDbEntity
  8
4
100
AcDbBlockReference
  2
ARRO
 10
7.625
 20
1.8125
 30
0.0
 50
180.0
  0
LINE
  5
96
330
37
100
AcDbEntity
  8
1
100
AcDbLine
 10
1.062
 20
1.562
 30
0.0
 11
1.062
 21
2.96900587855713
 31
0.0
  0
LINE
  5
97
330
37
100
AcDbEntity
  8
1
100
AcDbLine
 10
1.062
 20
4.438
 30
0.0
 11
1.563
 21
4.438
 31
0.0
  0
LINE
  5
98
330
37
100
AcDbEntity
  8
1
100
AcDbLine
 10
1.563
 20
4.438
 30
0.0
 11
1.562999999999999
 21
3.03100587855713
 31
0.0
  0
LINE
  5
99
330
37
100
AcDbEntity
  8
1
100
AcDbLine
 10
1.687
 20
1.562
 30
0.0
 11
1.687
 21
2.96900587855713
 31
0.0
  0
LINE
  5
9A
330
37
100
AcDbEntity
  8
1
100
AcDbLine
 10
1.687
 20
4.438
 30
0.0
 11
2.188
 21
4.438
 31
0.0
  0
LINE
  5
9B
330
37
100
AcDbEntity
  8
1
100
AcDbLine
 10
2.188
 20
4.438
 30
0.0
 11
2.188
 21
3.03100587855713
 31
0.0
  0
LINE
  5
9C
330
37
100
AcDbEntity
  8
1
100
AcDbLine
 10
2.187999999999999
 20
1.562
 30
0.0
 11
1.687
 21
1.562
 31
0.0
  0
LINE
  5
9D
330
37
100
AcDbEntity
  8
1
100
AcDbLine
 10
2.312
 20
1.562
 30
0.0
 11
2.312
 21
2.96900587855713
 31
0.0
  0
LINE
  5
9E
330
37
100
AcDbEntity
  8
1
100
AcDbLine
 10
2.312
 20
4.438
 30
0.0
 11
2.5
 21
4.438
 31
0.0
  0
LINE
  5
9F
330
37
100
AcDbEntity
  8
1
100
AcDbLine
 10
2.813
 20
4.438
 30
0.0
 11
2.813
 21
3.03100587855713
 31
0.0
  0
LINE
  5
A0
330
37
100
AcDbEntity
  8
1
100
AcDbLine
 10
2.812999999999999
 20
1.562
 30
0.0
 11
2.625
 21
1.562
 31
0.0
  0
LINE
  5
A1
330
37
100
AcDbEntity
  8
1
100
AcDbLine
 10
2.937
 20
1.562
 30
0.0
 11
2.937
 21
2.96900587855713
 31
0.0
  0
LINE
  5
A2
330
37
100
AcDbEntity
  8
1
100
AcDbLine
 10
2.937
 20
4.438
 30
0.0
 11
3.438
 21
4.438
 31
0.0
  0
LINE
  5
A3
330
37
100
AcDbEntity
  8
1
100
AcDbLine
 10
3.438
 20
4.438
 30
0.0
 11
3.438
 21
3.03100587855713
 31
0.0
  0
LINE
  5
A4
330
37
100
AcDbEntity
  8
1
100
AcDbLine
 10
3.437999999999999
 20
1.562
 30
0.0
 11
2.937
 21
1.562
 31
0.0
  0
LINE
  5
A5
330
37
100
AcDbEntity
  8
1
100
AcDbLine
 10
1.625
 20
1.5
 30
0.0
 11
1.625
 21
4.5
 31
0.0
  0
LINE
  5
A6
330
37
100
AcDbEntity
  8
1
100
AcDbLine
 10
2.25
 20
1.5
 30
0.0
 11
2.25
 21
4.5
 31
0.0
  0
LINE
  5
A7
330
37
100
AcDbEntity
  8
1
100
AcDbLine
 10
2.875
 20
1.5
 30
0.0
 11
2.875
 21
4.5
 31
0.0
  0
LINE
  5
A8
330
37
100
AcDbEntity
  8
1
100
AcDbLine
 10
2.625
 20
4.438
 30
0.0
 11
2.813
 21
4.438
 31
0.0
  0
LINE
  5
A9
330
37
100
AcDbEntity
  8
1
100
AcDbLine
 10
2.499999999999999
 20
1.562
 30
0.0
 11
2.312
 21
1.562
 31
0.0
  0
LINE
  5
AA
330
37
100
AcDbEntity
  8
4
100
AcDbLine
 10
1.9375
 20
4.406
 30
0.0
 11
1.9375
 21
4.531
 31
0.0
  0
CIRCLE
  5
AB
330
37
100
AcDbEntity
  8
4
100
AcDbCircle
 10
1.9375
 20
4.312
 30
0.0
 40
0.094
  0
CIRCLE
  5
AC
330
37
100
AcDbEntity
  8
4
100
AcDbCircle
 10
1.778866710308013
 20
1.373999999999999
 30
0.0
 40
0.094
  0
LINE
  5
AD
330
37
100
AcDbEntity
  8
4
100
AcDbLine
 10
1.778866710308013
 20
1.467999999999999
 30
0.0
 11
1.778866710308013
 21
1.592999999999999
 31
0.0
  0
CIRCLE
  5
AE
330
37
100
AcDbEntity
  8
4
100
AcDbCircle
 10
2.028866710308013
 20
1.373999999999999
 30
0.0
 40
0.094
  0
LINE
  5
AF
330
37
100
AcDbEntity
  8
4
100
AcDbLine
 10
1.872866710308013
 20
1.373999999999999
 30
0.0
 11
1.934866710308013
 21
1.373999999999999
 31
0.0
  0
LINE
  5
B0
330
37
100
AcDbEntity
  8
1
100
AcDbLine
 10
1.062
 20
1.562
 30
0.0
 11
1.562999999999999
 21
1.562
 31
0.0
  0
LINE
  5
B1
330
37
100
AcDbEntity
  8
1
100
AcDbLine
 10
5.203499999999999
 20
4.5
 30
0.0
 11
5.188499999999999
 21
4.484999999999999
 31
0.0
  0
LINE
  5
B2
330
37
100
AcDbEntity
  8
1
100
AcDbLine
 10
5.188499999999999
 20
4.484999999999999
 30
0.0
 11
5.090499999999999
 21
4.484999999999999
 31
0.0
  0
LINE
  5
B3
330
37
100
AcDbEntity
  8
1
100
AcDbLine
 10
5.090499999999999
 20
4.484999999999999
 30
0.0
 11
5.090499999999999
 21
4.456753857562439
 31
0.0
  0
LINE
  5
B4
330
37
100
AcDbEntity
  8
1
100
AcDbLine
 10
5.265499999999999
 20
4.437999999999999
 30
0.0
 11
5.203499999999999
 21
4.5
 31
0.0
  0
LINE
  5
B5
330
37
100
AcDbEntity
  8
1
100
AcDbLine
 10
5.630499999999999
 20
4.437999999999999
 30
0.0
 11
5.265499999999999
 21
4.437999999999999
 31
0.0
  0
LINE
  5
B6
330
37
100
AcDbEntity
  8
1
100
AcDbLine
 10
5.630499999999999
 20
4.5
 30
0.0
 11
5.630499999999999
 21
4.437999999999999
 31
0.0
  0
LINE
  5
B7
330
37
100
AcDbEntity
  8
1
100
AcDbLine
 10
5.670499999999999
 20
4.5
 30
0.0
 11
5.670499999999999
 21
4.437999999999999
 31
0.0
  0
LINE
  5
B8
330
37
100
AcDbEntity
  8
1
100
AcDbLine
 10
5.065499999999999
 20
4.5
 30
0.0
 11
5.173499999999998
 21
4.5
 31
0.0
  0
LINE
  5
B9
330
37
100
AcDbEntity
  8
1
100
AcDbLine
 10
5.065499999999999
 20
4.437999999999999
 30
0.0
 11
5.065499999999999
 21
4.5
 31
0.0
  0
LINE
  5
BA
330
37
100
AcDbEntity
  8
1
100
AcDbLine
 10
5.127499999999999
 20
4.437999999999999
 30
0.0
 11
5.065499999999999
 21
4.437999999999999
 31
0.0
  0
LINE
  5
BB
330
37
100
AcDbEntity
  8
1
100
AcDbLine
 10
5.203499999999999
 20
4.5
 30
0.0
 11
5.670499999999999
 21
4.5
 31
0.0
  0
LINE
  5
BC
330
37
100
AcDbEntity
  8
1
100
AcDbLine
 10
6.513499999999998
 20
4.5
 30
0.0
 11
6.980499999999999
 21
4.5
 31
0.0
  0
LINE
  5
BD
330
37
100
AcDbEntity
  8
1
100
AcDbLine
 10
6.437499999999999
 20
4.437999999999999
 30
0.0
 11
6.375499999999998
 21
4.437999999999999
 31
0.0
  0
LINE
  5
BE
330
37
100
AcDbEntity
  8
1
100
AcDbLine
 10
6.375499999999998
 20
4.437999999999999
 30
0.0
 11
6.375499999999998
 21
4.5
 31
0.0
  0
LINE
  5
BF
330
37
100
AcDbEntity
  8
1
100
AcDbLine
 10
6.375499999999998
 20
4.5
 30
0.0
 11
6.483499999999998
 21
4.5
 31
0.0
  0
LINE
  5
C0
330
37
100
AcDbEntity
  8
1
100
AcDbLine
 10
6.980499999999999
 20
4.5
 30
0.0
 11
6.980499999999999
 21
4.437999999999999
 31
0.0
  0
LINE
  5
C1
330
37
100
AcDbEntity
  8
1
100
AcDbLine
 10
6.940499999999999
 20
4.5
 30
0.0
 11
6.940499999999999
 21
4.437999999999999
 31
0.0
  0
LINE
  5
C2
330
37
100
AcDbEntity
  8
1
100
AcDbLine
 10
6.940499999999999
 20
4.437999999999999
 30
0.0
 11
6.575499999999999
 21
4.437999999999999
 31
0.0
  0
LINE
  5
C3
330
37
100
AcDbEntity
  8
1
100
AcDbLine
 10
6.575499999999999
 20
4.437999999999999
 30
0.0
 11
6.513499999999998
 21
4.5
 31
0.0
  0
LINE
  5
C4
330
37
100
AcDbEntity
  8
1
100
AcDbLine
 10
6.400499999999999
 20
4.484999999999999
 30
0.0
 11
6.400499999999999
 21
4.456753857562439
 31
0.0
  0
LINE
  5
C5
330
37
100
AcDbEntity
  8
1
100
AcDbLine
 10
6.498499999999999
 20
4.484999999999999
 30
0.0
 11
6.400499999999999
 21
4.484999999999999
 31
0.0
  0
LINE
  5
C6
330
37
100
AcDbEntity
  8
1
100
AcDbLine
 10
6.513499999999998
 20
4.5
 30
0.0
 11
6.498499999999999
 21
4.484999999999999
 31
0.0
  0
LINE
  5
C7
330
37
100
AcDbEntity
  8
1
100
AcDbLine
 10
7.486500000000001
 20
4.5
 30
0.0
 11
7.5015
 21
4.484999999999999
 31
0.0
  0
LINE
  5
C8
330
37
100
AcDbEntity
  8
1
100
AcDbLine
 10
7.5015
 20
4.484999999999999
 30
0.0
 11
7.5995
 21
4.484999999999999
 31
0.0
  0
LINE
  5
C9
330
37
100
AcDbEntity
  8
1
100
AcDbLine
 10
7.5995
 20
4.484999999999999
 30
0.0
 11
7.5995
 21
4.456753857562439
 31
0.0
  0
LINE
  5
CA
330
37
100
AcDbEntity
  8
1
100
AcDbLine
 10
7.4245
 20
4.437999999999999
 30
0.0
 11
7.486500000000001
 21
4.5
 31
0.0
  0
LINE
  5
CB
330
37
100
AcDbEntity
  8
1
100
AcDbLine
 10
7.0595
 20
4.437999999999999
 30
0.0
 11
7.4245
 21
4.437999999999999
 31
0.0
  0
LINE
  5
CC
330
37
100
AcDbEntity
  8
1
100
AcDbLine
 10
7.0595
 20
4.5
 30
0.0
 11
7.0595
 21
4.437999999999999
 31
0.0
  0
LINE
  5
CD
330
37
100
AcDbEntity
  8
1
100
AcDbLine
 10
7.0195
 20
4.5
 30
0.0
 11
7.0195
 21
4.437999999999999
 31
0.0
  0
LINE
  5
CE
330
37
100
AcDbEntity
  8
1
100
AcDbLine
 10
7.624500000000001
 20
4.5
 30
0.0
 11
7.516500000000001
 21
4.5
 31
0.0
  0
LINE
  5
CF
330
37
100
AcDbEntity
  8
1
100
AcDbLine
 10
7.624500000000001
 20
4.437999999999999
 30
0.0
 11
7.624500000000001
 21
4.5
 31
0.0
  0
LINE
  5
D0
330
37
100
AcDbEntity
  8
1
100
AcDbLine
 10
7.5625
 20
4.437999999999999
 30
0.0
 11
7.624500000000001
 21
4.437999999999999
 31
0.0
  0
LINE
  5
D1
330
37
100
AcDbEntity
  8
1
100
AcDbLine
 10
7.486500000000001
 20
4.5
 30
0.0
 11
7.0195
 21
4.5
 31
0.0
  0
LINE
  5
D2
330
37
100
AcDbEntity
  8
1
100
AcDbLine
 10
7.486500000000001
 20
1.5625
 30
0.0
 11
7.0195
 21
1.5625
 31
0.0
  0
LINE
  5
D3
330
37
100
AcDbEntity
  8
1
100
AcDbLine
 10
7.5625
 20
1.500499999999999
 30
0.0
 11
7.624500000000001
 21
1.500499999999999
 31
0.0
  0
LINE
  5
D4
330
37
100
AcDbEntity
  8
1
100
AcDbLine
 10
7.624500000000001
 20
1.500499999999999
 30
0.0
 11
7.624500000000001
 21
1.5625
 31
0.0
  0
LINE
  5
D5
330
37
100
AcDbEntity
  8
1
100
AcDbLine
 10
7.624500000000001
 20
1.5625
 30
0.0
 11
7.516500000000001
 21
1.5625
 31
0.0
  0
LINE
  5
D6
330
37
100
AcDbEntity
  8
1
100
AcDbLine
 10
7.0195
 20
1.5625
 30
0.0
 11
7.0195
 21
1.500499999999999
 31
0.0
  0
LINE
  5
D7
330
37
100
AcDbEntity
  8
1
100
AcDbLine
 10
7.0595
 20
1.5625
 30
0.0
 11
7.0595
 21
1.500499999999999
 31
0.0
  0
LINE
  5
D8
330
37
100
AcDbEntity
  8
1
100
AcDbLine
 10
7.0595
 20
1.500499999999999
 30
0.0
 11
7.4245
 21
1.500499999999999
 31
0.0
  0
LINE
  5
D9
330
37
100
AcDbEntity
  8
1
100
AcDbLine
 10
7.4245
 20
1.500499999999999
 30
0.0
 11
7.486500000000001
 21
1.5625
 31
0.0
  0
LINE
  5
DA
330
37
100
AcDbEntity
  8
1
100
AcDbLine
 10
7.5995
 20
1.547499999999999
 30
0.0
 11
7.5995
 21
1.519253857562439
 31
0.0
  0
LINE
  5
DB
330
37
100
AcDbEntity
  8
1
100
AcDbLine
 10
7.5015
 20
1.547499999999999
 30
0.0
 11
7.5995
 21
1.547499999999999
 31
0.0
  0
LINE
  5
DC
330
37
100
AcDbEntity
  8
1
100
AcDbLine
 10
7.486500000000001
 20
1.5625
 30
0.0
 11
7.5015
 21
1.547499999999999
 31
0.0
  0
LINE
  5
DD
330
37
100
AcDbEntity
  8
1
100
AcDbLine
 10
6.513499999999998
 20
1.5625
 30
0.0
 11
6.498499999999999
 21
1.547499999999999
 31
0.0
  0
LINE
  5
DE
330
37
100
AcDbEntity
  8
1
100
AcDbLine
 10
6.498499999999999
 20
1.547499999999999
 30
0.0
 11
6.400499999999999
 21
1.547499999999999
 31
0.0
  0
LINE
  5
DF
330
37
100
AcDbEntity
  8
1
100
AcDbLine
 10
6.400499999999999
 20
1.547499999999999
 30
0.0
 11
6.400499999999999
 21
1.519253857562439
 31
0.0
  0
LINE
  5
E0
330
37
100
AcDbEntity
  8
1
100
AcDbLine
 10
6.575499999999999
 20
1.500499999999999
 30
0.0
 11
6.513499999999998
 21
1.5625
 31
0.0
  0
LINE
  5
E1
330
37
100
AcDbEntity
  8
1
100
AcDbLine
 10
6.940499999999999
 20
1.500499999999999
 30
0.0
 11
6.575499999999999
 21
1.500499999999999
 31
0.0
  0
LINE
  5
E2
330
37
100
AcDbEntity
  8
1
100
AcDbLine
 10
6.940499999999999
 20
1.5625
 30
0.0
 11
6.940499999999999
 21
1.500499999999999
 31
0.0
  0
LINE
  5
E3
330
37
100
AcDbEntity
  8
1
100
AcDbLine
 10
6.980499999999999
 20
1.5625
 30
0.0
 11
6.980499999999999
 21
1.500499999999999
 31
0.0
  0
LINE
  5
E4
330
37
100
AcDbEntity
  8
1
100
AcDbLine
 10
6.375499999999998
 20
1.5625
 30
0.0
 11
6.483499999999998
 21
1.5625
 31
0.0
  0
LINE
  5
E5
330
37
100
AcDbEntity
  8
1
100
AcDbLine
 10
6.375499999999998
 20
1.500499999999999
 30
0.0
 11
6.375499999999998
 21
1.5625
 31
0.0
  0
LINE
  5
E6
330
37
100
AcDbEntity
  8
1
100
AcDbLine
 10
6.437499999999999
 20
1.500499999999999
 30
0.0
 11
6.375499999999998
 21
1.500499999999999
 31
0.0
  0
LINE
  5
E7
330
37
100
AcDbEntity
  8
1
100
AcDbLine
 10
6.513499999999998
 20
1.5625
 30
0.0
 11
6.980499999999999
 21
1.5625
 31
0.0
  0
LINE
  5
E8
330
37
100
AcDbEntity
  8
1
100
AcDbLine
 10
5.203499999999999
 20
1.5625
 30
0.0
 11
5.670499999999999
 21
1.5625
 31
0.0
  0
LINE
  5
E9
330
37
100
AcDbEntity
  8
1
100
AcDbLine
 10
5.127499999999999
 20
1.500499999999999
 30
0.0
 11
5.065499999999999
 21
1.500499999999999
 31
0.0
  0
LINE
  5
EA
330
37
100
AcDbEntity
  8
1
100
AcDbLine
 10
5.065499999999999
 20
1.500499999999999
 30
0.0
 11
5.065499999999999
 21
1.5625
 31
0.0
  0
LINE
  5
EB
330
37
100
AcDbEntity
  8
1
100
AcDbLine
 10
5.065499999999999
 20
1.5625
 30
0.0
 11
5.173499999999998
 21
1.5625
 31
0.0
  0
LINE
  5
EC
330
37
100
AcDbEntity
  8
1
100
AcDbLine
 10
5.670499999999999
 20
1.5625
 30
0.0
 11
5.670499999999999
 21
1.500499999999999
 31
0.0
  0
LINE
  5
ED
330
37
100
AcDbEntity
  8
1
100
AcDbLine
 10
5.630499999999999
 20
1.5625
 30
0.0
 11
5.630499999999999
 21
1.500499999999999
 31
0.0
  0
LINE
  5
EE
330
37
100
AcDbEntity
  8
1
100
AcDbLine
 10
5.630499999999999
 20
1.500499999999999
 30
0.0
 11
5.265499999999999
 21
1.500499999999999
 31
0.0
  0
LINE
  5
EF
330
37
100
AcDbEntity
  8
1
100
AcDbLine
 10
5.265499999999999
 20
1.500499999999999
 30
0.0
 11
5.203499999999999
 21
1.5625
 31
0.0
  0
LINE
  5
F0
330
37
100
AcDbEntity
  8
1
100
AcDbLine
 10
5.090499999999999
 20
1.547499999999999
 30
0.0
 11
5.090499999999999
 21
1.519253857562439
 31
0.0
  0
LINE
  5
F1
330
37
100
AcDbEntity
  8
1
100
AcDbLine
 10
5.188499999999999
 20
1.547499999999999
 30
0.0
 11
5.090499999999999
 21
1.547499999999999
 31
0.0
  0
LINE
  5
F2
330
37
100
AcDbEntity
  8
1
100
AcDbLine
 10
5.203499999999999
 20
1.5625
 30
0.0
 11
5.188499999999999
 21
1.547499999999999
 31
0.0
  0
LINE
  5
F3
330
37
100
AcDbEntity
  8
1
100
AcDbLine
 10
1.062
 20
3.03100587855713
 30
0.0
 11
1.062
 21
4.438
 31
0.0
  0
LINE
  5
F4
330
37
100
AcDbEntity
  8
1
100
AcDbLine
 10
1.562999999999999
 20
2.96900587855713
 30
0.0
 11
1.562999999999999
 21
1.562
 31
0.0
  0
LINE
  5
F5
330
37
100
AcDbEntity
  8
1
100
AcDbLine
 10
1.687
 20
3.03100587855713
 30
0.0
 11
1.687
 21
4.438
 31
0.0
  0
LINE
  5
F6
330
37
100
AcDbEntity
  8
1
100
AcDbLine
 10
2.187999999999999
 20
2.96900587855713
 30
0.0
 11
2.187999999999999
 21
1.562
 31
0.0
  0
LINE
  5
F7
330
37
100
AcDbEntity
  8
1
100
AcDbLine
 10
2.312
 20
3.03100587855713
 30
0.0
 11
2.312
 21
4.438
 31
0.0
  0
LINE
  5
F8
330
37
100
AcDbEntity
  8
1
100
AcDbLine
 10
2.812999999999999
 20
2.96900587855713
 30
0.0
 11
2.812999999999999
 21
1.562
 31
0.0
  0
LINE
  5
F9
330
37
100
AcDbEntity
  8
1
100
AcDbLine
 10
2.937
 20
3.03100587855713
 30
0.0
 11
2.937
 21
4.438
 31
0.0
  0
LINE
  5
FA
330
37
100
AcDbEntity
  8
1
100
AcDbLine
 10
3.437999999999999
 20
2.96900587855713
 30
0.0
 11
3.437999999999999
 21
1.562
 31
0.0
  0
ENDBLK
  5
FC
330
37
100
AcDbEntity
  8
0
100
AcDbBlockEnd
  0
BLOCK
  5
30C
330
301
100
AcDbEntity
  8
8
100
AcDbBlockBegin
  2
ARRO2
 70
     0
 10
0.0
 20
0.0
 30
0.0
  3
ARRO2
  1

  0
LINE
  5
302
330
301
100
AcDbEntity
  8
4
100
AcDbLine
 10
-0.124999999999992
 20
-0.0200000000000005
 30
0.0
 11
0.000000000000008
 21
-0.0000000000000009
 31
0.0
  0
LINE
  5
303
330
301
100
AcDbEntity
  8
4
100
AcDbLine
 10
0.000000000000008
 20
-0.0000000000000009
 30
0.0
 11
-0.124999999999992
 21
0.0199999999999996
 31
0.0
  0
LINE
  5
304
330
301
100
AcDbEntity
  8
4
100
AcDbLine
 10
-0.124999999999992
 20
-0.0099999999999998
 30
0.0
 11
0.000000000000008
 21
-0.0000000000000009
 31
0.0
  0
LINE
  5
305
330
301
100
AcDbEntity
  8
4
100
AcDbLine
 10
-0.124999999999992
 20
0.0099999999999998
 30
0.0
 11
0.0000000000000089
 21
-0.0000000000000009
 31
0.0
  0
LINE
  5
306
330
301
100
AcDbEntity
  8
4
100
AcDbLine
 10
-0.124999999999992
 20
-0.0200000000000005
 30
0.0
 11
-0.124999999999992
 21
0.0199999999999996
 31
0.0
  0
LINE
  5
307
330
301
100
AcDbEntity
  8
4
100
AcDbLine
 10
0.1250000000000124
 20
0.0199999999999987
 30
0.0
 11
0.1250000000000124
 21
-0.0200000000000014
 31
0.0
  0
LINE
  5
308
330
301
100
AcDbEntity
  8
4
100
AcDbLine
 10
0.1250000000000124
 20
-0.0100000000000016
 30
0.0
 11
0.0000000000000115
 21
-0.0000000000000009
 31
0.0
  0
LINE
  5
309
330
301
100
AcDbEntity
  8
4
100
AcDbLine
 10
0.1250000000000124
 20
0.009999999999998
 30
0.0
 11
0.0000000000000124
 21
-0.0000000000000009
 31
0.0
  0
LINE
  5
30A
330
301
100
AcDbEntity
  8
4
100
AcDbLine
 10
0.0000000000000124
 20
-0.0000000000000009
 30
0.0
 11
0.1250000000000124
 21
-0.0200000000000014
 31
0.0
  0
LINE
  5
30B
330
301
100
AcDbEntity
  8
4
100
AcDbLine
 10
0.1250000000000124
 20
0.0199999999999987
 30
0.0
 11
0.0000000000000124
 21
-0.0000000000000009
 31
0.0
  0
ENDBLK
  5
30D
330
301
100
AcDbEntity
  8
8
100
AcDbBlockEnd
  0
BLOCK
  5
311
330
30E
100
AcDbEntity
  8
8
100
AcDbBlockBegin
  2
TEMP3
 70
     0
 10
0.0
 20
0.0
 30
0.0
  3
TEMP3
  1

  0
TEXT
  5
30F
330
30E
100
AcDbEntity
  8
8
100
AcDbText
 10
0.03
 20
0.0619999999999998
 30
0.0
 40
0.07
  1
HANDLE & P/A
 50
90.0
  7
ROMANS
100
AcDbText
  0
TEXT
  5
310
330
30E
100
AcDbEntity
  8
8
100
AcDbText
 10
0.03
 20
-1.33310960351371
 30
0.0
 40
0.07
  1
LOCK ESCUTCHEON
 50
90.0
  7
ROMANS
 72
     2
 11
0.03
 21
-0.3264429368470441
 31
0.0
100
AcDbText
  0
ENDBLK
  5
312
330
30E
100
AcDbEntity
  8
8
100
AcDbBlockEnd
  0
BLOCK
  5
415
330
31F
100
AcDbEntity
  8
0
100
AcDbBlockBegin
  2
SPL2CORRIDORDT60
 70
     0
 10
0.0
 20
0.0
 30
0.0
  3
SPL2CORRIDORDT60
  1

  4
SPL2 CORRIDOR DT 60
  0
LINE
  5
320
330
31F
100
AcDbEntity
  8
4
100
AcDbLine
 10
7.624500000000001
 20
4.406
 30
0.0
 11
7.5625
 21
4.406
 31
0.0
  0
LINE
  5
321
330
31F
100
AcDbEntity
  8
4
100
AcDbLine
 10
7.5995
 20
3.016005878557129
 30
0.0
 11
7.5995
 21
2.98775973611957
 31
0.0
  0
LINE
  5
322
330
31F
100
AcDbEntity
  8
4
100
AcDbLine
 10
7.624500000000001
 20
2.96900587855713
 30
0.0
 11
7.624500000000001
 21
3.03100587855713
 31
0.0
  0
LINE
  5
323
330
31F
100
AcDbEntity
  8
4
100
AcDbLine
 10
7.5625
 20
2.96900587855713
 30
0.0
 11
7.624500000000001
 21
2.96900587855713
 31
0.0
  0
LINE
  5
324
330
31F
100
AcDbEntity
  8
4
100
AcDbLine
 10
7.5625
 20
3.062961724666486
 30
0.0
 11
7.624499999999999
 21
3.062961724666486
 31
0.0
  0
LINE
  5
325
330
31F
100
AcDbEntity
  8
4
100
AcDbLine
 10
7.5625
 20
2.93700587855713
 30
0.0
 11
7.624499999999999
 21
2.93700587855713
 31
0.0
  0
LINE
  5
326
330
31F
100
AcDbEntity
  8
4
100
AcDbLine
 10
7.6245
 20
1.594
 30
0.0
 11
7.5625
 21
1.594
 31
0.0
  0
LINE
  5
327
330
31F
100
AcDbEntity
  8
4
100
AcDbLine
 10
7.6245
 20
2.93700587855713
 30
0.0
 11
7.6245
 21
1.594
 31
0.0
  0
LINE
  5
328
330
31F
100
AcDbEntity
  8
4
100
AcDbLine
 10
7.6245
 20
4.406
 30
0.0
 11
7.6245
 21
3.062961724666486
 31
0.0
  0
LINE
  5
329
330
31F
100
AcDbEntity
  8
4
100
AcDbLine
 10
7.301520109897515
 20
4.379999999999999
 30
0.0
 11
7.301520109897515
 21
4.318
 31
0.0
  0
LINE
  5
32A
330
31F
100
AcDbEntity
  8
4
100
AcDbLine
 10
7.332520109897515
 20
4.379999999999999
 30
0.0
 11
7.270520109897516
 21
4.379999999999999
 31
0.0
  0
LINE
  5
32B
330
31F
100
AcDbEntity
  8
4
100
AcDbLine
 10
7.0195
 20
4.343000000000001
 30
0.0
 11
7.0195
 21
4.393
 31
0.0
  0
ARC
  5
32C
330
31F
100
AcDbEntity
  8
4
100
AcDbCircle
 10
6.9555
 20
4.343000000000001
 30
0.0
 40
0.025
100
AcDbArc
 50
180.0
 51
0.0
  0
LINE
  5
32D
330
31F
100
AcDbEntity
  8
4
100
AcDbLine
 10
6.9805
 20
4.343000000000001
 30
0.0
 11
6.9805
 21
4.393
 31
0.0
  0
LINE
  5
32E
330
31F
100
AcDbEntity
  8
4
100
AcDbLine
 10
6.667479890102485
 20
4.379999999999999
 30
0.0
 11
6.729479890102484
 21
4.379999999999999
 31
0.0
  0
LINE
  5
32F
330
31F
100
AcDbEntity
  8
4
100
AcDbLine
 10
6.698479890102484
 20
4.379999999999999
 30
0.0
 11
6.698479890102484
 21
4.318
 31
0.0
  0
ARC
  5
330
330
31F
100
AcDbEntity
  8
4
100
AcDbCircle
 10
7.0445
 20
4.343000000000001
 30
0.0
 40
0.025
100
AcDbArc
 50
180.0
 51
0.0
  0
LINE
  5
331
330
31F
100
AcDbEntity
  8
4
100
AcDbLine
 10
6.375499999999998
 20
4.406
 30
0.0
 11
6.437499999999999
 21
4.406
 31
0.0
  0
LINE
  5
332
330
31F
100
AcDbEntity
  8
4
100
AcDbLine
 10
5.6705
 20
4.343000000000001
 30
0.0
 11
5.6705
 21
4.393
 31
0.0
  0
ARC
  5
333
330
31F
100
AcDbEntity
  8
4
100
AcDbCircle
 10
5.645500000000001
 20
4.343000000000001
 30
0.0
 40
0.025
100
AcDbArc
 50
180.0
 51
0.0
  0
LINE
  5
334
330
31F
100
AcDbEntity
  8
4
100
AcDbLine
 10
7.486500000000001
 20
3.03100587855713
 30
0.0
 11
7.5015
 21
3.016005878557129
 31
0.0
  0
LINE
  5
335
330
31F
100
AcDbEntity
  8
4
100
AcDbLine
 10
7.4245
 20
2.96900587855713
 30
0.0
 11
7.486500000000001
 21
3.03100587855713
 31
0.0
  0
LINE
  5
336
330
31F
100
AcDbEntity
  8
4
100
AcDbLine
 10
7.0595
 20
3.03100587855713
 30
0.0
 11
7.0595
 21
2.96900587855713
 31
0.0
  0
LINE
  5
337
330
31F
100
AcDbEntity
  8
4
100
AcDbLine
 10
7.0595
 20
2.96900587855713
 30
0.0
 11
7.4245
 21
2.96900587855713
 31
0.0
  0
LINE
  5
338
330
31F
100
AcDbEntity
  8
4
100
AcDbLine
 10
7.301520109897515
 20
2.91104618398978
 30
0.0
 11
7.301520109897515
 21
2.84904618398978
 31
0.0
  0
LINE
  5
339
330
31F
100
AcDbEntity
  8
4
100
AcDbLine
 10
7.332520109897515
 20
2.91104618398978
 30
0.0
 11
7.270520109897516
 21
2.91104618398978
 31
0.0
  0
LINE
  5
33A
330
31F
100
AcDbEntity
  8
4
100
AcDbLine
 10
6.980499999999999
 20
3.03100587855713
 30
0.0
 11
6.980499999999999
 21
2.96900587855713
 31
0.0
  0
LINE
  5
33B
330
31F
100
AcDbEntity
  8
4
100
AcDbLine
 10
6.940499999999999
 20
3.03100587855713
 30
0.0
 11
6.940499999999999
 21
2.96900587855713
 31
0.0
  0
LINE
  5
33C
330
31F
100
AcDbEntity
  8
4
100
AcDbLine
 10
7.0195
 20
3.03100587855713
 30
0.0
 11
7.0195
 21
2.96900587855713
 31
0.0
  0
LINE
  5
33D
330
31F
100
AcDbEntity
  8
4
100
AcDbLine
 10
6.940499999999999
 20
2.96900587855713
 30
0.0
 11
6.575499999999999
 21
2.96900587855713
 31
0.0
  0
LINE
  5
33E
330
31F
100
AcDbEntity
  8
4
100
AcDbLine
 10
6.9805
 20
2.874046183989781
 30
0.0
 11
6.9805
 21
2.92404618398978
 31
0.0
  0
ARC
  5
33F
330
31F
100
AcDbEntity
  8
4
100
AcDbCircle
 10
6.9555
 20
2.874046183989781
 30
0.0
 40
0.025
100
AcDbArc
 50
180.0
 51
0.0
  0
LINE
  5
340
330
31F
100
AcDbEntity
  8
4
100
AcDbLine
 10
7.0195
 20
2.874046183989781
 30
0.0
 11
7.0195
 21
2.92404618398978
 31
0.0
  0
LINE
  5
341
330
31F
100
AcDbEntity
  8
4
100
AcDbLine
 10
6.698479890102484
 20
2.91104618398978
 30
0.0
 11
6.698479890102484
 21
2.84904618398978
 31
0.0
  0
LINE
  5
342
330
31F
100
AcDbEntity
  8
4
100
AcDbLine
 10
6.667479890102485
 20
2.91104618398978
 30
0.0
 11
6.729479890102484
 21
2.91104618398978
 31
0.0
  0
LINE
  5
343
330
31F
100
AcDbEntity
  8
4
100
AcDbLine
 10
7.486500000000001
 20
3.03100587855713
 30
0.0
 11
7.0195
 21
3.03100587855713
 31
0.0
  0
ARC
  5
344
330
31F
100
AcDbEntity
  8
4
100
AcDbCircle
 10
7.0445
 20
2.874046183989781
 30
0.0
 40
0.025
100
AcDbArc
 50
180.0
 51
0.0
  0
LINE
  5
345
330
31F
100
AcDbEntity
  8
4
100
AcDbLine
 10
6.400499999999999
 20
3.016005878557129
 30
0.0
 11
6.400499999999999
 21
2.98775973611957
 31
0.0
  0
LINE
  5
346
330
31F
100
AcDbEntity
  8
4
100
AcDbLine
 10
6.498499999999999
 20
3.016005878557129
 30
0.0
 11
6.400499999999999
 21
3.016005878557129
 31
0.0
  0
LINE
  5
347
330
31F
100
AcDbEntity
  8
4
100
AcDbLine
 10
6.513499999999998
 20
3.03100587855713
 30
0.0
 11
6.498499999999999
 21
3.016005878557129
 31
0.0
  0
LINE
  5
348
330
31F
100
AcDbEntity
  8
4
100
AcDbLine
 10
6.375499999999998
 20
2.96900587855713
 30
0.0
 11
6.375499999999998
 21
3.03100587855713
 31
0.0
  0
LINE
  5
349
330
31F
100
AcDbEntity
  8
4
100
AcDbLine
 10
6.437499999999999
 20
2.96900587855713
 30
0.0
 11
6.375499999999998
 21
2.96900587855713
 31
0.0
  0
LINE
  5
34A
330
31F
100
AcDbEntity
  8
4
100
AcDbLine
 10
6.375499999999998
 20
3.03100587855713
 30
0.0
 11
6.483499999999998
 21
3.03100587855713
 31
0.0
  0
LINE
  5
34B
330
31F
100
AcDbEntity
  8
4
100
AcDbLine
 10
6.375499999999998
 20
3.062961724666486
 30
0.0
 11
6.437499999999999
 21
3.062961724666486
 31
0.0
  0
LINE
  5
34C
330
31F
100
AcDbEntity
  8
4
100
AcDbLine
 10
6.375499999999999
 20
2.93700587855713
 30
0.0
 11
6.437499999999999
 21
2.93700587855713
 31
0.0
  0
LINE
  5
34D
330
31F
100
AcDbEntity
  8
4
100
AcDbLine
 10
5.630499999999999
 20
3.03100587855713
 30
0.0
 11
5.630499999999999
 21
2.96900587855713
 31
0.0
  0
LINE
  5
34E
330
31F
100
AcDbEntity
  8
4
100
AcDbLine
 10
5.670499999999999
 20
3.03100587855713
 30
0.0
 11
5.670499999999999
 21
2.96900587855713
 31
0.0
  0
LINE
  5
34F
330
31F
100
AcDbEntity
  8
4
100
AcDbLine
 10
5.6705
 20
2.874046183989781
 30
0.0
 11
5.6705
 21
2.92404618398978
 31
0.0
  0
ARC
  5
350
330
31F
100
AcDbEntity
  8
4
100
AcDbCircle
 10
5.645500000000001
 20
2.874046183989781
 30
0.0
 40
0.025
100
AcDbArc
 50
180.0
 51
0.0
  0
LINE
  5
351
330
31F
100
AcDbEntity
  8
4
100
AcDbLine
 10
6.375499999999999
 20
1.594
 30
0.0
 11
6.4375
 21
1.594
 31
0.0
  0
LINE
  5
352
330
31F
100
AcDbEntity
  8
4
100
AcDbLine
 10
6.375499999999999
 20
2.93700587855713
 30
0.0
 11
6.375499999999999
 21
1.594
 31
0.0
  0
LINE
  5
353
330
31F
100
AcDbEntity
  8
4
100
AcDbLine
 10
6.513499999999998
 20
3.03100587855713
 30
0.0
 11
6.980499999999999
 21
3.03100587855713
 31
0.0
  0
LINE
  5
354
330
31F
100
AcDbEntity
  8
4
100
AcDbLine
 10
6.575499999999999
 20
2.96900587855713
 30
0.0
 11
6.513499999999998
 21
3.03100587855713
 31
0.0
  0
LINE
  5
355
330
31F
100
AcDbEntity
  8
4
100
AcDbLine
 10
6.375499999999999
 20
4.406
 30
0.0
 11
6.375499999999999
 21
3.062961724666486
 31
0.0
  0
LINE
  5
356
330
31F
100
AcDbEntity
  8
4
100
AcDbLine
 10
7.5015
 20
3.016005878557129
 30
0.0
 11
7.5995
 21
3.016005878557129
 31
0.0
  0
LINE
  5
357
330
31F
100
AcDbEntity
  8
4
100
AcDbLine
 10
7.624500000000001
 20
3.03100587855713
 30
0.0
 11
7.516500000000001
 21
3.03100587855713
 31
0.0
  0
LINE
  5
358
330
31F
100
AcDbEntity
  8
4
100
AcDbLine
 10
5.388479890102485
 20
4.379999999999999
 30
0.0
 11
5.388479890102485
 21
4.318
 31
0.0
  0
LINE
  5
359
330
31F
100
AcDbEntity
  8
4
100
AcDbLine
 10
5.357479890102485
 20
4.379999999999999
 30
0.0
 11
5.419479890102484
 21
4.379999999999999
 31
0.0
  0
LINE
  5
35A
330
31F
100
AcDbEntity
  8
4
100
AcDbLine
 10
5.065499999999999
 20
4.406
 30
0.0
 11
5.127499999999999
 21
4.406
 31
0.0
  0
INSERT
  5
35B
330
31F
100
AcDbEntity
  8
4
100
AcDbBlockReference
  2
ARRO
 10
4.8125
 20
4.5
 30
0.0
 50
270.0
  0
LINE
  5
35C
330
31F
100
AcDbEntity
  8
4
100
AcDbLine
 10
5.203499999999999
 20
3.03100587855713
 30
0.0
 11
5.188499999999999
 21
3.016005878557129
 31
0.0
  0
LINE
  5
35D
330
31F
100
AcDbEntity
  8
4
100
AcDbLine
 10
5.090499999999999
 20
3.016005878557129
 30
0.0
 11
5.090499999999999
 21
2.98775973611957
 31
0.0
  0
LINE
  5
35E
330
31F
100
AcDbEntity
  8
4
100
AcDbLine
 10
5.065499999999999
 20
2.96900587855713
 30
0.0
 11
5.065499999999999
 21
3.03100587855713
 31
0.0
  0
LINE
  5
35F
330
31F
100
AcDbEntity
  8
4
100
AcDbLine
 10
5.188499999999999
 20
3.016005878557129
 30
0.0
 11
5.090499999999999
 21
3.016005878557129
 31
0.0
  0
LINE
  5
360
330
31F
100
AcDbEntity
  8
4
100
AcDbLine
 10
5.065499999999999
 20
3.03100587855713
 30
0.0
 11
5.173499999999998
 21
3.03100587855713
 31
0.0
  0
LINE
  5
361
330
31F
100
AcDbEntity
  8
4
100
AcDbLine
 10
5.127499999999999
 20
2.96900587855713
 30
0.0
 11
5.065499999999999
 21
2.96900587855713
 31
0.0
  0
LINE
  5
362
330
31F
100
AcDbEntity
  8
4
100
AcDbLine
 10
5.0655
 20
3.062961724666487
 30
0.0
 11
5.127499999999999
 21
3.062961724666487
 31
0.0
  0
LINE
  5
363
330
31F
100
AcDbEntity
  8
4
100
AcDbLine
 10
5.265499999999999
 20
2.96900587855713
 30
0.0
 11
5.203499999999999
 21
3.03100587855713
 31
0.0
  0
LINE
  5
364
330
31F
100
AcDbEntity
  8
4
100
AcDbLine
 10
5.388479890102485
 20
2.91104618398978
 30
0.0
 11
5.388479890102485
 21
2.84904618398978
 31
0.0
  0
LINE
  5
365
330
31F
100
AcDbEntity
  8
4
100
AcDbLine
 10
5.357479890102485
 20
2.91104618398978
 30
0.0
 11
5.419479890102484
 21
2.91104618398978
 31
0.0
  0
LINE
  5
366
330
31F
100
AcDbEntity
  8
4
100
AcDbLine
 10
5.0655
 20
2.93700587855713
 30
0.0
 11
5.1275
 21
2.93700587855713
 31
0.0
  0
LINE
  5
367
330
31F
100
AcDbEntity
  8
4
100
AcDbLine
 10
4.8125
 20
3.03100587855713
 30
0.0
 11
4.750499999999999
 21
3.03100587855713
 31
0.0
  0
INSERT
  5
368
330
31F
100
AcDbEntity
  8
4
100
AcDbBlockReference
  2
ARRO2
 10
4.8125
 20
3.03100587855713
 30
0.0
 50
90.0
  0
LINE
  5
369
330
31F
100
AcDbEntity
  8
4
100
AcDbLine
 10
5.0025
 20
3.03100587855713
 30
0.0
 11
4.8125
 21
3.03100587855713
 31
0.0
  0
LINE
  5
36A
330
31F
100
AcDbEntity
  8
4
100
AcDbLine
 10
5.0655
 20
1.594
 30
0.0
 11
5.1275
 21
1.594
 31
0.0
  0
INSERT
  5
36B
330
31F
100
AcDbEntity
  8
4
100
AcDbBlockReference
  2
ARRO
 10
4.8125
 20
1.562
 30
0.0
 50
90.0
  0
LINE
  5
36C
330
31F
100
AcDbEntity
  8
4
100
AcDbLine
 10
4.8125
 20
1.562
 30
0.0
 11
4.750499999999999
 21
1.562
 31
0.0
  0
LINE
  5
36D
330
31F
100
AcDbEntity
  8
4
100
AcDbLine
 10
5.0025
 20
1.562
 30
0.0
 11
4.8125
 21
1.562
 31
0.0
  0
LINE
  5
36E
330
31F
100
AcDbEntity
  8
4
100
AcDbLine
 10
5.0655
 20
2.93700587855713
 30
0.0
 11
5.0655
 21
1.594
 31
0.0
  0
LINE
  5
36F
330
31F
100
AcDbEntity
  8
4
100
AcDbLine
 10
5.0655
 20
4.406
 30
0.0
 11
5.0655
 21
3.062961724666486
 31
0.0
  0
LINE
  5
370
330
31F
100
AcDbEntity
  8
4
100
AcDbLine
 10
4.8125
 20
4.5
 30
0.0
 11
4.8125
 21
1.562
 31
0.0
  0
ARC
  5
371
330
31F
100
AcDbEntity
  8
4
100
AcDbCircle
 10
3.412999999999999
 20
4.343
 30
0.0
 40
0.025
100
AcDbArc
 50
180.0
 51
0.0
  0
LINE
  5
372
330
31F
100
AcDbEntity
  8
4
100
AcDbLine
 10
3.217
 20
4.379999999999999
 30
0.0
 11
3.217
 21
4.318
 31
0.0
  0
LINE
  5
373
330
31F
100
AcDbEntity
  8
4
100
AcDbLine
 10
3.155
 20
4.379999999999999
 30
0.0
 11
3.155
 21
4.318
 31
0.0
  0
LINE
  5
374
330
31F
100
AcDbEntity
  8
4
100
AcDbLine
 10
3.155
 20
4.379999999999999
 30
0.0
 11
3.217
 21
4.379999999999999
 31
0.0
  0
ARC
  5
375
330
31F
100
AcDbEntity
  8
4
100
AcDbCircle
 10
2.787999999999999
 20
4.343
 30
0.0
 40
0.025
100
AcDbArc
 50
180.0
 51
0.0
  0
ARC
  5
376
330
31F
100
AcDbEntity
  8
4
100
AcDbCircle
 10
2.962
 20
4.343
 30
0.0
 40
0.025
100
AcDbArc
 50
180.0
 51
0.0
  0
ARC
  5
377
330
31F
100
AcDbEntity
  8
4
100
AcDbCircle
 10
2.337
 20
4.343
 30
0.0
 40
0.025
100
AcDbArc
 50
180.0
 51
0.0
  0
ARC
  5
378
330
31F
100
AcDbEntity
  8
4
100
AcDbCircle
 10
2.163
 20
4.343
 30
0.0
 40
0.025
100
AcDbArc
 50
180.0
 51
0.0
  0
ARC
  5
379
330
31F
100
AcDbEntity
  8
4
100
AcDbCircle
 10
1.712
 20
4.343
 30
0.0
 40
0.025
100
AcDbArc
 50
180.0
 51
0.0
  0
ARC
  5
37A
330
31F
100
AcDbEntity
  8
4
100
AcDbCircle
 10
3.412999999999999
 20
2.874046183989781
 30
0.0
 40
0.025
100
AcDbArc
 50
180.0
 51
0.0
  0
LINE
  5
37B
330
31F
100
AcDbEntity
  8
4
100
AcDbLine
 10
3.217
 20
2.91104618398978
 30
0.0
 11
3.217
 21
2.84904618398978
 31
0.0
  0
LINE
  5
37C
330
31F
100
AcDbEntity
  8
4
100
AcDbLine
 10
3.155
 20
2.91104618398978
 30
0.0
 11
3.155
 21
2.84904618398978
 31
0.0
  0
LINE
  5
37D
330
31F
100
AcDbEntity
  8
4
100
AcDbLine
 10
3.155
 20
2.91104618398978
 30
0.0
 11
3.217
 21
2.91104618398978
 31
0.0
  0
LINE
  5
37E
330
31F
100
AcDbEntity
  8
4
100
AcDbLine
 10
2.625
 20
3.03100587855713
 30
0.0
 11
2.812999999999999
 21
3.03100587855713
 31
0.0
  0
LINE
  5
37F
330
31F
100
AcDbEntity
  8
4
100
AcDbLine
 10
2.625
 20
2.96900587855713
 30
0.0
 11
2.812999999999999
 21
2.96900587855713
 31
0.0
  0
ARC
  5
380
330
31F
100
AcDbEntity
  8
4
100
AcDbCircle
 10
2.787999999999999
 20
2.874046183989781
 30
0.0
 40
0.025
100
AcDbArc
 50
180.0
 51
0.0
  0
LINE
  5
381
330
31F
100
AcDbEntity
  8
4
100
AcDbLine
 10
2.937
 20
2.96900587855713
 30
0.0
 11
3.437999999999999
 21
2.96900587855713
 31
0.0
  0
LINE
  5
382
330
31F
100
AcDbEntity
  8
4
100
AcDbLine
 10
2.937
 20
3.03100587855713
 30
0.0
 11
3.437999999999999
 21
3.03100587855713
 31
0.0
  0
ARC
  5
383
330
31F
100
AcDbEntity
  8
4
100
AcDbCircle
 10
2.962
 20
2.874046183989781
 30
0.0
 40
0.025
100
AcDbArc
 50
180.0
 51
0.0
  0
ARC
  5
384
330
31F
100
AcDbEntity
  8
4
100
AcDbCircle
 10
2.337
 20
2.874046183989781
 30
0.0
 40
0.025
100
AcDbArc
 50
180.0
 51
0.0
  0
ARC
  5
385
330
31F
100
AcDbEntity
  8
4
100
AcDbCircle
 10
2.163
 20
2.874046183989781
 30
0.0
 40
0.025
100
AcDbArc
 50
180.0
 51
0.0
  0
LINE
  5
386
330
31F
100
AcDbEntity
  8
4
100
AcDbLine
 10
1.967
 20
2.91104618398978
 30
0.0
 11
1.967
 21
2.84904618398978
 31
0.0
  0
LINE
  5
387
330
31F
100
AcDbEntity
  8
4
100
AcDbLine
 10
1.905
 20
2.91104618398978
 30
0.0
 11
1.905
 21
2.84904618398978
 31
0.0
  0
ARC
  5
388
330
31F
100
AcDbEntity
  8
4
100
AcDbCircle
 10
1.712
 20
2.874046183989781
 30
0.0
 40
0.025
100
AcDbArc
 50
180.0
 51
0.0
  0
LINE
  5
389
330
31F
100
AcDbEntity
  8
4
100
AcDbLine
 10
1.687
 20
2.96900587855713
 30
0.0
 11
2.187999999999999
 21
2.96900587855713
 31
0.0
  0
LINE
  5
38A
330
31F
100
AcDbEntity
  8
4
100
AcDbLine
 10
1.687
 20
3.03100587855713
 30
0.0
 11
2.187999999999999
 21
3.03100587855713
 31
0.0
  0
LINE
  5
38B
330
31F
100
AcDbEntity
  8
4
100
AcDbLine
 10
1.905
 20
2.91104618398978
 30
0.0
 11
1.967
 21
2.91104618398978
 31
0.0
  0
LINE
  5
38C
330
31F
100
AcDbEntity
  8
4
100
AcDbLine
 10
2.312
 20
2.96900587855713
 30
0.0
 11
2.499999999999999
 21
2.96900587855713
 31
0.0
  0
LINE
  5
38D
330
31F
100
AcDbEntity
  8
4
100
AcDbLine
 10
2.312
 20
3.03100587855713
 30
0.0
 11
2.473968300754448
 21
3.03100587855713
 31
0.0
  0
TEXT
  5
38E
330
31F
100
AcDbEntity
  8
8
100
AcDbText
 10
4.750499999999999
 20
1.398803185055232
 30
0.0
 40
0.07
  1
1
 50
90.0
 72
     1
 11
4.750499999999999
 21
1.410469851721899
 31
0.0
100
AcDbText
  0
INSERT
  5
38F
330
31F
100
AcDbEntity
  8
4
100
AcDbBlockReference
  2
ARRO
 10
4.8125
 20
1.5
 30
0.0
 50
270.0
  0
LINE
  5
390
330
31F
100
AcDbEntity
  8
4
100
AcDbLine
 10
4.8125
 20
1.5
 30
0.0
 11
4.8125
 21
1.375
 31
0.0
  0
LINE
  5
391
330
31F
100
AcDbEntity
  8
4
100
AcDbLine
 10
0.5859118825233172
 20
3.874828065315101
 30
0.0
 11
0.5859118825233172
 21
3.936828065315101
 31
0.0
  0
LINE
  5
392
330
31F
100
AcDbEntity
  8
4
100
AcDbLine
 10
0.5859118825233172
 20
3.734483801611808
 30
0.0
 11
0.5859118825233172
 21
3.672483801611809
 31
0.0
  0
INSERT
  5
393
330
31F
100
AcDbEntity
  8
4
100
AcDbBlockReference
  2
ARRO
 10
0.9609118825233171
 20
3.734483801611808
 30
0.0
 50
180.0
  0
INSERT
  5
394
330
31F
100
AcDbEntity
  8
4
100
AcDbBlockReference
  2
ARRO
 10
0.9609118825233171
 20
3.874828065315101
 30
0.0
 50
180.0
  0
LINE
  5
395
330
31F
100
AcDbEntity
  8
4
100
AcDbLine
 10
0.9609118825233171
 20
3.734483801611808
 30
0.0
 11
0.5859118825233172
 21
3.734483801611808
 31
0.0
  0
LINE
  5
396
330
31F
100
AcDbEntity
  8
4
100
AcDbLine
 10
0.9609118825233171
 20
3.874828065315101
 30
0.0
 11
0.5859118825233172
 21
3.874828065315101
 31
0.0
  0
INSERT
  5
397
330
31F
100
AcDbEntity
  8
8
100
AcDbBlockReference
  2
TEMP3
 10
0.5859118825233172
 20
3.936828065315101
 30
0.0
  0
TEXT
  5
398
330
31F
100
AcDbEntity
  8
8
100
AcDbText
 10
1.175595238095239
 20
0.094
 30
0.0
 40
0.125
  1
SINGLE POINT 2 CORRIDOR LOCKER  -   60" DOUBLE TIER
  7
ROMANS
 72
     1
 11
4.125
 21
0.094
 31
0.0
100
AcDbText
  0
LINE
  5
399
330
31F
100
AcDbEntity
  8
4
100
AcDbLine
 10
5.630499999999999
 20
2.96900587855713
 30
0.0
 11
5.265499999999999
 21
2.96900587855713
 31
0.0
  0
LINE
  5
39A
330
31F
100
AcDbEntity
  8
4
100
AcDbLine
 10
5.203499999999999
 20
3.03100587855713
 30
0.0
 11
5.670499999999999
 21
3.03100587855713
 31
0.0
  0
LINE
  5
39B
330
31F
100
AcDbEntity
  8
4
100
AcDbLine
 10
1.505822237817193
 20
4.402023112773348
 30
0.0
 11
1.412817828167671
 21
4.402023112773341
 31
0.0
  0
LINE
  5
39C
330
31F
100
AcDbEntity
  8
4
100
AcDbLine
 10
1.531
 20
4.406027197357196
 30
0.0
 11
1.094
 21
4.40600587855713
 31
0.0
  0
LINE
  5
39D
330
31F
100
AcDbEntity
  8
4
100
AcDbLine
 10
1.505822237817195
 20
3.071382910193197
 30
0.0
 11
1.412817828167671
 21
3.071382910193193
 31
0.0
  0
LINE
  5
39E
330
31F
100
AcDbEntity
  8
4
100
AcDbLine
 10
1.505822237817193
 20
2.933044431573415
 30
0.0
 11
1.412817828167671
 21
2.933044431573408
 31
0.0
  0
LINE
  5
39F
330
31F
100
AcDbEntity
  8
4
100
AcDbLine
 10
1.531
 20
2.937048516157263
 30
0.0
 11
1.094
 21
2.937027197357197
 31
0.0
  0
LINE
  5
3A0
330
31F
100
AcDbEntity
  8
4
100
AcDbLine
 10
1.094
 20
3.062983043466552
 30
0.0
 11
1.531
 21
3.063004362266619
 31
0.0
  0
LINE
  5
3A1
330
31F
100
AcDbEntity
  8
4
100
AcDbLine
 10
1.062
 20
3.031027197357196
 30
0.0
 11
1.562999999999999
 21
3.031027197357196
 31
0.0
  0
LINE
  5
3A2
330
31F
100
AcDbEntity
  8
4
100
AcDbLine
 10
1.062
 20
2.969027197357197
 30
0.0
 11
1.562999999999999
 21
2.969027197357197
 31
0.0
  0
LINE
  5
3A3
330
31F
100
AcDbEntity
  8
4
100
AcDbLine
 10
1.505822237817195
 20
1.602404228993264
 30
0.0
 11
1.412817828167671
 21
1.602404228993261
 31
0.0
  0
LINE
  5
3A4
330
31F
100
AcDbEntity
  8
4
100
AcDbLine
 10
1.094
 20
1.594004362266619
 30
0.0
 11
1.531
 21
1.594025681066685
 31
0.0
  0
POINT
  5
3A5
330
31F
100
AcDbEntity
  8
4
100
AcDbPoint
 10
0.0000000000000002
 20
0.0000043622666195
 30
0.0
  0
LINE
  5
3A6
330
31F
100
AcDbEntity
  8
4
  6
HIDDEN
100
AcDbLine
 10
1.412817828167671
 20
3.071382910193193
 30
0.0
 11
1.412817828167671
 21
4.402023112773341
 31
0.0
  0
LINE
  5
3A7
330
31F
100
AcDbEntity
  8
4
  6
HIDDEN
100
AcDbLine
 10
1.434551490212087
 20
3.071382910193193
 30
0.0
 11
1.434551490212085
 21
4.402023112773341
 31
0.0
  0
LINE
  5
3A8
330
31F
100
AcDbEntity
  8
4
100
AcDbLine
 10
1.094
 20
4.40600587855713
 30
0.0
 11
1.094
 21
3.062983043466552
 31
0.0
  0
LINE
  5
3A9
330
31F
100
AcDbEntity
  8
4
  6
HIDDEN
100
AcDbLine
 10
1.434551490212087
 20
1.602404228993261
 30
0.0
 11
1.434551490212085
 21
2.933044431573408
 31
0.0
  0
LINE
  5
3AA
330
31F
100
AcDbEntity
  8
4
  6
HIDDEN
100
AcDbLine
 10
1.412817828167671
 20
1.602404228993261
 30
0.0
 11
1.412817828167671
 21
2.933044431573408
 31
0.0
  0
LINE
  5
3AB
330
31F
100
AcDbEntity
  8
4
100
AcDbLine
 10
1.094
 20
2.937027197357197
 30
0.0
 11
1.094
 21
1.594004362266619
 31
0.0
  0
LINE
  5
3AC
330
31F
100
AcDbEntity
  8
4
100
AcDbLine
 10
1.198051365217294
 20
2.359416301647788
 30
0.0
 11
1.150975493948287
 21
2.359416301647788
 31
0.0
  0
LINE
  5
3AD
330
31F
100
AcDbEntity
  8
4
100
AcDbLine
 10
1.198051365217294
 20
2.378996177363477
 30
0.0
 11
1.145459102735284
 21
2.378996177363477
 31
0.0
  0
LINE
  5
3AE
330
31F
100
AcDbEntity
  8
4
100
AcDbLine
 10
1.198051365217294
 20
2.161170060026431
 30
0.0
 11
1.151953069968031
 21
2.161170060026431
 31
0.0
  0
LINE
  5
3AF
330
31F
100
AcDbEntity
  8
4
100
AcDbLine
 10
1.198051365217294
 20
2.187935750129777
 30
0.0
 11
1.159246696271291
 21
2.187935750129783
 31
0.0
  0
ARC
  5
3B0
330
31F
100
AcDbEntity
  8
4
100
AcDbCircle
 10
1.159246696271291
 20
2.207515625845471
 30
0.0
 40
0.0195798757156895
100
AcDbArc
 50
183.5763343749981
 51
270.0
  0
LINE
  5
3B1
330
31F
100
AcDbEntity
  8
4
100
AcDbLine
 10
1.116146484568654
 20
2.347794325154527
 30
0.0
 11
1.126304529072233
 21
2.185265613097289
 31
0.0
  0
ARC
  5
3B2
330
31F
100
AcDbEntity
  8
4
100
AcDbCircle
 10
1.151953069968031
 20
2.186868646903274
 30
0.0
 40
0.0256985868768425
100
AcDbArc
 50
183.5763343749981
 51
270.0
  0
LINE
  5
3B3
330
31F
100
AcDbEntity
  8
4
100
AcDbLine
 10
1.152933331403227
 20
2.342905708063291
 30
0.0
 11
1.149472065679888
 21
2.339444442339952
 31
0.0
  0
ARC
  5
3B4
330
31F
100
AcDbEntity
  8
4
 62
   130
100
AcDbCircle
 10
1.152033431873008
 20
2.340315254404326
 30
0.0
 40
0.0061089212232951
100
AcDbArc
 50
44.99999999999996
 51
224.9999999999998
  0
LINE
  5
3B5
330
31F
100
AcDbEntity
  8
4
100
AcDbLine
 10
1.158139075051126
 20
2.337699964415393
 30
0.0
 11
1.154677809327789
 21
2.334238698692055
 31
0.0
  0
ARC
  5
3B6
330
31F
100
AcDbEntity
  8
4
100
AcDbCircle
 10
1.150975493948287
 20
2.339836425932098
 30
0.0
 40
0.0195798757156895
100
AcDbArc
 50
90.0
 51
183.5763343749981
  0
LINE
  5
3B7
330
31F
100
AcDbEntity
  8
4
100
AcDbLine
 10
1.170211969894131
 20
2.325627069572387
 30
0.0
 11
1.166750704170794
 21
2.322165803849049
 31
0.0
  0
LINE
  5
3B8
330
31F
100
AcDbEntity
  8
4
100
AcDbLine
 10
1.171956447818694
 20
2.316960060201146
 30
0.0
 11
1.175417713542033
 21
2.320421325924484
 31
0.0
  0
ARC
  5
3B9
330
31F
100
AcDbEntity
  8
4
 62
   130
100
AcDbCircle
 10
1.172827259883071
 20
2.319521426394266
 30
0.0
 40
0.0061089212232951
100
AcDbArc
 50
224.9999999999998
 51
44.99999999999996
  0
LINE
  5
3BA
330
31F
100
AcDbEntity
  8
4
100
AcDbLine
 10
1.149472065679888
 20
2.339444442339952
 30
0.0
 11
1.171956447818694
 21
2.316960060201146
 31
0.0
  0
LINE
  5
3BB
330
31F
100
AcDbEntity
  8
4
 62
   130
100
AcDbLine
 10
1.147713772250281
 20
2.335995594781601
 30
0.0
 11
1.168507600260344
 21
2.315201766771536
 31
0.0
  0
LINE
  5
3BC
330
31F
100
AcDbEntity
  8
4
100
AcDbLine
 10
1.152933331403227
 20
2.342905708063291
 30
0.0
 11
1.175417713542033
 21
2.320421325924484
 31
0.0
  0
LINE
  5
3BD
330
31F
100
AcDbEntity
  8
4
 62
   130
100
AcDbLine
 10
1.156353091495735
 20
2.34463491402705
 30
0.0
 11
1.177146919505798
 21
2.323841086016992
 31
0.0
  0
LINE
  5
3BE
330
31F
100
AcDbEntity
  8
4
100
AcDbLine
 10
1.131433748503869
 20
2.338615066841824
 30
0.0
 11
1.139704950826872
 21
2.206275829673783
 31
0.0
  0
ARC
  5
3BF
330
31F
100
AcDbEntity
  8
4
100
AcDbCircle
 10
1.145459102735284
 20
2.349626363789944
 30
0.0
 40
0.0293698135735343
100
AcDbArc
 50
90.0
 51
183.5763343749981
  0
ARC
  5
3C0
330
31F
100
AcDbEntity
  8
4
100
AcDbCircle
 10
1.236856034163298
 20
2.207515625845471
 30
0.0
 40
0.0195798757156895
100
AcDbArc
 50
270.0
 51
356.4236656250016
  0
LINE
  5
3C1
330
31F
100
AcDbEntity
  8
4
100
AcDbLine
 10
1.279956245865935
 20
2.347794325154527
 30
0.0
 11
1.269798201362358
 21
2.185265613097289
 31
0.0
  0
CIRCLE
  5
3C2
330
31F
100
AcDbEntity
  8
4
100
AcDbCircle
 10
1.198051365217294
 20
2.17218374011651
 30
0.0
 40
0.0070448392825051
  0
LINE
  5
3C3
330
31F
100
AcDbEntity
  8
4
100
AcDbLine
 10
1.198051365217294
 20
2.187935750129777
 30
0.0
 11
1.236856034163298
 21
2.187935750129783
 31
0.0
  0
LINE
  5
3C4
330
31F
100
AcDbEntity
  8
4
100
AcDbLine
 10
1.198051365217294
 20
2.161170060026431
 30
0.0
 11
1.244149660466558
 21
2.161170060026431
 31
0.0
  0
ARC
  5
3C5
330
31F
100
AcDbEntity
  8
4
100
AcDbCircle
 10
1.244149660466558
 20
2.186868646903274
 30
0.0
 40
0.0256985868768425
100
AcDbArc
 50
270.0
 51
356.4236656250016
  0
ARC
  5
3C6
330
31F
100
AcDbEntity
  8
4
100
AcDbCircle
 10
1.250643627699306
 20
2.349626363789944
 30
0.0
 40
0.0293698135735343
100
AcDbArc
 50
356.4236656250016
 51
90.0
  0
ARC
  5
3C7
330
31F
100
AcDbEntity
  8
4
100
AcDbCircle
 10
1.245127236486302
 20
2.339836425932098
 30
0.0
 40
0.0195798757156895
100
AcDbArc
 50
356.4236656250016
 51
90.0
  0
LINE
  5
3C8
330
31F
100
AcDbEntity
  8
4
100
AcDbLine
 10
1.198051365217294
 20
2.359416301647788
 30
0.0
 11
1.245127236486302
 21
2.359416301647788
 31
0.0
  0
LINE
  5
3C9
330
31F
100
AcDbEntity
  8
4
100
AcDbLine
 10
1.198051365217294
 20
2.378996177363477
 30
0.0
 11
1.250643627699306
 21
2.378996177363477
 31
0.0
  0
CIRCLE
  5
3CA
330
31F
100
AcDbEntity
  8
4
100
AcDbCircle
 10
1.198051365217294
 20
2.307377886964416
 30
0.0
 40
0.0042684129060203
  0
CIRCLE
  5
3CB
330
31F
100
AcDbEntity
  8
4
100
AcDbCircle
 10
1.198051365217294
 20
2.22177467033542
 30
0.0
 40
0.0042684129060203
  0
CIRCLE
  5
3CC
330
31F
100
AcDbEntity
  8
4
100
AcDbCircle
 10
1.198051365217294
 20
2.264576278649916
 30
0.0
 40
0.0128492934384212
  0
LINE
  5
3CD
330
31F
100
AcDbEntity
  8
4
100
AcDbLine
 10
1.264668981930719
 20
2.338615066841824
 30
0.0
 11
1.256397779607717
 21
2.206294266755193
 31
0.0
  0
ARC
  5
3CE
330
31F
100
AcDbEntity
  8
4
100
AcDbCircle
 10
1.298398228260205
 20
2.639024269321228
 30
0.0
 40
0.274118260019653
100
AcDbArc
 50
81.40466153832001
 51
98.59533846167998
  0
ARC
  5
3CF
330
31F
100
AcDbEntity
  8
4
100
AcDbCircle
 10
1.298398228260205
 20
3.146877295696924
 30
0.0
 40
0.274118260019653
100
AcDbArc
 50
261.40466153832
 51
278.5953384616799
  0
CIRCLE
  5
3D0
330
31F
100
AcDbEntity
  8
4
100
AcDbCircle
 10
1.261685961293286
 20
2.892950782509076
 30
0.0
 40
0.0026628630973338
  0
ARC
  5
3D1
330
31F
100
AcDbEntity
  8
4
100
AcDbCircle
 10
1.335110495227122
 20
2.892950782509076
 30
0.0
 40
0.0795432450949886
100
AcDbArc
 50
167.5762104955836
 51
192.4237895044163
  0
CIRCLE
  5
3D2
330
31F
100
AcDbEntity
  8
4
100
AcDbCircle
 10
1.335110495227122
 20
2.892950782509076
 30
0.0
 40
0.0026628630973338
  0
ARC
  5
3D3
330
31F
100
AcDbEntity
  8
4
100
AcDbCircle
 10
1.261685961293286
 20
2.892950782509076
 30
0.0
 40
0.0795432450949886
100
AcDbArc
 50
347.5762104955836
 51
12.42378950441639
  0
LINE
  5
3D4
330
31F
100
AcDbEntity
  8
4
100
AcDbLine
 10
1.198051365217294
 20
3.828394982847721
 30
0.0
 11
1.150975493948287
 21
3.828394982847721
 31
0.0
  0
LINE
  5
3D5
330
31F
100
AcDbEntity
  8
4
100
AcDbLine
 10
1.198051365217294
 20
3.84797485856341
 30
0.0
 11
1.145459102735284
 21
3.84797485856341
 31
0.0
  0
LINE
  5
3D6
330
31F
100
AcDbEntity
  8
4
100
AcDbLine
 10
1.198051365217294
 20
3.630148741226365
 30
0.0
 11
1.151953069968031
 21
3.630148741226365
 31
0.0
  0
LINE
  5
3D7
330
31F
100
AcDbEntity
  8
4
100
AcDbLine
 10
1.198051365217294
 20
3.65691443132971
 30
0.0
 11
1.159246696271291
 21
3.656914431329715
 31
0.0
  0
LINE
  5
3D8
330
31F
100
AcDbEntity
  8
4
100
AcDbLine
 10
1.131433748503869
 20
3.807593748041757
 30
0.0
 11
1.139704950826872
 21
3.675254510873716
 31
0.0
  0
LINE
  5
3D9
330
31F
100
AcDbEntity
  8
4
100
AcDbLine
 10
1.116146484568654
 20
3.816773006354461
 30
0.0
 11
1.126304529072233
 21
3.654244294297222
 31
0.0
  0
ARC
  5
3DA
330
31F
100
AcDbEntity
  8
4
100
AcDbCircle
 10
1.159246696271291
 20
3.676494307045404
 30
0.0
 40
0.0195798757156895
100
AcDbArc
 50
183.5763343749981
 51
270.0
  0
ARC
  5
3DB
330
31F
100
AcDbEntity
  8
4
100
AcDbCircle
 10
1.151953069968031
 20
3.655847328103206
 30
0.0
 40
0.0256985868768425
100
AcDbArc
 50
183.5763343749981
 51
270.0
  0
LINE
  5
3DC
330
31F
100
AcDbEntity
  8
4
100
AcDbLine
 10
1.149472065679888
 20
3.808423123539885
 30
0.0
 11
1.171956447818694
 21
3.785938741401079
 31
0.0
  0
LINE
  5
3DD
330
31F
100
AcDbEntity
  8
4
100
AcDbLine
 10
1.152933331403227
 20
3.811884389263224
 30
0.0
 11
1.149472065679888
 21
3.808423123539885
 31
0.0
  0
LINE
  5
3DE
330
31F
100
AcDbEntity
  8
4
 62
   130
100
AcDbLine
 10
1.147713772250281
 20
3.804974275981534
 30
0.0
 11
1.168507600260344
 21
3.78418044797147
 31
0.0
  0
ARC
  5
3DF
330
31F
100
AcDbEntity
  8
4
 62
   130
100
AcDbCircle
 10
1.152033431873008
 20
3.809293935604259
 30
0.0
 40
0.0061089212232951
100
AcDbArc
 50
44.99999999999996
 51
224.9999999999999
  0
LINE
  5
3E0
330
31F
100
AcDbEntity
  8
4
100
AcDbLine
 10
1.158139075051126
 20
3.806678645615327
 30
0.0
 11
1.154677809327789
 21
3.803217379891988
 31
0.0
  0
LINE
  5
3E1
330
31F
100
AcDbEntity
  8
4
100
AcDbLine
 10
1.170211969894131
 20
3.79460575077232
 30
0.0
 11
1.166750704170794
 21
3.791144485048981
 31
0.0
  0
LINE
  5
3E2
330
31F
100
AcDbEntity
  8
4
100
AcDbLine
 10
1.171956447818694
 20
3.785938741401079
 30
0.0
 11
1.175417713542033
 21
3.789400007124418
 31
0.0
  0
LINE
  5
3E3
330
31F
100
AcDbEntity
  8
4
100
AcDbLine
 10
1.152933331403227
 20
3.811884389263224
 30
0.0
 11
1.175417713542033
 21
3.789400007124418
 31
0.0
  0
LINE
  5
3E4
330
31F
100
AcDbEntity
  8
4
 62
   130
100
AcDbLine
 10
1.156353091495735
 20
3.813613595226983
 30
0.0
 11
1.177146919505798
 21
3.792819767216924
 31
0.0
  0
ARC
  5
3E5
330
31F
100
AcDbEntity
  8
4
 62
   130
100
AcDbCircle
 10
1.172827259883071
 20
3.788500107594199
 30
0.0
 40
0.0061089212232951
100
AcDbArc
 50
224.9999999999999
 51
44.99999999999996
  0
ARC
  5
3E6
330
31F
100
AcDbEntity
  8
4
100
AcDbCircle
 10
1.150975493948287
 20
3.80881510713203
 30
0.0
 40
0.0195798757156895
100
AcDbArc
 50
90.0
 51
183.5763343749981
  0
ARC
  5
3E7
330
31F
100
AcDbEntity
  8
4
100
AcDbCircle
 10
1.145459102735284
 20
3.818605044989876
 30
0.0
 40
0.0293698135735343
100
AcDbArc
 50
90.0
 51
183.5763343749981
  0
LINE
  5
3E8
330
31F
100
AcDbEntity
  8
4
100
AcDbLine
 10
1.279956245865935
 20
3.816773006354461
 30
0.0
 11
1.269798201362358
 21
3.654244294297222
 31
0.0
  0
LINE
  5
3E9
330
31F
100
AcDbEntity
  8
4
100
AcDbLine
 10
1.264668981930719
 20
3.807593748041757
 30
0.0
 11
1.256397779607717
 21
3.675272947955126
 31
0.0
  0
CIRCLE
  5
3EA
330
31F
100
AcDbEntity
  8
4
100
AcDbCircle
 10
1.198051365217294
 20
3.733554959849849
 30
0.0
 40
0.0128492934384212
  0
ARC
  5
3EB
330
31F
100
AcDbEntity
  8
4
100
AcDbCircle
 10
1.244149660466558
 20
3.655847328103206
 30
0.0
 40
0.0256985868768425
100
AcDbArc
 50
270.0
 51
356.4236656250017
  0
CIRCLE
  5
3EC
330
31F
100
AcDbEntity
  8
4
100
AcDbCircle
 10
1.198051365217294
 20
3.690753351535353
 30
0.0
 40
0.0042684129060203
  0
CIRCLE
  5
3ED
330
31F
100
AcDbEntity
  8
4
100
AcDbCircle
 10
1.198051365217294
 20
3.641162421316443
 30
0.0
 40
0.0070448392825051
  0
LINE
  5
3EE
330
31F
100
AcDbEntity
  8
4
100
AcDbLine
 10
1.198051365217294
 20
3.65691443132971
 30
0.0
 11
1.236856034163298
 21
3.656914431329715
 31
0.0
  0
LINE
  5
3EF
330
31F
100
AcDbEntity
  8
4
100
AcDbLine
 10
1.198051365217294
 20
3.630148741226365
 30
0.0
 11
1.244149660466558
 21
3.630148741226365
 31
0.0
  0
ARC
  5
3F0
330
31F
100
AcDbEntity
  8
4
100
AcDbCircle
 10
1.236856034163298
 20
3.676494307045404
 30
0.0
 40
0.0195798757156895
100
AcDbArc
 50
270.0
 51
356.4236656250017
  0
ARC
  5
3F1
330
31F
100
AcDbEntity
  8
4
100
AcDbCircle
 10
1.250643627699306
 20
3.818605044989876
 30
0.0
 40
0.0293698135735343
100
AcDbArc
 50
356.4236656250017
 51
90.0
  0
ARC
  5
3F2
330
31F
100
AcDbEntity
  8
4
100
AcDbCircle
 10
1.245127236486302
 20
3.80881510713203
 30
0.0
 40
0.0195798757156895
100
AcDbArc
 50
356.4236656250017
 51
90.0
  0
CIRCLE
  5
3F3
330
31F
100
AcDbEntity
  8
4
100
AcDbCircle
 10
1.198051365217294
 20
3.776356568164349
 30
0.0
 40
0.0042684129060203
  0
LINE
  5
3F4
330
31F
100
AcDbEntity
  8
4
100
AcDbLine
 10
1.198051365217294
 20
3.828394982847721
 30
0.0
 11
1.245127236486302
 21
3.828394982847721
 31
0.0
  0
LINE
  5
3F5
330
31F
100
AcDbEntity
  8
4
100
AcDbLine
 10
1.198051365217294
 20
3.84797485856341
 30
0.0
 11
1.250643627699306
 21
3.84797485856341
 31
0.0
  0
ARC
  5
3F6
330
31F
100
AcDbEntity
  8
4
100
AcDbCircle
 10
1.298398228260205
 20
4.108002950521162
 30
0.0
 40
0.274118260019653
100
AcDbArc
 50
81.40466153832001
 51
98.59533846167998
  0
ARC
  5
3F7
330
31F
100
AcDbEntity
  8
4
100
AcDbCircle
 10
1.298398228260205
 20
4.615855976896857
 30
0.0
 40
0.274118260019653
100
AcDbArc
 50
261.40466153832
 51
278.5953384616799
  0
CIRCLE
  5
3F8
330
31F
100
AcDbEntity
  8
4
100
AcDbCircle
 10
1.261685961293286
 20
4.361929463709009
 30
0.0
 40
0.0026628630973338
  0
ARC
  5
3F9
330
31F
100
AcDbEntity
  8
4
100
AcDbCircle
 10
1.335110495227122
 20
4.361929463709009
 30
0.0
 40
0.0795432450949886
100
AcDbArc
 50
167.5762104955836
 51
192.4237895044163
  0
CIRCLE
  5
3FA
330
31F
100
AcDbEntity
  8
4
100
AcDbCircle
 10
1.335110495227122
 20
4.361929463709009
 30
0.0
 40
0.0026628630973338
  0
ARC
  5
3FB
330
31F
100
AcDbEntity
  8
4
100
AcDbCircle
 10
1.261685961293286
 20
4.361929463709009
 30
0.0
 40
0.0795432450949886
100
AcDbArc
 50
347.5762104955836
 51
12.42378950441639
  0
LINE
  5
3FC
330
31F
100
AcDbEntity
  8
4
  6
HIDDEN
100
AcDbLine
 10
1.505822237817195
 20
3.071382910193197
 30
0.0
 11
1.505822237817193
 21
4.402023112773348
 31
0.0
  0
LINE
  5
3FD
330
31F
100
AcDbEntity
  8
4
  6
HIDDEN
100
AcDbLine
 10
1.48408857577278
 20
3.071382910193193
 30
0.0
 11
1.48408857577278
 21
4.402023112773345
 31
0.0
  0
LINE
  5
3FE
330
31F
100
AcDbEntity
  8
4
100
AcDbLine
 10
1.531
 20
3.063004362266619
 30
0.0
 11
1.531
 21
4.406027197357196
 31
0.0
  0
LINE
  5
3FF
330
31F
100
AcDbEntity
  8
4
  6
HIDDEN
100
AcDbLine
 10
1.505822237817195
 20
1.602404228993264
 30
0.0
 11
1.505822237817193
 21
2.933044431573415
 31
0.0
  0
LINE
  5
400
330
31F
100
AcDbEntity
  8
4
  6
HIDDEN
100
AcDbLine
 10
1.48408857577278
 20
1.602404228993261
 30
0.0
 11
1.48408857577278
 21
2.933044431573411
 31
0.0
  0
LINE
  5
401
330
31F
100
AcDbEntity
  8
4
100
AcDbLine
 10
1.531
 20
1.594025681066685
 30
0.0
 11
1.531
 21
2.937048516157263
 31
0.0
  0
LINE
  5
402
330
31F
100
AcDbEntity
  8
4
100
AcDbLine
 10
1.52426941772273
 20
1.904494688912631
 30
0.0
 11
1.52426941772273
 21
1.825563314933759
 31
0.0
  0
LINE
  5
403
330
31F
100
AcDbEntity
  8
4
100
AcDbLine
 10
1.52426941772273
 20
1.825563314933759
 30
0.0
 11
1.531
 21
1.825563314933759
 31
0.0
  0
LINE
  5
404
330
31F
100
AcDbEntity
  8
4
100
AcDbLine
 10
1.544852619642949
 20
1.863502261114262
 30
0.0
 11
1.514478865504616
 21
1.863502261114262
 31
0.0
  0
LINE
  5
405
330
31F
100
AcDbEntity
  8
4
100
AcDbLine
 10
1.531
 20
1.904494688912631
 30
0.0
 11
1.52426941772273
 21
1.904494688912631
 31
0.0
  0
LINE
  5
406
330
31F
100
AcDbEntity
  8
4
100
AcDbLine
 10
1.524269417722734
 20
2.70724789876808
 30
0.0
 11
1.52426941772273
 21
2.628316524789208
 31
0.0
  0
LINE
  5
407
330
31F
100
AcDbEntity
  8
4
100
AcDbLine
 10
1.536633794702242
 20
2.66625547096971
 30
0.0
 11
1.516086921089397
 21
2.66625547096971
 31
0.0
  0
LINE
  5
408
330
31F
100
AcDbEntity
  8
4
100
AcDbLine
 10
1.52426941772273
 20
2.628316524789208
 30
0.0
 11
1.531
 21
2.628316524789208
 31
0.0
  0
LINE
  5
409
330
31F
100
AcDbEntity
  8
4
100
AcDbLine
 10
1.531
 20
2.70724789876808
 30
0.0
 11
1.524269417722734
 21
2.70724789876808
 31
0.0
  0
LINE
  5
40A
330
31F
100
AcDbEntity
  8
4
100
AcDbLine
 10
1.52426941772273
 20
3.373473370112564
 30
0.0
 11
1.52426941772273
 21
3.294541996133693
 31
0.0
  0
LINE
  5
40B
330
31F
100
AcDbEntity
  8
4
100
AcDbLine
 10
1.531
 20
3.373473370112564
 30
0.0
 11
1.52426941772273
 21
3.373473370112564
 31
0.0
  0
LINE
  5
40C
330
31F
100
AcDbEntity
  8
4
100
AcDbLine
 10
1.52426941772273
 20
3.294541996133693
 30
0.0
 11
1.531
 21
3.294541996133693
 31
0.0
  0
LINE
  5
40D
330
31F
100
AcDbEntity
  8
4
100
AcDbLine
 10
1.544852619642949
 20
3.332480942314195
 30
0.0
 11
1.514478865504616
 21
3.332480942314195
 31
0.0
  0
LINE
  5
40E
330
31F
100
AcDbEntity
  8
4
100
AcDbLine
 10
1.536633794702242
 20
4.135234152169643
 30
0.0
 11
1.516086921089397
 21
4.135234152169643
 31
0.0
  0
LINE
  5
40F
330
31F
100
AcDbEntity
  8
4
100
AcDbLine
 10
1.531
 20
4.176226579968013
 30
0.0
 11
1.524269417722734
 21
4.176226579968013
 31
0.0
  0
LINE
  5
410
330
31F
100
AcDbEntity
  8
4
100
AcDbLine
 10
1.52426941772273
 20
4.097295205989142
 30
0.0
 11
1.531
 21
4.097295205989142
 31
0.0
  0
LINE
  5
411
330
31F
100
AcDbEntity
  8
4
100
AcDbLine
 10
1.524269417722734
 20
4.176226579968013
 30
0.0
 11
1.52426941772273
 21
4.097295205989142
 31
0.0
  0
MTEXT
  5
412
330
31F
100
AcDbEntity
  8
8
100
AcDbMText
 10
4.455190569832254
 20
2.268871181682607
 30
0.0
 40
0.1
 41
0.2649
 71
     5
 72
     5
  1
60
  7
ROMANS
 11
0.0000000000000001
 21
1.0
 31
0.0
 73
     1
 44
1.0
1001
ACAD
1000
MTEXTBEGIN
1070
    73
1070
     1
1070
    44
1040
1.0
1070
    74
1070
     0
1000
MTEXTEND
  0
MTEXT
  5
413
330
31F
100
AcDbEntity
  8
8
100
AcDbMText
 10
4.741069791788387
 20
2.358281960123931
 30
0.0
 40
0.075
 41
0.5726484767334964
 71
     5
 72
     5
  1
29-1/2
  7
ROMANS
 11
0.0000000000000001
 21
1.0
 31
0.0
 73
     1
 44
1.0
1001
ACAD
1000
MTEXTBEGIN
1070
    73
1070
     1
1070
    44
1040
1.0
1070
    74
1070
     0
1000
MTEXTEND
  0
MTEXT
  5
414
330
31F
100
AcDbEntity
  8
8
100
AcDbMText
 10
4.743397498344464
 20
3.821524632786116
 30
0.0
 40
0.075
 41
0.5726484767334964
 71
     5
 72
     5
  1
29-1/2
  7
ROMANS
 11
0.0000000000000001
 21
1.0
 31
0.0
 73
     1
 44
1.0
1001
ACAD
1000
MTEXTBEGIN
1070
    73
1070
     1
1070
    44
1040
1.0
1070
    74
1070
     0
1000
MTEXTEND
  0
ENDBLK
  5
416
330
31F
100
AcDbEntity
  8
0
100
AcDbBlockEnd
  0
BLOCK
  5
41B
330
419
100
AcDbEntity
  8
0
100
AcDbBlockBegin
  2
LE1215
 70
     0
 10
0.0
 20
0.0
 30
0.0
  3
LE1215
  1

  0
INSERT
  5
41A
330
419
100
AcDbEntity
  8
4
100
AcDbBlockReference
  2
SPL2CORRIDORDT60
 10
0.0
 20
0.0
 30
0.0
  0
ENDBLK
  5
41C
330
419
100
AcDbEntity
  8
0
100
AcDbBlockEnd
  0
ENDSEC
  0
SECTION
  2
ENTITIES
  0
TEXT
  5
42B
330
1F
100
AcDbEntity
  8
8
100
AcDbText
 10
7.490183895253951
 20
3.31489536339889
 30
0.0
 40
0.07
  1
DEPTH
  7
ROMANS
 72
     1
 11
7.655183895253951
 21
3.31489536339889
 31
0.0
100
AcDbText
  0
TEXT
  5
42C
330
1F
100
AcDbEntity
  8
8
100
AcDbText
 10
9.112683895253951
 20
3.31489536339889
 30
0.0
 40
0.07
  1
DEPTH
  7
ROMANS
 72
     1
 11
9.27768389525395
 21
3.31489536339889
 31
0.0
100
AcDbText
  0
TEXT
  5
42D
330
1F
100
AcDbEntity
  8
8
100
AcDbText
 10
8.555522382327495
 20
2.352517038327407
 30
0.0
 40
0.1
  1
SR BACK TO BACK
  7
ROMANS
 72
     1
 11
9.279331906137018
 21
2.352517038327407
 31
0.0
100
AcDbText
  0
TEXT
  5
42E
330
1F
100
AcDbEntity
  8
8
100
AcDbText
 10
8.072073219812329
 20
2.167916031502097
 30
0.0
 40
0.1
  1
SECTIONS
  7
ROMANS
 72
     1
 11
8.424454172193282
 21
2.167916031502097
 31
0.0
100
AcDbText
  0
TEXT
  5
42F
330
1F
100
AcDbEntity
  8
8
100
AcDbText
 10
7.579737058380907
 20
2.352517038327407
 30
0.0
 40
0.1
  1
SR
  7
ROMANS
 72
     1
 11
7.677356105999955
 21
2.352517038327407
 31
0.0
100
AcDbText
  0
LINE
  5
430
330
1F
100
AcDbEntity
  8
4
100
AcDbLine
 10
7.90568389525395
 20
5.855916031502097
 30
0.0
 11
8.169415497919354
 21
5.855916031502097
 31
0.0
  0
LINE
  5
431
330
1F
100
AcDbEntity
  8
4
100
AcDbLine
 10
8.20984270759178
 20
5.855916031502097
 30
0.0
 11
8.390306504415724
 21
5.855916031502097
 31
0.0
  0
INSERT
  5
432
330
1F
100
AcDbEntity
  8
4
100
AcDbBlockReference
  2
ARRO
 10
8.20984270759178
 20
5.855916031502097
 30
0.0
  0
LINE
  5
433
330
1F
100
AcDbEntity
  8
4
100
AcDbLine
 10
8.390306504415724
 20
5.855916031502097
 30
0.0
 11
8.390306504415724
 21
5.652928361711585
 31
0.0
  0
TEXT
  5
434
330
1F
100
AcDbEntity
  8
8
100
AcDbText
 10
8.425306504415724
 20
4.277595028378251
 30
0.0
 40
0.07
  1
ANCHORING BY ERECTOR
 50
90.0
  7
ROMANS
 72
     2
 11
8.425306504415724
 21
5.590928361711585
 31
0.0
100
AcDbText
  0
TEXT
  5
435
330
1F
100
AcDbEntity
  8
8
100
AcDbText
 10
6.77818389525395
 20
4.18424936483543
 30
0.0
 40
0.07
  1
LOCKER HEIGHT
 50
90.0
  7
ROMANS
 72
     1
 11
6.77818389525395
 21
4.605916031502097
 31
0.0
100
AcDbText
  0
TEXT
  5
436
330
1F
100
AcDbEntity
  8
8
100
AcDbText
 10
3.622683895253949
 20
2.667916031502097
 30
0.0
 40
0.07
  1
LOCKER WIDTH - SEE SCHEDULE
  7
ROMANS
 72
     1
 11
4.52768389525395
 21
2.667916031502097
 31
0.0
100
AcDbText
  0
TEXT
  5
437
330
1F
100
AcDbEntity
  8
8
100
AcDbText
 10
3.863398180968236
 20
2.167916031502097
 30
0.0
 40
0.1
  1
FRONT ELEVATION
  7
ROMANS
 72
     1
 11
4.52768389525395
 21
2.167916031502097
 31
0.0
100
AcDbText
  0
LINE
  5
438
330
1F
100
AcDbEntity
  8
1
100
AcDbLine
 10
2.27768389525395
 20
1.605916031502097
 30
0.0
 11
10.52768389525395
 21
1.605916031502097
 31
0.0
  0
LINE
  5
439
330
1F
100
AcDbEntity
  8
1
100
AcDbLine
 10
10.52768389525395
 20
1.605916031502097
 30
0.0
 11
10.52768389525395
 21
6.855916031502097
 31
0.0
  0
LINE
  5
43A
330
1F
100
AcDbEntity
  8
1
100
AcDbLine
 10
10.52768389525395
 20
6.855916031502097
 30
0.0
 11
2.27768389525395
 21
6.855916031502097
 31
0.0
  0
LINE
  5
43B
330
1F
100
AcDbEntity
  8
1
100
AcDbLine
 10
2.27768389525395
 20
6.855916031502097
 30
0.0
 11
2.27768389525395
 21
1.605916031502097
 31
0.0
  0
LINE
  5
43C
330
1F
100
AcDbEntity
  8
1
100
AcDbLine
 10
3.27768389525395
 20
3.105916031502097
 30
0.0
 11
4.77768389525395
 21
3.105916031502097
 31
0.0
  0
LINE
  5
43D
330
1F
100
AcDbEntity
  8
1
100
AcDbLine
 10
3.27768389525395
 20
3.105916031502097
 30
0.0
 11
3.27768389525395
 21
6.105916031502097
 31
0.0
  0
LINE
  5
43E
330
1F
100
AcDbEntity
  8
1
100
AcDbLine
 10
3.27768389525395
 20
6.105916031502097
 30
0.0
 11
4.77768389525395
 21
6.105916031502097
 31
0.0
  0
LINE
  5
43F
330
1F
100
AcDbEntity
  8
1
100
AcDbLine
 10
4.90268389525395
 20
6.105916031502097
 30
0.0
 11
5.77768389525395
 21
6.105916031502097
 31
0.0
  0
LINE
  5
440
330
1F
100
AcDbEntity
  8
1
100
AcDbLine
 10
5.77768389525395
 20
6.105916031502097
 30
0.0
 11
5.77768389525395
 21
3.105916031502097
 31
0.0
  0
LINE
  5
441
330
1F
100
AcDbEntity
  8
1
100
AcDbLine
 10
5.77768389525395
 20
3.105916031502097
 30
0.0
 11
4.90268389525395
 21
3.105916031502097
 31
0.0
  0
LINE
  5
442
330
1F
100
AcDbEntity
  8
1
100
AcDbLine
 10
9.27768389525395
 20
3.105916031502097
 30
0.0
 11
9.27768389525395
 21
6.105916031502097
 31
0.0
  0
LINE
  5
443
330
1F
100
AcDbEntity
  8
1
100
AcDbLine
 10
8.02768389525395
 20
3.105916031502097
 30
0.0
 11
8.02768389525395
 21
6.480916031502097
 31
0.0
  0
CIRCLE
  5
444
330
1F
100
AcDbEntity
  8
1
100
AcDbCircle
 10
6.40268389525395
 20
2.105916031502097
 30
0.0
 40
0.1875
  0
LINE
  5
445
330
1F
100
AcDbEntity
  8
1
100
AcDbLine
 10
4.90268389525395
 20
6.230916031502097
 30
0.0
 11
4.90268389525395
 21
5.315890210813677
 31
0.0
  0
LINE
  5
446
330
1F
100
AcDbEntity
  8
1
100
AcDbLine
 10
4.77768389525395
 20
6.230916031502097
 30
0.0
 11
4.77768389525395
 21
5.950890210813676
 31
0.0
  0
LINE
  5
447
330
1F
100
AcDbEntity
  8
1
100
AcDbLine
 10
4.73268389525395
 20
5.995890210813676
 30
0.0
 11
4.82268389525395
 21
5.905890210813677
 31
0.0
  0
LINE
  5
448
330
1F
100
AcDbEntity
  8
1
100
AcDbLine
 10
4.82268389525395
 20
5.905890210813677
 30
0.0
 11
4.73268389525395
 21
5.905890210813677
 31
0.0
  0
LINE
  5
449
330
1F
100
AcDbEntity
  8
1
100
AcDbLine
 10
4.73268389525395
 20
5.905890210813677
 30
0.0
 11
4.82268389525395
 21
5.815890210813677
 31
0.0
  0
LINE
  5
44A
330
1F
100
AcDbEntity
  8
1
100
AcDbLine
 10
4.789879926080932
 20
5.848694179986694
 30
0.0
 11
4.789879926080932
 21
4.681594560649767
 31
0.0
  0
LINE
  5
44B
330
1F
100
AcDbEntity
  8
1
100
AcDbLine
 10
4.73268389525395
 20
4.655890210813677
 30
0.0
 11
4.82268389525395
 21
4.565890210813677
 31
0.0
  0
LINE
  5
44C
330
1F
100
AcDbEntity
  8
1
100
AcDbLine
 10
4.82268389525395
 20
4.655890210813677
 30
0.0
 11
4.73268389525395
 21
4.655890210813677
 31
0.0
  0
LINE
  5
44D
330
1F
100
AcDbEntity
  8
1
100
AcDbLine
 10
4.73268389525395
 20
4.745890210813676
 30
0.0
 11
4.82268389525395
 21
4.655890210813677
 31
0.0
  0
LINE
  5
44E
330
1F
100
AcDbEntity
  8
1
100
AcDbLine
 10
4.73268389525395
 20
3.405890210813677
 30
0.0
 11
4.82268389525395
 21
3.315890210813677
 31
0.0
  0
LINE
  5
44F
330
1F
100
AcDbEntity
  8
1
100
AcDbLine
 10
4.82268389525395
 20
3.405890210813677
 30
0.0
 11
4.73268389525395
 21
3.405890210813677
 31
0.0
  0
LINE
  5
450
330
1F
100
AcDbEntity
  8
1
100
AcDbLine
 10
4.73268389525395
 20
3.495890210813676
 30
0.0
 11
4.82268389525395
 21
3.405890210813677
 31
0.0
  0
LINE
  5
451
330
1F
100
AcDbEntity
  8
1
100
AcDbLine
 10
4.77768389525395
 20
4.610890210813677
 30
0.0
 11
4.77768389525395
 21
4.075890210813676
 31
0.0
  0
LINE
  5
452
330
1F
100
AcDbEntity
  8
1
100
AcDbLine
 10
4.77768389525395
 20
4.075890210813676
 30
0.0
 11
4.77768389525395
 21
3.450890210813676
 31
0.0
  0
LINE
  5
453
330
1F
100
AcDbEntity
  8
1
100
AcDbLine
 10
4.77768389525395
 20
3.360890210813677
 30
0.0
 11
4.77768389525395
 21
2.980916031502097
 31
0.0
  0
LINE
  5
454
330
1F
100
AcDbEntity
  8
1
100
AcDbLine
 10
4.85768389525395
 20
4.120890210813676
 30
0.0
 11
4.94768389525395
 21
4.030890210813677
 31
0.0
  0
LINE
  5
455
330
1F
100
AcDbEntity
  8
1
100
AcDbLine
 10
4.94768389525395
 20
4.030890210813677
 30
0.0
 11
4.85768389525395
 21
4.030890210813677
 31
0.0
  0
LINE
  5
456
330
1F
100
AcDbEntity
  8
1
100
AcDbLine
 10
4.85768389525395
 20
4.030890210813677
 30
0.0
 11
4.94768389525395
 21
3.940890210813677
 31
0.0
  0
LINE
  5
457
330
1F
100
AcDbEntity
  8
1
100
AcDbLine
 10
4.85768389525395
 20
5.360890210813677
 30
0.0
 11
4.94768389525395
 21
5.270890210813677
 31
0.0
  0
LINE
  5
458
330
1F
100
AcDbEntity
  8
1
100
AcDbLine
 10
4.94768389525395
 20
5.270890210813677
 30
0.0
 11
4.85768389525395
 21
5.270890210813677
 31
0.0
  0
LINE
  5
459
330
1F
100
AcDbEntity
  8
1
100
AcDbLine
 10
4.85768389525395
 20
5.270890210813677
 30
0.0
 11
4.94768389525395
 21
5.180890210813677
 31
0.0
  0
LINE
  5
45A
330
1F
100
AcDbEntity
  8
1
100
AcDbLine
 10
4.90268389525395
 20
5.231883735653963
 30
0.0
 11
4.90268389525395
 21
4.388390210813676
 31
0.0
  0
LINE
  5
45B
330
1F
100
AcDbEntity
  8
1
100
AcDbLine
 10
4.90268389525395
 20
4.388390210813676
 30
0.0
 11
4.90268389525395
 21
4.075890210813676
 31
0.0
  0
LINE
  5
45C
330
1F
100
AcDbEntity
  8
1
100
AcDbLine
 10
4.90268389525395
 20
3.985890210813677
 30
0.0
 11
4.90268389525395
 21
2.980916031502097
 31
0.0
  0
LINE
  5
45D
330
1F
100
AcDbEntity
  8
1
100
AcDbLine
 10
8.02768389525395
 20
3.105916031502097
 30
0.0
 11
8.215683895253949
 21
3.293916031502097
 31
0.0
  0
LINE
  5
45E
330
1F
100
AcDbEntity
  8
1
100
AcDbLine
 10
8.02768389525395
 20
3.230916031502097
 30
0.0
 11
8.215683895253949
 21
3.418916031502097
 31
0.0
  0
LINE
  5
45F
330
1F
100
AcDbEntity
  8
1
100
AcDbLine
 10
8.02768389525395
 20
3.605916031502097
 30
0.0
 11
8.215683895253949
 21
3.793916031502097
 31
0.0
  0
LINE
  5
460
330
1F
100
AcDbEntity
  8
1
100
AcDbLine
 10
8.02768389525395
 20
3.730916031502097
 30
0.0
 11
8.215683895253949
 21
3.918916031502097
 31
0.0
  0
LINE
  5
461
330
1F
100
AcDbEntity
  8
1
100
AcDbLine
 10
8.02768389525395
 20
3.855916031502097
 30
0.0
 11
8.215683895253949
 21
4.043916031502097
 31
0.0
  0
LINE
  5
462
330
1F
100
AcDbEntity
  8
1
100
AcDbLine
 10
8.02768389525395
 20
3.980916031502097
 30
0.0
 11
8.215683895253949
 21
4.168916031502097
 31
0.0
  0
LINE
  5
463
330
1F
100
AcDbEntity
  8
1
100
AcDbLine
 10
8.02768389525395
 20
4.105916031502097
 30
0.0
 11
8.215683895253949
 21
4.293916031502097
 31
0.0
  0
LINE
  5
464
330
1F
100
AcDbEntity
  8
1
100
AcDbLine
 10
8.02768389525395
 20
4.230916031502097
 30
0.0
 11
8.215683895253949
 21
4.418916031502097
 31
0.0
  0
LINE
  5
465
330
1F
100
AcDbEntity
  8
1
100
AcDbLine
 10
8.02768389525395
 20
4.355916031502097
 30
0.0
 11
8.215683895253949
 21
4.543916031502097
 31
0.0
  0
LINE
  5
466
330
1F
100
AcDbEntity
  8
1
100
AcDbLine
 10
8.02768389525395
 20
4.480916031502097
 30
0.0
 11
8.215683895253949
 21
4.668916031502097
 31
0.0
  0
LINE
  5
467
330
1F
100
AcDbEntity
  8
1
100
AcDbLine
 10
8.02768389525395
 20
4.605916031502097
 30
0.0
 11
8.215683895253949
 21
4.793916031502097
 31
0.0
  0
LINE
  5
468
330
1F
100
AcDbEntity
  8
1
100
AcDbLine
 10
8.02768389525395
 20
4.730916031502097
 30
0.0
 11
8.215683895253949
 21
4.918916031502097
 31
0.0
  0
LINE
  5
469
330
1F
100
AcDbEntity
  8
1
100
AcDbLine
 10
8.02768389525395
 20
4.855916031502097
 30
0.0
 11
8.215683895253949
 21
5.043916031502097
 31
0.0
  0
LINE
  5
46A
330
1F
100
AcDbEntity
  8
1
100
AcDbLine
 10
8.02768389525395
 20
4.980916031502097
 30
0.0
 11
8.215683895253949
 21
5.168916031502097
 31
0.0
  0
LINE
  5
46B
330
1F
100
AcDbEntity
  8
1
100
AcDbLine
 10
8.02768389525395
 20
5.105916031502097
 30
0.0
 11
8.215683895253949
 21
5.293916031502097
 31
0.0
  0
LINE
  5
46C
330
1F
100
AcDbEntity
  8
1
100
AcDbLine
 10
8.02768389525395
 20
5.230916031502097
 30
0.0
 11
8.215683895253949
 21
5.418916031502097
 31
0.0
  0
LINE
  5
46D
330
1F
100
AcDbEntity
  8
1
100
AcDbLine
 10
8.02768389525395
 20
5.355916031502097
 30
0.0
 11
8.215683895253949
 21
5.543916031502097
 31
0.0
  0
LINE
  5
46E
330
1F
100
AcDbEntity
  8
1
100
AcDbLine
 10
8.02768389525395
 20
5.480916031502097
 30
0.0
 11
8.215683895253949
 21
5.668916031502097
 31
0.0
  0
LINE
  5
46F
330
1F
100
AcDbEntity
  8
1
100
AcDbLine
 10
8.02768389525395
 20
5.605916031502097
 30
0.0
 11
8.215683895253949
 21
5.793916031502097
 31
0.0
  0
LINE
  5
470
330
1F
100
AcDbEntity
  8
1
100
AcDbLine
 10
8.02768389525395
 20
5.730916031502097
 30
0.0
 11
8.215683895253949
 21
5.918916031502097
 31
0.0
  0
LINE
  5
471
330
1F
100
AcDbEntity
  8
1
100
AcDbLine
 10
8.02768389525395
 20
5.855916031502097
 30
0.0
 11
8.215683895253949
 21
6.043916031502097
 31
0.0
  0
LINE
  5
472
330
1F
100
AcDbEntity
  8
1
100
AcDbLine
 10
8.02768389525395
 20
5.980916031502097
 30
0.0
 11
8.215683895253949
 21
6.168916031502097
 31
0.0
  0
LINE
  5
473
330
1F
100
AcDbEntity
  8
1
100
AcDbLine
 10
8.02768389525395
 20
6.105916031502097
 30
0.0
 11
8.215683895253949
 21
6.293916031502097
 31
0.0
  0
LINE
  5
474
330
1F
100
AcDbEntity
  8
1
100
AcDbLine
 10
8.02768389525395
 20
6.230916031502097
 30
0.0
 11
8.215683895253949
 21
6.418916031502097
 31
0.0
  0
LINE
  5
475
330
1F
100
AcDbEntity
  8
1
100
AcDbLine
 10
8.02768389525395
 20
6.355916031502097
 30
0.0
 11
8.15268389525395
 21
6.480916031502097
 31
0.0
  0
LINE
  5
476
330
1F
100
AcDbEntity
  8
1
100
AcDbLine
 10
7.967683895253951
 20
3.105916031502097
 30
0.0
 11
7.967683895253951
 21
6.105916031502097
 31
0.0
  0
LINE
  5
477
330
1F
100
AcDbEntity
  8
4
100
AcDbLine
 10
3.27768389525395
 20
3.043916031502097
 30
0.0
 11
3.27768389525395
 21
2.543916031502097
 31
0.0
  0
LINE
  5
478
330
1F
100
AcDbEntity
  8
4
100
AcDbLine
 10
5.77768389525395
 20
3.043916031502097
 30
0.0
 11
5.77768389525395
 21
2.543916031502097
 31
0.0
  0
LINE
  5
479
330
1F
100
AcDbEntity
  8
4
100
AcDbLine
 10
5.77768389525395
 20
2.605916031502097
 30
0.0
 11
3.27768389525395
 21
2.605916031502097
 31
0.0
  0
INSERT
  5
47A
330
1F
100
AcDbEntity
  8
4
100
AcDbBlockReference
  2
ARRO
 10
3.27768389525395
 20
2.605916031502097
 30
0.0
  0
INSERT
  5
47B
330
1F
100
AcDbEntity
  8
4
100
AcDbBlockReference
  2
ARRO
 10
5.77768389525395
 20
2.605916031502097
 30
0.0
 50
180.0
  0
LINE
  5
47C
330
1F
100
AcDbEntity
  8
4
100
AcDbLine
 10
7.280183895253951
 20
3.105916031502097
 30
0.0
 11
6.780183895253951
 21
3.105916031502097
 31
0.0
  0
LINE
  5
47D
330
1F
100
AcDbEntity
  8
4
100
AcDbLine
 10
6.84018389525395
 20
3.105916031502097
 30
0.0
 11
6.84018389525395
 21
6.105916031502097
 31
0.0
  0
LINE
  5
47E
330
1F
100
AcDbEntity
  8
4
100
AcDbLine
 10
7.280183895253951
 20
6.105916031502097
 30
0.0
 11
6.780183895253951
 21
6.105916031502097
 31
0.0
  0
INSERT
  5
47F
330
1F
100
AcDbEntity
  8
4
100
AcDbBlockReference
  2
ARRO
 10
6.84018389525395
 20
6.105916031502097
 30
0.0
 50
270.0
  0
INSERT
  5
480
330
1F
100
AcDbEntity
  8
4
100
AcDbBlockReference
  2
ARRO
 10
6.84018389525395
 20
3.105916031502097
 30
0.0
 50
90.0
  0
LINE
  5
481
330
1F
100
AcDbEntity
  8
4
100
AcDbLine
 10
7.967683895253951
 20
3.418416031502097
 30
0.0
 11
7.342683895253951
 21
3.418416031502097
 31
0.0
  0
LINE
  5
482
330
1F
100
AcDbEntity
  8
4
100
AcDbLine
 10
8.02768389525395
 20
3.418416031502097
 30
0.0
 11
8.27768389525395
 21
3.418416031502097
 31
0.0
  0
LINE
  5
483
330
1F
100
AcDbEntity
  8
4
100
AcDbLine
 10
8.65268389525395
 20
3.418416031502097
 30
0.0
 11
9.93468389525395
 21
3.418416031502097
 31
0.0
  0
INSERT
  5
484
330
1F
100
AcDbEntity
  8
4
100
AcDbBlockReference
  2
ARRO
 10
7.342683895253951
 20
3.418416031502097
 30
0.0
  0
INSERT
  5
485
330
1F
100
AcDbEntity
  8
4
100
AcDbBlockReference
  2
ARRO
 10
7.967683895253951
 20
3.418416031502097
 30
0.0
 50
180.0
  0
INSERT
  5
486
330
1F
100
AcDbEntity
  8
4
100
AcDbBlockReference
  2
ARRO
 10
8.02768389525395
 20
3.418416031502097
 30
0.0
  0
INSERT
  5
487
330
1F
100
AcDbEntity
  8
4
100
AcDbBlockReference
  2
ARRO
 10
8.65268389525395
 20
3.418416031502097
 30
0.0
  0
INSERT
  5
488
330
1F
100
AcDbEntity
  8
4
100
AcDbBlockReference
  2
ARRO
 10
9.93468389525395
 20
3.418416031502097
 30
0.0
 50
180.0
  0
LINE
  5
489
330
1F
100
AcDbEntity
  8
1
100
AcDbLine
 10
3.33968389525395
 20
3.167916031502097
 30
0.0
 11
3.33968389525395
 21
4.574921910059227
 31
0.0
  0
LINE
  5
48A
330
1F
100
AcDbEntity
  8
1
100
AcDbLine
 10
3.33968389525395
 20
6.043916031502098
 30
0.0
 11
3.84068389525395
 21
6.043916031502098
 31
0.0
  0
LINE
  5
48B
330
1F
100
AcDbEntity
  8
1
100
AcDbLine
 10
3.84068389525395
 20
6.043916031502098
 30
0.0
 11
3.84068389525395
 21
4.636921910059228
 31
0.0
  0
LINE
  5
48C
330
1F
100
AcDbEntity
  8
1
100
AcDbLine
 10
3.96468389525395
 20
3.167916031502097
 30
0.0
 11
3.96468389525395
 21
4.574921910059227
 31
0.0
  0
LINE
  5
48D
330
1F
100
AcDbEntity
  8
1
100
AcDbLine
 10
3.96468389525395
 20
6.043916031502098
 30
0.0
 11
4.465683895253951
 21
6.043916031502098
 31
0.0
  0
LINE
  5
48E
330
1F
100
AcDbEntity
  8
1
100
AcDbLine
 10
4.465683895253951
 20
6.043916031502098
 30
0.0
 11
4.465683895253951
 21
4.636921910059228
 31
0.0
  0
LINE
  5
48F
330
1F
100
AcDbEntity
  8
1
100
AcDbLine
 10
4.46568389525395
 20
3.167916031502097
 30
0.0
 11
3.96468389525395
 21
3.167916031502097
 31
0.0
  0
LINE
  5
490
330
1F
100
AcDbEntity
  8
1
100
AcDbLine
 10
4.58968389525395
 20
3.167916031502097
 30
0.0
 11
4.58968389525395
 21
4.574921910059227
 31
0.0
  0
LINE
  5
491
330
1F
100
AcDbEntity
  8
1
100
AcDbLine
 10
4.58968389525395
 20
6.043916031502098
 30
0.0
 11
4.77768389525395
 21
6.043916031502098
 31
0.0
  0
LINE
  5
492
330
1F
100
AcDbEntity
  8
1
100
AcDbLine
 10
5.090683895253951
 20
6.043916031502098
 30
0.0
 11
5.090683895253951
 21
4.636921910059228
 31
0.0
  0
LINE
  5
493
330
1F
100
AcDbEntity
  8
1
100
AcDbLine
 10
5.09068389525395
 20
3.167916031502097
 30
0.0
 11
4.90268389525395
 21
3.167916031502097
 31
0.0
  0
LINE
  5
494
330
1F
100
AcDbEntity
  8
1
100
AcDbLine
 10
5.21468389525395
 20
3.167916031502097
 30
0.0
 11
5.21468389525395
 21
4.574921910059227
 31
0.0
  0
LINE
  5
495
330
1F
100
AcDbEntity
  8
1
100
AcDbLine
 10
5.21468389525395
 20
6.043916031502098
 30
0.0
 11
5.715683895253951
 21
6.043916031502098
 31
0.0
  0
LINE
  5
496
330
1F
100
AcDbEntity
  8
1
100
AcDbLine
 10
5.715683895253951
 20
6.043916031502098
 30
0.0
 11
5.715683895253951
 21
4.636921910059228
 31
0.0
  0
LINE
  5
497
330
1F
100
AcDbEntity
  8
1
100
AcDbLine
 10
5.71568389525395
 20
3.167916031502097
 30
0.0
 11
5.21468389525395
 21
3.167916031502097
 31
0.0
  0
LINE
  5
498
330
1F
100
AcDbEntity
  8
1
100
AcDbLine
 10
3.90268389525395
 20
3.105916031502097
 30
0.0
 11
3.90268389525395
 21
6.105916031502097
 31
0.0
  0
LINE
  5
499
330
1F
100
AcDbEntity
  8
1
100
AcDbLine
 10
4.52768389525395
 20
3.105916031502097
 30
0.0
 11
4.52768389525395
 21
6.105916031502097
 31
0.0
  0
LINE
  5
49A
330
1F
100
AcDbEntity
  8
1
100
AcDbLine
 10
5.15268389525395
 20
3.105916031502097
 30
0.0
 11
5.15268389525395
 21
6.105916031502097
 31
0.0
  0
LINE
  5
49B
330
1F
100
AcDbEntity
  8
1
100
AcDbLine
 10
4.90268389525395
 20
6.043916031502098
 30
0.0
 11
5.090683895253951
 21
6.043916031502098
 31
0.0
  0
LINE
  5
49C
330
1F
100
AcDbEntity
  8
1
100
AcDbLine
 10
4.777683895253949
 20
3.167916031502097
 30
0.0
 11
4.58968389525395
 21
3.167916031502097
 31
0.0
  0
LINE
  5
49D
330
1F
100
AcDbEntity
  8
4
100
AcDbLine
 10
4.21518389525395
 20
6.011916031502098
 30
0.0
 11
4.21518389525395
 21
6.136916031502098
 31
0.0
  0
CIRCLE
  5
49E
330
1F
100
AcDbEntity
  8
4
100
AcDbCircle
 10
4.21518389525395
 20
5.917916031502097
 30
0.0
 40
0.094
  0
CIRCLE
  5
49F
330
1F
100
AcDbEntity
  8
4
100
AcDbCircle
 10
4.056550605561963
 20
2.979916031502097
 30
0.0
 40
0.094
  0
LINE
  5
4A0
330
1F
100
AcDbEntity
  8
4
100
AcDbLine
 10
4.056550605561963
 20
3.073916031502097
 30
0.0
 11
4.056550605561963
 21
3.198916031502097
 31
0.0
  0
CIRCLE
  5
4A1
330
1F
100
AcDbEntity
  8
4
100
AcDbCircle
 10
4.306550605561963
 20
2.979916031502097
 30
0.0
 40
0.094
  0
LINE
  5
4A2
330
1F
100
AcDbEntity
  8
4
100
AcDbLine
 10
4.150550605561964
 20
2.979916031502097
 30
0.0
 11
4.212550605561963
 21
2.979916031502097
 31
0.0
  0
LINE
  5
4A3
330
1F
100
AcDbEntity
  8
1
100
AcDbLine
 10
3.33968389525395
 20
3.167916031502097
 30
0.0
 11
3.84068389525395
 21
3.167916031502097
 31
0.0
  0
LINE
  5
4A4
330
1F
100
AcDbEntity
  8
1
100
AcDbLine
 10
7.481183895253949
 20
6.105916031502097
 30
0.0
 11
7.46618389525395
 21
6.090916031502096
 31
0.0
  0
LINE
  5
4A5
330
1F
100
AcDbEntity
  8
1
100
AcDbLine
 10
7.46618389525395
 20
6.090916031502096
 30
0.0
 11
7.36818389525395
 21
6.090916031502096
 31
0.0
  0
LINE
  5
4A6
330
1F
100
AcDbEntity
  8
1
100
AcDbLine
 10
7.36818389525395
 20
6.090916031502096
 30
0.0
 11
7.36818389525395
 21
6.062669889064537
 31
0.0
  0
LINE
  5
4A7
330
1F
100
AcDbEntity
  8
1
100
AcDbLine
 10
7.54318389525395
 20
6.043916031502097
 30
0.0
 11
7.481183895253949
 21
6.105916031502097
 31
0.0
  0
LINE
  5
4A8
330
1F
100
AcDbEntity
  8
1
100
AcDbLine
 10
7.90818389525395
 20
6.043916031502097
 30
0.0
 11
7.54318389525395
 21
6.043916031502097
 31
0.0
  0
LINE
  5
4A9
330
1F
100
AcDbEntity
  8
1
100
AcDbLine
 10
7.90818389525395
 20
6.105916031502097
 30
0.0
 11
7.90818389525395
 21
6.043916031502097
 31
0.0
  0
LINE
  5
4AA
330
1F
100
AcDbEntity
  8
1
100
AcDbLine
 10
7.94818389525395
 20
6.105916031502097
 30
0.0
 11
7.94818389525395
 21
6.043916031502097
 31
0.0
  0
LINE
  5
4AB
330
1F
100
AcDbEntity
  8
1
100
AcDbLine
 10
7.343183895253949
 20
6.105916031502097
 30
0.0
 11
7.451183895253949
 21
6.105916031502097
 31
0.0
  0
LINE
  5
4AC
330
1F
100
AcDbEntity
  8
1
100
AcDbLine
 10
7.343183895253949
 20
6.043916031502097
 30
0.0
 11
7.343183895253949
 21
6.105916031502097
 31
0.0
  0
LINE
  5
4AD
330
1F
100
AcDbEntity
  8
1
100
AcDbLine
 10
7.40518389525395
 20
6.043916031502097
 30
0.0
 11
7.343183895253949
 21
6.043916031502097
 31
0.0
  0
LINE
  5
4AE
330
1F
100
AcDbEntity
  8
1
100
AcDbLine
 10
7.481183895253949
 20
6.105916031502097
 30
0.0
 11
7.94818389525395
 21
6.105916031502097
 31
0.0
  0
LINE
  5
4AF
330
1F
100
AcDbEntity
  8
1
100
AcDbLine
 10
8.791183895253949
 20
6.105916031502097
 30
0.0
 11
9.258183895253949
 21
6.105916031502097
 31
0.0
  0
LINE
  5
4B0
330
1F
100
AcDbEntity
  8
1
100
AcDbLine
 10
8.71518389525395
 20
6.043916031502097
 30
0.0
 11
8.653183895253949
 21
6.043916031502097
 31
0.0
  0
LINE
  5
4B1
330
1F
100
AcDbEntity
  8
1
100
AcDbLine
 10
8.653183895253949
 20
6.043916031502097
 30
0.0
 11
8.653183895253949
 21
6.105916031502097
 31
0.0
  0
LINE
  5
4B2
330
1F
100
AcDbEntity
  8
1
100
AcDbLine
 10
8.653183895253949
 20
6.105916031502097
 30
0.0
 11
8.76118389525395
 21
6.105916031502097
 31
0.0
  0
LINE
  5
4B3
330
1F
100
AcDbEntity
  8
1
100
AcDbLine
 10
9.258183895253949
 20
6.105916031502097
 30
0.0
 11
9.258183895253949
 21
6.043916031502097
 31
0.0
  0
LINE
  5
4B4
330
1F
100
AcDbEntity
  8
1
100
AcDbLine
 10
9.21818389525395
 20
6.105916031502097
 30
0.0
 11
9.21818389525395
 21
6.043916031502097
 31
0.0
  0
LINE
  5
4B5
330
1F
100
AcDbEntity
  8
1
100
AcDbLine
 10
9.21818389525395
 20
6.043916031502097
 30
0.0
 11
8.853183895253948
 21
6.043916031502097
 31
0.0
  0
LINE
  5
4B6
330
1F
100
AcDbEntity
  8
1
100
AcDbLine
 10
8.853183895253948
 20
6.043916031502097
 30
0.0
 11
8.791183895253949
 21
6.105916031502097
 31
0.0
  0
LINE
  5
4B7
330
1F
100
AcDbEntity
  8
1
100
AcDbLine
 10
8.678183895253949
 20
6.090916031502096
 30
0.0
 11
8.678183895253949
 21
6.062669889064537
 31
0.0
  0
LINE
  5
4B8
330
1F
100
AcDbEntity
  8
1
100
AcDbLine
 10
8.77618389525395
 20
6.090916031502096
 30
0.0
 11
8.678183895253949
 21
6.090916031502096
 31
0.0
  0
LINE
  5
4B9
330
1F
100
AcDbEntity
  8
1
100
AcDbLine
 10
8.791183895253949
 20
6.105916031502097
 30
0.0
 11
8.77618389525395
 21
6.090916031502096
 31
0.0
  0
LINE
  5
4BA
330
1F
100
AcDbEntity
  8
1
100
AcDbLine
 10
9.796183895253951
 20
6.105916031502097
 30
0.0
 11
9.81118389525395
 21
6.090916031502096
 31
0.0
  0
LINE
  5
4BB
330
1F
100
AcDbEntity
  8
1
100
AcDbLine
 10
9.81118389525395
 20
6.090916031502096
 30
0.0
 11
9.909183895253951
 21
6.090916031502096
 31
0.0
  0
LINE
  5
4BC
330
1F
100
AcDbEntity
  8
1
100
AcDbLine
 10
9.909183895253951
 20
6.090916031502096
 30
0.0
 11
9.909183895253951
 21
6.062669889064537
 31
0.0
  0
LINE
  5
4BD
330
1F
100
AcDbEntity
  8
1
100
AcDbLine
 10
9.734183895253952
 20
6.043916031502097
 30
0.0
 11
9.796183895253951
 21
6.105916031502097
 31
0.0
  0
LINE
  5
4BE
330
1F
100
AcDbEntity
  8
1
100
AcDbLine
 10
9.36918389525395
 20
6.043916031502097
 30
0.0
 11
9.734183895253952
 21
6.043916031502097
 31
0.0
  0
LINE
  5
4BF
330
1F
100
AcDbEntity
  8
1
100
AcDbLine
 10
9.36918389525395
 20
6.105916031502097
 30
0.0
 11
9.36918389525395
 21
6.043916031502097
 31
0.0
  0
LINE
  5
4C0
330
1F
100
AcDbEntity
  8
1
100
AcDbLine
 10
9.329183895253951
 20
6.105916031502097
 30
0.0
 11
9.329183895253951
 21
6.043916031502097
 31
0.0
  0
LINE
  5
4C1
330
1F
100
AcDbEntity
  8
1
100
AcDbLine
 10
9.934183895253951
 20
6.105916031502097
 30
0.0
 11
9.826183895253951
 21
6.105916031502097
 31
0.0
  0
LINE
  5
4C2
330
1F
100
AcDbEntity
  8
1
100
AcDbLine
 10
9.934183895253951
 20
6.043916031502097
 30
0.0
 11
9.934183895253951
 21
6.105916031502097
 31
0.0
  0
LINE
  5
4C3
330
1F
100
AcDbEntity
  8
1
100
AcDbLine
 10
9.87218389525395
 20
6.043916031502097
 30
0.0
 11
9.934183895253951
 21
6.043916031502097
 31
0.0
  0
LINE
  5
4C4
330
1F
100
AcDbEntity
  8
1
100
AcDbLine
 10
9.796183895253951
 20
6.105916031502097
 30
0.0
 11
9.329183895253951
 21
6.105916031502097
 31
0.0
  0
LINE
  5
4C5
330
1F
100
AcDbEntity
  8
1
100
AcDbLine
 10
9.795700166722939
 20
3.168416031502097
 30
0.0
 11
9.328700166722939
 21
3.168416031502097
 31
0.0
  0
LINE
  5
4C6
330
1F
100
AcDbEntity
  8
1
100
AcDbLine
 10
9.871700166722938
 20
3.106416031502097
 30
0.0
 11
9.933700166722939
 21
3.106416031502097
 31
0.0
  0
LINE
  5
4C7
330
1F
100
AcDbEntity
  8
1
100
AcDbLine
 10
9.933700166722939
 20
3.106416031502097
 30
0.0
 11
9.933700166722939
 21
3.168416031502097
 31
0.0
  0
LINE
  5
4C8
330
1F
100
AcDbEntity
  8
1
100
AcDbLine
 10
9.933700166722939
 20
3.168416031502097
 30
0.0
 11
9.825700166722938
 21
3.168416031502097
 31
0.0
  0
LINE
  5
4C9
330
1F
100
AcDbEntity
  8
1
100
AcDbLine
 10
9.328700166722939
 20
3.168416031502097
 30
0.0
 11
9.328700166722939
 21
3.106416031502097
 31
0.0
  0
LINE
  5
4CA
330
1F
100
AcDbEntity
  8
1
100
AcDbLine
 10
9.368700166722938
 20
3.168416031502097
 30
0.0
 11
9.368700166722938
 21
3.106416031502097
 31
0.0
  0
LINE
  5
4CB
330
1F
100
AcDbEntity
  8
1
100
AcDbLine
 10
9.368700166722938
 20
3.106416031502097
 30
0.0
 11
9.73370016672294
 21
3.106416031502097
 31
0.0
  0
LINE
  5
4CC
330
1F
100
AcDbEntity
  8
1
100
AcDbLine
 10
9.73370016672294
 20
3.106416031502097
 30
0.0
 11
9.795700166722939
 21
3.168416031502097
 31
0.0
  0
LINE
  5
4CD
330
1F
100
AcDbEntity
  8
1
100
AcDbLine
 10
9.908700166722939
 20
3.153416031502096
 30
0.0
 11
9.908700166722939
 21
3.125169889064537
 31
0.0
  0
LINE
  5
4CE
330
1F
100
AcDbEntity
  8
1
100
AcDbLine
 10
9.810700166722938
 20
3.153416031502096
 30
0.0
 11
9.908700166722939
 21
3.153416031502096
 31
0.0
  0
LINE
  5
4CF
330
1F
100
AcDbEntity
  8
1
100
AcDbLine
 10
9.795700166722939
 20
3.168416031502097
 30
0.0
 11
9.810700166722938
 21
3.153416031502096
 31
0.0
  0
LINE
  5
4D0
330
1F
100
AcDbEntity
  8
1
100
AcDbLine
 10
8.791183895253949
 20
3.168416031502097
 30
0.0
 11
8.77618389525395
 21
3.153416031502096
 31
0.0
  0
LINE
  5
4D1
330
1F
100
AcDbEntity
  8
1
100
AcDbLine
 10
8.77618389525395
 20
3.153416031502096
 30
0.0
 11
8.678183895253949
 21
3.153416031502096
 31
0.0
  0
LINE
  5
4D2
330
1F
100
AcDbEntity
  8
1
100
AcDbLine
 10
8.678183895253949
 20
3.153416031502096
 30
0.0
 11
8.678183895253949
 21
3.125169889064537
 31
0.0
  0
LINE
  5
4D3
330
1F
100
AcDbEntity
  8
1
100
AcDbLine
 10
8.853183895253948
 20
3.106416031502097
 30
0.0
 11
8.791183895253949
 21
3.168416031502097
 31
0.0
  0
LINE
  5
4D4
330
1F
100
AcDbEntity
  8
1
100
AcDbLine
 10
9.21818389525395
 20
3.106416031502097
 30
0.0
 11
8.853183895253948
 21
3.106416031502097
 31
0.0
  0
LINE
  5
4D5
330
1F
100
AcDbEntity
  8
1
100
AcDbLine
 10
9.21818389525395
 20
3.168416031502097
 30
0.0
 11
9.21818389525395
 21
3.106416031502097
 31
0.0
  0
LINE
  5
4D6
330
1F
100
AcDbEntity
  8
1
100
AcDbLine
 10
9.258183895253949
 20
3.168416031502097
 30
0.0
 11
9.258183895253949
 21
3.106416031502097
 31
0.0
  0
LINE
  5
4D7
330
1F
100
AcDbEntity
  8
1
100
AcDbLine
 10
8.653183895253949
 20
3.168416031502097
 30
0.0
 11
8.76118389525395
 21
3.168416031502097
 31
0.0
  0
LINE
  5
4D8
330
1F
100
AcDbEntity
  8
1
100
AcDbLine
 10
8.653183895253949
 20
3.106416031502097
 30
0.0
 11
8.653183895253949
 21
3.168416031502097
 31
0.0
  0
LINE
  5
4D9
330
1F
100
AcDbEntity
  8
1
100
AcDbLine
 10
8.71518389525395
 20
3.106416031502097
 30
0.0
 11
8.653183895253949
 21
3.106416031502097
 31
0.0
  0
LINE
  5
4DA
330
1F
100
AcDbEntity
  8
1
100
AcDbLine
 10
8.791183895253949
 20
3.168416031502097
 30
0.0
 11
9.258183895253949
 21
3.168416031502097
 31
0.0
  0
LINE
  5
4DB
330
1F
100
AcDbEntity
  8
1
100
AcDbLine
 10
7.481183895253949
 20
3.168416031502097
 30
0.0
 11
7.94818389525395
 21
3.168416031502097
 31
0.0
  0
LINE
  5
4DC
330
1F
100
AcDbEntity
  8
1
100
AcDbLine
 10
7.40518389525395
 20
3.106416031502097
 30
0.0
 11
7.343183895253949
 21
3.106416031502097
 31
0.0
  0
LINE
  5
4DD
330
1F
100
AcDbEntity
  8
1
100
AcDbLine
 10
7.343183895253949
 20
3.106416031502097
 30
0.0
 11
7.343183895253949
 21
3.168416031502097
 31
0.0
  0
LINE
  5
4DE
330
1F
100
AcDbEntity
  8
1
100
AcDbLine
 10
7.343183895253949
 20
3.168416031502097
 30
0.0
 11
7.451183895253949
 21
3.168416031502097
 31
0.0
  0
LINE
  5
4DF
330
1F
100
AcDbEntity
  8
1
100
AcDbLine
 10
7.94818389525395
 20
3.168416031502097
 30
0.0
 11
7.94818389525395
 21
3.106416031502097
 31
0.0
  0
LINE
  5
4E0
330
1F
100
AcDbEntity
  8
1
100
AcDbLine
 10
7.90818389525395
 20
3.168416031502097
 30
0.0
 11
7.90818389525395
 21
3.106416031502097
 31
0.0
  0
LINE
  5
4E1
330
1F
100
AcDbEntity
  8
1
100
AcDbLine
 10
7.90818389525395
 20
3.106416031502097
 30
0.0
 11
7.54318389525395
 21
3.106416031502097
 31
0.0
  0
LINE
  5
4E2
330
1F
100
AcDbEntity
  8
1
100
AcDbLine
 10
7.54318389525395
 20
3.106416031502097
 30
0.0
 11
7.481183895253949
 21
3.168416031502097
 31
0.0
  0
LINE
  5
4E3
330
1F
100
AcDbEntity
  8
1
100
AcDbLine
 10
7.36818389525395
 20
3.153416031502096
 30
0.0
 11
7.36818389525395
 21
3.125169889064537
 31
0.0
  0
LINE
  5
4E4
330
1F
100
AcDbEntity
  8
1
100
AcDbLine
 10
7.46618389525395
 20
3.153416031502096
 30
0.0
 11
7.36818389525395
 21
3.153416031502096
 31
0.0
  0
LINE
  5
4E5
330
1F
100
AcDbEntity
  8
1
100
AcDbLine
 10
7.481183895253949
 20
3.168416031502097
 30
0.0
 11
7.46618389525395
 21
3.153416031502096
 31
0.0
  0
LINE
  5
4E6
330
1F
100
AcDbEntity
  8
1
100
AcDbLine
 10
3.33968389525395
 20
4.636921910059228
 30
0.0
 11
3.33968389525395
 21
6.043916031502098
 31
0.0
  0
LINE
  5
4E7
330
1F
100
AcDbEntity
  8
1
100
AcDbLine
 10
3.84068389525395
 20
4.574921910059227
 30
0.0
 11
3.84068389525395
 21
3.167916031502097
 31
0.0
  0
LINE
  5
4E8
330
1F
100
AcDbEntity
  8
1
100
AcDbLine
 10
3.96468389525395
 20
4.636921910059228
 30
0.0
 11
3.96468389525395
 21
6.043916031502098
 31
0.0
  0
LINE
  5
4E9
330
1F
100
AcDbEntity
  8
1
100
AcDbLine
 10
4.46568389525395
 20
4.574921910059227
 30
0.0
 11
4.46568389525395
 21
3.167916031502097
 31
0.0
  0
LINE
  5
4EA
330
1F
100
AcDbEntity
  8
1
100
AcDbLine
 10
4.58968389525395
 20
4.636921910059228
 30
0.0
 11
4.58968389525395
 21
6.043916031502098
 31
0.0
  0
LINE
  5
4EB
330
1F
100
AcDbEntity
  8
1
100
AcDbLine
 10
5.09068389525395
 20
4.574921910059227
 30
0.0
 11
5.09068389525395
 21
3.167916031502097
 31
0.0
  0
LINE
  5
4EC
330
1F
100
AcDbEntity
  8
1
100
AcDbLine
 10
5.21468389525395
 20
4.636921910059228
 30
0.0
 11
5.21468389525395
 21
6.043916031502098
 31
0.0
  0
LINE
  5
4ED
330
1F
100
AcDbEntity
  8
1
100
AcDbLine
 10
5.71568389525395
 20
4.574921910059227
 30
0.0
 11
5.71568389525395
 21
3.167916031502097
 31
0.0
  0
LINE
  5
4F1
330
1F
100
AcDbEntity
  8
4
100
AcDbLine
 10
9.934183895253951
 20
6.011916031502098
 30
0.0
 11
9.87218389525395
 21
6.011916031502098
 31
0.0
  0
LINE
  5
4F2
330
1F
100
AcDbEntity
  8
4
100
AcDbLine
 10
9.908700166722939
 20
4.621921910059227
 30
0.0
 11
9.908700166722939
 21
4.593675767621667
 31
0.0
  0
LINE
  5
4F3
330
1F
100
AcDbEntity
  8
4
100
AcDbLine
 10
9.933700166722939
 20
4.574921910059227
 30
0.0
 11
9.933700166722939
 21
4.636921910059228
 31
0.0
  0
LINE
  5
4F4
330
1F
100
AcDbEntity
  8
4
100
AcDbLine
 10
9.871700166722938
 20
4.574921910059227
 30
0.0
 11
9.933700166722939
 21
4.574921910059227
 31
0.0
  0
LINE
  5
4F5
330
1F
100
AcDbEntity
  8
4
100
AcDbLine
 10
9.87218389525395
 20
4.668877756168583
 30
0.0
 11
9.93418389525395
 21
4.668877756168583
 31
0.0
  0
LINE
  5
4F6
330
1F
100
AcDbEntity
  8
4
100
AcDbLine
 10
9.871700166722938
 20
4.542921910059227
 30
0.0
 11
9.933700166722937
 21
4.542921910059227
 31
0.0
  0
LINE
  5
4F7
330
1F
100
AcDbEntity
  8
4
100
AcDbLine
 10
9.933700166722939
 20
3.199916031502098
 30
0.0
 11
9.871700166722938
 21
3.199916031502098
 31
0.0
  0
LINE
  5
4F8
330
1F
100
AcDbEntity
  8
4
100
AcDbLine
 10
9.933700166722939
 20
4.542921910059227
 30
0.0
 11
9.933700166722939
 21
3.199916031502098
 31
0.0
  0
LINE
  5
4F9
330
1F
100
AcDbEntity
  8
4
100
AcDbLine
 10
9.934183895253951
 20
6.011916031502098
 30
0.0
 11
9.934183895253951
 21
4.668877756168583
 31
0.0
  0
LINE
  5
4FA
330
1F
100
AcDbEntity
  8
4
100
AcDbLine
 10
9.611204005151467
 20
5.985916031502097
 30
0.0
 11
9.611204005151467
 21
5.923916031502098
 31
0.0
  0
LINE
  5
4FB
330
1F
100
AcDbEntity
  8
4
100
AcDbLine
 10
9.642204005151466
 20
5.985916031502097
 30
0.0
 11
9.580204005151466
 21
5.985916031502097
 31
0.0
  0
LINE
  5
4FC
330
1F
100
AcDbEntity
  8
4
100
AcDbLine
 10
9.329183895253951
 20
5.948916031502099
 30
0.0
 11
9.329183895253951
 21
5.998916031502098
 31
0.0
  0
ARC
  5
4FD
330
1F
100
AcDbEntity
  8
4
100
AcDbCircle
 10
9.233183895253951
 20
5.948916031502099
 30
0.0
 40
0.025
100
AcDbArc
 50
180.0
 51
0.0
  0
LINE
  5
4FE
330
1F
100
AcDbEntity
  8
4
100
AcDbLine
 10
9.258183895253949
 20
5.948916031502099
 30
0.0
 11
9.258183895253949
 21
5.998916031502098
 31
0.0
  0
LINE
  5
4FF
330
1F
100
AcDbEntity
  8
4
100
AcDbLine
 10
8.945163785356434
 20
5.985916031502097
 30
0.0
 11
9.007163785356436
 21
5.985916031502097
 31
0.0
  0
LINE
  5
500
330
1F
100
AcDbEntity
  8
4
100
AcDbLine
 10
8.976163785356435
 20
5.985916031502097
 30
0.0
 11
8.976163785356435
 21
5.923916031502098
 31
0.0
  0
ARC
  5
501
330
1F
100
AcDbEntity
  8
4
100
AcDbCircle
 10
9.354183895253949
 20
5.948916031502099
 30
0.0
 40
0.025
100
AcDbArc
 50
180.0
 51
0.0
  0
LINE
  5
502
330
1F
100
AcDbEntity
  8
4
100
AcDbLine
 10
8.653183895253949
 20
6.011916031502098
 30
0.0
 11
8.71518389525395
 21
6.011916031502098
 31
0.0
  0
LINE
  5
503
330
1F
100
AcDbEntity
  8
4
100
AcDbLine
 10
7.948183895253951
 20
5.948916031502099
 30
0.0
 11
7.948183895253951
 21
5.998916031502098
 31
0.0
  0
ARC
  5
504
330
1F
100
AcDbEntity
  8
4
100
AcDbCircle
 10
7.923183895253951
 20
5.948916031502099
 30
0.0
 40
0.025
100
AcDbArc
 50
180.0
 51
0.0
  0
LINE
  5
505
330
1F
100
AcDbEntity
  8
4
100
AcDbLine
 10
9.795700166722939
 20
4.636921910059228
 30
0.0
 11
9.810700166722938
 21
4.621921910059227
 31
0.0
  0
LINE
  5
506
330
1F
100
AcDbEntity
  8
4
100
AcDbLine
 10
9.73370016672294
 20
4.574921910059227
 30
0.0
 11
9.795700166722939
 21
4.636921910059228
 31
0.0
  0
LINE
  5
507
330
1F
100
AcDbEntity
  8
4
100
AcDbLine
 10
9.368700166722938
 20
4.636921910059228
 30
0.0
 11
9.368700166722938
 21
4.574921910059227
 31
0.0
  0
LINE
  5
508
330
1F
100
AcDbEntity
  8
4
100
AcDbLine
 10
9.368700166722938
 20
4.574921910059227
 30
0.0
 11
9.73370016672294
 21
4.574921910059227
 31
0.0
  0
LINE
  5
509
330
1F
100
AcDbEntity
  8
4
100
AcDbLine
 10
9.610720276620455
 20
4.516962215491878
 30
0.0
 11
9.610720276620455
 21
4.454962215491877
 31
0.0
  0
LINE
  5
50A
330
1F
100
AcDbEntity
  8
4
100
AcDbLine
 10
9.641720276620453
 20
4.516962215491878
 30
0.0
 11
9.579720276620454
 21
4.516962215491878
 31
0.0
  0
LINE
  5
50B
330
1F
100
AcDbEntity
  8
4
100
AcDbLine
 10
9.258183895253949
 20
4.636921910059228
 30
0.0
 11
9.258183895253949
 21
4.574921910059227
 31
0.0
  0
LINE
  5
50C
330
1F
100
AcDbEntity
  8
4
100
AcDbLine
 10
9.21818389525395
 20
4.636921910059228
 30
0.0
 11
9.21818389525395
 21
4.574921910059227
 31
0.0
  0
LINE
  5
50D
330
1F
100
AcDbEntity
  8
4
100
AcDbLine
 10
9.328700166722939
 20
4.636921910059228
 30
0.0
 11
9.328700166722939
 21
4.574921910059227
 31
0.0
  0
LINE
  5
50E
330
1F
100
AcDbEntity
  8
4
100
AcDbLine
 10
9.21818389525395
 20
4.574921910059227
 30
0.0
 11
8.853183895253948
 21
4.574921910059227
 31
0.0
  0
LINE
  5
50F
330
1F
100
AcDbEntity
  8
4
100
AcDbLine
 10
9.258183895253949
 20
4.479962215491879
 30
0.0
 11
9.258183895253949
 21
4.529962215491877
 31
0.0
  0
ARC
  5
510
330
1F
100
AcDbEntity
  8
4
100
AcDbCircle
 10
9.233183895253951
 20
4.479962215491879
 30
0.0
 40
0.025
100
AcDbArc
 50
180.0
 51
0.0
  0
LINE
  5
511
330
1F
100
AcDbEntity
  8
4
100
AcDbLine
 10
9.328700166722939
 20
4.479962215491879
 30
0.0
 11
9.328700166722939
 21
4.529962215491877
 31
0.0
  0
LINE
  5
512
330
1F
100
AcDbEntity
  8
4
100
AcDbLine
 10
8.976163785356435
 20
4.516962215491878
 30
0.0
 11
8.976163785356435
 21
4.454962215491877
 31
0.0
  0
LINE
  5
513
330
1F
100
AcDbEntity
  8
4
100
AcDbLine
 10
8.945163785356434
 20
4.516962215491878
 30
0.0
 11
9.007163785356436
 21
4.516962215491878
 31
0.0
  0
LINE
  5
514
330
1F
100
AcDbEntity
  8
4
100
AcDbLine
 10
9.795700166722939
 20
4.636921910059228
 30
0.0
 11
9.328700166722939
 21
4.636921910059228
 31
0.0
  0
ARC
  5
515
330
1F
100
AcDbEntity
  8
4
100
AcDbCircle
 10
9.353700166722937
 20
4.479962215491879
 30
0.0
 40
0.025
100
AcDbArc
 50
180.0
 51
0.0
  0
LINE
  5
516
330
1F
100
AcDbEntity
  8
4
100
AcDbLine
 10
8.678183895253949
 20
4.621921910059227
 30
0.0
 11
8.678183895253949
 21
4.593675767621667
 31
0.0
  0
LINE
  5
517
330
1F
100
AcDbEntity
  8
4
100
AcDbLine
 10
8.77618389525395
 20
4.621921910059227
 30
0.0
 11
8.678183895253949
 21
4.621921910059227
 31
0.0
  0
LINE
  5
518
330
1F
100
AcDbEntity
  8
4
100
AcDbLine
 10
8.791183895253949
 20
4.636921910059228
 30
0.0
 11
8.77618389525395
 21
4.621921910059227
 31
0.0
  0
LINE
  5
519
330
1F
100
AcDbEntity
  8
4
100
AcDbLine
 10
8.653183895253949
 20
4.574921910059227
 30
0.0
 11
8.653183895253949
 21
4.636921910059228
 31
0.0
  0
LINE
  5
51A
330
1F
100
AcDbEntity
  8
4
100
AcDbLine
 10
8.71518389525395
 20
4.574921910059227
 30
0.0
 11
8.653183895253949
 21
4.574921910059227
 31
0.0
  0
LINE
  5
51B
330
1F
100
AcDbEntity
  8
4
100
AcDbLine
 10
8.653183895253949
 20
4.636921910059228
 30
0.0
 11
8.76118389525395
 21
4.636921910059228
 31
0.0
  0
LINE
  5
51C
330
1F
100
AcDbEntity
  8
4
100
AcDbLine
 10
8.653183895253949
 20
4.668877756168583
 30
0.0
 11
8.71518389525395
 21
4.668877756168583
 31
0.0
  0
LINE
  5
51D
330
1F
100
AcDbEntity
  8
4
100
AcDbLine
 10
8.653183895253949
 20
4.542921910059227
 30
0.0
 11
8.71518389525395
 21
4.542921910059227
 31
0.0
  0
LINE
  5
51E
330
1F
100
AcDbEntity
  8
4
100
AcDbLine
 10
7.90818389525395
 20
4.636921910059228
 30
0.0
 11
7.90818389525395
 21
4.574921910059227
 31
0.0
  0
LINE
  5
51F
330
1F
100
AcDbEntity
  8
4
100
AcDbLine
 10
7.94818389525395
 20
4.636921910059228
 30
0.0
 11
7.94818389525395
 21
4.574921910059227
 31
0.0
  0
LINE
  5
520
330
1F
100
AcDbEntity
  8
4
100
AcDbLine
 10
7.948183895253951
 20
4.479962215491879
 30
0.0
 11
7.948183895253951
 21
4.529962215491877
 31
0.0
  0
ARC
  5
521
330
1F
100
AcDbEntity
  8
4
100
AcDbCircle
 10
7.923183895253951
 20
4.479962215491879
 30
0.0
 40
0.025
100
AcDbArc
 50
180.0
 51
0.0
  0
LINE
  5
522
330
1F
100
AcDbEntity
  8
4
100
AcDbLine
 10
8.653183895253949
 20
3.199916031502098
 30
0.0
 11
8.71518389525395
 21
3.199916031502098
 31
0.0
  0
LINE
  5
523
330
1F
100
AcDbEntity
  8
4
100
AcDbLine
 10
8.653183895253949
 20
4.542921910059227
 30
0.0
 11
8.653183895253949
 21
3.199916031502098
 31
0.0
  0
LINE
  5
524
330
1F
100
AcDbEntity
  8
4
100
AcDbLine
 10
8.791183895253949
 20
4.636921910059228
 30
0.0
 11
9.258183895253949
 21
4.636921910059228
 31
0.0
  0
LINE
  5
525
330
1F
100
AcDbEntity
  8
4
100
AcDbLine
 10
8.853183895253948
 20
4.574921910059227
 30
0.0
 11
8.791183895253949
 21
4.636921910059228
 31
0.0
  0
LINE
  5
526
330
1F
100
AcDbEntity
  8
4
100
AcDbLine
 10
8.653183895253949
 20
6.011916031502098
 30
0.0
 11
8.653183895253949
 21
4.668877756168583
 31
0.0
  0
LINE
  5
527
330
1F
100
AcDbEntity
  8
4
100
AcDbLine
 10
9.810700166722938
 20
4.621921910059227
 30
0.0
 11
9.908700166722939
 21
4.621921910059227
 31
0.0
  0
LINE
  5
528
330
1F
100
AcDbEntity
  8
4
100
AcDbLine
 10
9.933700166722939
 20
4.636921910059228
 30
0.0
 11
9.825700166722938
 21
4.636921910059228
 31
0.0
  0
LINE
  5
529
330
1F
100
AcDbEntity
  8
4
100
AcDbLine
 10
7.666163785356435
 20
5.985916031502097
 30
0.0
 11
7.666163785356435
 21
5.923916031502098
 31
0.0
  0
LINE
  5
52A
330
1F
100
AcDbEntity
  8
4
100
AcDbLine
 10
7.635163785356436
 20
5.985916031502097
 30
0.0
 11
7.697163785356435
 21
5.985916031502097
 31
0.0
  0
LINE
  5
52B
330
1F
100
AcDbEntity
  8
4
100
AcDbLine
 10
7.343183895253949
 20
6.011916031502098
 30
0.0
 11
7.40518389525395
 21
6.011916031502098
 31
0.0
  0
INSERT
  5
52C
330
1F
100
AcDbEntity
  8
4
100
AcDbBlockReference
  2
ARRO
 10
7.09018389525395
 20
6.105916031502097
 30
0.0
 50
270.0
  0
LINE
  5
52D
330
1F
100
AcDbEntity
  8
4
100
AcDbLine
 10
7.481183895253949
 20
4.636921910059228
 30
0.0
 11
7.46618389525395
 21
4.621921910059227
 31
0.0
  0
LINE
  5
52E
330
1F
100
AcDbEntity
  8
4
100
AcDbLine
 10
7.36818389525395
 20
4.621921910059227
 30
0.0
 11
7.36818389525395
 21
4.593675767621667
 31
0.0
  0
LINE
  5
52F
330
1F
100
AcDbEntity
  8
4
100
AcDbLine
 10
7.343183895253949
 20
4.574921910059227
 30
0.0
 11
7.343183895253949
 21
4.636921910059228
 31
0.0
  0
LINE
  5
530
330
1F
100
AcDbEntity
  8
4
100
AcDbLine
 10
7.46618389525395
 20
4.621921910059227
 30
0.0
 11
7.36818389525395
 21
4.621921910059227
 31
0.0
  0
LINE
  5
531
330
1F
100
AcDbEntity
  8
4
100
AcDbLine
 10
7.343183895253949
 20
4.636921910059228
 30
0.0
 11
7.451183895253949
 21
4.636921910059228
 31
0.0
  0
LINE
  5
532
330
1F
100
AcDbEntity
  8
4
100
AcDbLine
 10
7.40518389525395
 20
4.574921910059227
 30
0.0
 11
7.343183895253949
 21
4.574921910059227
 31
0.0
  0
LINE
  5
533
330
1F
100
AcDbEntity
  8
4
100
AcDbLine
 10
7.34318389525395
 20
4.668877756168584
 30
0.0
 11
7.40518389525395
 21
4.668877756168584
 31
0.0
  0
LINE
  5
534
330
1F
100
AcDbEntity
  8
4
100
AcDbLine
 10
7.54318389525395
 20
4.574921910059227
 30
0.0
 11
7.481183895253949
 21
4.636921910059228
 31
0.0
  0
LINE
  5
535
330
1F
100
AcDbEntity
  8
4
100
AcDbLine
 10
7.666163785356435
 20
4.516962215491878
 30
0.0
 11
7.666163785356435
 21
4.454962215491877
 31
0.0
  0
LINE
  5
536
330
1F
100
AcDbEntity
  8
4
100
AcDbLine
 10
7.635163785356436
 20
4.516962215491878
 30
0.0
 11
7.697163785356435
 21
4.516962215491878
 31
0.0
  0
LINE
  5
537
330
1F
100
AcDbEntity
  8
4
100
AcDbLine
 10
7.34318389525395
 20
4.542921910059227
 30
0.0
 11
7.405183895253951
 21
4.542921910059227
 31
0.0
  0
LINE
  5
538
330
1F
100
AcDbEntity
  8
4
100
AcDbLine
 10
7.09018389525395
 20
4.636921910059228
 30
0.0
 11
7.02818389525395
 21
4.636921910059228
 31
0.0
  0
INSERT
  5
539
330
1F
100
AcDbEntity
  8
4
100
AcDbBlockReference
  2
ARRO2
 10
7.09018389525395
 20
4.636921910059228
 30
0.0
 50
90.0
  0
LINE
  5
53A
330
1F
100
AcDbEntity
  8
4
100
AcDbLine
 10
7.280183895253951
 20
4.636921910059228
 30
0.0
 11
7.09018389525395
 21
4.636921910059228
 31
0.0
  0
LINE
  5
53B
330
1F
100
AcDbEntity
  8
4
100
AcDbLine
 10
7.34318389525395
 20
3.199916031502098
 30
0.0
 11
7.405183895253951
 21
3.199916031502098
 31
0.0
  0
INSERT
  5
53C
330
1F
100
AcDbEntity
  8
4
100
AcDbBlockReference
  2
ARRO
 10
7.09018389525395
 20
3.167916031502097
 30
0.0
 50
90.0
  0
LINE
  5
53D
330
1F
100
AcDbEntity
  8
4
100
AcDbLine
 10
7.09018389525395
 20
3.167916031502097
 30
0.0
 11
7.02818389525395
 21
3.167916031502097
 31
0.0
  0
LINE
  5
53E
330
1F
100
AcDbEntity
  8
4
100
AcDbLine
 10
7.280183895253951
 20
3.167916031502097
 30
0.0
 11
7.09018389525395
 21
3.167916031502097
 31
0.0
  0
LINE
  5
53F
330
1F
100
AcDbEntity
  8
4
100
AcDbLine
 10
7.34318389525395
 20
4.542921910059227
 30
0.0
 11
7.34318389525395
 21
3.199916031502098
 31
0.0
  0
LINE
  5
540
330
1F
100
AcDbEntity
  8
4
100
AcDbLine
 10
7.34318389525395
 20
6.011916031502098
 30
0.0
 11
7.34318389525395
 21
4.668877756168583
 31
0.0
  0
LINE
  5
541
330
1F
100
AcDbEntity
  8
4
100
AcDbLine
 10
7.09018389525395
 20
6.105916031502097
 30
0.0
 11
7.09018389525395
 21
3.167916031502097
 31
0.0
  0
ARC
  5
542
330
1F
100
AcDbEntity
  8
4
100
AcDbCircle
 10
5.69068389525395
 20
5.948916031502098
 30
0.0
 40
0.025
100
AcDbArc
 50
180.0
 51
0.0
  0
LINE
  5
543
330
1F
100
AcDbEntity
  8
4
100
AcDbLine
 10
5.494683895253951
 20
5.985916031502097
 30
0.0
 11
5.494683895253951
 21
5.923916031502098
 31
0.0
  0
LINE
  5
544
330
1F
100
AcDbEntity
  8
4
100
AcDbLine
 10
5.43268389525395
 20
5.985916031502097
 30
0.0
 11
5.43268389525395
 21
5.923916031502098
 31
0.0
  0
LINE
  5
545
330
1F
100
AcDbEntity
  8
4
100
AcDbLine
 10
5.43268389525395
 20
5.985916031502097
 30
0.0
 11
5.494683895253951
 21
5.985916031502097
 31
0.0
  0
ARC
  5
546
330
1F
100
AcDbEntity
  8
4
100
AcDbCircle
 10
5.06568389525395
 20
5.948916031502098
 30
0.0
 40
0.025
100
AcDbArc
 50
180.0
 51
0.0
  0
ARC
  5
547
330
1F
100
AcDbEntity
  8
4
100
AcDbCircle
 10
5.23968389525395
 20
5.948916031502098
 30
0.0
 40
0.025
100
AcDbArc
 50
180.0
 51
0.0
  0
ARC
  5
548
330
1F
100
AcDbEntity
  8
4
100
AcDbCircle
 10
4.61468389525395
 20
5.948916031502098
 30
0.0
 40
0.025
100
AcDbArc
 50
180.0
 51
0.0
  0
ARC
  5
549
330
1F
100
AcDbEntity
  8
4
100
AcDbCircle
 10
4.44068389525395
 20
5.948916031502098
 30
0.0
 40
0.025
100
AcDbArc
 50
180.0
 51
0.0
  0
ARC
  5
54A
330
1F
100
AcDbEntity
  8
4
100
AcDbCircle
 10
3.989683895253951
 20
5.948916031502098
 30
0.0
 40
0.025
100
AcDbArc
 50
180.0
 51
0.0
  0
ARC
  5
54B
330
1F
100
AcDbEntity
  8
4
100
AcDbCircle
 10
5.69068389525395
 20
4.479962215491879
 30
0.0
 40
0.025
100
AcDbArc
 50
180.0
 51
0.0
  0
LINE
  5
54C
330
1F
100
AcDbEntity
  8
4
100
AcDbLine
 10
5.494683895253951
 20
4.516962215491878
 30
0.0
 11
5.494683895253951
 21
4.454962215491877
 31
0.0
  0
LINE
  5
54D
330
1F
100
AcDbEntity
  8
4
100
AcDbLine
 10
5.43268389525395
 20
4.516962215491878
 30
0.0
 11
5.43268389525395
 21
4.454962215491877
 31
0.0
  0
LINE
  5
54E
330
1F
100
AcDbEntity
  8
4
100
AcDbLine
 10
5.43268389525395
 20
4.516962215491878
 30
0.0
 11
5.494683895253951
 21
4.516962215491878
 31
0.0
  0
LINE
  5
54F
330
1F
100
AcDbEntity
  8
4
100
AcDbLine
 10
4.90268389525395
 20
4.636921910059228
 30
0.0
 11
5.09068389525395
 21
4.636921910059228
 31
0.0
  0
LINE
  5
550
330
1F
100
AcDbEntity
  8
4
100
AcDbLine
 10
4.90268389525395
 20
4.574921910059227
 30
0.0
 11
5.09068389525395
 21
4.574921910059227
 31
0.0
  0
ARC
  5
551
330
1F
100
AcDbEntity
  8
4
100
AcDbCircle
 10
5.06568389525395
 20
4.479962215491879
 30
0.0
 40
0.025
100
AcDbArc
 50
180.0
 51
0.0
  0
LINE
  5
552
330
1F
100
AcDbEntity
  8
4
100
AcDbLine
 10
5.21468389525395
 20
4.574921910059227
 30
0.0
 11
5.71568389525395
 21
4.574921910059227
 31
0.0
  0
LINE
  5
553
330
1F
100
AcDbEntity
  8
4
100
AcDbLine
 10
5.21468389525395
 20
4.636921910059228
 30
0.0
 11
5.71568389525395
 21
4.636921910059228
 31
0.0
  0
ARC
  5
554
330
1F
100
AcDbEntity
  8
4
100
AcDbCircle
 10
5.23968389525395
 20
4.479962215491879
 30
0.0
 40
0.025
100
AcDbArc
 50
180.0
 51
0.0
  0
ARC
  5
555
330
1F
100
AcDbEntity
  8
4
100
AcDbCircle
 10
4.61468389525395
 20
4.479962215491879
 30
0.0
 40
0.025
100
AcDbArc
 50
180.0
 51
0.0
  0
ARC
  5
556
330
1F
100
AcDbEntity
  8
4
100
AcDbCircle
 10
4.44068389525395
 20
4.479962215491879
 30
0.0
 40
0.025
100
AcDbArc
 50
180.0
 51
0.0
  0
LINE
  5
557
330
1F
100
AcDbEntity
  8
4
100
AcDbLine
 10
4.244683895253951
 20
4.516962215491878
 30
0.0
 11
4.244683895253951
 21
4.454962215491877
 31
0.0
  0
LINE
  5
558
330
1F
100
AcDbEntity
  8
4
100
AcDbLine
 10
4.18268389525395
 20
4.516962215491878
 30
0.0
 11
4.18268389525395
 21
4.454962215491877
 31
0.0
  0
ARC
  5
559
330
1F
100
AcDbEntity
  8
4
100
AcDbCircle
 10
3.989683895253951
 20
4.479962215491879
 30
0.0
 40
0.025
100
AcDbArc
 50
180.0
 51
0.0
  0
LINE
  5
55A
330
1F
100
AcDbEntity
  8
4
100
AcDbLine
 10
3.96468389525395
 20
4.574921910059227
 30
0.0
 11
4.46568389525395
 21
4.574921910059227
 31
0.0
  0
LINE
  5
55B
330
1F
100
AcDbEntity
  8
4
100
AcDbLine
 10
3.96468389525395
 20
4.636921910059228
 30
0.0
 11
4.46568389525395
 21
4.636921910059228
 31
0.0
  0
LINE
  5
55C
330
1F
100
AcDbEntity
  8
4
100
AcDbLine
 10
4.18268389525395
 20
4.516962215491878
 30
0.0
 11
4.244683895253951
 21
4.516962215491878
 31
0.0
  0
LINE
  5
55D
330
1F
100
AcDbEntity
  8
4
100
AcDbLine
 10
4.58968389525395
 20
4.574921910059227
 30
0.0
 11
4.77768389525395
 21
4.574921910059227
 31
0.0
  0
LINE
  5
55E
330
1F
100
AcDbEntity
  8
4
100
AcDbLine
 10
4.58968389525395
 20
4.636921910059228
 30
0.0
 11
4.751652196008398
 21
4.636921910059228
 31
0.0
  0
TEXT
  5
55F
330
1F
100
AcDbEntity
  8
8
100
AcDbText
 10
7.02818389525395
 20
3.004719216557329
 30
0.0
 40
0.07
  1
1
 50
90.0
 72
     1
 11
7.02818389525395
 21
3.016385883223996
 31
0.0
100
AcDbText
  0
INSERT
  5
560
330
1F
100
AcDbEntity
  8
4
100
AcDbBlockReference
  2
ARRO
 10
7.09018389525395
 20
3.105916031502097
 30
0.0
 50
270.0
  0
LINE
  5
561
330
1F
100
AcDbEntity
  8
4
100
AcDbLine
 10
7.09018389525395
 20
3.105916031502097
 30
0.0
 11
7.09018389525395
 21
2.980916031502097
 31
0.0
  0
LINE
  5
562
330
1F
100
AcDbEntity
  8
4
100
AcDbLine
 10
2.863595777777267
 20
5.480744096817199
 30
0.0
 11
2.863595777777267
 21
5.542744096817198
 31
0.0
  0
LINE
  5
563
330
1F
100
AcDbEntity
  8
4
100
AcDbLine
 10
2.863595777777267
 20
5.340399833113906
 30
0.0
 11
2.863595777777267
 21
5.278399833113907
 31
0.0
  0
INSERT
  5
564
330
1F
100
AcDbEntity
  8
4
100
AcDbBlockReference
  2
ARRO
 10
3.238595777777267
 20
5.340399833113906
 30
0.0
 50
180.0
  0
INSERT
  5
565
330
1F
100
AcDbEntity
  8
4
100
AcDbBlockReference
  2
ARRO
 10
3.238595777777267
 20
5.480744096817199
 30
0.0
 50
180.0
  0
LINE
  5
566
330
1F
100
AcDbEntity
  8
4
100
AcDbLine
 10
3.238595777777267
 20
5.340399833113906
 30
0.0
 11
2.863595777777267
 21
5.340399833113906
 31
0.0
  0
LINE
  5
567
330
1F
100
AcDbEntity
  8
4
100
AcDbLine
 10
3.238595777777267
 20
5.480744096817199
 30
0.0
 11
2.863595777777267
 21
5.480744096817199
 31
0.0
  0
INSERT
  5
568
330
1F
100
AcDbEntity
  8
8
100
AcDbBlockReference
  2
TEMP3
 10
2.863595777777267
 20
5.542744096817198
 30
0.0
  0
TEXT
  5
569
330
1F
100
AcDbEntity
  8
8
100
AcDbText
 10
3.45327913334919
 20
1.699916031502097
 30
0.0
 40
0.125
  1
SINGLE POINT 2 CORRIDOR LOCKER  -   60" DOUBLE TIER
  7
ROMANS
 72
     1
 11
6.40268389525395
 21
1.699916031502097
 31
0.0
100
AcDbText
  0
LINE
  5
56A
330
1F
100
AcDbEntity
  8
4
100
AcDbLine
 10
7.90818389525395
 20
4.574921910059227
 30
0.0
 11
7.54318389525395
 21
4.574921910059227
 31
0.0
  0
LINE
  5
56B
330
1F
100
AcDbEntity
  8
4
100
AcDbLine
 10
7.481183895253949
 20
4.636921910059228
 30
0.0
 11
7.94818389525395
 21
4.636921910059228
 31
0.0
  0
LINE
  5
56C
330
1F
100
AcDbEntity
  8
4
100
AcDbLine
 10
3.783506133071144
 20
6.007939144275446
 30
0.0
 11
3.690501723421622
 21
6.007939144275439
 31
0.0
  0
LINE
  5
56D
330
1F
100
AcDbEntity
  8
4
100
AcDbLine
 10
3.808683895253951
 20
6.011943228859293
 30
0.0
 11
3.37168389525395
 21
6.011921910059228
 31
0.0
  0
LINE
  5
56E
330
1F
100
AcDbEntity
  8
4
100
AcDbLine
 10
3.783506133071146
 20
4.677298941695294
 30
0.0
 11
3.690501723421622
 21
4.677298941695291
 31
0.0
  0
LINE
  5
56F
330
1F
100
AcDbEntity
  8
4
100
AcDbLine
 10
3.783506133071144
 20
4.538960463075513
 30
0.0
 11
3.690501723421622
 21
4.538960463075506
 31
0.0
  0
LINE
  5
570
330
1F
100
AcDbEntity
  8
4
100
AcDbLine
 10
3.808683895253951
 20
4.54296454765936
 30
0.0
 11
3.37168389525395
 21
4.542943228859295
 31
0.0
  0
LINE
  5
571
330
1F
100
AcDbEntity
  8
4
100
AcDbLine
 10
3.37168389525395
 20
4.668899074968649
 30
0.0
 11
3.808683895253951
 21
4.668920393768717
 31
0.0
  0
LINE
  5
572
330
1F
100
AcDbEntity
  8
4
100
AcDbLine
 10
3.33968389525395
 20
4.636943228859294
 30
0.0
 11
3.84068389525395
 21
4.636943228859294
 31
0.0
  0
LINE
  5
573
330
1F
100
AcDbEntity
  8
4
100
AcDbLine
 10
3.33968389525395
 20
4.574943228859295
 30
0.0
 11
3.84068389525395
 21
4.574943228859295
 31
0.0
  0
LINE
  5
574
330
1F
100
AcDbEntity
  8
4
100
AcDbLine
 10
3.783506133071146
 20
3.208320260495362
 30
0.0
 11
3.690501723421622
 21
3.208320260495358
 31
0.0
  0
LINE
  5
575
330
1F
100
AcDbEntity
  8
4
100
AcDbLine
 10
3.37168389525395
 20
3.199920393768717
 30
0.0
 11
3.808683895253951
 21
3.199941712568783
 31
0.0
  0
POINT
  5
576
330
1F
100
AcDbEntity
  8
4
100
AcDbPoint
 10
2.27768389525395
 20
1.605920393768716
 30
0.0
  0
LINE
  5
577
330
1F
100
AcDbEntity
  8
4
  6
HIDDEN
100
AcDbLine
 10
3.690501723421622
 20
4.677298941695291
 30
0.0
 11
3.690501723421622
 21
6.007939144275439
 31
0.0
  0
LINE
  5
578
330
1F
100
AcDbEntity
  8
4
  6
HIDDEN
100
AcDbLine
 10
3.712235385466038
 20
4.677298941695291
 30
0.0
 11
3.712235385466035
 21
6.007939144275439
 31
0.0
  0
LINE
  5
579
330
1F
100
AcDbEntity
  8
4
100
AcDbLine
 10
3.37168389525395
 20
6.011921910059228
 30
0.0
 11
3.37168389525395
 21
4.668899074968649
 31
0.0
  0
LINE
  5
57A
330
1F
100
AcDbEntity
  8
4
  6
HIDDEN
100
AcDbLine
 10
3.712235385466038
 20
3.208320260495358
 30
0.0
 11
3.712235385466035
 21
4.538960463075506
 31
0.0
  0
LINE
  5
57B
330
1F
100
AcDbEntity
  8
4
  6
HIDDEN
100
AcDbLine
 10
3.690501723421622
 20
3.208320260495358
 30
0.0
 11
3.690501723421622
 21
4.538960463075506
 31
0.0
  0
LINE
  5
57C
330
1F
100
AcDbEntity
  8
4
100
AcDbLine
 10
3.37168389525395
 20
4.542943228859295
 30
0.0
 11
3.37168389525395
 21
3.199920393768717
 31
0.0
  0
LINE
  5
57D
330
1F
100
AcDbEntity
  8
4
100
AcDbLine
 10
3.475735260471244
 20
3.965332333149886
 30
0.0
 11
3.428659389202237
 21
3.965332333149886
 31
0.0
  0
LINE
  5
57E
330
1F
100
AcDbEntity
  8
4
100
AcDbLine
 10
3.475735260471244
 20
3.984912208865574
 30
0.0
 11
3.423142997989234
 21
3.984912208865574
 31
0.0
  0
LINE
  5
57F
330
1F
100
AcDbEntity
  8
4
100
AcDbLine
 10
3.475735260471244
 20
3.767086091528529
 30
0.0
 11
3.429636965221981
 21
3.767086091528529
 31
0.0
  0
LINE
  5
580
330
1F
100
AcDbEntity
  8
4
100
AcDbLine
 10
3.475735260471244
 20
3.793851781631875
 30
0.0
 11
3.436930591525241
 21
3.79385178163188
 31
0.0
  0
ARC
  5
581
330
1F
100
AcDbEntity
  8
4
100
AcDbCircle
 10
3.436930591525241
 20
3.813431657347569
 30
0.0
 40
0.0195798757156895
100
AcDbArc
 50
183.5763343749981
 51
270.0
  0
LINE
  5
582
330
1F
100
AcDbEntity
  8
4
100
AcDbLine
 10
3.393830379822605
 20
3.953710356656624
 30
0.0
 11
3.403988424326183
 21
3.791181644599386
 31
0.0
  0
ARC
  5
583
330
1F
100
AcDbEntity
  8
4
100
AcDbCircle
 10
3.429636965221981
 20
3.792784678405371
 30
0.0
 40
0.0256985868768425
100
AcDbArc
 50
183.5763343749981
 51
270.0
  0
LINE
  5
584
330
1F
100
AcDbEntity
  8
4
100
AcDbLine
 10
3.430617226657178
 20
3.948821739565388
 30
0.0
 11
3.427155960933839
 21
3.94536047384205
 31
0.0
  0
ARC
  5
585
330
1F
100
AcDbEntity
  8
4
 62
   130
100
AcDbCircle
 10
3.429717327126959
 20
3.946231285906424
 30
0.0
 40
0.0061089212232951
100
AcDbArc
 50
44.99999999999996
 51
224.9999999999998
  0
LINE
  5
586
330
1F
100
AcDbEntity
  8
4
100
AcDbLine
 10
3.435822970305077
 20
3.943615995917491
 30
0.0
 11
3.432361704581739
 21
3.940154730194153
 31
0.0
  0
ARC
  5
587
330
1F
100
AcDbEntity
  8
4
100
AcDbCircle
 10
3.428659389202237
 20
3.945752457434195
 30
0.0
 40
0.0195798757156895
100
AcDbArc
 50
90.0
 51
183.5763343749981
  0
LINE
  5
588
330
1F
100
AcDbEntity
  8
4
100
AcDbLine
 10
3.447895865148081
 20
3.931543101074484
 30
0.0
 11
3.444434599424745
 21
3.928081835351146
 31
0.0
  0
LINE
  5
589
330
1F
100
AcDbEntity
  8
4
100
AcDbLine
 10
3.449640343072644
 20
3.922876091703244
 30
0.0
 11
3.453101608795984
 21
3.926337357426582
 31
0.0
  0
ARC
  5
58A
330
1F
100
AcDbEntity
  8
4
 62
   130
100
AcDbCircle
 10
3.450511155137022
 20
3.925437457896364
 30
0.0
 40
0.0061089212232951
100
AcDbArc
 50
224.9999999999998
 51
44.99999999999996
  0
LINE
  5
58B
330
1F
100
AcDbEntity
  8
4
100
AcDbLine
 10
3.427155960933839
 20
3.94536047384205
 30
0.0
 11
3.449640343072644
 21
3.922876091703244
 31
0.0
  0
LINE
  5
58C
330
1F
100
AcDbEntity
  8
4
 62
   130
100
AcDbLine
 10
3.425397667504232
 20
3.941911626283699
 30
0.0
 11
3.446191495514294
 21
3.921117798273634
 31
0.0
  0
LINE
  5
58D
330
1F
100
AcDbEntity
  8
4
100
AcDbLine
 10
3.430617226657178
 20
3.948821739565388
 30
0.0
 11
3.453101608795984
 21
3.926337357426582
 31
0.0
  0
LINE
  5
58E
330
1F
100
AcDbEntity
  8
4
 62
   130
100
AcDbLine
 10
3.434036986749686
 20
3.950550945529147
 30
0.0
 11
3.454830814759748
 21
3.929757117519089
 31
0.0
  0
LINE
  5
58F
330
1F
100
AcDbEntity
  8
4
100
AcDbLine
 10
3.40911764375782
 20
3.944531098343922
 30
0.0
 11
3.417388846080823
 21
3.81219186117588
 31
0.0
  0
ARC
  5
590
330
1F
100
AcDbEntity
  8
4
100
AcDbCircle
 10
3.423142997989234
 20
3.955542395292041
 30
0.0
 40
0.0293698135735343
100
AcDbArc
 50
90.0
 51
183.5763343749981
  0
ARC
  5
591
330
1F
100
AcDbEntity
  8
4
100
AcDbCircle
 10
3.514539929417249
 20
3.813431657347569
 30
0.0
 40
0.0195798757156895
100
AcDbArc
 50
270.0
 51
356.4236656250016
  0
LINE
  5
592
330
1F
100
AcDbEntity
  8
4
100
AcDbLine
 10
3.557640141119885
 20
3.953710356656624
 30
0.0
 11
3.547482096616308
 21
3.791181644599386
 31
0.0
  0
CIRCLE
  5
593
330
1F
100
AcDbEntity
  8
4
100
AcDbCircle
 10
3.475735260471244
 20
3.778099771618607
 30
0.0
 40
0.0070448392825051
  0
LINE
  5
594
330
1F
100
AcDbEntity
  8
4
100
AcDbLine
 10
3.475735260471244
 20
3.793851781631875
 30
0.0
 11
3.514539929417249
 21
3.79385178163188
 31
0.0
  0
LINE
  5
595
330
1F
100
AcDbEntity
  8
4
100
AcDbLine
 10
3.475735260471244
 20
3.767086091528529
 30
0.0
 11
3.521833555720508
 21
3.767086091528529
 31
0.0
  0
ARC
  5
596
330
1F
100
AcDbEntity
  8
4
100
AcDbCircle
 10
3.521833555720508
 20
3.792784678405371
 30
0.0
 40
0.0256985868768425
100
AcDbArc
 50
270.0
 51
356.4236656250016
  0
ARC
  5
597
330
1F
100
AcDbEntity
  8
4
100
AcDbCircle
 10
3.528327522953257
 20
3.955542395292041
 30
0.0
 40
0.0293698135735343
100
AcDbArc
 50
356.4236656250016
 51
90.0
  0
ARC
  5
598
330
1F
100
AcDbEntity
  8
4
100
AcDbCircle
 10
3.522811131740252
 20
3.945752457434195
 30
0.0
 40
0.0195798757156895
100
AcDbArc
 50
356.4236656250016
 51
90.0
  0
LINE
  5
599
330
1F
100
AcDbEntity
  8
4
100
AcDbLine
 10
3.475735260471244
 20
3.965332333149886
 30
0.0
 11
3.522811131740252
 21
3.965332333149886
 31
0.0
  0
LINE
  5
59A
330
1F
100
AcDbEntity
  8
4
100
AcDbLine
 10
3.475735260471244
 20
3.984912208865574
 30
0.0
 11
3.528327522953257
 21
3.984912208865574
 31
0.0
  0
CIRCLE
  5
59B
330
1F
100
AcDbEntity
  8
4
100
AcDbCircle
 10
3.475735260471244
 20
3.913293918466514
 30
0.0
 40
0.0042684129060203
  0
CIRCLE
  5
59C
330
1F
100
AcDbEntity
  8
4
100
AcDbCircle
 10
3.475735260471244
 20
3.827690701837518
 30
0.0
 40
0.0042684129060203
  0
CIRCLE
  5
59D
330
1F
100
AcDbEntity
  8
4
100
AcDbCircle
 10
3.475735260471244
 20
3.870492310152014
 30
0.0
 40
0.0128492934384212
  0
LINE
  5
59E
330
1F
100
AcDbEntity
  8
4
100
AcDbLine
 10
3.54235287718467
 20
3.944531098343922
 30
0.0
 11
3.534081674861668
 21
3.81221029825729
 31
0.0
  0
ARC
  5
59F
330
1F
100
AcDbEntity
  8
4
100
AcDbCircle
 10
3.576082123514155
 20
4.244940300823326
 30
0.0
 40
0.274118260019653
100
AcDbArc
 50
81.40466153832001
 51
98.59533846167998
  0
ARC
  5
5A0
330
1F
100
AcDbEntity
  8
4
100
AcDbCircle
 10
3.576082123514155
 20
4.752793327199022
 30
0.0
 40
0.274118260019653
100
AcDbArc
 50
261.40466153832
 51
278.5953384616799
  0
CIRCLE
  5
5A1
330
1F
100
AcDbEntity
  8
4
100
AcDbCircle
 10
3.539369856547237
 20
4.498866814011174
 30
0.0
 40
0.0026628630973338
  0
ARC
  5
5A2
330
1F
100
AcDbEntity
  8
4
100
AcDbCircle
 10
3.612794390481072
 20
4.498866814011174
 30
0.0
 40
0.0795432450949886
100
AcDbArc
 50
167.5762104955836
 51
192.4237895044163
  0
CIRCLE
  5
5A3
330
1F
100
AcDbEntity
  8
4
100
AcDbCircle
 10
3.612794390481072
 20
4.498866814011174
 30
0.0
 40
0.0026628630973338
  0
ARC
  5
5A4
330
1F
100
AcDbEntity
  8
4
100
AcDbCircle
 10
3.539369856547237
 20
4.498866814011174
 30
0.0
 40
0.0795432450949886
100
AcDbArc
 50
347.5762104955836
 51
12.42378950441639
  0
LINE
  5
5A5
330
1F
100
AcDbEntity
  8
4
100
AcDbLine
 10
3.475735260471244
 20
5.434311014349818
 30
0.0
 11
3.428659389202237
 21
5.434311014349818
 31
0.0
  0
LINE
  5
5A6
330
1F
100
AcDbEntity
  8
4
100
AcDbLine
 10
3.475735260471244
 20
5.453890890065508
 30
0.0
 11
3.423142997989234
 21
5.453890890065508
 31
0.0
  0
LINE
  5
5A7
330
1F
100
AcDbEntity
  8
4
100
AcDbLine
 10
3.475735260471244
 20
5.236064772728463
 30
0.0
 11
3.429636965221981
 21
5.236064772728463
 31
0.0
  0
LINE
  5
5A8
330
1F
100
AcDbEntity
  8
4
100
AcDbLine
 10
3.475735260471244
 20
5.262830462831807
 30
0.0
 11
3.436930591525241
 21
5.262830462831812
 31
0.0
  0
LINE
  5
5A9
330
1F
100
AcDbEntity
  8
4
100
AcDbLine
 10
3.40911764375782
 20
5.413509779543854
 30
0.0
 11
3.417388846080823
 21
5.281170542375813
 31
0.0
  0
LINE
  5
5AA
330
1F
100
AcDbEntity
  8
4
100
AcDbLine
 10
3.393830379822605
 20
5.422689037856558
 30
0.0
 11
3.403988424326183
 21
5.26016032579932
 31
0.0
  0
ARC
  5
5AB
330
1F
100
AcDbEntity
  8
4
100
AcDbCircle
 10
3.436930591525241
 20
5.282410338547501
 30
0.0
 40
0.0195798757156895
100
AcDbArc
 50
183.5763343749981
 51
270.0
  0
ARC
  5
5AC
330
1F
100
AcDbEntity
  8
4
100
AcDbCircle
 10
3.429636965221981
 20
5.261763359605303
 30
0.0
 40
0.0256985868768425
100
AcDbArc
 50
183.5763343749981
 51
270.0
  0
LINE
  5
5AD
330
1F
100
AcDbEntity
  8
4
100
AcDbLine
 10
3.427155960933839
 20
5.414339155041982
 30
0.0
 11
3.449640343072644
 21
5.391854772903176
 31
0.0
  0
LINE
  5
5AE
330
1F
100
AcDbEntity
  8
4
100
AcDbLine
 10
3.430617226657178
 20
5.417800420765322
 30
0.0
 11
3.427155960933839
 21
5.414339155041982
 31
0.0
  0
LINE
  5
5AF
330
1F
100
AcDbEntity
  8
4
 62
   130
100
AcDbLine
 10
3.425397667504232
 20
5.410890307483631
 30
0.0
 11
3.446191495514294
 21
5.390096479473568
 31
0.0
  0
ARC
  5
5B0
330
1F
100
AcDbEntity
  8
4
 62
   130
100
AcDbCircle
 10
3.429717327126959
 20
5.415209967106356
 30
0.0
 40
0.0061089212232951
100
AcDbArc
 50
44.99999999999996
 51
224.9999999999999
  0
LINE
  5
5B1
330
1F
100
AcDbEntity
  8
4
100
AcDbLine
 10
3.435822970305077
 20
5.412594677117425
 30
0.0
 11
3.432361704581739
 21
5.409133411394085
 31
0.0
  0
LINE
  5
5B2
330
1F
100
AcDbEntity
  8
4
100
AcDbLine
 10
3.447895865148081
 20
5.400521782274418
 30
0.0
 11
3.444434599424745
 21
5.397060516551078
 31
0.0
  0
LINE
  5
5B3
330
1F
100
AcDbEntity
  8
4
100
AcDbLine
 10
3.449640343072644
 20
5.391854772903176
 30
0.0
 11
3.453101608795984
 21
5.395316038626516
 31
0.0
  0
LINE
  5
5B4
330
1F
100
AcDbEntity
  8
4
100
AcDbLine
 10
3.430617226657178
 20
5.417800420765322
 30
0.0
 11
3.453101608795984
 21
5.395316038626516
 31
0.0
  0
LINE
  5
5B5
330
1F
100
AcDbEntity
  8
4
 62
   130
100
AcDbLine
 10
3.434036986749686
 20
5.419529626729081
 30
0.0
 11
3.454830814759748
 21
5.398735798719021
 31
0.0
  0
ARC
  5
5B6
330
1F
100
AcDbEntity
  8
4
 62
   130
100
AcDbCircle
 10
3.450511155137022
 20
5.394416139096296
 30
0.0
 40
0.0061089212232951
100
AcDbArc
 50
224.9999999999999
 51
44.99999999999996
  0
ARC
  5
5B7
330
1F
100
AcDbEntity
  8
4
100
AcDbCircle
 10
3.428659389202237
 20
5.414731138634127
 30
0.0
 40
0.0195798757156895
100
AcDbArc
 50
90.0
 51
183.5763343749981
  0
ARC
  5
5B8
330
1F
100
AcDbEntity
  8
4
100
AcDbCircle
 10
3.423142997989234
 20
5.424521076491974
 30
0.0
 40
0.0293698135735343
100
AcDbArc
 50
90.0
 51
183.5763343749981
  0
LINE
  5
5B9
330
1F
100
AcDbEntity
  8
4
100
AcDbLine
 10
3.557640141119885
 20
5.422689037856558
 30
0.0
 11
3.547482096616308
 21
5.26016032579932
 31
0.0
  0
LINE
  5
5BA
330
1F
100
AcDbEntity
  8
4
100
AcDbLine
 10
3.54235287718467
 20
5.413509779543854
 30
0.0
 11
3.534081674861668
 21
5.281188979457223
 31
0.0
  0
CIRCLE
  5
5BB
330
1F
100
AcDbEntity
  8
4
100
AcDbCircle
 10
3.475735260471244
 20
5.339470991351946
 30
0.0
 40
0.0128492934384212
  0
ARC
  5
5BC
330
1F
100
AcDbEntity
  8
4
100
AcDbCircle
 10
3.521833555720508
 20
5.261763359605303
 30
0.0
 40
0.0256985868768425
100
AcDbArc
 50
270.0
 51
356.4236656250017
  0
CIRCLE
  5
5BD
330
1F
100
AcDbEntity
  8
4
100
AcDbCircle
 10
3.475735260471244
 20
5.29666938303745
 30
0.0
 40
0.0042684129060203
  0
CIRCLE
  5
5BE
330
1F
100
AcDbEntity
  8
4
100
AcDbCircle
 10
3.475735260471244
 20
5.24707845281854
 30
0.0
 40
0.0070448392825051
  0
LINE
  5
5BF
330
1F
100
AcDbEntity
  8
4
100
AcDbLine
 10
3.475735260471244
 20
5.262830462831807
 30
0.0
 11
3.514539929417249
 21
5.262830462831812
 31
0.0
  0
LINE
  5
5C0
330
1F
100
AcDbEntity
  8
4
100
AcDbLine
 10
3.475735260471244
 20
5.236064772728463
 30
0.0
 11
3.521833555720508
 21
5.236064772728463
 31
0.0
  0
ARC
  5
5C1
330
1F
100
AcDbEntity
  8
4
100
AcDbCircle
 10
3.514539929417249
 20
5.282410338547501
 30
0.0
 40
0.0195798757156895
100
AcDbArc
 50
270.0
 51
356.4236656250017
  0
ARC
  5
5C2
330
1F
100
AcDbEntity
  8
4
100
AcDbCircle
 10
3.528327522953257
 20
5.424521076491974
 30
0.0
 40
0.0293698135735343
100
AcDbArc
 50
356.4236656250017
 51
90.0
  0
ARC
  5
5C3
330
1F
100
AcDbEntity
  8
4
100
AcDbCircle
 10
3.522811131740252
 20
5.414731138634127
 30
0.0
 40
0.0195798757156895
100
AcDbArc
 50
356.4236656250017
 51
90.0
  0
CIRCLE
  5
5C4
330
1F
100
AcDbEntity
  8
4
100
AcDbCircle
 10
3.475735260471244
 20
5.382272599666446
 30
0.0
 40
0.0042684129060203
  0
LINE
  5
5C5
330
1F
100
AcDbEntity
  8
4
100
AcDbLine
 10
3.475735260471244
 20
5.434311014349818
 30
0.0
 11
3.522811131740252
 21
5.434311014349818
 31
0.0
  0
LINE
  5
5C6
330
1F
100
AcDbEntity
  8
4
100
AcDbLine
 10
3.475735260471244
 20
5.453890890065508
 30
0.0
 11
3.528327522953257
 21
5.453890890065508
 31
0.0
  0
ARC
  5
5C7
330
1F
100
AcDbEntity
  8
4
100
AcDbCircle
 10
3.576082123514155
 20
5.713918982023259
 30
0.0
 40
0.274118260019653
100
AcDbArc
 50
81.40466153832001
 51
98.59533846167998
  0
ARC
  5
5C8
330
1F
100
AcDbEntity
  8
4
100
AcDbCircle
 10
3.576082123514155
 20
6.221772008398954
 30
0.0
 40
0.274118260019653
100
AcDbArc
 50
261.40466153832
 51
278.5953384616799
  0
CIRCLE
  5
5C9
330
1F
100
AcDbEntity
  8
4
100
AcDbCircle
 10
3.539369856547237
 20
5.967845495211107
 30
0.0
 40
0.0026628630973338
  0
ARC
  5
5CA
330
1F
100
AcDbEntity
  8
4
100
AcDbCircle
 10
3.612794390481072
 20
5.967845495211107
 30
0.0
 40
0.0795432450949886
100
AcDbArc
 50
167.5762104955836
 51
192.4237895044163
  0
CIRCLE
  5
5CB
330
1F
100
AcDbEntity
  8
4
100
AcDbCircle
 10
3.612794390481072
 20
5.967845495211107
 30
0.0
 40
0.0026628630973338
  0
ARC
  5
5CC
330
1F
100
AcDbEntity
  8
4
100
AcDbCircle
 10
3.539369856547237
 20
5.967845495211107
 30
0.0
 40
0.0795432450949886
100
AcDbArc
 50
347.5762104955836
 51
12.42378950441639
  0
LINE
  5
5CD
330
1F
100
AcDbEntity
  8
4
  6
HIDDEN
100
AcDbLine
 10
3.783506133071146
 20
4.677298941695294
 30
0.0
 11
3.783506133071144
 21
6.007939144275446
 31
0.0
  0
LINE
  5
5CE
330
1F
100
AcDbEntity
  8
4
  6
HIDDEN
100
AcDbLine
 10
3.761772471026731
 20
4.677298941695291
 30
0.0
 11
3.761772471026731
 21
6.007939144275442
 31
0.0
  0
LINE
  5
5CF
330
1F
100
AcDbEntity
  8
4
100
AcDbLine
 10
3.808683895253951
 20
4.668920393768717
 30
0.0
 11
3.808683895253951
 21
6.011943228859293
 31
0.0
  0
LINE
  5
5D0
330
1F
100
AcDbEntity
  8
4
  6
HIDDEN
100
AcDbLine
 10
3.783506133071146
 20
3.208320260495362
 30
0.0
 11
3.783506133071144
 21
4.538960463075513
 31
0.0
  0
LINE
  5
5D1
330
1F
100
AcDbEntity
  8
4
  6
HIDDEN
100
AcDbLine
 10
3.761772471026731
 20
3.208320260495358
 30
0.0
 11
3.761772471026731
 21
4.538960463075509
 31
0.0
  0
LINE
  5
5D2
330
1F
100
AcDbEntity
  8
4
100
AcDbLine
 10
3.808683895253951
 20
3.199941712568783
 30
0.0
 11
3.808683895253951
 21
4.54296454765936
 31
0.0
  0
LINE
  5
5D3
330
1F
100
AcDbEntity
  8
4
100
AcDbLine
 10
3.801953312976681
 20
3.510410720414728
 30
0.0
 11
3.801953312976681
 21
3.431479346435856
 31
0.0
  0
LINE
  5
5D4
330
1F
100
AcDbEntity
  8
4
100
AcDbLine
 10
3.801953312976681
 20
3.431479346435856
 30
0.0
 11
3.808683895253951
 21
3.431479346435856
 31
0.0
  0
LINE
  5
5D5
330
1F
100
AcDbEntity
  8
4
100
AcDbLine
 10
3.822536514896899
 20
3.46941829261636
 30
0.0
 11
3.792162760758567
 21
3.46941829261636
 31
0.0
  0
LINE
  5
5D6
330
1F
100
AcDbEntity
  8
4
100
AcDbLine
 10
3.808683895253951
 20
3.510410720414728
 30
0.0
 11
3.801953312976681
 21
3.510410720414728
 31
0.0
  0
LINE
  5
5D7
330
1F
100
AcDbEntity
  8
4
100
AcDbLine
 10
3.801953312976684
 20
4.313163930270178
 30
0.0
 11
3.801953312976681
 21
4.234232556291306
 31
0.0
  0
LINE
  5
5D8
330
1F
100
AcDbEntity
  8
4
100
AcDbLine
 10
3.814317689956193
 20
4.272171502471808
 30
0.0
 11
3.793770816343347
 21
4.272171502471808
 31
0.0
  0
LINE
  5
5D9
330
1F
100
AcDbEntity
  8
4
100
AcDbLine
 10
3.801953312976681
 20
4.234232556291306
 30
0.0
 11
3.808683895253951
 21
4.234232556291306
 31
0.0
  0
LINE
  5
5DA
330
1F
100
AcDbEntity
  8
4
100
AcDbLine
 10
3.808683895253951
 20
4.313163930270178
 30
0.0
 11
3.801953312976684
 21
4.313163930270178
 31
0.0
  0
LINE
  5
5DB
330
1F
100
AcDbEntity
  8
4
100
AcDbLine
 10
3.801953312976681
 20
4.979389401614662
 30
0.0
 11
3.801953312976681
 21
4.90045802763579
 31
0.0
  0
LINE
  5
5DC
330
1F
100
AcDbEntity
  8
4
100
AcDbLine
 10
3.808683895253951
 20
4.979389401614662
 30
0.0
 11
3.801953312976681
 21
4.979389401614662
 31
0.0
  0
LINE
  5
5DD
330
1F
100
AcDbEntity
  8
4
100
AcDbLine
 10
3.801953312976681
 20
4.90045802763579
 30
0.0
 11
3.808683895253951
 21
4.90045802763579
 31
0.0
  0
LINE
  5
5DE
330
1F
100
AcDbEntity
  8
4
100
AcDbLine
 10
3.822536514896899
 20
4.938396973816292
 30
0.0
 11
3.792162760758567
 21
4.938396973816292
 31
0.0
  0
LINE
  5
5DF
330
1F
100
AcDbEntity
  8
4
100
AcDbLine
 10
3.814317689956193
 20
5.741150183671741
 30
0.0
 11
3.793770816343347
 21
5.741150183671741
 31
0.0
  0
LINE
  5
5E0
330
1F
100
AcDbEntity
  8
4
100
AcDbLine
 10
3.808683895253951
 20
5.782142611470111
 30
0.0
 11
3.801953312976684
 21
5.782142611470111
 31
0.0
  0
LINE
  5
5E1
330
1F
100
AcDbEntity
  8
4
100
AcDbLine
 10
3.801953312976681
 20
5.703211237491239
 30
0.0
 11
3.808683895253951
 21
5.703211237491239
 31
0.0
  0
LINE
  5
5E2
330
1F
100
AcDbEntity
  8
4
100
AcDbLine
 10
3.801953312976684
 20
5.782142611470111
 30
0.0
 11
3.801953312976681
 21
5.703211237491239
 31
0.0
  0
MTEXT
  5
5E3
330
1F
100
AcDbEntity
  8
8
100
AcDbMText
 10
6.732874465086204
 20
3.874787213184704
 30
0.0
 40
0.1
 41
0.2649
 71
     5
 72
     5
  1
60
  7
ROMANS
 11
0.0000000000000001
 21
1.0
 31
0.0
 73
     1
 44
1.0
1001
ACAD
1000
MTEXTBEGIN
1070
    73
1070
     1
1070
    44
1040
1.0
1070
    74
1070
     0
1000
MTEXTEND
  0
MTEXT
  5
5E4
330
1F
100
AcDbEntity
  8
8
100
AcDbMText
 10
7.018753687042337
 20
3.964197991626029
 30
0.0
 40
0.075
 41
0.5726484767334964
 71
     5
 72
     5
  1
29-1/2
  7
ROMANS
 11
0.0000000000000001
 21
1.0
 31
0.0
 73
     1
 44
1.0
1001
ACAD
1000
MTEXTBEGIN
1070
    73
1070
     1
1070
    44
1040
1.0
1070
    74
1070
     0
1000
MTEXTEND
  0
MTEXT
  5
5E5
330
1F
100
AcDbEntity
  8
8
100
AcDbMText
 10
7.021081393598414
 20
5.427440664288214
 30
0.0
 40
0.075
 41
0.5726484767334964
 71
     5
 72
     5
  1
29-1/2
  7
ROMANS
 11
0.0000000000000001
 21
1.0
 31
0.0
 73
     1
 44
1.0
1001
ACAD
1000
MTEXTBEGIN
1070
    73
1070
     1
1070
    44
1040
1.0
1070
    74
1070
     0
1000
MTEXTEND
  0
LINE
  5
5E6
330
1F
100
AcDbEntity
  8
1
100
AcDbLine
 10
9.30968389525395
 20
3.105916031502097
 30
0.0
 11
9.30968389525395
 21
6.105916031502097
 31
0.0
  0
ENDSEC
  0
SECTION
  2
OBJECTS
  0
DICTIONARY
  5
C
330
0
100
AcDbDictionary
281
     1
  3
ACAD_COLOR
350
427
  3
ACAD_GROUP
350
D
  3
ACAD_LAYOUT
350
1A
  3
ACAD_MATERIAL
350
426
  3
ACAD_MLINESTYLE
350
17
  3
ACAD_PLOTSETTINGS
350
19
  3
ACAD_PLOTSTYLENAME
350
E
  3
ACDBHEADERROUNDTRIPXREC
350
62C
  3
AcDbVariableDictionary
350
60B
  0
DICTIONARY
  5
427
102
{ACAD_REACTORS
330
C
102
}
330
C
100
AcDbDictionary
281
     1
  0
DICTIONARY
  5
D
102
{ACAD_REACTORS
330
C
102
}
330
C
100
AcDbDictionary
281
     1
  0
DICTIONARY
  5
1A
102
{ACAD_REACTORS
330
C
102
}
330
C
100
AcDbDictionary
281
     1
  3
Layout1
350
1E
  3
Layout2
350
26
  3
Model
350
22
  0
DICTIONARY
  5
426
102
{ACAD_REACTORS
330
C
102
}
330
C
100
AcDbDictionary
281
     1
  0
DICTIONARY
  5
17
102
{ACAD_REACTORS
330
C
102
}
330
C
100
AcDbDictionary
281
     1
  3
Standard
350
18
  0
DICTIONARY
  5
19
102
{ACAD_REACTORS
330
C
102
}
330
C
100
AcDbDictionary
281
     1
  0
ACDBDICTIONARYWDFLT
  5
E
102
{ACAD_REACTORS
330
C
102
}
330
C
100
AcDbDictionary
281
     1
  3
Normal
350
F
100
AcDbDictionaryWithDefault
340
F
  0
DICTIONARY
  5
62C
102
{ACAD_REACTORS
330
C
102
}
330
C
100
AcDbDictionary
281
     1
  3
COLORDICT
350
62E
  3
MATERIALDICT
350
62D
  0
DICTIONARY
  5
60B
102
{ACAD_REACTORS
330
C
102
}
330
C
100
AcDbDictionary
281
     1
  3
DIMASSOC
350
60C
  3
PROJECTNAME
350
60D
  0
LAYOUT
  5
1E
102
{ACAD_XDICTIONARY
360
62F
102
}
102
{ACAD_REACTORS
330
1A
102
}
330
1A
100
AcDbPlotSettings
  1

  2
Lexmark E210
  4

  6

 40
0.0
 41
0.0
 42
0.0
 43
0.0
 44
0.0
 45
0.0
 46
0.0
 47
0.0
 48
0.0
 49
0.0
140
0.0
141
0.0
142
1.0
143
1.0
 70
   688
 72
     0
 73
     0
 74
     5
  7
monochrome.ctb
 75
    16
147
1.0
148
0.0
149
0.0
100
AcDbLayout
  1
Layout1
 70
     1
 71
     1
 10
0.0
 20
0.0
 11
12.0
 21
9.0
 12
0.0
 22
0.0
 32
0.0
 14
1.000000000000000E+20
 24
1.000000000000000E+20
 34
1.000000000000000E+20
 15
-1.000000000000000E+20
 25
-1.000000000000000E+20
 35
-1.000000000000000E+20
146
0.0
 13
0.0
 23
0.0
 33
0.0
 16
1.0
 26
0.0
 36
0.0
 17
0.0
 27
1.0
 37
0.0
 76
     0
330
1B
  0
LAYOUT
  5
26
102
{ACAD_XDICTIONARY
360
633
102
}
102
{ACAD_REACTORS
330
1A
102
}
330
1A
100
AcDbPlotSettings
  1

  2
Lexmark E210
  4

  6

 40
0.0
 41
0.0
 42
0.0
 43
0.0
 44
0.0
 45
0.0
 46
0.0
 47
0.0
 48
0.0
 49
0.0
140
0.0
141
0.0
142
1.0
143
1.0
 70
   688
 72
     0
 73
     0
 74
     5
  7
monochrome.ctb
 75
    16
147
1.0
148
0.0
149
0.0
100
AcDbLayout
  1
Layout2
 70
     1
 71
     2
 10
0.0
 20
0.0
 11
12.0
 21
9.0
 12
0.0
 22
0.0
 32
0.0
 14
0.0
 24
0.0
 34
0.0
 15
0.0
 25
0.0
 35
0.0
146
0.0
 13
0.0
 23
0.0
 33
0.0
 16
1.0
 26
0.0
 36
0.0
 17
0.0
 27
1.0
 37
0.0
 76
     0
330
23
  0
LAYOUT
  5
22
102
{ACAD_XDICTIONARY
360
631
102
}
102
{ACAD_REACTORS
330
1A
102
}
330
1A
100
AcDbPlotSettings
  1

  2
true.pc3
  4
Letter
  6

 40
4.233333110809326
 41
4.233341693878173
 42
8.466659545898437
 43
4.23333740234375
 44
215.8999938964844
 45
279.3999938964844
 46
15.494
 47
0.0
 48
0.0
 49
0.0
140
0.0
141
0.0
142
1.0
143
0.7735062170529281
 70
 11956
 72
     0
 73
     1
 74
     1
  7
monochrome.ctb
 75
     0
147
1.292814431162579
148
-57.8476326129488
149
-40.78704586781916
100
AcDbLayout
  1
Model
 70
     1
 71
     0
 10
0.0
 20
0.0
 11
12.0
 21
9.0
 12
0.0
 22
0.0
 32
0.0
 14
0.0
 24
0.0
 34
0.0
 15
0.0
 25
0.0
 35
0.0
146
0.0
 13
0.0
 23
0.0
 33
0.0
 16
1.0
 26
0.0
 36
0.0
 17
0.0
 27
1.0
 37
0.0
 76
     0
330
1F
  0
MLINESTYLE
  5
18
102
{ACAD_REACTORS
330
17
102
}
330
17
100
AcDbMlineStyle
  2
STANDARD
 70
     0
  3

 62
   256
 51
90.0
 52
90.0
 71
     2
 49
0.5
 62
   256
  6
BYLAYER
 49
-0.5
 62
   256
  6
BYLAYER
  0
ACDBPLACEHOLDER
  5
F
102
{ACAD_REACTORS
330
E
102
}
330
E
  0
XRECORD
  5
62E
102
{ACAD_REACTORS
330
62C
102
}
330
62C
100
AcDbXrecord
280
     1
340
427
  0
XRECORD
  5
62D
102
{ACAD_REACTORS
330
62C
102
}
330
62C
100
AcDbXrecord
280
     1
340
426
  0
DICTIONARYVAR
  5
60C
102
{ACAD_REACTORS
330
60B
102
}
330
60B
100
DictionaryVariables
280
     0
  1
1
  0
DICTIONARYVAR
  5
60D
102
{ACAD_REACTORS
330
60B
102
}
330
60B
100
DictionaryVariables
280
     0
  1

  0
DICTIONARY
  5
62F
330
1E
100
AcDbDictionary
280
     1
281
     1
  3
ACAD_XREC_ROUNDTRIP
360
630
  0
DICTIONARY
  5
633
330
26
100
AcDbDictionary
280
     1
281
     1
  3
ACAD_XREC_ROUNDTRIP
360
634
  0
DICTIONARY
  5
631
330
22
100
AcDbDictionary
280
     1
281
     1
  3
ACAD_XREC_ROUNDTRIP
360
632
  0
XRECORD
  5
630
102
{ACAD_REACTORS
330
62F
102
}
330
62F
100
AcDbXrecord
280
     1
102
SHADEPLOT
 70
     0
102
SHADEPLOTRESLEVEL
 70
     2
102
SHADEPLOTCUSTOMDPI
 70
   300
  0
XRECORD
  5
634
102
{ACAD_REACTORS
330
633
102
}
330
633
100
AcDbXrecord
280
     1
102
SHADEPLOT
 70
     0
102
SHADEPLOTRESLEVEL
 70
     2
102
SHADEPLOTCUSTOMDPI
 70
   300
  0
XRECORD
  5
632
102
{ACAD_REACTORS
330
631
102
}
330
631
100
AcDbXrecord
280
     1
102
SHADEPLOT
 70
     0
102
SHADEPLOTRESLEVEL
 70
     2
102
SHADEPLOTCUSTOMDPI
 70
   300
  0
ENDSEC
  0
EOF
