  0
SECTION
  2
HEADER
  9
$ACADVER
  1
AC1015
  9
$ACADMAINTVER
 70
    20
  9
$DWGCODEPAGE
  3
ANSI_1252
  9
$INSBASE
 10
0.0
 20
0.0
 30
0.0
  9
$EXTMIN
 10
-0.00054918787934
 20
-0.0004118909095077
 30
-0.0000000000000058
  9
$EXTMAX
 10
8.250309052816827
 20
5.250446377027781
 30
0.0000000000000104
  9
$LIMMIN
 10
0.0
 20
0.0
  9
$LIMMAX
 10
12.0
 20
9.0
  9
$ORTHOMODE
 70
     1
  9
$REGENMODE
 70
     1
  9
$FILLMODE
 70
     1
  9
$QTEXTMODE
 70
     0
  9
$MIRRTEXT
 70
     1
  9
$LTSCALE
 40
1.0
  9
$ATTMODE
 70
     1
  9
$TEXTSIZE
 40
0.2
  9
$TRACEWID
 40
0.05
  9
$TEXTSTYLE
  7
Standard
  9
$CLAYER
  8
0
  9
$CELTYPE
  6
ByLayer
  9
$CECOLOR
 62
   256
  9
$CELTSCALE
 40
1.0
  9
$DISPSILH
 70
     0
  9
$DIMSCALE
 40
1.0
  9
$DIMASZ
 40
0.18
  9
$DIMEXO
 40
0.0625
  9
$DIMDLI
 40
0.38
  9
$DIMRND
 40
0.0
  9
$DIMDLE
 40
0.0
  9
$DIMEXE
 40
0.18
  9
$DIMTP
 40
0.0
  9
$DIMTM
 40
0.0
  9
$DIMTXT
 40
0.18
  9
$DIMCEN
 40
0.09
  9
$DIMTSZ
 40
0.0
  9
$DIMTOL
 70
     0
  9
$DIMLIM
 70
     0
  9
$DIMTIH
 70
     1
  9
$DIMTOH
 70
     1
  9
$DIMSE1
 70
     0
  9
$DIMSE2
 70
     0
  9
$DIMTAD
 70
     0
  9
$DIMZIN
 70
     0
  9
$DIMBLK
  1

  9
$DIMASO
 70
     1
  9
$DIMSHO
 70
     1
  9
$DIMPOST
  1

  9
$DIMAPOST
  1

  9
$DIMALT
 70
     0
  9
$DIMALTD
 70
     2
  9
$DIMALTF
 40
25.4
  9
$DIMLFAC
 40
1.0
  9
$DIMTOFL
 70
     0
  9
$DIMTVP
 40
0.0
  9
$DIMTIX
 70
     0
  9
$DIMSOXD
 70
     0
  9
$DIMSAH
 70
     0
  9
$DIMBLK1
  1

  9
$DIMBLK2
  1

  9
$DIMSTYLE
  2
Standard
  9
$DIMCLRD
 70
     0
  9
$DIMCLRE
 70
     0
  9
$DIMCLRT
 70
     0
  9
$DIMTFAC
 40
1.0
  9
$DIMGAP
 40
0.09
  9
$DIMJUST
 70
     0
  9
$DIMSD1
 70
     0
  9
$DIMSD2
 70
     0
  9
$DIMTOLJ
 70
     1
  9
$DIMTZIN
 70
     0
  9
$DIMALTZ
 70
     0
  9
$DIMALTTZ
 70
     0
  9
$DIMUPT
 70
     0
  9
$DIMDEC
 70
     4
  9
$DIMTDEC
 70
     4
  9
$DIMALTU
 70
     2
  9
$DIMALTTD
 70
     2
  9
$DIMTXSTY
  7
Standard
  9
$DIMAUNIT
 70
     0
  9
$DIMADEC
 70
     0
  9
$DIMALTRND
 40
0.0
  9
$DIMAZIN
 70
     0
  9
$DIMDSEP
 70
    46
  9
$DIMATFIT
 70
     3
  9
$DIMFRAC
 70
     0
  9
$DIMLDRBLK
  1

  9
$DIMLUNIT
 70
     2
  9
$DIMLWD
 70
    -2
  9
$DIMLWE
 70
    -2
  9
$DIMTMOVE
 70
     0
  9
$LUNITS
 70
     2
  9
$LUPREC
 70
     4
  9
$SKETCHINC
 40
0.1
  9
$FILLETRAD
 40
0.5
  9
$AUNITS
 70
     0
  9
$AUPREC
 70
     0
  9
$MENU
  1
.
  9
$ELEVATION
 40
0.0
  9
$PELEVATION
 40
0.0
  9
$THICKNESS
 40
0.0
  9
$LIMCHECK
 70
     0
  9
$CHAMFERA
 40
0.5
  9
$CHAMFERB
 40
0.5
  9
$CHAMFERC
 40
1.0
  9
$CHAMFERD
 40
0.0
  9
$SKPOLY
 70
     0
  9
$TDCREATE
 40
2452631.587613773
  9
$TDUCREATE
 40
2452631.795947107
  9
$TDUPDATE
 40
2454728.620359329
  9
$TDUUPDATE
 40
2454728.828692662
  9
$TDINDWG
 40
0.3249393750
  9
$TDUSRTIMER
 40
0.3249393750
  9
$USRTIMER
 70
     1
  9
$ANGBASE
 50
0.0
  9
$ANGDIR
 70
     0
  9
$PDMODE
 70
     0
  9
$PDSIZE
 40
0.0
  9
$PLINEWID
 40
0.0
  9
$SPLFRAME
 70
     0
  9
$SPLINETYPE
 70
     6
  9
$SPLINESEGS
 70
     8
  9
$HANDSEED
  5
A2D
  9
$SURFTAB1
 70
     6
  9
$SURFTAB2
 70
     6
  9
$SURFTYPE
 70
     6
  9
$SURFU
 70
     6
  9
$SURFV
 70
     6
  9
$UCSBASE
  2

  9
$UCSNAME
  2

  9
$UCSORG
 10
0.0
 20
0.0
 30
0.0
  9
$UCSXDIR
 10
1.0
 20
0.0
 30
0.0
  9
$UCSYDIR
 10
0.0
 20
1.0
 30
0.0
  9
$UCSORTHOREF
  2

  9
$UCSORTHOVIEW
 70
     0
  9
$UCSORGTOP
 10
0.0
 20
0.0
 30
0.0
  9
$UCSORGBOTTOM
 10
0.0
 20
0.0
 30
0.0
  9
$UCSORGLEFT
 10
0.0
 20
0.0
 30
0.0
  9
$UCSORGRIGHT
 10
0.0
 20
0.0
 30
0.0
  9
$UCSORGFRONT
 10
0.0
 20
0.0
 30
0.0
  9
$UCSORGBACK
 10
0.0
 20
0.0
 30
0.0
  9
$PUCSBASE
  2

  9
$PUCSNAME
  2

  9
$PUCSORG
 10
0.0
 20
0.0
 30
0.0
  9
$PUCSXDIR
 10
1.0
 20
0.0
 30
0.0
  9
$PUCSYDIR
 10
0.0
 20
1.0
 30
0.0
  9
$PUCSORTHOREF
  2

  9
$PUCSORTHOVIEW
 70
     0
  9
$PUCSORGTOP
 10
0.0
 20
0.0
 30
0.0
  9
$PUCSORGBOTTOM
 10
0.0
 20
0.0
 30
0.0
  9
$PUCSORGLEFT
 10
0.0
 20
0.0
 30
0.0
  9
$PUCSORGRIGHT
 10
0.0
 20
0.0
 30
0.0
  9
$PUCSORGFRONT
 10
0.0
 20
0.0
 30
0.0
  9
$PUCSORGBACK
 10
0.0
 20
0.0
 30
0.0
  9
$USERI1
 70
     0
  9
$USERI2
 70
     0
  9
$USERI3
 70
     0
  9
$USERI4
 70
     0
  9
$USERI5
 70
     0
  9
$USERR1
 40
0.0
  9
$USERR2
 40
0.0
  9
$USERR3
 40
0.0
  9
$USERR4
 40
0.0
  9
$USERR5
 40
0.0
  9
$WORLDVIEW
 70
     1
  9
$SHADEDGE
 70
     3
  9
$SHADEDIF
 70
    70
  9
$TILEMODE
 70
     1
  9
$MAXACTVP
 70
    64
  9
$PINSBASE
 10
0.0
 20
0.0
 30
0.0
  9
$PLIMCHECK
 70
     0
  9
$PEXTMIN
 10
0.2036893511280731
 20
0.2445449930502761
 30
-0.0015258207003583
  9
$PEXTMAX
 10
10.31561234697186
 20
7.717841899724767
 30
0.0000000349246037
  9
$PLIMMIN
 10
-0.1666668268639272
 20
-0.166666657905879
  9
$PLIMMAX
 10
10.83333293284018
 20
8.333333101798229
  9
$UNITMODE
 70
     0
  9
$VISRETAIN
 70
     1
  9
$PLINEGEN
 70
     0
  9
$PSLTSCALE
 70
     1
  9
$TREEDEPTH
 70
  3020
  9
$CMLSTYLE
  2
Standard
  9
$CMLJUST
 70
     0
  9
$CMLSCALE
 40
1.0
  9
$PROXYGRAPHICS
 70
     1
  9
$MEASUREMENT
 70
     0
  9
$CELWEIGHT
370
    -1
  9
$ENDCAPS
280
     0
  9
$JOINSTYLE
280
     0
  9
$LWDISPLAY
290
     0
  9
$INSUNITS
 70
     1
  9
$HYPERLINKBASE
  1

  9
$STYLESHEET
  1
monochrome.ctb
  9
$XEDIT
290
     1
  9
$CEPSNTYPE
380
     0
  9
$PSTYLEMODE
290
     1
  9
$FINGERPRINTGUID
  2
{060CD287-1596-11D7-8CE2-F4DF55C5A723}
  9
$VERSIONGUID
  2
{AE9297CE-1CA5-4A19-8BF6-A4D2C519EAC6}
  9
$EXTNAMES
290
     1
  9
$PSVPSCALE
 40
0.0
  9
$OLESTARTUP
290
     0
  0
ENDSEC
  0
SECTION
  2
CLASSES
  0
CLASS
  1
ACDBDICTIONARYWDFLT
  2
AcDbDictionaryWithDefault
  3
ObjectDBX Classes
 90
        0
280
     0
281
     0
  0
CLASS
  1
ACDBPLACEHOLDER
  2
AcDbPlaceHolder
  3
ObjectDBX Classes
 90
        0
280
     0
281
     0
  0
CLASS
  1
LAYOUT
  2
AcDbLayout
  3
ObjectDBX Classes
 90
        0
280
     0
281
     0
  0
CLASS
  1
DICTIONARYVAR
  2
AcDbDictionaryVar
  3
ObjectDBX Classes
 90
        0
280
     0
281
     0
  0
ENDSEC
  0
SECTION
  2
TABLES
  0
TABLE
  2
VPORT
  5
8
330
0
100
AcDbSymbolTable
 70
     2
  0
VPORT
  5
A1E
330
8
100
AcDbSymbolTableRecord
100
AcDbViewportTableRecord
  2
*Active
 70
     0
 10
0.0
 20
0.0
 11
1.0
 21
1.0
 12
4.124879932468743
 22
2.625017243059136
 13
0.0
 23
0.0
 14
0.5
 24
0.5
 15
0.5
 25
0.5
 16
0.0
 26
0.0
 36
1.0
 17
0.0
 27
0.0
 37
0.0
 40
5.545274061083397
 41
1.495145631067961
 42
50.0
 43
0.0
 44
0.0
 50
0.0
 51
0.0
 71
     0
 72
   100
 73
     1
 74
     3
 75
     0
 76
     0
 77
     0
 78
     0
281
     0
 65
     1
110
0.0
120
0.0
130
0.0
111
1.0
121
0.0
131
0.0
112
0.0
122
1.0
132
0.0
 79
     0
146
0.0
  0
ENDTAB
  0
TABLE
  2
LTYPE
  5
5
330
0
100
AcDbSymbolTable
 70
     2
  0
LTYPE
  5
14
330
5
100
AcDbSymbolTableRecord
100
AcDbLinetypeTableRecord
  2
ByBlock
 70
     0
  3

 72
    65
 73
     0
 40
0.0
  0
LTYPE
  5
15
330
5
100
AcDbSymbolTableRecord
100
AcDbLinetypeTableRecord
  2
ByLayer
 70
     0
  3

 72
    65
 73
     0
 40
0.0
  0
LTYPE
  5
16
330
5
100
AcDbSymbolTableRecord
100
AcDbLinetypeTableRecord
  2
Continuous
 70
     0
  3
Solid line
 72
    65
 73
     0
 40
0.0
  0
LTYPE
  5
3FE
330
5
100
AcDbSymbolTableRecord
100
AcDbLinetypeTableRecord
  2
HIDDEN
 70
     0
  3
_ _ _ _ _ _ _ _ _ _ _ _ _ _ _ _ _ _ _ _ _ _ _
 72
    65
 73
     2
 40
0.375
 49
0.25
 74
     0
 49
-0.125
 74
     0
  0
ENDTAB
  0
TABLE
  2
LAYER
  5
2
102
{ACAD_XDICTIONARY
360
96D
102
}
330
0
100
AcDbSymbolTable
 70
     6
  0
LAYER
  5
10
330
2
100
AcDbSymbolTableRecord
100
AcDbLayerTableRecord
  2
0
 70
     0
 62
     7
  6
Continuous
370
    -3
390
F
  0
LAYER
  5
3FF
330
2
100
AcDbSymbolTableRecord
100
AcDbLayerTableRecord
  2
2
 70
     0
 62
     2
  6
HIDDEN
370
    -3
390
F
  0
LAYER
  5
400
330
2
100
AcDbSymbolTableRecord
100
AcDbLayerTableRecord
  2
4
 70
     0
 62
     4
  6
Continuous
370
    -3
390
F
  0
LAYER
  5
401
330
2
100
AcDbSymbolTableRecord
100
AcDbLayerTableRecord
  2
8
 70
     0
 62
     2
  6
Continuous
370
    -3
390
F
  0
LAYER
  5
409
330
2
100
AcDbSymbolTableRecord
100
AcDbLayerTableRecord
  2
1
 70
     0
 62
     1
  6
Continuous
370
    -3
390
F
  0
LAYER
  5
4DB
330
2
100
AcDbSymbolTableRecord
100
AcDbLayerTableRecord
  2
VP-1
 70
     0
 62
    -5
  6
Continuous
370
    -3
390
F
  0
ENDTAB
  0
TABLE
  2
STYLE
  5
3
330
0
100
AcDbSymbolTable
 70
     2
  0
STYLE
  5
11
330
3
100
AcDbSymbolTableRecord
100
AcDbTextStyleTableRecord
  2
Standard
 70
     0
 40
0.0
 41
1.0
 50
0.0
 71
     0
 42
0.2
  3
txt
  4

  0
STYLE
  5
402
330
3
100
AcDbSymbolTableRecord
100
AcDbTextStyleTableRecord
  2
ROMANS
 70
     0
 40
0.0
 41
1.0
 50
0.0
 71
     0
 42
0.07
  3
ROMANS
  4

  0
ENDTAB
  0
TABLE
  2
VIEW
  5
6
330
0
100
AcDbSymbolTable
 70
     0
  0
ENDTAB
  0
TABLE
  2
UCS
  5
7
330
0
100
AcDbSymbolTable
 70
     0
  0
ENDTAB
  0
TABLE
  2
APPID
  5
9
330
0
100
AcDbSymbolTable
 70
     1
  0
APPID
  5
12
330
9
100
AcDbSymbolTableRecord
100
AcDbRegAppTableRecord
  2
ACAD
 70
     0
  0
ENDTAB
  0
TABLE
  2
DIMSTYLE
  5
A
330
0
100
AcDbSymbolTable
 70
     1
100
AcDbDimStyleTable
 71
     0
  0
DIMSTYLE
105
27
330
A
100
AcDbSymbolTableRecord
100
AcDbDimStyleTableRecord
  2
Standard
 70
     0
340
11
  0
ENDTAB
  0
TABLE
  2
BLOCK_RECORD
  5
1
330
0
100
AcDbSymbolTable
 70
     7
  0
BLOCK_RECORD
  5
1F
330
1
100
AcDbSymbolTableRecord
100
AcDbBlockTableRecord
  2
*Model_Space
340
22
  0
BLOCK_RECORD
  5
1B
330
1
100
AcDbSymbolTableRecord
100
AcDbBlockTableRecord
  2
*Paper_Space
340
1E
  0
BLOCK_RECORD
  5
23
330
1
100
AcDbSymbolTableRecord
100
AcDbBlockTableRecord
  2
*Paper_Space0
340
26
  0
BLOCK_RECORD
  5
2B
330
1
100
AcDbSymbolTableRecord
100
AcDbBlockTableRecord
  2
ARRO
340
0
102
{BLKREFS
331
45A
331
45B
331
45F
331
460
331
464
331
465
331
466
331
467
331
468
331
412
331
4F1
331
539
331
53A
331
53E
331
53F
331
543
331
544
331
545
331
546
331
547
102
}
  0
BLOCK_RECORD
  5
33
330
1
100
AcDbSymbolTableRecord
100
AcDbBlockTableRecord
  2
ARRO2
340
0
  0
BLOCK_RECORD
  5
40
330
1
100
AcDbSymbolTableRecord
100
AcDbBlockTableRecord
  2
SPL2ATHLETICDOOR72
340
0
310
28000000200000002000000001000800000000000004000000000000000000000000000000000000000000004000000080000000FF000000002000004020000080200000FF200000004000004040000080400000FF400000006000004060000080600000FF600000008000004080000080800000FF80000000A0000040A000
310
0080A00000FFA0000000C0000040C0000080C00000FFC0000000FF000040FF000080FF0000FFFF0000000020004000200080002000FF002000002020004020200080202000FF202000004020004040200080402000FF402000006020004060200080602000FF602000008020004080200080802000FF80200000A0200040A0
310
200080A02000FFA0200000C0200040C0200080C02000FFC0200000FF200040FF200080FF2000FFFF2000000040004000400080004000FF004000002040004020400080204000FF204000004040004040400080404000FF404000006040004060400080604000FF604000008040004080400080804000FF80400000A0400040
310
A0400080A04000FFA0400000C0400040C0400080C04000FFC0400000FF400040FF400080FF4000FFFF4000000060004000600080006000FF006000002060004020600080206000FF206000004060004040600080406000FF406000006060004060600080606000FF606000008060004080600080806000FF80600000A06000
310
40A0600080A06000FFA0600000C0600040C0600080C06000FFC0600000FF600040FF600080FF6000FFFF6000000080004000800080008000FF008000002080004020800080208000FF208000004080004040800080408000FF408000006080004060800080608000FF608000008080004080800080808000FF80800000A080
310
0040A0800080A08000FFA0800000C0800040C0800080C08000FFC0800000FF800040FF800080FF8000FFFF80000000A0004000A0008000A000FF00A0000020A0004020A0008020A000FF20A0000040A0004040A0008040A000FF40A0000060A0004060A0008060A000FF60A0000080A0004080A0008080A000FF80A00000A0
310
A00040A0A00080A0A000FFA0A00000C0A00040C0A00080C0A000FFC0A00000FFA00040FFA00080FFA000FFFFA0000000C0004000C0008000C000FF00C0000020C0004020C0008020C000FF20C0000040C0004040C0008040C000FF40C0000060C0004060C0008060C000FF60C0000080C0004080C0008080C000FF80C00000
310
A0C00040A0C00080A0C000FFA0C00000C0C00040C0C00080C0C000FFC0C00000FFC00040FFC00080FFC000FFFFC0000000FF004000FF008000FF00FF00FF000020FF004020FF008020FF00FF20FF000040FF004040FF008040FF00FF40FF000060FF004060FF008060FF00FF60FF000080FF004080FF008080FF00FF80FF00
310
00A0FF0040A0FF0080A0FF00FFA0FF0000C0FF0040C0FF0080C0FF00FFC0FF0000FFFF0040FFFF0080FFFF00FFFFFF0000000000000000000000000000000000000000000000000000000000000000000000000000000000000000000000000000000000000000000000000000000000000000000000000000000000000000
310
00000000000000000000000000000000000000000000000000000000000000000000000000000000000000000000000000000000000000000000000000000000000000000000000000000000000000000000000000000000000000000000000000000000000000000000000000000000000000000000000000000000000000
310
00000000000000000000000000000000000000FF000000000000000000000000000000000000000000000000000000000000000000000000000000FCFCFCFCFCFCFCFCFCFCFCFCFCFCFCFC00000000000000000000000000000000000000000000000000000000000000000000000000000000000000000000000000000000
310
000000000000000000000000000000000000000000000000000000000000000000000000000000000000000000000000000000000000000000000000000000000000000000001F00000000000000000000000000000000001F1F1F00000000000000000000001F1F1F1F00001F1F1F1F1F1F00000000FCFC1F1F1F00000000
310
00000000000000FC1F1F1F00001F1F1F1F1F1F00000000FCFC1FFC1F00000000000000000000001F1F1F1F00001F1F1F1F1F1F00000000FCFC1FFC1F00000000000000000000FC1F1F1F1F00001F1F1F1F1F1F00000000FCFC1F1F1F00000000000000000000001F1F1F1F00001F1F1F1F1F1F00000000FC1F1F1F1F000000
310
0000000000000000FC1F1F1F00001F1F1F1F1F1F00000000FC1F1F1F1F00000000000000000000001F1F1F1F00001F1F1F1F1F1F00000000FCFC1FFC1F00000000000000000000001F1F1F1F00001F1F1F1F1F1F00000000FCFC1FFC1F1F1F1F001F1F1F000000001F1F1F1F00001F1F1F1F1F1F00000000FCFC1FFC1F1F1F
310
1F1F1F1F1F000000001F1F1F1F00001F1F1F1F1F1F0000000000001F1F1F00000000000000000000001F1F1F1F00001F1F1F1F1F1F00000000000000000000000000000000000000001F0000000000000000000000000000000000000000000000000000000000000000000000000000000000000000000000000000000000
310
00000000000000000000000000000000000000000000000000000000000000000000000000000000000000000000000000000000000000000000000000000000000000000000000000000000000000000000000000000000000000000000000000000000000000000000000000000000000000000000000000000000000000
310
0000000000000000000000000000000000000000000000000000000000000000000000000000000000000000000000000000000000000000
102
{BLKREFS
331
404
102
}
1001
ACAD
1000
DesignCenter Data
1002
{
1070
     1
1070
     1
1002
}
  0
BLOCK_RECORD
  5
403
330
1
100
AcDbSymbolTableRecord
100
AcDbBlockTableRecord
  2
LE1201
340
0
1001
ACAD
1000
DesignCenter Data
1002
{
1070
     1
1070
     1
1002
}
  0
BLOCK_RECORD
  5
40A
330
1
100
AcDbSymbolTableRecord
100
AcDbBlockTableRecord
  2
LE1005
340
0
  0
BLOCK_RECORD
  5
96F
330
1
100
AcDbSymbolTableRecord
100
AcDbBlockTableRecord
  2
HDV hooks
340
0
1001
ACAD
1000
DesignCenter Data
1002
{
1070
     1
1070
     1
1002
}
  0
ENDTAB
  0
ENDSEC
  0
SECTION
  2
BLOCKS
  0
BLOCK
  5
20
330
1F
100
AcDbEntity
  8
0
100
AcDbBlockBegin
  2
*Model_Space
 70
     0
 10
0.0
 20
0.0
 30
0.0
  3
*Model_Space
  1

  0
ENDBLK
  5
21
330
1F
100
AcDbEntity
  8
0
100
AcDbBlockEnd
  0
BLOCK
  5
1C
330
1B
100
AcDbEntity
 67
     1
  8
0
100
AcDbBlockBegin
  2
*Paper_Space
 70
     0
 10
0.0
 20
0.0
 30
0.0
  3
*Paper_Space
  1

  0
ENDBLK
  5
1D
330
1B
100
AcDbEntity
 67
     1
  8
0
100
AcDbBlockEnd
  0
BLOCK
  5
24
330
23
100
AcDbEntity
  8
0
100
AcDbBlockBegin
  2
*Paper_Space0
 70
     0
 10
0.0
 20
0.0
 30
0.0
  3
*Paper_Space0
  1

  0
ENDBLK
  5
25
330
23
100
AcDbEntity
  8
0
100
AcDbBlockEnd
  0
BLOCK
  5
31
330
2B
100
AcDbEntity
  8
0
100
AcDbBlockBegin
  2
ARRO
 70
     0
 10
0.0
 20
0.0
 30
0.0
  3
ARRO
  1

  0
LINE
  5
2C
330
2B
100
AcDbEntity
  8
4
100
AcDbLine
 10
0.1250000000000018
 20
0.0199999999999996
 30
0.0
 11
0.1250000000000018
 21
-0.0200000000000005
 31
0.0
  0
LINE
  5
2D
330
2B
100
AcDbEntity
  8
4
100
AcDbLine
 10
0.1250000000000018
 20
-0.0100000000000007
 30
0.0
 11
0.0000000000000009
 21
0.0
 31
0.0
  0
LINE
  5
2E
330
2B
100
AcDbEntity
  8
4
100
AcDbLine
 10
0.1250000000000018
 20
0.0099999999999989
 30
0.0
 11
0.0000000000000018
 21
0.0
 31
0.0
  0
LINE
  5
2F
330
2B
100
AcDbEntity
  8
4
100
AcDbLine
 10
0.0000000000000018
 20
0.0
 30
0.0
 11
0.1250000000000018
 21
-0.0200000000000005
 31
0.0
  0
LINE
  5
30
330
2B
100
AcDbEntity
  8
4
100
AcDbLine
 10
0.1250000000000018
 20
0.0199999999999996
 30
0.0
 11
0.0000000000000018
 21
0.0
 31
0.0
  0
ENDBLK
  5
32
330
2B
100
AcDbEntity
  8
0
100
AcDbBlockEnd
  0
BLOCK
  5
3E
330
33
100
AcDbEntity
  8
0
100
AcDbBlockBegin
  2
ARRO2
 70
     0
 10
0.0
 20
0.0
 30
0.0
  3
ARRO2
  1

  0
LINE
  5
34
330
33
100
AcDbEntity
  8
4
100
AcDbLine
 10
-0.124999999999992
 20
-0.0200000000000005
 30
0.0
 11
0.000000000000008
 21
-0.0000000000000009
 31
0.0
  0
LINE
  5
35
330
33
100
AcDbEntity
  8
4
100
AcDbLine
 10
0.000000000000008
 20
-0.0000000000000009
 30
0.0
 11
-0.124999999999992
 21
0.0199999999999996
 31
0.0
  0
LINE
  5
36
330
33
100
AcDbEntity
  8
4
100
AcDbLine
 10
-0.124999999999992
 20
-0.0099999999999998
 30
0.0
 11
0.000000000000008
 21
-0.0000000000000009
 31
0.0
  0
LINE
  5
37
330
33
100
AcDbEntity
  8
4
100
AcDbLine
 10
-0.124999999999992
 20
0.0099999999999998
 30
0.0
 11
0.0000000000000089
 21
-0.0000000000000009
 31
0.0
  0
LINE
  5
38
330
33
100
AcDbEntity
  8
4
100
AcDbLine
 10
-0.124999999999992
 20
-0.0200000000000005
 30
0.0
 11
-0.124999999999992
 21
0.0199999999999996
 31
0.0
  0
LINE
  5
39
330
33
100
AcDbEntity
  8
4
100
AcDbLine
 10
0.1250000000000124
 20
0.0199999999999987
 30
0.0
 11
0.1250000000000124
 21
-0.0200000000000014
 31
0.0
  0
LINE
  5
3A
330
33
100
AcDbEntity
  8
4
100
AcDbLine
 10
0.1250000000000124
 20
-0.0100000000000016
 30
0.0
 11
0.0000000000000115
 21
-0.0000000000000009
 31
0.0
  0
LINE
  5
3B
330
33
100
AcDbEntity
  8
4
100
AcDbLine
 10
0.1250000000000124
 20
0.009999999999998
 30
0.0
 11
0.0000000000000124
 21
-0.0000000000000009
 31
0.0
  0
LINE
  5
3C
330
33
100
AcDbEntity
  8
4
100
AcDbLine
 10
0.0000000000000124
 20
-0.0000000000000009
 30
0.0
 11
0.1250000000000124
 21
-0.0200000000000014
 31
0.0
  0
LINE
  5
3D
330
33
100
AcDbEntity
  8
4
100
AcDbLine
 10
0.1250000000000124
 20
0.0199999999999987
 30
0.0
 11
0.0000000000000124
 21
-0.0000000000000009
 31
0.0
  0
ENDBLK
  5
3F
330
33
100
AcDbEntity
  8
0
100
AcDbBlockEnd
  0
BLOCK
  5
3FC
330
40
100
AcDbEntity
  8
0
100
AcDbBlockBegin
  2
SPL2ATHLETICDOOR72
 70
     0
 10
0.0
 20
0.0
 30
0.0
  3
SPL2ATHLETICDOOR72
  1

  4
SPL2 ATHLETIC DOOR 72 INCHES
  0
LINE
  5
41
330
40
100
AcDbEntity
  8
4
100
AcDbLine
 10
2.93699682907573
 20
3.941365996915924
 30
0.0
 11
3.437996829075729
 21
3.941365996915924
 31
0.0
  0
LINE
  5
42
330
40
100
AcDbEntity
  8
4
100
AcDbLine
 10
2.93699682907573
 20
4.003365996915924
 30
0.0
 11
3.437996829075729
 21
4.003365996915924
 31
0.0
  0
TEXT
  5
43
330
40
100
AcDbEntity
  8
8
100
AcDbText
 10
2.002973019551919
 20
0.0913659969159239
 30
0.0
 40
0.125
  1
SPL2 ATHLETIC LOCKER - 72" SINGLE TIER
  7
ROMANS
 72
     1
 11
4.12499682907573
 21
0.0913659969159239
 31
0.0
100
AcDbText
  0
LINE
  5
44
330
40
100
AcDbEntity
  8
4
100
AcDbLine
 10
1.524072185130417
 20
1.910808635296394
 30
0.0
 11
1.524072185130417
 21
1.829601447210457
 31
0.0
  0
LINE
  5
45
330
40
100
AcDbEntity
  8
2
100
AcDbLine
 10
1.172056451731979
 20
1.750134222146501
 30
0.0
 11
1.172056451731979
 21
2.757355159646502
 31
0.0
  0
LINE
  5
46
330
40
100
AcDbEntity
  8
2
100
AcDbLine
 10
1.36091037751323
 20
2.706994112771501
 30
0.0
 11
1.36091037751323
 21
1.699773175271502
 31
0.0
  0
LINE
  5
47
330
40
100
AcDbEntity
  8
4
  6
HIDDEN
100
AcDbLine
 10
1.505093121005106
 20
1.595485530550286
 30
0.0
 11
1.505093121005102
 21
4.399246165431563
 31
0.0
  0
LINE
  5
48
330
40
100
AcDbEntity
  8
4
  6
HIDDEN
100
AcDbLine
 10
1.482732816192604
 20
1.595485530550288
 30
0.0
 11
1.482732816192604
 21
4.399246165431559
 31
0.0
  0
LINE
  5
49
330
40
100
AcDbEntity
  8
4
  6
HIDDEN
100
AcDbLine
 10
1.412461959536353
 20
1.595485530550292
 30
0.0
 11
1.412461959536353
 21
4.399246165431554
 31
0.0
  0
LINE
  5
4A
330
40
100
AcDbEntity
  8
4
  6
HIDDEN
100
AcDbLine
 10
1.390101654723856
 20
1.595485530550294
 30
0.0
 11
1.390101654723856
 21
4.399246165431554
 31
0.0
  0
LINE
  5
4B
330
40
100
AcDbEntity
  8
4
100
AcDbLine
 10
1.530996829075728
 20
1.591365996915924
 30
0.0
 11
1.530996829075729
 21
4.403365699065926
 31
0.0
  0
LINE
  5
4C
330
40
100
AcDbEntity
  8
4
100
AcDbLine
 10
1.09399682907573
 20
4.403365699065926
 30
0.0
 11
1.09399682907573
 21
1.591365996915924
 31
0.0
  0
POINT
  5
4D
330
40
100
AcDbEntity
  8
0
100
AcDbPoint
 10
0.0
 20
0.0
 30
0.0
  0
LINE
  5
4E
330
40
100
AcDbEntity
  8
2
100
AcDbLine
 10
1.287814650169479
 20
1.669556547146501
 30
0.0
 11
1.345802063450729
 21
1.669556547146501
 31
0.0
  0
LINE
  5
4F
330
40
100
AcDbEntity
  8
4
100
AcDbLine
 10
1.09399682907573
 20
1.591365996915924
 30
0.0
 11
1.530996829075728
 21
1.591365996915924
 31
0.0
  0
LINE
  5
50
330
40
100
AcDbEntity
  8
4
100
AcDbLine
 10
1.189403936597154
 20
1.721283820978176
 30
0.0
 11
1.202047277062184
 21
1.749092022736031
 31
0.0
  0
LINE
  5
51
330
40
100
AcDbEntity
  8
4
100
AcDbLine
 10
1.184925594991804
 20
1.721283820978176
 30
0.0
 11
1.172282254526774
 21
1.749092022736031
 31
0.0
  0
LINE
  5
52
330
40
100
AcDbEntity
  8
4
100
AcDbLine
 10
1.212066407690904
 20
1.728623576439828
 30
0.0
 11
1.224709748155933
 21
1.700815374681973
 31
0.0
  0
LINE
  5
53
330
40
100
AcDbEntity
  8
4
100
AcDbLine
 10
1.212066407690904
 20
1.670922774103175
 30
0.0
 11
1.224709748155933
 21
1.69873097586103
 31
0.0
  0
LINE
  5
54
330
40
100
AcDbEntity
  8
2
100
AcDbLine
 10
1.209827236888229
 20
1.669556547146501
 30
0.0
 11
1.267814650169479
 21
1.669556547146501
 31
0.0
  0
ARC
  5
55
330
40
100
AcDbEntity
  8
4
100
AcDbCircle
 10
1.18716476579448
 20
1.722435646365252
 30
0.0
 40
0.00251805234375
100
AcDbArc
 50
201.6777967963419
 51
338.322203203658
  0
ARC
  5
56
330
40
100
AcDbEntity
  8
4
100
AcDbCircle
 10
1.209827236888229
 20
1.727471751052752
 30
0.0
 40
0.00251805234375
100
AcDbArc
 50
21.67779679634199
 51
158.3222032036579
  0
ARC
  5
57
330
40
100
AcDbEntity
  8
4
100
AcDbCircle
 10
1.197236975169478
 20
1.699773175271502
 30
0.0
 40
0.00251805234375
100
AcDbArc
 50
155.5504979363151
 51
204.4495020636847
  0
LINE
  5
58
330
40
100
AcDbEntity
  8
4
100
AcDbLine
 10
1.207588066085555
 20
1.728623576439828
 30
0.0
 11
1.194944725620525
 21
1.700815374681973
 31
0.0
  0
ARC
  5
59
330
40
100
AcDbEntity
  8
4
100
AcDbCircle
 10
1.209827236888229
 20
1.672074599490251
 30
0.0
 40
0.00251805234375
100
AcDbArc
 50
201.6777967963419
 51
338.322203203658
  0
LINE
  5
5A
330
40
100
AcDbEntity
  8
4
100
AcDbLine
 10
1.207588066085555
 20
1.670922774103175
 30
0.0
 11
1.194944725620525
 21
1.69873097586103
 31
0.0
  0
ARC
  5
5B
330
40
100
AcDbEntity
  8
4
100
AcDbCircle
 10
1.222417498606978
 20
1.699773175271502
 30
0.0
 40
0.00251805234375
100
AcDbArc
 50
335.5504979363153
 51
24.44950206368473
  0
LINE
  5
5C
330
40
100
AcDbEntity
  8
4
100
AcDbLine
 10
1.189403936597154
 20
1.778984623314828
 30
0.0
 11
1.202047277062184
 21
1.751176421556972
 31
0.0
  0
ARC
  5
5D
330
40
100
AcDbEntity
  8
4
100
AcDbCircle
 10
1.18716476579448
 20
1.777832797927751
 30
0.0
 40
0.00251805234375
100
AcDbArc
 50
21.67779679634199
 51
158.3222032036579
  0
ARC
  5
5E
330
40
100
AcDbEntity
  8
4
100
AcDbCircle
 10
1.199755027513229
 20
1.750134222146501
 30
0.0
 40
0.00251805234375
100
AcDbArc
 50
335.5504979363153
 51
24.44950206368473
  0
ARC
  5
5F
330
40
100
AcDbEntity
  8
4
100
AcDbCircle
 10
1.174574504075729
 20
1.750134222146501
 30
0.0
 40
0.00251805234375
100
AcDbArc
 50
155.5504979363151
 51
204.4495020636847
  0
LINE
  5
60
330
40
100
AcDbEntity
  8
4
100
AcDbLine
 10
1.184925594991805
 20
1.778984623314828
 30
0.0
 11
1.172282254526774
 21
1.751176421556972
 31
0.0
  0
LINE
  5
61
330
40
100
AcDbEntity
  8
4
  6
HIDDEN
100
AcDbLine
 10
1.505093121005106
 20
1.595485530550286
 30
0.0
 11
1.390101654723856
 21
1.595485530550294
 31
0.0
  0
LINE
  5
62
330
40
100
AcDbEntity
  8
4
100
AcDbLine
 10
1.320900421554305
 20
1.721283820978176
 30
0.0
 11
1.308257081089275
 21
1.749092022736031
 31
0.0
  0
LINE
  5
63
330
40
100
AcDbEntity
  8
4
100
AcDbLine
 10
1.325378763159654
 20
1.721283820978176
 30
0.0
 11
1.338022103624683
 21
1.749092022736031
 31
0.0
  0
ARC
  5
64
330
40
100
AcDbEntity
  8
4
100
AcDbCircle
 10
1.345802063450729
 20
1.727471751052752
 30
0.0
 40
0.00251805234375
100
AcDbArc
 50
21.67779679634199
 51
158.3222032036579
  0
ARC
  5
65
330
40
100
AcDbEntity
  8
4
100
AcDbCircle
 10
1.35839232516948
 20
1.699773175271502
 30
0.0
 40
0.00251805234375
100
AcDbArc
 50
335.5504979363153
 51
24.44950206368473
  0
LINE
  5
66
330
40
100
AcDbEntity
  8
4
100
AcDbLine
 10
1.348041234253403
 20
1.728623576439828
 30
0.0
 11
1.360684574718434
 21
1.700815374681973
 31
0.0
  0
ARC
  5
67
330
40
100
AcDbEntity
  8
4
100
AcDbCircle
 10
1.323139592356979
 20
1.722435646365252
 30
0.0
 40
0.00251805234375
100
AcDbArc
 50
201.6777967963419
 51
338.322203203658
  0
ARC
  5
68
330
40
100
AcDbEntity
  8
4
100
AcDbCircle
 10
1.333211801731979
 20
1.699773175271502
 30
0.0
 40
0.00251805234375
100
AcDbArc
 50
155.5504979363151
 51
204.4495020636847
  0
LINE
  5
69
330
40
100
AcDbEntity
  8
4
100
AcDbLine
 10
1.343562892648054
 20
1.728623576439828
 30
0.0
 11
1.330919552183025
 21
1.700815374681973
 31
0.0
  0
ARC
  5
6A
330
40
100
AcDbEntity
  8
4
100
AcDbCircle
 10
1.345802063450729
 20
1.672074599490251
 30
0.0
 40
0.00251805234375
100
AcDbArc
 50
201.6777967963419
 51
338.322203203658
  0
LINE
  5
6B
330
40
100
AcDbEntity
  8
4
100
AcDbLine
 10
1.343562892648054
 20
1.670922774103175
 30
0.0
 11
1.330919552183025
 21
1.69873097586103
 31
0.0
  0
LINE
  5
6C
330
40
100
AcDbEntity
  8
4
100
AcDbLine
 10
1.348041234253403
 20
1.670922774103175
 30
0.0
 11
1.360684574718434
 21
1.69873097586103
 31
0.0
  0
LINE
  5
6D
330
40
100
AcDbEntity
  8
4
100
AcDbLine
 10
1.320900421554305
 20
1.778984623314828
 30
0.0
 11
1.308257081089275
 21
1.751176421556972
 31
0.0
  0
ARC
  5
6E
330
40
100
AcDbEntity
  8
4
100
AcDbCircle
 10
1.310549330638228
 20
1.750134222146501
 30
0.0
 40
0.00251805234375
100
AcDbArc
 50
155.5504979363151
 51
204.4495020636847
  0
ARC
  5
6F
330
40
100
AcDbEntity
  8
4
100
AcDbCircle
 10
1.335729854075728
 20
1.750134222146501
 30
0.0
 40
0.00251805234375
100
AcDbArc
 50
335.5504979363153
 51
24.44950206368473
  0
LINE
  5
70
330
40
100
AcDbEntity
  8
4
100
AcDbLine
 10
1.325378763159654
 20
1.778984623314828
 30
0.0
 11
1.338022103624683
 21
1.751176421556972
 31
0.0
  0
ARC
  5
71
330
40
100
AcDbEntity
  8
4
100
AcDbCircle
 10
1.323139592356979
 20
1.777832797927751
 30
0.0
 40
0.00251805234375
100
AcDbArc
 50
21.67779679634199
 51
158.3222032036579
  0
LINE
  5
72
330
40
100
AcDbEntity
  8
4
100
AcDbLine
 10
1.524072185130417
 20
1.829601447210457
 30
0.0
 11
1.530996829075729
 21
1.829601447210457
 31
0.0
  0
LINE
  5
73
330
40
100
AcDbEntity
  8
4
100
AcDbLine
 10
0.9609087115990472
 20
3.126044667974729
 30
0.0
 11
0.5859087115990473
 21
3.126044667974729
 31
0.0
  0
LINE
  5
74
330
40
100
AcDbEntity
  8
4
100
AcDbLine
 10
0.9609087115990472
 20
2.985601731127685
 30
0.0
 11
0.5859087115990473
 21
2.985601731127685
 31
0.0
  0
TEXT
  5
75
330
40
100
AcDbEntity
  8
8
100
AcDbText
 10
0.6159087115990474
 20
3.250044667974729
 30
0.0
 40
0.07
  1
HANDLE & P/A
 50
90.0
  7
ROMANS
100
AcDbText
  0
TEXT
  5
76
330
40
100
AcDbEntity
  8
8
100
AcDbText
 10
0.6159087115990473
 20
1.854935064461018
 30
0.0
 40
0.07
  1
LOCK ESCUTCHEON
 50
90.0
  7
ROMANS
 72
     2
 11
0.6159087115990474
 21
2.861601731127685
 31
0.0
100
AcDbText
  0
LINE
  5
77
330
40
100
AcDbEntity
  8
4
100
AcDbLine
 10
0.5859087115990473
 20
3.126044667974729
 30
0.0
 11
0.5859087115990473
 21
3.188044667974728
 31
0.0
  0
LINE
  5
78
330
40
100
AcDbEntity
  8
4
100
AcDbLine
 10
0.5859087115990473
 20
2.985601731127685
 30
0.0
 11
0.5859087115990473
 21
2.923601731127685
 31
0.0
  0
LINE
  5
79
330
40
100
AcDbEntity
  8
2
100
AcDbLine
 10
1.163781124509478
 20
3.283864807558113
 30
0.0
 11
1.163781124509478
 21
4.291085745058113
 31
0.0
  0
LINE
  5
7A
330
40
100
AcDbEntity
  8
2
100
AcDbLine
 10
1.352409247495934
 20
4.239682498772642
 30
0.0
 11
1.352635050227321
 21
3.23350432577496
 31
0.0
  0
LINE
  5
7B
330
40
100
AcDbEntity
  8
4
100
AcDbLine
 10
1.348041234253403
 20
2.678143711603176
 30
0.0
 11
1.360684574718434
 21
2.705951913361031
 31
0.0
  0
LINE
  5
7C
330
40
100
AcDbEntity
  8
4
100
AcDbLine
 10
1.343562892648054
 20
2.678143711603176
 30
0.0
 11
1.330919552183025
 21
2.705951913361031
 31
0.0
  0
LINE
  5
7D
330
40
100
AcDbEntity
  8
4
100
AcDbLine
 10
1.212066407690904
 20
2.678143711603176
 30
0.0
 11
1.224709748155933
 21
2.705951913361031
 31
0.0
  0
LINE
  5
7E
330
40
100
AcDbEntity
  8
4
100
AcDbLine
 10
1.207588066085555
 20
2.678143711603176
 30
0.0
 11
1.194944725620525
 21
2.705951913361031
 31
0.0
  0
ARC
  5
7F
330
40
100
AcDbEntity
  8
4
100
AcDbCircle
 10
1.209827236888229
 20
2.679295536990252
 30
0.0
 40
0.00251805234375
100
AcDbArc
 50
201.6777967963419
 51
338.322203203658
  0
LINE
  5
80
330
40
100
AcDbEntity
  8
4
100
AcDbLine
 10
1.530996829075729
 20
1.910808635296394
 30
0.0
 11
1.524072185130417
 21
1.910808635296394
 31
0.0
  0
LINE
  5
81
330
40
100
AcDbEntity
  8
4
100
AcDbLine
 10
1.545248858808911
 20
1.868634280201391
 30
0.0
 11
1.513999343681407
 21
1.868634280201391
 31
0.0
  0
ARC
  5
82
330
40
100
AcDbEntity
  8
4
100
AcDbCircle
 10
1.345802063450729
 20
2.679295536990252
 30
0.0
 40
0.00251805234375
100
AcDbArc
 50
201.6777967963419
 51
338.322203203658
  0
LINE
  5
83
330
40
100
AcDbEntity
  8
2
100
AcDbLine
 10
1.20155190966573
 20
3.203287132558113
 30
0.0
 11
1.337526736228229
 21
3.203287132558113
 31
0.0
  0
LINE
  5
84
330
40
100
AcDbEntity
  8
2
100
AcDbLine
 10
1.265152179075729
 20
2.787571787771502
 30
0.0
 11
1.323139592356979
 21
2.787571787771502
 31
0.0
  0
LINE
  5
85
330
40
100
AcDbEntity
  8
4
100
AcDbLine
 10
0.8359087115990455
 20
3.10604466797473
 30
0.0
 11
0.8359087115990455
 21
3.14604466797473
 31
0.0
  0
LINE
  5
86
330
40
100
AcDbEntity
  8
4
100
AcDbLine
 10
0.8359087115990455
 20
3.13604466797473
 30
0.0
 11
0.9609087115990464
 21
3.126044667974729
 31
0.0
  0
LINE
  5
87
330
40
100
AcDbEntity
  8
4
100
AcDbLine
 10
0.9609087115990455
 20
3.126044667974729
 30
0.0
 11
0.8359087115990455
 21
3.14604466797473
 31
0.0
  0
LINE
  5
88
330
40
100
AcDbEntity
  8
4
100
AcDbLine
 10
0.8359087115990455
 20
2.995601731127685
 30
0.0
 11
0.9609087115990464
 21
2.985601731127685
 31
0.0
  0
LINE
  5
89
330
40
100
AcDbEntity
  8
4
100
AcDbLine
 10
0.8359087115990455
 20
2.975601731127686
 30
0.0
 11
0.9609087115990455
 21
2.985601731127685
 31
0.0
  0
LINE
  5
8A
330
40
100
AcDbEntity
  8
4
100
AcDbLine
 10
0.9609087115990455
 20
2.985601731127685
 30
0.0
 11
0.8359087115990455
 21
3.005601731127685
 31
0.0
  0
LINE
  5
8B
330
40
100
AcDbEntity
  8
4
100
AcDbLine
 10
0.8359087115990455
 20
2.965601731127685
 30
0.0
 11
0.9609087115990455
 21
2.985601731127685
 31
0.0
  0
LINE
  5
8C
330
40
100
AcDbEntity
  8
4
100
AcDbLine
 10
0.8359087115990455
 20
3.11604466797473
 30
0.0
 11
0.9609087115990455
 21
3.126044667974729
 31
0.0
  0
LINE
  5
8D
330
40
100
AcDbEntity
  8
4
100
AcDbLine
 10
0.8359087115990455
 20
3.10604466797473
 30
0.0
 11
0.9609087115990455
 21
3.126044667974729
 31
0.0
  0
LINE
  5
8E
330
40
100
AcDbEntity
  8
4
100
AcDbLine
 10
0.8359087115990455
 20
2.965601731127685
 30
0.0
 11
0.8359087115990455
 21
3.005601731127685
 31
0.0
  0
ARC
  5
8F
330
40
100
AcDbEntity
  8
4
100
AcDbCircle
 10
1.228347308951554
 20
2.937715706019834
 30
0.0
 40
0.02014441875
100
AcDbArc
 50
270.0
 51
356.4236656250018
  0
LINE
  5
90
330
40
100
AcDbEntity
  8
4
100
AcDbLine
 10
1.272690221304968
 20
3.082039035831506
 30
0.0
 11
1.262239291731536
 21
2.914824162656612
 31
0.0
  0
ARC
  5
91
330
40
100
AcDbEntity
  8
4
100
AcDbCircle
 10
1.148500274981155
 20
2.937715706019834
 30
0.0
 40
0.02014441875
100
AcDbArc
 50
183.5763343749982
 51
270.0
  0
LINE
  5
92
330
40
100
AcDbEntity
  8
4
100
AcDbLine
 10
1.104157362627741
 20
3.082039035831506
 30
0.0
 11
1.114608292201174
 21
2.914824162656612
 31
0.0
  0
ARC
  5
93
330
40
100
AcDbEntity
  8
4
100
AcDbCircle
 10
1.140996352862734
 20
2.916473416447956
 30
0.0
 40
0.026439549609375
100
AcDbArc
 50
183.5763343749982
 51
270.0
  0
LINE
  5
94
330
40
100
AcDbEntity
  8
2
100
AcDbLine
 10
1.18716476579448
 20
2.787571787771502
 30
0.0
 11
1.24515217907573
 21
2.787571787771502
 31
0.0
  0
LINE
  5
95
330
40
100
AcDbEntity
  8
4
100
AcDbLine
 10
1.212066407690904
 20
2.735844513939828
 30
0.0
 11
1.224709748155933
 21
2.708036312181973
 31
0.0
  0
LINE
  5
96
330
40
100
AcDbEntity
  8
4
100
AcDbLine
 10
1.189403936597154
 20
2.786205560814828
 30
0.0
 11
1.202047277062184
 21
2.758397359056973
 31
0.0
  0
ARC
  5
97
330
40
100
AcDbEntity
  8
4
100
AcDbCircle
 10
1.18716476579448
 20
2.785053735427752
 30
0.0
 40
0.00251805234375
100
AcDbArc
 50
21.67779679634199
 51
158.3222032036579
  0
ARC
  5
98
330
40
100
AcDbEntity
  8
4
100
AcDbCircle
 10
1.199755027513229
 20
2.757355159646502
 30
0.0
 40
0.00251805234375
100
AcDbArc
 50
335.5504979363153
 51
24.44950206368473
  0
ARC
  5
99
330
40
100
AcDbEntity
  8
4
100
AcDbCircle
 10
1.174574504075729
 20
2.757355159646502
 30
0.0
 40
0.00251805234375
100
AcDbArc
 50
155.5504979363151
 51
204.4495020636847
  0
LINE
  5
9A
330
40
100
AcDbEntity
  8
4
100
AcDbLine
 10
1.184925594991805
 20
2.786205560814828
 30
0.0
 11
1.172282254526774
 21
2.758397359056973
 31
0.0
  0
ARC
  5
9B
330
40
100
AcDbEntity
  8
4
100
AcDbCircle
 10
1.18716476579448
 20
2.729656583865252
 30
0.0
 40
0.00251805234375
100
AcDbArc
 50
201.6777967963419
 51
338.322203203658
  0
ARC
  5
9C
330
40
100
AcDbEntity
  8
4
100
AcDbCircle
 10
1.209827236888229
 20
2.734692688552752
 30
0.0
 40
0.00251805234375
100
AcDbArc
 50
21.67779679634199
 51
158.3222032036579
  0
ARC
  5
9D
330
40
100
AcDbEntity
  8
4
100
AcDbCircle
 10
1.197236975169478
 20
2.706994112771501
 30
0.0
 40
0.00251805234375
100
AcDbArc
 50
155.5504979363151
 51
204.4495020636847
  0
LINE
  5
9E
330
40
100
AcDbEntity
  8
4
100
AcDbLine
 10
1.207588066085555
 20
2.735844513939828
 30
0.0
 11
1.194944725620525
 21
2.708036312181973
 31
0.0
  0
LINE
  5
9F
330
40
100
AcDbEntity
  8
4
100
AcDbLine
 10
1.189403936597154
 20
2.728504758478175
 30
0.0
 11
1.202047277062184
 21
2.756312960236031
 31
0.0
  0
LINE
  5
A0
330
40
100
AcDbEntity
  8
4
100
AcDbLine
 10
1.184925594991804
 20
2.728504758478175
 30
0.0
 11
1.172282254526774
 21
2.756312960236031
 31
0.0
  0
ARC
  5
A1
330
40
100
AcDbEntity
  8
4
100
AcDbCircle
 10
1.222417498606978
 20
2.706994112771501
 30
0.0
 40
0.00251805234375
100
AcDbArc
 50
335.5504979363153
 51
24.44950206368473
  0
LINE
  5
A2
330
40
100
AcDbEntity
  8
4
100
AcDbLine
 10
1.188423791966354
 20
2.890033866838581
 30
0.0
 11
1.235851231069974
 21
2.890033866838581
 31
0.0
  0
CIRCLE
  5
A3
330
40
100
AcDbEntity
  8
4
100
AcDbCircle
 10
1.188423791966354
 20
2.90136510238546
 30
0.0
 40
0.00724796186625
  0
LINE
  5
A4
330
40
100
AcDbEntity
  8
4
100
AcDbLine
 10
1.188423791966354
 20
2.890033866838581
 30
0.0
 11
1.140996352862734
 21
2.890033866838581
 31
0.0
  0
ARC
  5
A5
330
40
100
AcDbEntity
  8
4
100
AcDbCircle
 10
1.235851231069974
 20
2.916473416447956
 30
0.0
 40
0.026439549609375
100
AcDbArc
 50
270.0
 51
356.4236656250018
  0
ARC
  5
A6
330
40
100
AcDbEntity
  8
4
100
AcDbCircle
 10
1.139990590569468
 20
3.073851687932331
 30
0.0
 40
0.02014441875
100
AcDbArc
 50
90.0
 51
183.5763343749982
  0
LINE
  5
A7
330
40
100
AcDbEntity
  8
4
100
AcDbLine
 10
1.119885401493992
 20
3.072595113615116
 30
0.0
 11
1.128395085905679
 21
2.936440163028152
 31
0.0
  0
ARC
  5
A8
330
40
100
AcDbEntity
  8
4
100
AcDbCircle
 10
1.134315146240957
 20
3.083923897307331
 30
0.0
 40
0.030216628125
100
AcDbArc
 50
90.0
 51
183.5763343749982
  0
LINE
  5
A9
330
40
100
AcDbEntity
  8
4
100
AcDbLine
 10
1.256962182438715
 20
3.072595113615116
 30
0.0
 11
1.24845249802703
 21
2.936459131702615
 31
0.0
  0
LINE
  5
AA
330
40
100
AcDbEntity
  8
4
100
AcDbLine
 10
1.188423791966354
 20
2.917571287269831
 30
0.0
 11
1.228347308951554
 21
2.917571287269834
 31
0.0
  0
CIRCLE
  5
AB
330
40
100
AcDbEntity
  8
4
100
AcDbCircle
 10
1.188423791966354
 20
2.95238587897452
 30
0.0
 40
0.0043914832875
  0
CIRCLE
  5
AC
330
40
100
AcDbEntity
  8
4
100
AcDbCircle
 10
1.188423791966354
 20
2.996421578362019
 30
0.0
 40
0.0132197748046875
  0
LINE
  5
AD
330
40
100
AcDbEntity
  8
4
100
AcDbLine
 10
1.188423791966354
 20
2.917571287269831
 30
0.0
 11
1.148500274981155
 21
2.917571287269834
 31
0.0
  0
LINE
  5
AE
330
40
100
AcDbEntity
  8
4
100
AcDbLine
 10
1.188423791966354
 20
3.11414052543233
 30
0.0
 11
1.242532437691752
 21
3.11414052543233
 31
0.0
  0
LINE
  5
AF
330
40
100
AcDbEntity
  8
4
100
AcDbLine
 10
1.188423791966354
 20
3.093996106682331
 30
0.0
 11
1.236856993363239
 21
3.093996106682331
 31
0.0
  0
LINE
  5
B0
330
40
100
AcDbEntity
  8
4
100
AcDbLine
 10
1.188423791966354
 20
3.11414052543233
 30
0.0
 11
1.134315146240957
 21
3.11414052543233
 31
0.0
  0
CIRCLE
  5
B1
330
40
100
AcDbEntity
  8
4
100
AcDbCircle
 10
1.188423791966354
 20
3.040457277749522
 30
0.0
 40
0.0043914832875
  0
ARC
  5
B2
330
40
100
AcDbEntity
  8
4
 62
   130
100
AcDbCircle
 10
1.141079031828062
 20
3.074344322379764
 30
0.0
 40
0.00628505865
100
AcDbArc
 50
45.0
 51
225.0
  0
LINE
  5
B3
330
40
100
AcDbEntity
  8
4
100
AcDbLine
 10
1.147360717917599
 20
3.071653626205041
 30
0.0
 11
1.143799654142301
 21
3.068092562429745
 31
0.0
  0
LINE
  5
B4
330
40
100
AcDbEntity
  8
4
100
AcDbLine
 10
1.142004877999553
 20
3.077009466123084
 30
0.0
 11
1.138443814224255
 21
3.073448402347787
 31
0.0
  0
LINE
  5
B5
330
40
100
AcDbEntity
  8
4
100
AcDbLine
 10
1.159781708365833
 20
3.059232635756805
 30
0.0
 11
1.156220644590537
 21
3.055671571981508
 31
0.0
  0
LINE
  5
B6
330
40
100
AcDbEntity
  8
4
100
AcDbLine
 10
1.161576484508583
 20
3.050315732063461
 30
0.0
 11
1.165137548283879
 21
3.053876795838758
 31
0.0
  0
ARC
  5
B7
330
40
100
AcDbEntity
  8
4
 62
   130
100
AcDbCircle
 10
1.162472404540562
 20
3.052950949667266
 30
0.0
 40
0.00628505865
100
AcDbArc
 50
225.0
 51
45.0
  0
LINE
  5
B8
330
40
100
AcDbEntity
  8
4
 62
   130
100
AcDbLine
 10
1.13663482423649
 20
3.069900114788195
 30
0.0
 11
1.158028196948992
 21
3.048506742075692
 31
0.0
  0
LINE
  5
B9
330
40
100
AcDbEntity
  8
4
100
AcDbLine
 10
1.138443814224255
 20
3.073448402347787
 30
0.0
 11
1.161576484508583
 21
3.050315732063461
 31
0.0
  0
LINE
  5
BA
330
40
100
AcDbEntity
  8
4
 62
   130
100
AcDbLine
 10
1.14552323941963
 20
3.078788529971333
 30
0.0
 11
1.166916612132133
 21
3.057395157258834
 31
0.0
  0
LINE
  5
BB
330
40
100
AcDbEntity
  8
4
100
AcDbLine
 10
1.142004877999553
 20
3.077009466123084
 30
0.0
 11
1.165137548283879
 21
3.053876795838758
 31
0.0
  0
LINE
  5
BC
330
40
100
AcDbEntity
  8
4
100
AcDbLine
 10
1.188423791966354
 20
3.093996106682331
 30
0.0
 11
1.139990590569468
 21
3.093996106682331
 31
0.0
  0
ARC
  5
BD
330
40
100
AcDbEntity
  8
4
100
AcDbCircle
 10
1.236856993363239
 20
3.073851687932331
 30
0.0
 40
0.02014441875
100
AcDbArc
 50
356.4236656250018
 51
90.0
  0
ARC
  5
BE
330
40
100
AcDbEntity
  8
4
100
AcDbCircle
 10
1.242532437691752
 20
3.083923897307331
 30
0.0
 40
0.030216628125
100
AcDbArc
 50
356.4236656250018
 51
90.0
  0
LINE
  5
BF
330
40
100
AcDbEntity
  8
4
100
AcDbLine
 10
1.203791080468405
 20
3.262354161851439
 30
0.0
 11
1.216434420933434
 21
3.234545960093584
 31
0.0
  0
LINE
  5
C0
330
40
100
AcDbEntity
  8
4
100
AcDbLine
 10
1.199312738863054
 20
3.262354161851439
 30
0.0
 11
1.186669398398024
 21
3.234545960093584
 31
0.0
  0
LINE
  5
C1
330
40
100
AcDbEntity
  8
4
100
AcDbLine
 10
1.203791080468405
 20
3.204653359514786
 30
0.0
 11
1.216434420933434
 21
3.232461561272641
 31
0.0
  0
LINE
  5
C2
330
40
100
AcDbEntity
  8
4
100
AcDbLine
 10
1.199312738863054
 20
3.204653359514786
 30
0.0
 11
1.186669398398024
 21
3.232461561272641
 31
0.0
  0
ARC
  5
C3
330
40
100
AcDbEntity
  8
4
100
AcDbCircle
 10
1.188961647946979
 20
3.233503760683113
 30
0.0
 40
0.00251805234375
100
AcDbArc
 50
155.5504979363151
 51
204.4495020636847
  0
ARC
  5
C4
330
40
100
AcDbEntity
  8
4
100
AcDbCircle
 10
1.20155190966573
 20
3.205805184901863
 30
0.0
 40
0.00251805234375
100
AcDbArc
 50
201.6777967963419
 51
338.322203203658
  0
ARC
  5
C5
330
40
100
AcDbEntity
  8
4
100
AcDbCircle
 10
1.214142171384479
 20
3.233503760683113
 30
0.0
 40
0.00251805234375
100
AcDbArc
 50
335.5504979363153
 51
24.44950206368473
  0
ARC
  5
C6
330
40
100
AcDbEntity
  8
4
100
AcDbCircle
 10
1.191479700290728
 20
3.283864807558113
 30
0.0
 40
0.00251805234375
100
AcDbArc
 50
335.5504979363153
 51
24.44950206368473
  0
ARC
  5
C7
330
40
100
AcDbEntity
  8
4
100
AcDbCircle
 10
1.178889438571981
 20
3.311563383339362
 30
0.0
 40
0.00251805234375
100
AcDbArc
 50
21.67779679634199
 51
158.3222032036579
  0
ARC
  5
C8
330
40
100
AcDbEntity
  8
4
100
AcDbCircle
 10
1.166299176853228
 20
3.283864807558113
 30
0.0
 40
0.00251805234375
100
AcDbArc
 50
155.5504979363151
 51
204.4495020636847
  0
LINE
  5
C9
330
40
100
AcDbEntity
  8
4
100
AcDbLine
 10
1.176650267769304
 20
3.312715208726439
 30
0.0
 11
1.164006927304273
 21
3.284907006968583
 31
0.0
  0
LINE
  5
CA
330
40
100
AcDbEntity
  8
4
100
AcDbLine
 10
1.181128609374655
 20
3.312715208726439
 30
0.0
 11
1.193771949839685
 21
3.284907006968583
 31
0.0
  0
ARC
  5
CB
330
40
100
AcDbEntity
  8
4
100
AcDbCircle
 10
1.20155190966573
 20
3.261202336464363
 30
0.0
 40
0.00251805234375
100
AcDbArc
 50
21.67779679634199
 51
158.3222032036579
  0
ARC
  5
CC
330
40
100
AcDbEntity
  8
4
100
AcDbCircle
 10
1.178889438571981
 20
3.256166231776863
 30
0.0
 40
0.00251805234375
100
AcDbArc
 50
201.6777967963419
 51
338.322203203658
  0
LINE
  5
CD
330
40
100
AcDbEntity
  8
4
100
AcDbLine
 10
1.176650267769303
 20
3.255014406389787
 30
0.0
 11
1.164006927304273
 21
3.282822608147642
 31
0.0
  0
LINE
  5
CE
330
40
100
AcDbEntity
  8
4
100
AcDbLine
 10
1.181128609374654
 20
3.255014406389787
 30
0.0
 11
1.193771949839685
 21
3.282822608147642
 31
0.0
  0
LINE
  5
CF
330
40
100
AcDbEntity
  8
4
100
AcDbLine
 10
1.320900421554305
 20
2.786205560814828
 30
0.0
 11
1.308257081089275
 21
2.758397359056973
 31
0.0
  0
ARC
  5
D0
330
40
100
AcDbEntity
  8
4
100
AcDbCircle
 10
1.310549330638228
 20
2.757355159646502
 30
0.0
 40
0.00251805234375
100
AcDbArc
 50
155.5504979363151
 51
204.4495020636847
  0
ARC
  5
D1
330
40
100
AcDbEntity
  8
4
100
AcDbCircle
 10
1.335729854075728
 20
2.757355159646502
 30
0.0
 40
0.00251805234375
100
AcDbArc
 50
335.5504979363153
 51
24.44950206368473
  0
LINE
  5
D2
330
40
100
AcDbEntity
  8
4
100
AcDbLine
 10
1.325378763159654
 20
2.786205560814828
 30
0.0
 11
1.338022103624683
 21
2.758397359056973
 31
0.0
  0
ARC
  5
D3
330
40
100
AcDbEntity
  8
4
100
AcDbCircle
 10
1.323139592356979
 20
2.785053735427752
 30
0.0
 40
0.00251805234375
100
AcDbArc
 50
21.67779679634199
 51
158.3222032036579
  0
ARC
  5
D4
330
40
100
AcDbEntity
  8
4
100
AcDbCircle
 10
1.35839232516948
 20
2.706994112771501
 30
0.0
 40
0.00251805234375
100
AcDbArc
 50
335.5504979363153
 51
24.44950206368473
  0
LINE
  5
D5
330
40
100
AcDbEntity
  8
4
100
AcDbLine
 10
1.348041234253403
 20
2.735844513939828
 30
0.0
 11
1.360684574718434
 21
2.708036312181973
 31
0.0
  0
ARC
  5
D6
330
40
100
AcDbEntity
  8
4
100
AcDbCircle
 10
1.323139592356979
 20
2.729656583865252
 30
0.0
 40
0.00251805234375
100
AcDbArc
 50
201.6777967963419
 51
338.322203203658
  0
ARC
  5
D7
330
40
100
AcDbEntity
  8
4
100
AcDbCircle
 10
1.333211801731979
 20
2.706994112771501
 30
0.0
 40
0.00251805234375
100
AcDbArc
 50
155.5504979363151
 51
204.4495020636847
  0
LINE
  5
D8
330
40
100
AcDbEntity
  8
4
100
AcDbLine
 10
1.343562892648054
 20
2.735844513939828
 30
0.0
 11
1.330919552183025
 21
2.708036312181973
 31
0.0
  0
ARC
  5
D9
330
40
100
AcDbEntity
  8
4
100
AcDbCircle
 10
1.345802063450729
 20
2.734692688552752
 30
0.0
 40
0.00251805234375
100
AcDbArc
 50
21.67779679634199
 51
158.3222032036579
  0
LINE
  5
DA
330
40
100
AcDbEntity
  8
4
100
AcDbLine
 10
1.325378763159654
 20
2.728504758478175
 30
0.0
 11
1.338022103624683
 21
2.756312960236031
 31
0.0
  0
LINE
  5
DB
330
40
100
AcDbEntity
  8
4
100
AcDbLine
 10
1.320900421554305
 20
2.728504758478175
 30
0.0
 11
1.308257081089275
 21
2.756312960236031
 31
0.0
  0
LINE
  5
DC
330
40
100
AcDbEntity
  8
4
100
AcDbLine
 10
1.524072185130417
 20
3.03889608529639
 30
0.0
 11
1.524072185130417
 21
2.957688897210453
 31
0.0
  0
LINE
  5
DD
330
40
100
AcDbEntity
  8
4
100
AcDbLine
 10
1.524072185130417
 20
2.957688897210453
 30
0.0
 11
1.530996829075729
 21
2.957688897210453
 31
0.0
  0
LINE
  5
DE
330
40
100
AcDbEntity
  8
4
100
AcDbLine
 10
1.540079766081055
 20
2.996721730201396
 30
0.0
 11
1.516190868118921
 21
2.996721730201396
 31
0.0
  0
LINE
  5
DF
330
40
100
AcDbEntity
  8
4
100
AcDbLine
 10
1.524072185130417
 20
3.03889608529639
 30
0.0
 11
1.530996829075729
 21
3.03889608529639
 31
0.0
  0
LINE
  5
E0
330
40
100
AcDbEntity
  8
4
100
AcDbLine
 10
1.335287565425555
 20
3.262354161851439
 30
0.0
 11
1.322644224960526
 21
3.234545960093584
 31
0.0
  0
LINE
  5
E1
330
40
100
AcDbEntity
  8
4
100
AcDbLine
 10
1.339765907030904
 20
3.262354161851439
 30
0.0
 11
1.352409247495933
 21
3.234545960093584
 31
0.0
  0
ARC
  5
E2
330
40
100
AcDbEntity
  8
4
100
AcDbCircle
 10
1.350116997946979
 20
3.233503760683113
 30
0.0
 40
0.00251805234375
100
AcDbArc
 50
335.5504979363153
 51
24.44950206368473
  0
ARC
  5
E3
330
40
100
AcDbEntity
  8
4
100
AcDbCircle
 10
1.337526736228229
 20
3.205805184901863
 30
0.0
 40
0.00251805234375
100
AcDbArc
 50
201.6777967963419
 51
338.322203203658
  0
ARC
  5
E4
330
40
100
AcDbEntity
  8
4
100
AcDbCircle
 10
1.32493647450948
 20
3.233503760683113
 30
0.0
 40
0.00251805234375
100
AcDbArc
 50
155.5504979363151
 51
204.4495020636847
  0
LINE
  5
E5
330
40
100
AcDbEntity
  8
4
100
AcDbLine
 10
1.335287565425555
 20
3.204653359514786
 30
0.0
 11
1.322644224960526
 21
3.232461561272641
 31
0.0
  0
LINE
  5
E6
330
40
100
AcDbEntity
  8
4
100
AcDbLine
 10
1.339765907030904
 20
3.204653359514786
 30
0.0
 11
1.352409247495933
 21
3.232461561272641
 31
0.0
  0
LINE
  5
E7
330
40
100
AcDbEntity
  8
4
100
AcDbLine
 10
1.312625094331804
 20
3.312715208726439
 30
0.0
 11
1.299981753866775
 21
3.284907006968583
 31
0.0
  0
ARC
  5
E8
330
40
100
AcDbEntity
  8
4
100
AcDbCircle
 10
1.302274003415729
 20
3.283864807558113
 30
0.0
 40
0.00251805234375
100
AcDbArc
 50
155.5504979363151
 51
204.4495020636847
  0
ARC
  5
E9
330
40
100
AcDbEntity
  8
4
100
AcDbCircle
 10
1.327454526853229
 20
3.283864807558113
 30
0.0
 40
0.00251805234375
100
AcDbArc
 50
335.5504979363153
 51
24.44950206368473
  0
ARC
  5
EA
330
40
100
AcDbEntity
  8
4
100
AcDbCircle
 10
1.31486426513448
 20
3.311563383339362
 30
0.0
 40
0.00251805234375
100
AcDbArc
 50
21.67779679634199
 51
158.3222032036579
  0
LINE
  5
EB
330
40
100
AcDbEntity
  8
4
100
AcDbLine
 10
1.317103435937155
 20
3.312715208726439
 30
0.0
 11
1.329746776402184
 21
3.284907006968583
 31
0.0
  0
ARC
  5
EC
330
40
100
AcDbEntity
  8
4
100
AcDbCircle
 10
1.31486426513448
 20
3.256166231776863
 30
0.0
 40
0.00251805234375
100
AcDbArc
 50
201.6777967963419
 51
338.322203203658
  0
ARC
  5
ED
330
40
100
AcDbEntity
  8
4
100
AcDbCircle
 10
1.337526736228229
 20
3.261202336464363
 30
0.0
 40
0.00251805234375
100
AcDbArc
 50
21.67779679634199
 51
158.3222032036579
  0
LINE
  5
EE
330
40
100
AcDbEntity
  8
4
100
AcDbLine
 10
1.312625094331804
 20
3.255014406389787
 30
0.0
 11
1.299981753866775
 21
3.282822608147642
 31
0.0
  0
LINE
  5
EF
330
40
100
AcDbEntity
  8
4
100
AcDbLine
 10
1.317103435937155
 20
3.255014406389787
 30
0.0
 11
1.329746776402184
 21
3.282822608147642
 31
0.0
  0
LINE
  5
F0
330
40
100
AcDbEntity
  8
4
100
AcDbLine
 10
1.68699682907573
 20
4.003365996915924
 30
0.0
 11
2.18799682907573
 21
4.003365996915924
 31
0.0
  0
LINE
  5
F1
330
40
100
AcDbEntity
  8
4
100
AcDbLine
 10
1.68699682907573
 20
3.941365996915924
 30
0.0
 11
2.18799682907573
 21
3.941365996915924
 31
0.0
  0
ARC
  5
F2
330
40
100
AcDbEntity
  8
4
100
AcDbCircle
 10
1.291663938060104
 20
4.096792826214363
 30
0.0
 40
0.2820218625
100
AcDbArc
 50
81.40466153831992
 51
98.5953384616797
  0
ARC
  5
F3
330
40
100
AcDbEntity
  8
4
100
AcDbCircle
 10
1.291663938060104
 20
4.619288687542489
 30
0.0
 40
0.2820218625
100
AcDbArc
 50
261.40466153832
 51
278.5953384616799
  0
LINE
  5
F4
330
40
100
AcDbEntity
  8
4
100
AcDbLine
 10
1.530996829075729
 20
4.403365699065926
 30
0.0
 11
1.09399682907573
 21
4.403365699065926
 31
0.0
  0
LINE
  5
F5
330
40
100
AcDbEntity
  8
2
100
AcDbLine
 10
1.25687685185323
 20
4.321302373183112
 30
0.0
 11
1.31486426513448
 21
4.321302373183112
 31
0.0
  0
LINE
  5
F6
330
40
100
AcDbEntity
  8
4
100
AcDbLine
 10
1.176650267769304
 20
4.319936146226439
 30
0.0
 11
1.164006927304273
 21
4.292127944468584
 31
0.0
  0
LINE
  5
F7
330
40
100
AcDbEntity
  8
4
100
AcDbLine
 10
1.181128609374655
 20
4.319936146226439
 30
0.0
 11
1.193771949839685
 21
4.292127944468584
 31
0.0
  0
LINE
  5
F8
330
40
100
AcDbEntity
  8
4
100
AcDbLine
 10
1.203791080468405
 20
4.26957509935144
 30
0.0
 11
1.216434420933434
 21
4.241766897593585
 31
0.0
  0
LINE
  5
F9
330
40
100
AcDbEntity
  8
4
100
AcDbLine
 10
1.203791080468405
 20
4.211874297014787
 30
0.0
 11
1.216434420933434
 21
4.239682498772642
 31
0.0
  0
LINE
  5
FA
330
40
100
AcDbEntity
  8
4
100
AcDbLine
 10
1.199312738863054
 20
4.26957509935144
 30
0.0
 11
1.186669398398024
 21
4.241766897593585
 31
0.0
  0
LINE
  5
FB
330
40
100
AcDbEntity
  8
4
100
AcDbLine
 10
1.199312738863054
 20
4.211874297014787
 30
0.0
 11
1.186669398398024
 21
4.239682498772642
 31
0.0
  0
ARC
  5
FC
330
40
100
AcDbEntity
  8
4
100
AcDbCircle
 10
1.188961647946979
 20
4.240724698183113
 30
0.0
 40
0.00251805234375
100
AcDbArc
 50
155.5504979363151
 51
204.4495020636847
  0
ARC
  5
FD
330
40
100
AcDbEntity
  8
4
100
AcDbCircle
 10
1.191479700290728
 20
4.291085745058113
 30
0.0
 40
0.00251805234375
100
AcDbArc
 50
335.5504979363153
 51
24.44950206368473
  0
ARC
  5
FE
330
40
100
AcDbEntity
  8
4
100
AcDbCircle
 10
1.20155190966573
 20
4.268423273964364
 30
0.0
 40
0.00251805234375
100
AcDbArc
 50
21.67779679634199
 51
158.3222032036579
  0
ARC
  5
FF
330
40
100
AcDbEntity
  8
4
100
AcDbCircle
 10
1.20155190966573
 20
4.213026122401863
 30
0.0
 40
0.00251805234375
100
AcDbArc
 50
201.6777967963419
 51
338.322203203658
  0
ARC
  5
100
330
40
100
AcDbEntity
  8
4
100
AcDbCircle
 10
1.166299176853228
 20
4.291085745058113
 30
0.0
 40
0.00251805234375
100
AcDbArc
 50
155.5504979363151
 51
204.4495020636847
  0
ARC
  5
101
330
40
100
AcDbEntity
  8
4
100
AcDbCircle
 10
1.178889438571981
 20
4.263387169276864
 30
0.0
 40
0.00251805234375
100
AcDbArc
 50
201.6777967963419
 51
338.322203203658
  0
LINE
  5
102
330
40
100
AcDbEntity
  8
4
100
AcDbLine
 10
1.176650267769303
 20
4.262235343889786
 30
0.0
 11
1.164006927304273
 21
4.290043545647643
 31
0.0
  0
LINE
  5
103
330
40
100
AcDbEntity
  8
4
100
AcDbLine
 10
1.181128609374654
 20
4.262235343889786
 30
0.0
 11
1.193771949839685
 21
4.290043545647643
 31
0.0
  0
ARC
  5
104
330
40
100
AcDbEntity
  8
4
100
AcDbCircle
 10
1.214142171384479
 20
4.240724698183113
 30
0.0
 40
0.00251805234375
100
AcDbArc
 50
335.5504979363153
 51
24.44950206368473
  0
LINE
  5
105
330
40
100
AcDbEntity
  8
2
100
AcDbLine
 10
1.178889438571981
 20
4.321302373183112
 30
0.0
 11
1.236876851853231
 21
4.321302373183112
 31
0.0
  0
ARC
  5
106
330
40
100
AcDbEntity
  8
4
100
AcDbCircle
 10
1.178889438571981
 20
4.318784320839363
 30
0.0
 40
0.00251805234375
100
AcDbArc
 50
21.67779679634199
 51
158.3222032036579
  0
ARC
  5
107
330
40
100
AcDbEntity
  8
4
100
AcDbCircle
 10
1.329434723216354
 20
4.358040756878425
 30
0.0
 40
0.081836701171875
100
AcDbArc
 50
167.5762104955835
 51
192.4237895044164
  0
CIRCLE
  5
108
330
40
100
AcDbEntity
  8
4
100
AcDbCircle
 10
1.253893152903855
 20
4.358040756878425
 30
0.0
 40
0.00273964095
  0
ARC
  5
109
330
40
100
AcDbEntity
  8
4
100
AcDbCircle
 10
1.71199682907573
 20
3.841365996915925
 30
0.0
 40
0.025
100
AcDbArc
 50
180.0
 51
0.0
  0
LINE
  5
10A
330
40
100
AcDbEntity
  8
4
100
AcDbLine
 10
1.96699682907573
 20
3.904365996915923
 30
0.0
 11
1.96699682907573
 21
3.842365996915924
 31
0.0
  0
LINE
  5
10B
330
40
100
AcDbEntity
  8
4
100
AcDbLine
 10
1.90499682907573
 20
3.904365996915923
 30
0.0
 11
1.90499682907573
 21
3.842365996915924
 31
0.0
  0
LINE
  5
10C
330
40
100
AcDbEntity
  8
4
100
AcDbLine
 10
1.90499682907573
 20
3.904365996915923
 30
0.0
 11
1.96699682907573
 21
3.904365996915923
 31
0.0
  0
LINE
  5
10D
330
40
100
AcDbEntity
  8
4
100
AcDbLine
 10
1.524072185130417
 20
4.166983535296399
 30
0.0
 11
1.524072185130417
 21
4.085776347210462
 31
0.0
  0
LINE
  5
10E
330
40
100
AcDbEntity
  8
4
100
AcDbLine
 10
1.524072185130417
 20
4.085776347210462
 30
0.0
 11
1.530996829075729
 21
4.085776347210462
 31
0.0
  0
LINE
  5
10F
330
40
100
AcDbEntity
  8
4
100
AcDbLine
 10
1.530996829075729
 20
4.166983535296399
 30
0.0
 11
1.524072185130417
 21
4.166983535296399
 31
0.0
  0
LINE
  5
110
330
40
100
AcDbEntity
  8
4
100
AcDbLine
 10
1.536793061967165
 20
4.124809180201397
 30
0.0
 11
1.515653764043592
 21
4.124809180201397
 31
0.0
  0
LINE
  5
111
330
40
100
AcDbEntity
  8
4
  6
HIDDEN
100
AcDbLine
 10
1.505093121005102
 20
4.399246165431563
 30
0.0
 11
1.390101654723856
 21
4.399246165431554
 31
0.0
  0
LINE
  5
112
330
40
100
AcDbEntity
  8
4
100
AcDbLine
 10
1.312625094331804
 20
4.319936146226439
 30
0.0
 11
1.299981753866775
 21
4.292127944468584
 31
0.0
  0
LINE
  5
113
330
40
100
AcDbEntity
  8
4
100
AcDbLine
 10
1.317103435937155
 20
4.319936146226439
 30
0.0
 11
1.329746776402184
 21
4.292127944468584
 31
0.0
  0
ARC
  5
114
330
40
100
AcDbEntity
  8
4
100
AcDbCircle
 10
1.350116997946979
 20
4.240724698183113
 30
0.0
 40
0.00251805234375
100
AcDbArc
 50
335.5504979363153
 51
24.44950206368473
  0
LINE
  5
115
330
40
100
AcDbEntity
  8
4
100
AcDbLine
 10
1.312625094331804
 20
4.262235343889786
 30
0.0
 11
1.299981753866775
 21
4.290043545647643
 31
0.0
  0
ARC
  5
116
330
40
100
AcDbEntity
  8
4
100
AcDbCircle
 10
1.302274003415729
 20
4.291085745058113
 30
0.0
 40
0.00251805234375
100
AcDbArc
 50
155.5504979363151
 51
204.4495020636847
  0
ARC
  5
117
330
40
100
AcDbEntity
  8
4
100
AcDbCircle
 10
1.327454526853229
 20
4.291085745058113
 30
0.0
 40
0.00251805234375
100
AcDbArc
 50
335.5504979363153
 51
24.44950206368473
  0
ARC
  5
118
330
40
100
AcDbEntity
  8
4
100
AcDbCircle
 10
1.337526736228229
 20
4.268423273964364
 30
0.0
 40
0.00251805234375
100
AcDbArc
 50
21.67779679634199
 51
158.3222032036579
  0
ARC
  5
119
330
40
100
AcDbEntity
  8
4
100
AcDbCircle
 10
1.32493647450948
 20
4.240724698183113
 30
0.0
 40
0.00251805234375
100
AcDbArc
 50
155.5504979363151
 51
204.4495020636847
  0
LINE
  5
11A
330
40
100
AcDbEntity
  8
4
100
AcDbLine
 10
1.335287565425555
 20
4.26957509935144
 30
0.0
 11
1.322644224960526
 21
4.241766897593585
 31
0.0
  0
ARC
  5
11B
330
40
100
AcDbEntity
  8
4
100
AcDbCircle
 10
1.31486426513448
 20
4.263387169276864
 30
0.0
 40
0.00251805234375
100
AcDbArc
 50
201.6777967963419
 51
338.322203203658
  0
LINE
  5
11C
330
40
100
AcDbEntity
  8
4
100
AcDbLine
 10
1.317103435937155
 20
4.262235343889786
 30
0.0
 11
1.329746776402184
 21
4.290043545647643
 31
0.0
  0
ARC
  5
11D
330
40
100
AcDbEntity
  8
4
100
AcDbCircle
 10
1.337526736228229
 20
4.213026122401863
 30
0.0
 40
0.00251805234375
100
AcDbArc
 50
201.6777967963419
 51
338.322203203658
  0
LINE
  5
11E
330
40
100
AcDbEntity
  8
4
100
AcDbLine
 10
1.335287565425555
 20
4.211874297014787
 30
0.0
 11
1.322644224960526
 21
4.239682498772642
 31
0.0
  0
LINE
  5
11F
330
40
100
AcDbEntity
  8
4
100
AcDbLine
 10
1.339765907030904
 20
4.26957509935144
 30
0.0
 11
1.352409247495933
 21
4.241766897593585
 31
0.0
  0
LINE
  5
120
330
40
100
AcDbEntity
  8
4
100
AcDbLine
 10
1.339765907030904
 20
4.211874297014787
 30
0.0
 11
1.352409247495933
 21
4.239682498772642
 31
0.0
  0
CIRCLE
  5
121
330
40
100
AcDbEntity
  8
4
100
AcDbCircle
 10
1.329434723216354
 20
4.358040756878425
 30
0.0
 40
0.00273964095
  0
ARC
  5
122
330
40
100
AcDbEntity
  8
4
100
AcDbCircle
 10
1.253893152903855
 20
4.358040756878425
 30
0.0
 40
0.081836701171875
100
AcDbArc
 50
347.5762104955836
 51
12.42378950441644
  0
ARC
  5
123
330
40
100
AcDbEntity
  8
4
100
AcDbCircle
 10
1.31486426513448
 20
4.318784320839363
 30
0.0
 40
0.00251805234375
100
AcDbArc
 50
21.67779679634199
 51
158.3222032036579
  0
LINE
  5
124
330
40
100
AcDbEntity
  8
4
100
AcDbLine
 10
2.62499682907573
 20
4.003365996915924
 30
0.0
 11
2.812996829075729
 21
4.003365996915924
 31
0.0
  0
LINE
  5
125
330
40
100
AcDbEntity
  8
4
100
AcDbLine
 10
2.62499682907573
 20
3.941365996915924
 30
0.0
 11
2.812996829075729
 21
3.941365996915924
 31
0.0
  0
ARC
  5
126
330
40
100
AcDbEntity
  8
4
100
AcDbCircle
 10
2.33699682907573
 20
3.841365996915925
 30
0.0
 40
0.025
100
AcDbArc
 50
180.0
 51
0.0
  0
LINE
  5
127
330
40
100
AcDbEntity
  8
4
100
AcDbLine
 10
2.31199682907573
 20
3.941365996915924
 30
0.0
 11
2.49999682907573
 21
3.941365996915924
 31
0.0
  0
ARC
  5
128
330
40
100
AcDbEntity
  8
4
100
AcDbCircle
 10
2.16299682907573
 20
3.841365996915925
 30
0.0
 40
0.025
100
AcDbArc
 50
180.0
 51
0.0
  0
LINE
  5
129
330
40
100
AcDbEntity
  8
4
100
AcDbLine
 10
2.31199682907573
 20
4.003365996915924
 30
0.0
 11
2.49999682907573
 21
4.003365996915924
 31
0.0
  0
ARC
  5
12A
330
40
100
AcDbEntity
  8
4
100
AcDbCircle
 10
2.787996829075729
 20
3.841365996915925
 30
0.0
 40
0.025
100
AcDbArc
 50
180.0
 51
0.0
  0
ARC
  5
12B
330
40
100
AcDbEntity
  8
4
100
AcDbCircle
 10
2.96199682907573
 20
3.841365996915925
 30
0.0
 40
0.025
100
AcDbArc
 50
180.0
 51
0.0
  0
LINE
  5
12C
330
40
100
AcDbEntity
  8
4
100
AcDbLine
 10
3.15499682907573
 20
3.904365996915923
 30
0.0
 11
3.21699682907573
 21
3.904365996915923
 31
0.0
  0
LINE
  5
12D
330
40
100
AcDbEntity
  8
4
100
AcDbLine
 10
3.15499682907573
 20
3.904365996915923
 30
0.0
 11
3.15499682907573
 21
3.842365996915924
 31
0.0
  0
LINE
  5
12E
330
40
100
AcDbEntity
  8
4
100
AcDbLine
 10
3.21699682907573
 20
3.904365996915923
 30
0.0
 11
3.21699682907573
 21
3.842365996915924
 31
0.0
  0
LINE
  5
12F
330
40
100
AcDbEntity
  8
2
100
AcDbLine
 10
7.425932332246601
 20
1.901161446463317
 30
0.0
 11
7.425932332246601
 21
1.690853625055708
 31
0.0
  0
LINE
  5
130
330
40
100
AcDbEntity
  8
2
100
AcDbLine
 10
7.113432332246601
 20
1.959161446463317
 30
0.0
 11
7.113432332246601
 21
1.748853625055708
 31
0.0
  0
LINE
  5
131
330
40
100
AcDbEntity
  8
2
100
AcDbLine
 10
6.574432332246601
 20
1.959161446463317
 30
0.0
 11
6.574432332246601
 21
1.748853625055708
 31
0.0
  0
LINE
  5
132
330
40
100
AcDbEntity
  8
2
100
AcDbLine
 10
6.886932332246601
 20
1.901161446463317
 30
0.0
 11
6.886932332246601
 21
1.690853625055708
 31
0.0
  0
LINE
  5
133
330
40
100
AcDbEntity
  8
2
100
AcDbLine
 10
5.264432332246602
 20
1.959161446463317
 30
0.0
 11
5.264432332246602
 21
1.748853625055708
 31
0.0
  0
LINE
  5
134
330
40
100
AcDbEntity
  8
2
100
AcDbLine
 10
5.576932332246602
 20
1.901161446463317
 30
0.0
 11
5.576932332246602
 21
1.690853625055708
 31
0.0
  0
LINE
  5
135
330
40
100
AcDbEntity
  8
4
100
AcDbLine
 10
7.624496829075731
 20
4.403365996915924
 30
0.0
 11
7.624496829075731
 21
1.591365996915924
 31
0.0
  0
LINE
  5
136
330
40
100
AcDbEntity
  8
4
100
AcDbLine
 10
6.375496829075729
 20
4.403365996915924
 30
0.0
 11
6.375496829075729
 21
1.591365996915924
 31
0.0
  0
LINE
  5
137
330
40
100
AcDbEntity
  8
4
100
AcDbLine
 10
5.06549682907573
 20
4.403365996915924
 30
0.0
 11
5.06549682907573
 21
1.591365996915924
 31
0.0
  0
LINE
  5
138
330
40
100
AcDbEntity
  8
4
100
AcDbLine
 10
4.81249682907573
 20
4.497365996915924
 30
0.0
 11
4.81249682907573
 21
1.559365996915924
 31
0.0
  0
TEXT
  5
139
330
40
100
AcDbEntity
  8
8
100
AcDbText
 10
4.750496829075729
 20
1.688661337841248
 30
0.0
 40
0.07
  1
1
 50
90.0
 72
     1
 11
4.750496829075729
 21
1.700328004507914
 31
0.0
100
AcDbText
  0
LINE
  5
13A
330
40
100
AcDbEntity
  8
2
100
AcDbLine
 10
5.308182332246601
 20
1.653353625055709
 30
0.0
 11
5.558182332246601
 21
1.653353625055709
 31
0.0
  0
LINE
  5
13B
330
40
100
AcDbEntity
  8
4
100
AcDbLine
 10
4.832496829075729
 20
1.372365996915922
 30
0.0
 11
4.81249682907573
 21
1.497365996915922
 31
0.0
  0
LINE
  5
13C
330
40
100
AcDbEntity
  8
4
100
AcDbLine
 10
4.81249682907573
 20
1.497365996915922
 30
0.0
 11
4.792496829075729
 21
1.372365996915922
 31
0.0
  0
LINE
  5
13D
330
40
100
AcDbEntity
  8
4
100
AcDbLine
 10
4.822496829075729
 20
1.372365996915922
 30
0.0
 11
4.81249682907573
 21
1.497365996915922
 31
0.0
  0
LINE
  5
13E
330
40
100
AcDbEntity
  8
4
100
AcDbLine
 10
4.802496829075729
 20
1.372365996915922
 30
0.0
 11
4.81249682907573
 21
1.497365996915922
 31
0.0
  0
LINE
  5
13F
330
40
100
AcDbEntity
  8
4
100
AcDbLine
 10
4.81249682907573
 20
1.497365996915923
 30
0.0
 11
4.81249682907573
 21
1.372365996915923
 31
0.0
  0
LINE
  5
140
330
40
100
AcDbEntity
  8
4
100
AcDbLine
 10
4.832496829075729
 20
1.372365996915922
 30
0.0
 11
4.792496829075729
 21
1.372365996915922
 31
0.0
  0
LINE
  5
141
330
40
100
AcDbEntity
  8
4
100
AcDbLine
 10
4.79249682907573
 20
1.684365996915925
 30
0.0
 11
4.81249682907573
 21
1.559365996915925
 31
0.0
  0
LINE
  5
142
330
40
100
AcDbEntity
  8
4
100
AcDbLine
 10
4.81249682907573
 20
1.559365996915925
 30
0.0
 11
4.83249682907573
 21
1.684365996915925
 31
0.0
  0
LINE
  5
143
330
40
100
AcDbEntity
  8
4
100
AcDbLine
 10
4.802496829075731
 20
1.684365996915925
 30
0.0
 11
4.81249682907573
 21
1.559365996915925
 31
0.0
  0
LINE
  5
144
330
40
100
AcDbEntity
  8
4
100
AcDbLine
 10
4.82249682907573
 20
1.684365996915925
 30
0.0
 11
4.81249682907573
 21
1.559365996915925
 31
0.0
  0
LINE
  5
145
330
40
100
AcDbEntity
  8
4
100
AcDbLine
 10
5.00249682907573
 20
1.559365996915924
 30
0.0
 11
4.81249682907573
 21
1.559365996915924
 31
0.0
  0
LINE
  5
146
330
40
100
AcDbEntity
  8
4
100
AcDbLine
 10
4.81249682907573
 20
1.559365996915924
 30
0.0
 11
4.750496829075729
 21
1.559365996915924
 31
0.0
  0
LINE
  5
147
330
40
100
AcDbEntity
  8
4
100
AcDbLine
 10
4.79249682907573
 20
1.684365996915925
 30
0.0
 11
4.83249682907573
 21
1.684365996915925
 31
0.0
  0
LINE
  5
148
330
40
100
AcDbEntity
  8
4
100
AcDbLine
 10
5.06549682907573
 20
1.591365996915924
 30
0.0
 11
5.12749682907573
 21
1.591365996915924
 31
0.0
  0
LINE
  5
149
330
40
100
AcDbEntity
  8
4
100
AcDbLine
 10
5.264432332246602
 20
1.748853625055708
 30
0.0
 11
5.283182332246601
 21
1.711353625055708
 31
0.0
  0
LINE
  5
14A
330
40
100
AcDbEntity
  8
4
100
AcDbLine
 10
5.283182332246601
 20
1.711353625055708
 30
0.0
 11
5.301932332246601
 21
1.748853625055708
 31
0.0
  0
LINE
  5
14B
330
40
100
AcDbEntity
  8
4
100
AcDbLine
 10
5.308182332246601
 20
1.653353625055709
 30
0.0
 11
5.326932332246602
 21
1.690853625055708
 31
0.0
  0
LINE
  5
14C
330
40
100
AcDbEntity
  8
4
100
AcDbLine
 10
5.308182332246601
 20
1.728353625055708
 30
0.0
 11
5.326932332246602
 21
1.690853625055708
 31
0.0
  0
LINE
  5
14D
330
40
100
AcDbEntity
  8
4
100
AcDbLine
 10
5.289432332246601
 20
1.690853625055708
 30
0.0
 11
5.308182332246601
 21
1.653353625055709
 31
0.0
  0
LINE
  5
14E
330
40
100
AcDbEntity
  8
4
100
AcDbLine
 10
5.289432332246601
 20
1.690853625055708
 30
0.0
 11
5.308182332246601
 21
1.728353625055708
 31
0.0
  0
LINE
  5
14F
330
40
100
AcDbEntity
  8
4
100
AcDbLine
 10
5.264432332246602
 20
1.748853625055708
 30
0.0
 11
5.283182332246601
 21
1.786353625055708
 31
0.0
  0
LINE
  5
150
330
40
100
AcDbEntity
  8
4
100
AcDbLine
 10
5.283182332246601
 20
1.786353625055708
 30
0.0
 11
5.301932332246601
 21
1.748853625055708
 31
0.0
  0
LINE
  5
151
330
40
100
AcDbEntity
  8
4
100
AcDbLine
 10
5.558182332246601
 20
1.653353625055709
 30
0.0
 11
5.576932332246602
 21
1.690853625055708
 31
0.0
  0
LINE
  5
152
330
40
100
AcDbEntity
  8
4
100
AcDbLine
 10
5.558182332246601
 20
1.728353625055708
 30
0.0
 11
5.576932332246602
 21
1.690853625055708
 31
0.0
  0
LINE
  5
153
330
40
100
AcDbEntity
  8
4
100
AcDbLine
 10
5.533182332246601
 20
1.711353625055708
 30
0.0
 11
5.551932332246601
 21
1.748853625055708
 31
0.0
  0
LINE
  5
154
330
40
100
AcDbEntity
  8
4
100
AcDbLine
 10
5.514432332246602
 20
1.748853625055708
 30
0.0
 11
5.533182332246601
 21
1.711353625055708
 31
0.0
  0
LINE
  5
155
330
40
100
AcDbEntity
  8
4
100
AcDbLine
 10
5.539432332246601
 20
1.690853625055708
 30
0.0
 11
5.558182332246601
 21
1.653353625055709
 31
0.0
  0
LINE
  5
156
330
40
100
AcDbEntity
  8
4
100
AcDbLine
 10
5.539432332246601
 20
1.690853625055708
 30
0.0
 11
5.558182332246601
 21
1.728353625055708
 31
0.0
  0
LINE
  5
157
330
40
100
AcDbEntity
  8
4
100
AcDbLine
 10
5.533182332246601
 20
1.786353625055708
 30
0.0
 11
5.551932332246601
 21
1.748853625055708
 31
0.0
  0
LINE
  5
158
330
40
100
AcDbEntity
  8
4
100
AcDbLine
 10
5.514432332246602
 20
1.748853625055708
 30
0.0
 11
5.533182332246601
 21
1.786353625055708
 31
0.0
  0
LINE
  5
159
330
40
100
AcDbEntity
  8
2
100
AcDbLine
 10
6.6181823322466
 20
1.653353625055709
 30
0.0
 11
6.8681823322466
 21
1.653353625055709
 31
0.0
  0
LINE
  5
15A
330
40
100
AcDbEntity
  8
4
100
AcDbLine
 10
6.375496829075729
 20
1.591365996915924
 30
0.0
 11
6.43749682907573
 21
1.591365996915924
 31
0.0
  0
LINE
  5
15B
330
40
100
AcDbEntity
  8
4
100
AcDbLine
 10
6.574432332246601
 20
1.748853625055708
 30
0.0
 11
6.593182332246601
 21
1.786353625055708
 31
0.0
  0
LINE
  5
15C
330
40
100
AcDbEntity
  8
4
100
AcDbLine
 10
6.574432332246601
 20
1.748853625055708
 30
0.0
 11
6.593182332246601
 21
1.711353625055708
 31
0.0
  0
LINE
  5
15D
330
40
100
AcDbEntity
  8
4
100
AcDbLine
 10
6.593182332246601
 20
1.711353625055708
 30
0.0
 11
6.611932332246601
 21
1.748853625055708
 31
0.0
  0
LINE
  5
15E
330
40
100
AcDbEntity
  8
4
100
AcDbLine
 10
6.599432332246601
 20
1.690853625055708
 30
0.0
 11
6.6181823322466
 21
1.653353625055709
 31
0.0
  0
LINE
  5
15F
330
40
100
AcDbEntity
  8
4
100
AcDbLine
 10
6.6181823322466
 20
1.653353625055709
 30
0.0
 11
6.636932332246601
 21
1.690853625055708
 31
0.0
  0
LINE
  5
160
330
40
100
AcDbEntity
  8
4
100
AcDbLine
 10
6.6181823322466
 20
1.728353625055708
 30
0.0
 11
6.636932332246601
 21
1.690853625055708
 31
0.0
  0
LINE
  5
161
330
40
100
AcDbEntity
  8
4
100
AcDbLine
 10
6.599432332246601
 20
1.690853625055708
 30
0.0
 11
6.6181823322466
 21
1.728353625055708
 31
0.0
  0
LINE
  5
162
330
40
100
AcDbEntity
  8
4
100
AcDbLine
 10
6.593182332246601
 20
1.786353625055708
 30
0.0
 11
6.611932332246601
 21
1.748853625055708
 31
0.0
  0
LINE
  5
163
330
40
100
AcDbEntity
  8
4
100
AcDbLine
 10
6.843182332246601
 20
1.711353625055708
 30
0.0
 11
6.861932332246601
 21
1.748853625055708
 31
0.0
  0
LINE
  5
164
330
40
100
AcDbEntity
  8
4
100
AcDbLine
 10
6.824432332246601
 20
1.748853625055708
 30
0.0
 11
6.843182332246601
 21
1.711353625055708
 31
0.0
  0
LINE
  5
165
330
40
100
AcDbEntity
  8
4
100
AcDbLine
 10
6.849432332246601
 20
1.690853625055708
 30
0.0
 11
6.8681823322466
 21
1.653353625055709
 31
0.0
  0
LINE
  5
166
330
40
100
AcDbEntity
  8
4
100
AcDbLine
 10
6.8681823322466
 20
1.653353625055709
 30
0.0
 11
6.886932332246601
 21
1.690853625055708
 31
0.0
  0
LINE
  5
167
330
40
100
AcDbEntity
  8
4
100
AcDbLine
 10
6.849432332246601
 20
1.690853625055708
 30
0.0
 11
6.8681823322466
 21
1.728353625055708
 31
0.0
  0
LINE
  5
168
330
40
100
AcDbEntity
  8
4
100
AcDbLine
 10
6.8681823322466
 20
1.728353625055708
 30
0.0
 11
6.886932332246601
 21
1.690853625055708
 31
0.0
  0
LINE
  5
169
330
40
100
AcDbEntity
  8
4
100
AcDbLine
 10
6.843182332246601
 20
1.786353625055708
 30
0.0
 11
6.861932332246601
 21
1.748853625055708
 31
0.0
  0
LINE
  5
16A
330
40
100
AcDbEntity
  8
4
100
AcDbLine
 10
6.824432332246601
 20
1.748853625055708
 30
0.0
 11
6.843182332246601
 21
1.786353625055708
 31
0.0
  0
LINE
  5
16B
330
40
100
AcDbEntity
  8
2
100
AcDbLine
 10
7.1571823322466
 20
1.653353625055709
 30
0.0
 11
7.4071823322466
 21
1.653353625055709
 31
0.0
  0
LINE
  5
16C
330
40
100
AcDbEntity
  8
4
100
AcDbLine
 10
7.113432332246601
 20
1.748853625055708
 30
0.0
 11
7.1321823322466
 21
1.711353625055708
 31
0.0
  0
LINE
  5
16D
330
40
100
AcDbEntity
  8
4
100
AcDbLine
 10
7.1321823322466
 20
1.711353625055708
 30
0.0
 11
7.1509323322466
 21
1.748853625055708
 31
0.0
  0
LINE
  5
16E
330
40
100
AcDbEntity
  8
4
100
AcDbLine
 10
7.1571823322466
 20
1.653353625055709
 30
0.0
 11
7.175932332246601
 21
1.690853625055708
 31
0.0
  0
LINE
  5
16F
330
40
100
AcDbEntity
  8
4
100
AcDbLine
 10
7.1571823322466
 20
1.728353625055708
 30
0.0
 11
7.175932332246601
 21
1.690853625055708
 31
0.0
  0
LINE
  5
170
330
40
100
AcDbEntity
  8
4
100
AcDbLine
 10
7.138432332246601
 20
1.690853625055708
 30
0.0
 11
7.1571823322466
 21
1.653353625055709
 31
0.0
  0
LINE
  5
171
330
40
100
AcDbEntity
  8
4
100
AcDbLine
 10
7.138432332246601
 20
1.690853625055708
 30
0.0
 11
7.1571823322466
 21
1.728353625055708
 31
0.0
  0
LINE
  5
172
330
40
100
AcDbEntity
  8
4
100
AcDbLine
 10
7.113432332246601
 20
1.748853625055708
 30
0.0
 11
7.1321823322466
 21
1.786353625055708
 31
0.0
  0
LINE
  5
173
330
40
100
AcDbEntity
  8
4
100
AcDbLine
 10
7.1321823322466
 20
1.786353625055708
 30
0.0
 11
7.1509323322466
 21
1.748853625055708
 31
0.0
  0
LINE
  5
174
330
40
100
AcDbEntity
  8
4
100
AcDbLine
 10
7.3821823322466
 20
1.711353625055708
 30
0.0
 11
7.4009323322466
 21
1.748853625055708
 31
0.0
  0
LINE
  5
175
330
40
100
AcDbEntity
  8
4
100
AcDbLine
 10
7.363432332246601
 20
1.748853625055708
 30
0.0
 11
7.3821823322466
 21
1.711353625055708
 31
0.0
  0
LINE
  5
176
330
40
100
AcDbEntity
  8
4
100
AcDbLine
 10
7.388432332246601
 20
1.690853625055708
 30
0.0
 11
7.4071823322466
 21
1.653353625055709
 31
0.0
  0
LINE
  5
177
330
40
100
AcDbEntity
  8
4
100
AcDbLine
 10
7.4071823322466
 20
1.653353625055709
 30
0.0
 11
7.425932332246601
 21
1.690853625055708
 31
0.0
  0
LINE
  5
178
330
40
100
AcDbEntity
  8
4
100
AcDbLine
 10
7.388432332246601
 20
1.690853625055708
 30
0.0
 11
7.4071823322466
 21
1.728353625055708
 31
0.0
  0
LINE
  5
179
330
40
100
AcDbEntity
  8
4
100
AcDbLine
 10
7.4071823322466
 20
1.728353625055708
 30
0.0
 11
7.425932332246601
 21
1.690853625055708
 31
0.0
  0
LINE
  5
17A
330
40
100
AcDbEntity
  8
4
100
AcDbLine
 10
7.3821823322466
 20
1.786353625055708
 30
0.0
 11
7.4009323322466
 21
1.748853625055708
 31
0.0
  0
LINE
  5
17B
330
40
100
AcDbEntity
  8
4
100
AcDbLine
 10
7.363432332246601
 20
1.748853625055708
 30
0.0
 11
7.3821823322466
 21
1.786353625055708
 31
0.0
  0
LINE
  5
17C
330
40
100
AcDbEntity
  8
4
100
AcDbLine
 10
7.624496829075731
 20
1.591365996915924
 30
0.0
 11
7.56249682907573
 21
1.591365996915924
 31
0.0
  0
LINE
  5
17D
330
40
100
AcDbEntity
  8
4
100
AcDbLine
 10
5.539432332246601
 20
3.54706852820108
 30
0.0
 11
5.558182332246601
 21
3.584568528201079
 31
0.0
  0
LINE
  5
17E
330
40
100
AcDbEntity
  8
4
100
AcDbLine
 10
5.558182332246601
 20
3.584568528201079
 30
0.0
 11
5.576932332246602
 21
3.54706852820108
 31
0.0
  0
LINE
  5
17F
330
40
100
AcDbEntity
  8
4
100
AcDbLine
 10
5.308182332246601
 20
3.584568528201079
 30
0.0
 11
5.326932332246602
 21
3.54706852820108
 31
0.0
  0
LINE
  5
180
330
40
100
AcDbEntity
  8
4
100
AcDbLine
 10
5.289432332246601
 20
3.54706852820108
 30
0.0
 11
5.308182332246601
 21
3.584568528201079
 31
0.0
  0
LINE
  5
181
330
40
100
AcDbEntity
  8
2
100
AcDbLine
 10
5.576932332246602
 20
3.666676349608688
 30
0.0
 11
5.576932332246602
 21
3.54706852820108
 31
0.0
  0
TEXT
  5
182
330
40
100
AcDbEntity
  8
8
100
AcDbText
 10
4.750496829075729
 20
2.817944481374826
 30
0.0
 40
0.07
  1
59
 50
90.0
 72
     1
 11
4.750496829075729
 21
2.876277814708159
 31
0.0
100
AcDbText
  0
TEXT
  5
183
330
40
100
AcDbEntity
  8
8
100
AcDbText
 10
4.500496829075729
 20
2.300526564886718
 30
0.0
 40
0.07
  1
72
 50
90.0
 72
     1
 11
4.500496829075729
 21
2.358859898220051
 31
0.0
100
AcDbText
  0
LINE
  5
184
330
40
100
AcDbEntity
  8
2
100
AcDbLine
 10
5.264432332246602
 20
2.833581379315957
 30
0.0
 11
5.264432332246602
 21
2.623273557908348
 31
0.0
  0
LINE
  5
185
330
40
100
AcDbEntity
  8
2
100
AcDbLine
 10
5.576932332246602
 20
2.775581379315957
 30
0.0
 11
5.576932332246602
 21
2.565273557908348
 31
0.0
  0
LINE
  5
186
330
40
100
AcDbEntity
  8
2
100
AcDbLine
 10
5.308182332246601
 20
2.527773557908349
 30
0.0
 11
5.558182332246601
 21
2.527773557908349
 31
0.0
  0
LINE
  5
187
330
40
100
AcDbEntity
  8
2
100
AcDbLine
 10
5.283182332246602
 20
2.384660771128389
 30
0.0
 11
5.533182332246601
 21
2.384660771128388
 31
0.0
  0
LINE
  5
188
330
40
100
AcDbEntity
  8
2
100
AcDbLine
 10
5.283182332246602
 20
1.996661446463317
 30
0.0
 11
5.533182332246601
 21
1.996661446463317
 31
0.0
  0
LINE
  5
189
330
40
100
AcDbEntity
  8
2
100
AcDbLine
 10
5.308182332246601
 20
2.13205294972078
 30
0.0
 11
5.558182332246601
 21
2.13205294972078
 31
0.0
  0
LINE
  5
18A
330
40
100
AcDbEntity
  8
4
100
AcDbLine
 10
5.308182332246602
 20
2.251660771128389
 30
0.0
 11
5.326932332246602
 21
2.289160771128389
 31
0.0
  0
LINE
  5
18B
330
40
100
AcDbEntity
  8
4
100
AcDbLine
 10
5.289432332246602
 20
2.289160771128389
 30
0.0
 11
5.308182332246602
 21
2.251660771128389
 31
0.0
  0
LINE
  5
18C
330
40
100
AcDbEntity
  8
2
100
AcDbLine
 10
5.264432332246602
 20
2.347160771128389
 30
0.0
 11
5.264432332246602
 21
2.22755294972078
 31
0.0
  0
LINE
  5
18D
330
40
100
AcDbEntity
  8
4
100
AcDbLine
 10
5.283182332246601
 20
1.921661446463317
 30
0.0
 11
5.301932332246601
 21
1.959161446463317
 31
0.0
  0
LINE
  5
18E
330
40
100
AcDbEntity
  8
4
100
AcDbLine
 10
5.264432332246602
 20
1.959161446463317
 30
0.0
 11
5.283182332246601
 21
1.921661446463317
 31
0.0
  0
LINE
  5
18F
330
40
100
AcDbEntity
  8
4
100
AcDbLine
 10
5.308182332246602
 20
1.938661446463317
 30
0.0
 11
5.326932332246602
 21
1.901161446463317
 31
0.0
  0
LINE
  5
190
330
40
100
AcDbEntity
  8
4
100
AcDbLine
 10
5.308182332246602
 20
1.863661446463317
 30
0.0
 11
5.326932332246602
 21
1.901161446463317
 31
0.0
  0
LINE
  5
191
330
40
100
AcDbEntity
  8
4
100
AcDbLine
 10
5.289432332246602
 20
1.901161446463317
 30
0.0
 11
5.308182332246602
 21
1.938661446463317
 31
0.0
  0
LINE
  5
192
330
40
100
AcDbEntity
  8
4
100
AcDbLine
 10
5.289432332246602
 20
1.901161446463317
 30
0.0
 11
5.308182332246602
 21
1.863661446463317
 31
0.0
  0
LINE
  5
193
330
40
100
AcDbEntity
  8
4
100
AcDbLine
 10
5.283182332246601
 20
1.996661446463317
 30
0.0
 11
5.301932332246601
 21
1.959161446463317
 31
0.0
  0
LINE
  5
194
330
40
100
AcDbEntity
  8
4
100
AcDbLine
 10
5.264432332246602
 20
1.959161446463317
 30
0.0
 11
5.283182332246601
 21
1.996661446463317
 31
0.0
  0
LINE
  5
195
330
40
100
AcDbEntity
  8
4
100
AcDbLine
 10
5.289432332246601
 20
2.16955294972078
 30
0.0
 11
5.308182332246601
 21
2.20705294972078
 31
0.0
  0
LINE
  5
196
330
40
100
AcDbEntity
  8
4
100
AcDbLine
 10
5.308182332246601
 20
2.20705294972078
 30
0.0
 11
5.326932332246602
 21
2.16955294972078
 31
0.0
  0
LINE
  5
197
330
40
100
AcDbEntity
  8
4
100
AcDbLine
 10
5.308182332246601
 20
2.13205294972078
 30
0.0
 11
5.326932332246602
 21
2.16955294972078
 31
0.0
  0
LINE
  5
198
330
40
100
AcDbEntity
  8
4
100
AcDbLine
 10
5.289432332246601
 20
2.16955294972078
 30
0.0
 11
5.308182332246601
 21
2.13205294972078
 31
0.0
  0
LINE
  5
199
330
40
100
AcDbEntity
  8
4
100
AcDbLine
 10
5.283182332246601
 20
2.26505294972078
 30
0.0
 11
5.301932332246601
 21
2.22755294972078
 31
0.0
  0
LINE
  5
19A
330
40
100
AcDbEntity
  8
4
100
AcDbLine
 10
5.264432332246602
 20
2.22755294972078
 30
0.0
 11
5.283182332246601
 21
2.26505294972078
 31
0.0
  0
LINE
  5
19B
330
40
100
AcDbEntity
  8
4
100
AcDbLine
 10
5.283182332246601
 20
2.19005294972078
 30
0.0
 11
5.301932332246601
 21
2.22755294972078
 31
0.0
  0
LINE
  5
19C
330
40
100
AcDbEntity
  8
4
100
AcDbLine
 10
5.264432332246602
 20
2.22755294972078
 30
0.0
 11
5.283182332246601
 21
2.19005294972078
 31
0.0
  0
LINE
  5
19D
330
40
100
AcDbEntity
  8
4
100
AcDbLine
 10
5.264432332246602
 20
2.347160771128389
 30
0.0
 11
5.283182332246601
 21
2.384660771128388
 31
0.0
  0
LINE
  5
19E
330
40
100
AcDbEntity
  8
4
100
AcDbLine
 10
5.283182332246601
 20
2.384660771128388
 30
0.0
 11
5.301932332246601
 21
2.347160771128389
 31
0.0
  0
LINE
  5
19F
330
40
100
AcDbEntity
  8
4
100
AcDbLine
 10
5.308182332246602
 20
2.326660771128389
 30
0.0
 11
5.326932332246602
 21
2.289160771128389
 31
0.0
  0
LINE
  5
1A0
330
40
100
AcDbEntity
  8
4
100
AcDbLine
 10
5.264432332246602
 20
2.347160771128389
 30
0.0
 11
5.283182332246601
 21
2.309660771128389
 31
0.0
  0
LINE
  5
1A1
330
40
100
AcDbEntity
  8
4
100
AcDbLine
 10
5.283182332246601
 20
2.309660771128389
 30
0.0
 11
5.301932332246601
 21
2.347160771128389
 31
0.0
  0
LINE
  5
1A2
330
40
100
AcDbEntity
  8
4
100
AcDbLine
 10
5.289432332246602
 20
2.289160771128389
 30
0.0
 11
5.308182332246602
 21
2.326660771128389
 31
0.0
  0
LINE
  5
1A3
330
40
100
AcDbEntity
  8
4
100
AcDbLine
 10
5.264432332246602
 20
2.623273557908348
 30
0.0
 11
5.283182332246601
 21
2.585773557908348
 31
0.0
  0
LINE
  5
1A4
330
40
100
AcDbEntity
  8
4
100
AcDbLine
 10
5.283182332246601
 20
2.585773557908348
 30
0.0
 11
5.301932332246601
 21
2.623273557908348
 31
0.0
  0
LINE
  5
1A5
330
40
100
AcDbEntity
  8
4
100
AcDbLine
 10
5.308182332246601
 20
2.602773557908348
 30
0.0
 11
5.326932332246602
 21
2.565273557908348
 31
0.0
  0
LINE
  5
1A6
330
40
100
AcDbEntity
  8
4
100
AcDbLine
 10
5.289432332246601
 20
2.565273557908348
 30
0.0
 11
5.308182332246601
 21
2.602773557908348
 31
0.0
  0
LINE
  5
1A7
330
40
100
AcDbEntity
  8
4
100
AcDbLine
 10
5.308182332246601
 20
2.527773557908349
 30
0.0
 11
5.326932332246602
 21
2.565273557908348
 31
0.0
  0
LINE
  5
1A8
330
40
100
AcDbEntity
  8
4
100
AcDbLine
 10
5.289432332246601
 20
2.565273557908348
 30
0.0
 11
5.308182332246601
 21
2.527773557908349
 31
0.0
  0
LINE
  5
1A9
330
40
100
AcDbEntity
  8
4
100
AcDbLine
 10
5.264432332246602
 20
2.623273557908348
 30
0.0
 11
5.283182332246601
 21
2.660773557908348
 31
0.0
  0
LINE
  5
1AA
330
40
100
AcDbEntity
  8
4
100
AcDbLine
 10
5.283182332246601
 20
2.660773557908348
 30
0.0
 11
5.301932332246601
 21
2.623273557908348
 31
0.0
  0
LINE
  5
1AB
330
40
100
AcDbEntity
  8
4
100
AcDbLine
 10
5.539432332246601
 20
2.289160771128389
 30
0.0
 11
5.558182332246601
 21
2.251660771128389
 31
0.0
  0
LINE
  5
1AC
330
40
100
AcDbEntity
  8
4
100
AcDbLine
 10
5.558182332246601
 20
2.251660771128389
 30
0.0
 11
5.576932332246602
 21
2.289160771128389
 31
0.0
  0
LINE
  5
1AD
330
40
100
AcDbEntity
  8
2
100
AcDbLine
 10
5.576932332246602
 20
2.289160771128389
 30
0.0
 11
5.576932332246602
 21
2.16955294972078
 31
0.0
  0
LINE
  5
1AE
330
40
100
AcDbEntity
  8
4
100
AcDbLine
 10
5.558182332246601
 20
1.938661446463317
 30
0.0
 11
5.576932332246602
 21
1.901161446463317
 31
0.0
  0
LINE
  5
1AF
330
40
100
AcDbEntity
  8
4
100
AcDbLine
 10
5.558182332246601
 20
1.863661446463317
 30
0.0
 11
5.576932332246602
 21
1.901161446463317
 31
0.0
  0
LINE
  5
1B0
330
40
100
AcDbEntity
  8
4
100
AcDbLine
 10
5.514432332246602
 20
1.959161446463317
 30
0.0
 11
5.533182332246601
 21
1.921661446463317
 31
0.0
  0
LINE
  5
1B1
330
40
100
AcDbEntity
  8
4
100
AcDbLine
 10
5.533182332246601
 20
1.921661446463317
 30
0.0
 11
5.551932332246601
 21
1.959161446463317
 31
0.0
  0
LINE
  5
1B2
330
40
100
AcDbEntity
  8
4
100
AcDbLine
 10
5.539432332246601
 20
1.901161446463317
 30
0.0
 11
5.558182332246601
 21
1.938661446463317
 31
0.0
  0
LINE
  5
1B3
330
40
100
AcDbEntity
  8
4
100
AcDbLine
 10
5.539432332246601
 20
1.901161446463317
 30
0.0
 11
5.558182332246601
 21
1.863661446463317
 31
0.0
  0
LINE
  5
1B4
330
40
100
AcDbEntity
  8
4
100
AcDbLine
 10
5.514432332246602
 20
1.959161446463317
 30
0.0
 11
5.533182332246601
 21
1.996661446463317
 31
0.0
  0
LINE
  5
1B5
330
40
100
AcDbEntity
  8
4
100
AcDbLine
 10
5.533182332246601
 20
1.996661446463317
 30
0.0
 11
5.551932332246601
 21
1.959161446463317
 31
0.0
  0
LINE
  5
1B6
330
40
100
AcDbEntity
  8
4
100
AcDbLine
 10
5.558182332246601
 20
2.13205294972078
 30
0.0
 11
5.576932332246602
 21
2.16955294972078
 31
0.0
  0
LINE
  5
1B7
330
40
100
AcDbEntity
  8
4
100
AcDbLine
 10
5.558182332246601
 20
2.20705294972078
 30
0.0
 11
5.576932332246602
 21
2.16955294972078
 31
0.0
  0
LINE
  5
1B8
330
40
100
AcDbEntity
  8
4
100
AcDbLine
 10
5.539432332246601
 20
2.16955294972078
 30
0.0
 11
5.558182332246601
 21
2.20705294972078
 31
0.0
  0
LINE
  5
1B9
330
40
100
AcDbEntity
  8
4
100
AcDbLine
 10
5.539432332246601
 20
2.16955294972078
 30
0.0
 11
5.558182332246601
 21
2.13205294972078
 31
0.0
  0
LINE
  5
1BA
330
40
100
AcDbEntity
  8
4
100
AcDbLine
 10
5.514432332246602
 20
2.22755294972078
 30
0.0
 11
5.533182332246601
 21
2.26505294972078
 31
0.0
  0
LINE
  5
1BB
330
40
100
AcDbEntity
  8
4
100
AcDbLine
 10
5.533182332246601
 20
2.26505294972078
 30
0.0
 11
5.551932332246601
 21
2.22755294972078
 31
0.0
  0
LINE
  5
1BC
330
40
100
AcDbEntity
  8
4
100
AcDbLine
 10
5.514432332246602
 20
2.22755294972078
 30
0.0
 11
5.533182332246601
 21
2.19005294972078
 31
0.0
  0
LINE
  5
1BD
330
40
100
AcDbEntity
  8
4
100
AcDbLine
 10
5.533182332246601
 20
2.19005294972078
 30
0.0
 11
5.551932332246601
 21
2.22755294972078
 31
0.0
  0
LINE
  5
1BE
330
40
100
AcDbEntity
  8
4
100
AcDbLine
 10
5.558182332246601
 20
2.326660771128389
 30
0.0
 11
5.576932332246602
 21
2.289160771128389
 31
0.0
  0
LINE
  5
1BF
330
40
100
AcDbEntity
  8
4
100
AcDbLine
 10
5.533182332246601
 20
2.384660771128388
 30
0.0
 11
5.551932332246601
 21
2.347160771128389
 31
0.0
  0
LINE
  5
1C0
330
40
100
AcDbEntity
  8
4
100
AcDbLine
 10
5.514432332246602
 20
2.347160771128389
 30
0.0
 11
5.533182332246601
 21
2.384660771128388
 31
0.0
  0
LINE
  5
1C1
330
40
100
AcDbEntity
  8
4
100
AcDbLine
 10
5.539432332246601
 20
2.289160771128389
 30
0.0
 11
5.558182332246601
 21
2.326660771128389
 31
0.0
  0
LINE
  5
1C2
330
40
100
AcDbEntity
  8
4
100
AcDbLine
 10
5.533182332246601
 20
2.309660771128389
 30
0.0
 11
5.551932332246601
 21
2.347160771128389
 31
0.0
  0
LINE
  5
1C3
330
40
100
AcDbEntity
  8
4
100
AcDbLine
 10
5.514432332246602
 20
2.347160771128389
 30
0.0
 11
5.533182332246601
 21
2.309660771128389
 31
0.0
  0
LINE
  5
1C4
330
40
100
AcDbEntity
  8
4
100
AcDbLine
 10
5.558182332246601
 20
2.527773557908349
 30
0.0
 11
5.576932332246602
 21
2.565273557908348
 31
0.0
  0
LINE
  5
1C5
330
40
100
AcDbEntity
  8
4
100
AcDbLine
 10
5.558182332246601
 20
2.602773557908348
 30
0.0
 11
5.576932332246602
 21
2.565273557908348
 31
0.0
  0
LINE
  5
1C6
330
40
100
AcDbEntity
  8
4
100
AcDbLine
 10
5.533182332246601
 20
2.585773557908348
 30
0.0
 11
5.551932332246601
 21
2.623273557908348
 31
0.0
  0
LINE
  5
1C7
330
40
100
AcDbEntity
  8
4
100
AcDbLine
 10
5.514432332246602
 20
2.623273557908348
 30
0.0
 11
5.533182332246601
 21
2.585773557908348
 31
0.0
  0
LINE
  5
1C8
330
40
100
AcDbEntity
  8
4
100
AcDbLine
 10
5.539432332246601
 20
2.565273557908348
 30
0.0
 11
5.558182332246601
 21
2.602773557908348
 31
0.0
  0
LINE
  5
1C9
330
40
100
AcDbEntity
  8
4
100
AcDbLine
 10
5.539432332246601
 20
2.565273557908348
 30
0.0
 11
5.558182332246601
 21
2.527773557908349
 31
0.0
  0
LINE
  5
1CA
330
40
100
AcDbEntity
  8
4
100
AcDbLine
 10
5.533182332246601
 20
2.660773557908348
 30
0.0
 11
5.551932332246601
 21
2.623273557908348
 31
0.0
  0
LINE
  5
1CB
330
40
100
AcDbEntity
  8
4
100
AcDbLine
 10
5.514432332246602
 20
2.623273557908348
 30
0.0
 11
5.533182332246601
 21
2.660773557908348
 31
0.0
  0
LINE
  5
1CC
330
40
100
AcDbEntity
  8
2
100
AcDbLine
 10
5.283182332246602
 20
3.352081379315957
 30
0.0
 11
5.533182332246601
 21
3.352081379315957
 31
0.0
  0
LINE
  5
1CD
330
40
100
AcDbEntity
  8
2
100
AcDbLine
 10
5.308182332246601
 20
3.50956852820108
 30
0.0
 11
5.558182332246601
 21
3.50956852820108
 31
0.0
  0
LINE
  5
1CE
330
40
100
AcDbEntity
  8
2
100
AcDbLine
 10
5.308182332246601
 20
3.008773557908349
 30
0.0
 11
5.558182332246601
 21
3.008773557908349
 31
0.0
  0
LINE
  5
1CF
330
40
100
AcDbEntity
  8
2
100
AcDbLine
 10
5.283182332246602
 20
2.871081379315958
 30
0.0
 11
5.533182332246601
 21
2.871081379315956
 31
0.0
  0
LINE
  5
1D0
330
40
100
AcDbEntity
  8
4
100
AcDbLine
 10
5.264432332246602
 20
3.104273557908348
 30
0.0
 11
5.283182332246601
 21
3.141773557908349
 31
0.0
  0
LINE
  5
1D1
330
40
100
AcDbEntity
  8
4
100
AcDbLine
 10
5.283182332246601
 20
3.141773557908349
 30
0.0
 11
5.301932332246601
 21
3.104273557908348
 31
0.0
  0
LINE
  5
1D2
330
40
100
AcDbEntity
  8
2
100
AcDbLine
 10
5.264432332246602
 20
3.314581379315958
 30
0.0
 11
5.264432332246602
 21
3.104273557908348
 31
0.0
  0
LINE
  5
1D3
330
40
100
AcDbEntity
  8
4
100
AcDbLine
 10
5.289432332246602
 20
2.775581379315957
 30
0.0
 11
5.308182332246602
 21
2.813081379315957
 31
0.0
  0
LINE
  5
1D4
330
40
100
AcDbEntity
  8
4
100
AcDbLine
 10
5.308182332246602
 20
2.813081379315957
 30
0.0
 11
5.326932332246602
 21
2.775581379315957
 31
0.0
  0
LINE
  5
1D5
330
40
100
AcDbEntity
  8
4
100
AcDbLine
 10
5.283182332246601
 20
2.796081379315957
 30
0.0
 11
5.301932332246601
 21
2.833581379315957
 31
0.0
  0
LINE
  5
1D6
330
40
100
AcDbEntity
  8
4
100
AcDbLine
 10
5.264432332246602
 20
2.833581379315957
 30
0.0
 11
5.283182332246601
 21
2.796081379315957
 31
0.0
  0
LINE
  5
1D7
330
40
100
AcDbEntity
  8
4
100
AcDbLine
 10
5.308182332246602
 20
2.738081379315957
 30
0.0
 11
5.326932332246602
 21
2.775581379315957
 31
0.0
  0
LINE
  5
1D8
330
40
100
AcDbEntity
  8
4
100
AcDbLine
 10
5.289432332246602
 20
2.775581379315957
 30
0.0
 11
5.308182332246602
 21
2.738081379315957
 31
0.0
  0
LINE
  5
1D9
330
40
100
AcDbEntity
  8
4
100
AcDbLine
 10
5.283182332246601
 20
2.871081379315956
 30
0.0
 11
5.301932332246601
 21
2.833581379315957
 31
0.0
  0
LINE
  5
1DA
330
40
100
AcDbEntity
  8
4
100
AcDbLine
 10
5.264432332246602
 20
2.833581379315957
 30
0.0
 11
5.283182332246601
 21
2.871081379315956
 31
0.0
  0
LINE
  5
1DB
330
40
100
AcDbEntity
  8
4
100
AcDbLine
 10
5.308182332246601
 20
3.008773557908349
 30
0.0
 11
5.326932332246602
 21
3.046273557908349
 31
0.0
  0
LINE
  5
1DC
330
40
100
AcDbEntity
  8
4
100
AcDbLine
 10
5.289432332246601
 20
3.046273557908349
 30
0.0
 11
5.308182332246601
 21
3.008773557908349
 31
0.0
  0
LINE
  5
1DD
330
40
100
AcDbEntity
  8
4
100
AcDbLine
 10
5.308182332246601
 20
3.083773557908348
 30
0.0
 11
5.326932332246602
 21
3.046273557908349
 31
0.0
  0
LINE
  5
1DE
330
40
100
AcDbEntity
  8
4
100
AcDbLine
 10
5.289432332246601
 20
3.046273557908349
 30
0.0
 11
5.308182332246601
 21
3.083773557908348
 31
0.0
  0
LINE
  5
1DF
330
40
100
AcDbEntity
  8
4
100
AcDbLine
 10
5.264432332246602
 20
3.104273557908348
 30
0.0
 11
5.283182332246601
 21
3.066773557908349
 31
0.0
  0
LINE
  5
1E0
330
40
100
AcDbEntity
  8
4
100
AcDbLine
 10
5.283182332246601
 20
3.066773557908349
 30
0.0
 11
5.301932332246601
 21
3.104273557908348
 31
0.0
  0
LINE
  5
1E1
330
40
100
AcDbEntity
  8
4
100
AcDbLine
 10
5.283182332246601
 20
3.352081379315957
 30
0.0
 11
5.301932332246601
 21
3.314581379315958
 31
0.0
  0
LINE
  5
1E2
330
40
100
AcDbEntity
  8
4
100
AcDbLine
 10
5.264432332246602
 20
3.314581379315958
 30
0.0
 11
5.283182332246601
 21
3.352081379315957
 31
0.0
  0
LINE
  5
1E3
330
40
100
AcDbEntity
  8
4
100
AcDbLine
 10
5.289432332246602
 20
3.256581379315958
 30
0.0
 11
5.308182332246602
 21
3.219081379315958
 31
0.0
  0
LINE
  5
1E4
330
40
100
AcDbEntity
  8
4
100
AcDbLine
 10
5.308182332246602
 20
3.219081379315958
 30
0.0
 11
5.326932332246602
 21
3.256581379315958
 31
0.0
  0
LINE
  5
1E5
330
40
100
AcDbEntity
  8
4
100
AcDbLine
 10
5.308182332246602
 20
3.294081379315958
 30
0.0
 11
5.326932332246602
 21
3.256581379315958
 31
0.0
  0
LINE
  5
1E6
330
40
100
AcDbEntity
  8
4
100
AcDbLine
 10
5.289432332246602
 20
3.256581379315958
 30
0.0
 11
5.308182332246602
 21
3.294081379315958
 31
0.0
  0
LINE
  5
1E7
330
40
100
AcDbEntity
  8
4
100
AcDbLine
 10
5.283182332246601
 20
3.277081379315958
 30
0.0
 11
5.301932332246601
 21
3.314581379315958
 31
0.0
  0
LINE
  5
1E8
330
40
100
AcDbEntity
  8
4
100
AcDbLine
 10
5.264432332246602
 20
3.314581379315958
 30
0.0
 11
5.283182332246601
 21
3.277081379315958
 31
0.0
  0
LINE
  5
1E9
330
40
100
AcDbEntity
  8
4
100
AcDbLine
 10
5.308182332246601
 20
3.50956852820108
 30
0.0
 11
5.326932332246602
 21
3.54706852820108
 31
0.0
  0
LINE
  5
1EA
330
40
100
AcDbEntity
  8
4
100
AcDbLine
 10
5.289432332246601
 20
3.54706852820108
 30
0.0
 11
5.308182332246601
 21
3.50956852820108
 31
0.0
  0
LINE
  5
1EB
330
40
100
AcDbEntity
  8
4
100
AcDbLine
 10
5.533182332246601
 20
3.141773557908349
 30
0.0
 11
5.551932332246601
 21
3.104273557908348
 31
0.0
  0
LINE
  5
1EC
330
40
100
AcDbEntity
  8
4
100
AcDbLine
 10
5.514432332246602
 20
3.104273557908348
 30
0.0
 11
5.533182332246601
 21
3.141773557908349
 31
0.0
  0
LINE
  5
1ED
330
40
100
AcDbEntity
  8
2
100
AcDbLine
 10
5.576932332246602
 20
3.256581379315958
 30
0.0
 11
5.576932332246602
 21
3.046273557908349
 31
0.0
  0
LINE
  5
1EE
330
40
100
AcDbEntity
  8
4
100
AcDbLine
 10
5.558182332246601
 20
2.813081379315957
 30
0.0
 11
5.576932332246602
 21
2.775581379315957
 31
0.0
  0
LINE
  5
1EF
330
40
100
AcDbEntity
  8
4
100
AcDbLine
 10
5.558182332246601
 20
2.738081379315957
 30
0.0
 11
5.576932332246602
 21
2.775581379315957
 31
0.0
  0
LINE
  5
1F0
330
40
100
AcDbEntity
  8
4
100
AcDbLine
 10
5.514432332246602
 20
2.833581379315957
 30
0.0
 11
5.533182332246601
 21
2.796081379315957
 31
0.0
  0
LINE
  5
1F1
330
40
100
AcDbEntity
  8
4
100
AcDbLine
 10
5.533182332246601
 20
2.796081379315957
 30
0.0
 11
5.551932332246601
 21
2.833581379315957
 31
0.0
  0
LINE
  5
1F2
330
40
100
AcDbEntity
  8
4
100
AcDbLine
 10
5.539432332246601
 20
2.775581379315957
 30
0.0
 11
5.558182332246601
 21
2.813081379315957
 31
0.0
  0
LINE
  5
1F3
330
40
100
AcDbEntity
  8
4
100
AcDbLine
 10
5.539432332246601
 20
2.775581379315957
 30
0.0
 11
5.558182332246601
 21
2.738081379315957
 31
0.0
  0
LINE
  5
1F4
330
40
100
AcDbEntity
  8
4
100
AcDbLine
 10
5.514432332246602
 20
2.833581379315957
 30
0.0
 11
5.533182332246601
 21
2.871081379315956
 31
0.0
  0
LINE
  5
1F5
330
40
100
AcDbEntity
  8
4
100
AcDbLine
 10
5.533182332246601
 20
2.871081379315956
 30
0.0
 11
5.551932332246601
 21
2.833581379315957
 31
0.0
  0
LINE
  5
1F6
330
40
100
AcDbEntity
  8
4
100
AcDbLine
 10
5.558182332246601
 20
3.083773557908348
 30
0.0
 11
5.576932332246602
 21
3.046273557908349
 31
0.0
  0
LINE
  5
1F7
330
40
100
AcDbEntity
  8
4
100
AcDbLine
 10
5.558182332246601
 20
3.008773557908349
 30
0.0
 11
5.576932332246602
 21
3.046273557908349
 31
0.0
  0
LINE
  5
1F8
330
40
100
AcDbEntity
  8
4
100
AcDbLine
 10
5.539432332246601
 20
3.046273557908349
 30
0.0
 11
5.558182332246601
 21
3.008773557908349
 31
0.0
  0
LINE
  5
1F9
330
40
100
AcDbEntity
  8
4
100
AcDbLine
 10
5.539432332246601
 20
3.046273557908349
 30
0.0
 11
5.558182332246601
 21
3.083773557908348
 31
0.0
  0
LINE
  5
1FA
330
40
100
AcDbEntity
  8
4
100
AcDbLine
 10
5.533182332246601
 20
3.066773557908349
 30
0.0
 11
5.551932332246601
 21
3.104273557908348
 31
0.0
  0
LINE
  5
1FB
330
40
100
AcDbEntity
  8
4
100
AcDbLine
 10
5.514432332246602
 20
3.104273557908348
 30
0.0
 11
5.533182332246601
 21
3.066773557908349
 31
0.0
  0
LINE
  5
1FC
330
40
100
AcDbEntity
  8
4
100
AcDbLine
 10
5.514432332246602
 20
3.314581379315958
 30
0.0
 11
5.533182332246601
 21
3.352081379315957
 31
0.0
  0
LINE
  5
1FD
330
40
100
AcDbEntity
  8
4
100
AcDbLine
 10
5.533182332246601
 20
3.352081379315957
 30
0.0
 11
5.551932332246601
 21
3.314581379315958
 31
0.0
  0
LINE
  5
1FE
330
40
100
AcDbEntity
  8
4
100
AcDbLine
 10
5.558182332246601
 20
3.219081379315958
 30
0.0
 11
5.576932332246602
 21
3.256581379315958
 31
0.0
  0
LINE
  5
1FF
330
40
100
AcDbEntity
  8
4
100
AcDbLine
 10
5.558182332246601
 20
3.294081379315958
 30
0.0
 11
5.576932332246602
 21
3.256581379315958
 31
0.0
  0
LINE
  5
200
330
40
100
AcDbEntity
  8
4
100
AcDbLine
 10
5.539432332246601
 20
3.256581379315958
 30
0.0
 11
5.558182332246601
 21
3.219081379315958
 31
0.0
  0
LINE
  5
201
330
40
100
AcDbEntity
  8
4
100
AcDbLine
 10
5.514432332246602
 20
3.314581379315958
 30
0.0
 11
5.533182332246601
 21
3.277081379315958
 31
0.0
  0
LINE
  5
202
330
40
100
AcDbEntity
  8
4
100
AcDbLine
 10
5.533182332246601
 20
3.277081379315958
 30
0.0
 11
5.551932332246601
 21
3.314581379315958
 31
0.0
  0
LINE
  5
203
330
40
100
AcDbEntity
  8
4
100
AcDbLine
 10
5.539432332246601
 20
3.256581379315958
 30
0.0
 11
5.558182332246601
 21
3.294081379315958
 31
0.0
  0
LINE
  5
204
330
40
100
AcDbEntity
  8
4
100
AcDbLine
 10
5.558182332246601
 20
3.50956852820108
 30
0.0
 11
5.576932332246602
 21
3.54706852820108
 31
0.0
  0
LINE
  5
205
330
40
100
AcDbEntity
  8
4
100
AcDbLine
 10
5.539432332246601
 20
3.54706852820108
 30
0.0
 11
5.558182332246601
 21
3.50956852820108
 31
0.0
  0
TEXT
  5
206
330
40
100
AcDbEntity
  8
8
100
AcDbText
 10
4.750496829075729
 20
4.205472425975779
 30
0.0
 40
0.07
  1
12
 50
90.0
 72
     1
 11
4.750496829075729
 21
4.252139092642446
 31
0.0
100
AcDbText
  0
ARC
  5
207
330
40
100
AcDbEntity
  8
4
100
AcDbCircle
 10
3.41299682907573
 20
3.841365996915925
 30
0.0
 40
0.025
100
AcDbArc
 50
180.0
 51
0.0
  0
LINE
  5
208
330
40
100
AcDbEntity
  8
4
100
AcDbLine
 10
4.832496829075729
 20
4.372365996915922
 30
0.0
 11
4.81249682907573
 21
4.497365996915922
 31
0.0
  0
LINE
  5
209
330
40
100
AcDbEntity
  8
4
100
AcDbLine
 10
4.81249682907573
 20
4.497365996915922
 30
0.0
 11
4.792496829075729
 21
4.372365996915922
 31
0.0
  0
LINE
  5
20A
330
40
100
AcDbEntity
  8
4
100
AcDbLine
 10
4.822496829075729
 20
4.372365996915922
 30
0.0
 11
4.81249682907573
 21
4.497365996915922
 31
0.0
  0
LINE
  5
20B
330
40
100
AcDbEntity
  8
4
100
AcDbLine
 10
4.802496829075729
 20
4.372365996915922
 30
0.0
 11
4.81249682907573
 21
4.497365996915922
 31
0.0
  0
LINE
  5
20C
330
40
100
AcDbEntity
  8
2
100
AcDbLine
 10
5.283182332246602
 20
4.383784231620923
 30
0.0
 11
5.533182332246601
 21
4.383784231620923
 31
0.0
  0
LINE
  5
20D
330
40
100
AcDbEntity
  8
4
100
AcDbLine
 10
5.67049682907573
 20
4.003365996915924
 30
0.0
 11
5.17049682907573
 21
4.003365996915924
 31
0.0
  0
LINE
  5
20E
330
40
100
AcDbEntity
  8
2
100
AcDbLine
 10
5.308182332246601
 20
4.040476410213315
 30
0.0
 11
5.558182332246601
 21
4.040476410213315
 31
0.0
  0
LINE
  5
20F
330
40
100
AcDbEntity
  8
4
100
AcDbLine
 10
5.357476719178215
 20
3.904365996915923
 30
0.0
 11
5.419476719178215
 21
3.904365996915923
 31
0.0
  0
LINE
  5
210
330
40
100
AcDbEntity
  8
2
100
AcDbLine
 10
5.283182332246602
 20
3.762176349608688
 30
0.0
 11
5.533182332246601
 21
3.762176349608688
 31
0.0
  0
LINE
  5
211
330
40
100
AcDbEntity
  8
4
100
AcDbLine
 10
4.80249682907573
 20
3.878365996915932
 30
0.0
 11
4.812496829075731
 21
4.003365996915933
 31
0.0
  0
LINE
  5
212
330
40
100
AcDbEntity
  8
4
100
AcDbLine
 10
4.822496829075729
 20
3.878365996915932
 30
0.0
 11
4.812496829075731
 21
4.003365996915931
 31
0.0
  0
LINE
  5
213
330
40
100
AcDbEntity
  8
4
100
AcDbLine
 10
4.812496829075731
 20
4.003365996915931
 30
0.0
 11
4.79249682907573
 21
3.878365996915932
 31
0.0
  0
LINE
  5
214
330
40
100
AcDbEntity
  8
4
100
AcDbLine
 10
4.83249682907573
 20
3.878365996915932
 30
0.0
 11
4.812496829075731
 21
4.003365996915931
 31
0.0
  0
LINE
  5
215
330
40
100
AcDbEntity
  8
4
100
AcDbLine
 10
5.17049682907573
 20
4.003365996915924
 30
0.0
 11
5.17049682907573
 21
3.941365996915924
 31
0.0
  0
LINE
  5
216
330
40
100
AcDbEntity
  8
4
100
AcDbLine
 10
4.83249682907573
 20
3.878365996915932
 30
0.0
 11
4.79249682907573
 21
3.878365996915932
 31
0.0
  0
LINE
  5
217
330
40
100
AcDbEntity
  8
2
100
AcDbLine
 10
5.264432332246602
 20
3.724676349608688
 30
0.0
 11
5.264432332246602
 21
3.605068528201079
 31
0.0
  0
LINE
  5
218
330
40
100
AcDbEntity
  8
4
100
AcDbLine
 10
5.289432332246602
 20
3.666676349608688
 30
0.0
 11
5.308182332246602
 21
3.629176349608689
 31
0.0
  0
LINE
  5
219
330
40
100
AcDbEntity
  8
4
100
AcDbLine
 10
5.308182332246602
 20
3.629176349608689
 30
0.0
 11
5.326932332246602
 21
3.666676349608688
 31
0.0
  0
LINE
  5
21A
330
40
100
AcDbEntity
  8
4
100
AcDbLine
 10
5.264432332246602
 20
3.605068528201079
 30
0.0
 11
5.283182332246601
 21
3.56756852820108
 31
0.0
  0
LINE
  5
21B
330
40
100
AcDbEntity
  8
4
100
AcDbLine
 10
5.283182332246601
 20
3.56756852820108
 30
0.0
 11
5.301932332246601
 21
3.605068528201079
 31
0.0
  0
LINE
  5
21C
330
40
100
AcDbEntity
  8
4
100
AcDbLine
 10
5.264432332246602
 20
3.605068528201079
 30
0.0
 11
5.283182332246601
 21
3.642568528201079
 31
0.0
  0
LINE
  5
21D
330
40
100
AcDbEntity
  8
4
100
AcDbLine
 10
5.283182332246601
 20
3.642568528201079
 30
0.0
 11
5.301932332246601
 21
3.605068528201079
 31
0.0
  0
LINE
  5
21E
330
40
100
AcDbEntity
  8
4
100
AcDbLine
 10
5.308182332246602
 20
3.704176349608688
 30
0.0
 11
5.326932332246602
 21
3.666676349608688
 31
0.0
  0
LINE
  5
21F
330
40
100
AcDbEntity
  8
4
100
AcDbLine
 10
5.289432332246602
 20
3.666676349608688
 30
0.0
 11
5.308182332246602
 21
3.704176349608688
 31
0.0
  0
LINE
  5
220
330
40
100
AcDbEntity
  8
4
100
AcDbLine
 10
5.283182332246601
 20
3.687176349608689
 30
0.0
 11
5.301932332246601
 21
3.724676349608688
 31
0.0
  0
LINE
  5
221
330
40
100
AcDbEntity
  8
4
100
AcDbLine
 10
5.264432332246602
 20
3.724676349608688
 30
0.0
 11
5.283182332246601
 21
3.687176349608689
 31
0.0
  0
LINE
  5
222
330
40
100
AcDbEntity
  8
4
100
AcDbLine
 10
5.283182332246601
 20
3.762176349608688
 30
0.0
 11
5.301932332246601
 21
3.724676349608688
 31
0.0
  0
LINE
  5
223
330
40
100
AcDbEntity
  8
4
100
AcDbLine
 10
5.264432332246602
 20
3.724676349608688
 30
0.0
 11
5.283182332246601
 21
3.762176349608688
 31
0.0
  0
LINE
  5
224
330
40
100
AcDbEntity
  8
4
100
AcDbLine
 10
5.17049682907573
 20
3.941365996915924
 30
0.0
 11
5.20149682907573
 21
3.972365996915923
 31
0.0
  0
LINE
  5
225
330
40
100
AcDbEntity
  8
4
100
AcDbLine
 10
5.388476719178215
 20
3.904365996915923
 30
0.0
 11
5.388476719178215
 21
3.842365996915924
 31
0.0
  0
LINE
  5
226
330
40
100
AcDbEntity
  8
4
100
AcDbLine
 10
5.00249682907573
 20
4.003365996915924
 30
0.0
 11
4.81249682907573
 21
4.003365996915924
 31
0.0
  0
LINE
  5
227
330
40
100
AcDbEntity
  8
4
100
AcDbLine
 10
4.792496829075731
 20
4.128365996915936
 30
0.0
 11
4.812496829075731
 21
4.003365996915936
 31
0.0
  0
LINE
  5
228
330
40
100
AcDbEntity
  8
4
100
AcDbLine
 10
4.812496829075731
 20
4.003365996915936
 30
0.0
 11
4.832496829075731
 21
4.128365996915936
 31
0.0
  0
LINE
  5
229
330
40
100
AcDbEntity
  8
4
100
AcDbLine
 10
4.802496829075732
 20
4.128365996915936
 30
0.0
 11
4.812496829075731
 21
4.003365996915936
 31
0.0
  0
LINE
  5
22A
330
40
100
AcDbEntity
  8
4
100
AcDbLine
 10
4.822496829075731
 20
4.128365996915936
 30
0.0
 11
4.812496829075731
 21
4.003365996915935
 31
0.0
  0
LINE
  5
22B
330
40
100
AcDbEntity
  8
4
100
AcDbLine
 10
4.81249682907573
 20
4.003365996915924
 30
0.0
 11
4.750496829075729
 21
4.003365996915924
 31
0.0
  0
LINE
  5
22C
330
40
100
AcDbEntity
  8
4
100
AcDbLine
 10
4.792496829075731
 20
4.128365996915936
 30
0.0
 11
4.832496829075731
 21
4.128365996915936
 31
0.0
  0
LINE
  5
22D
330
40
100
AcDbEntity
  8
4
100
AcDbLine
 10
4.832496829075729
 20
4.372365996915922
 30
0.0
 11
4.792496829075729
 21
4.372365996915922
 31
0.0
  0
LINE
  5
22E
330
40
100
AcDbEntity
  8
2
100
AcDbLine
 10
5.264432332246602
 20
4.346284231620924
 30
0.0
 11
5.264432332246602
 21
4.135976410213315
 31
0.0
  0
LINE
  5
22F
330
40
100
AcDbEntity
  8
4
100
AcDbLine
 10
5.289432332246601
 20
4.077976410213315
 30
0.0
 11
5.308182332246601
 21
4.115476410213315
 31
0.0
  0
LINE
  5
230
330
40
100
AcDbEntity
  8
4
100
AcDbLine
 10
5.308182332246601
 20
4.115476410213315
 30
0.0
 11
5.326932332246602
 21
4.077976410213315
 31
0.0
  0
LINE
  5
231
330
40
100
AcDbEntity
  8
4
100
AcDbLine
 10
5.308182332246601
 20
4.040476410213315
 30
0.0
 11
5.326932332246602
 21
4.077976410213315
 31
0.0
  0
LINE
  5
232
330
40
100
AcDbEntity
  8
4
100
AcDbLine
 10
5.289432332246601
 20
4.077976410213315
 30
0.0
 11
5.308182332246601
 21
4.040476410213315
 31
0.0
  0
LINE
  5
233
330
40
100
AcDbEntity
  8
4
100
AcDbLine
 10
5.283182332246601
 20
4.098476410213315
 30
0.0
 11
5.301932332246601
 21
4.135976410213315
 31
0.0
  0
LINE
  5
234
330
40
100
AcDbEntity
  8
4
100
AcDbLine
 10
5.264432332246602
 20
4.135976410213315
 30
0.0
 11
5.283182332246601
 21
4.098476410213315
 31
0.0
  0
LINE
  5
235
330
40
100
AcDbEntity
  8
4
100
AcDbLine
 10
5.283182332246601
 20
4.173476410213314
 30
0.0
 11
5.301932332246601
 21
4.135976410213315
 31
0.0
  0
LINE
  5
236
330
40
100
AcDbEntity
  8
4
100
AcDbLine
 10
5.264432332246602
 20
4.135976410213315
 30
0.0
 11
5.283182332246601
 21
4.173476410213314
 31
0.0
  0
LINE
  5
237
330
40
100
AcDbEntity
  8
4
100
AcDbLine
 10
5.065496829075729
 20
4.403365996915924
 30
0.0
 11
5.127496829075729
 21
4.403365996915924
 31
0.0
  0
LINE
  5
238
330
40
100
AcDbEntity
  8
4
100
AcDbLine
 10
5.308182332246602
 20
4.325784231620923
 30
0.0
 11
5.326932332246602
 21
4.288284231620924
 31
0.0
  0
LINE
  5
239
330
40
100
AcDbEntity
  8
4
100
AcDbLine
 10
5.289432332246602
 20
4.288284231620924
 30
0.0
 11
5.308182332246602
 21
4.325784231620923
 31
0.0
  0
LINE
  5
23A
330
40
100
AcDbEntity
  8
4
100
AcDbLine
 10
5.308182332246602
 20
4.250784231620924
 30
0.0
 11
5.326932332246602
 21
4.288284231620924
 31
0.0
  0
LINE
  5
23B
330
40
100
AcDbEntity
  8
4
100
AcDbLine
 10
5.289432332246602
 20
4.288284231620924
 30
0.0
 11
5.308182332246602
 21
4.250784231620924
 31
0.0
  0
LINE
  5
23C
330
40
100
AcDbEntity
  8
4
100
AcDbLine
 10
5.264432332246602
 20
4.346284231620924
 30
0.0
 11
5.283182332246601
 21
4.383784231620923
 31
0.0
  0
LINE
  5
23D
330
40
100
AcDbEntity
  8
4
100
AcDbLine
 10
5.283182332246601
 20
4.383784231620923
 30
0.0
 11
5.301932332246601
 21
4.346284231620924
 31
0.0
  0
LINE
  5
23E
330
40
100
AcDbEntity
  8
4
100
AcDbLine
 10
5.264432332246602
 20
4.346284231620924
 30
0.0
 11
5.283182332246601
 21
4.308784231620924
 31
0.0
  0
LINE
  5
23F
330
40
100
AcDbEntity
  8
4
100
AcDbLine
 10
5.283182332246601
 20
4.308784231620924
 30
0.0
 11
5.301932332246601
 21
4.346284231620924
 31
0.0
  0
LINE
  5
240
330
40
100
AcDbEntity
  8
4
100
AcDbLine
 10
5.67049682907573
 20
3.941365996915924
 30
0.0
 11
5.67049682907573
 21
4.003365996915924
 31
0.0
  0
LINE
  5
241
330
40
100
AcDbEntity
  8
4
100
AcDbLine
 10
5.558182332246601
 20
3.704176349608688
 30
0.0
 11
5.576932332246602
 21
3.666676349608688
 31
0.0
  0
LINE
  5
242
330
40
100
AcDbEntity
  8
4
100
AcDbLine
 10
5.558182332246601
 20
3.629176349608689
 30
0.0
 11
5.576932332246602
 21
3.666676349608688
 31
0.0
  0
LINE
  5
243
330
40
100
AcDbEntity
  8
4
100
AcDbLine
 10
5.539432332246601
 20
3.666676349608688
 30
0.0
 11
5.558182332246601
 21
3.629176349608689
 31
0.0
  0
LINE
  5
244
330
40
100
AcDbEntity
  8
4
100
AcDbLine
 10
5.533182332246601
 20
3.56756852820108
 30
0.0
 11
5.551932332246601
 21
3.605068528201079
 31
0.0
  0
LINE
  5
245
330
40
100
AcDbEntity
  8
4
100
AcDbLine
 10
5.514432332246602
 20
3.605068528201079
 30
0.0
 11
5.533182332246601
 21
3.56756852820108
 31
0.0
  0
LINE
  5
246
330
40
100
AcDbEntity
  8
4
100
AcDbLine
 10
5.533182332246601
 20
3.642568528201079
 30
0.0
 11
5.551932332246601
 21
3.605068528201079
 31
0.0
  0
LINE
  5
247
330
40
100
AcDbEntity
  8
4
100
AcDbLine
 10
5.514432332246602
 20
3.605068528201079
 30
0.0
 11
5.533182332246601
 21
3.642568528201079
 31
0.0
  0
LINE
  5
248
330
40
100
AcDbEntity
  8
4
100
AcDbLine
 10
5.514432332246602
 20
3.724676349608688
 30
0.0
 11
5.533182332246601
 21
3.762176349608688
 31
0.0
  0
LINE
  5
249
330
40
100
AcDbEntity
  8
4
100
AcDbLine
 10
5.533182332246601
 20
3.762176349608688
 30
0.0
 11
5.551932332246601
 21
3.724676349608688
 31
0.0
  0
LINE
  5
24A
330
40
100
AcDbEntity
  8
4
100
AcDbLine
 10
5.514432332246602
 20
3.724676349608688
 30
0.0
 11
5.533182332246601
 21
3.687176349608689
 31
0.0
  0
LINE
  5
24B
330
40
100
AcDbEntity
  8
4
100
AcDbLine
 10
5.533182332246601
 20
3.687176349608689
 30
0.0
 11
5.551932332246601
 21
3.724676349608688
 31
0.0
  0
LINE
  5
24C
330
40
100
AcDbEntity
  8
4
100
AcDbLine
 10
5.539432332246601
 20
3.666676349608688
 30
0.0
 11
5.558182332246601
 21
3.704176349608688
 31
0.0
  0
LINE
  5
24D
330
40
100
AcDbEntity
  8
4
100
AcDbLine
 10
5.67049682907573
 20
3.841365996915925
 30
0.0
 11
5.67049682907573
 21
3.891365996915924
 31
0.0
  0
ARC
  5
24E
330
40
100
AcDbEntity
  8
4
100
AcDbCircle
 10
5.645496829075731
 20
3.841365996915925
 30
0.0
 40
0.025
100
AcDbArc
 50
180.0
 51
0.0
  0
LINE
  5
24F
330
40
100
AcDbEntity
  8
2
100
AcDbLine
 10
5.576932332246602
 20
4.288284231620924
 30
0.0
 11
5.576932332246602
 21
4.077976410213315
 31
0.0
  0
LINE
  5
250
330
40
100
AcDbEntity
  8
4
100
AcDbLine
 10
5.558182332246601
 20
4.040476410213315
 30
0.0
 11
5.576932332246602
 21
4.077976410213315
 31
0.0
  0
LINE
  5
251
330
40
100
AcDbEntity
  8
4
100
AcDbLine
 10
5.558182332246601
 20
4.115476410213315
 30
0.0
 11
5.576932332246602
 21
4.077976410213315
 31
0.0
  0
LINE
  5
252
330
40
100
AcDbEntity
  8
4
100
AcDbLine
 10
5.539432332246601
 20
4.077976410213315
 30
0.0
 11
5.558182332246601
 21
4.115476410213315
 31
0.0
  0
LINE
  5
253
330
40
100
AcDbEntity
  8
4
100
AcDbLine
 10
5.539432332246601
 20
4.077976410213315
 30
0.0
 11
5.558182332246601
 21
4.040476410213315
 31
0.0
  0
LINE
  5
254
330
40
100
AcDbEntity
  8
4
100
AcDbLine
 10
5.514432332246602
 20
4.135976410213315
 30
0.0
 11
5.533182332246601
 21
4.098476410213315
 31
0.0
  0
LINE
  5
255
330
40
100
AcDbEntity
  8
4
100
AcDbLine
 10
5.533182332246601
 20
4.098476410213315
 30
0.0
 11
5.551932332246601
 21
4.135976410213315
 31
0.0
  0
LINE
  5
256
330
40
100
AcDbEntity
  8
4
100
AcDbLine
 10
5.514432332246602
 20
4.135976410213315
 30
0.0
 11
5.533182332246601
 21
4.173476410213314
 31
0.0
  0
LINE
  5
257
330
40
100
AcDbEntity
  8
4
100
AcDbLine
 10
5.533182332246601
 20
4.173476410213314
 30
0.0
 11
5.551932332246601
 21
4.135976410213315
 31
0.0
  0
LINE
  5
258
330
40
100
AcDbEntity
  8
4
100
AcDbLine
 10
5.558182332246601
 20
4.325784231620923
 30
0.0
 11
5.576932332246602
 21
4.288284231620924
 31
0.0
  0
LINE
  5
259
330
40
100
AcDbEntity
  8
4
100
AcDbLine
 10
5.558182332246601
 20
4.250784231620924
 30
0.0
 11
5.576932332246602
 21
4.288284231620924
 31
0.0
  0
LINE
  5
25A
330
40
100
AcDbEntity
  8
4
100
AcDbLine
 10
5.539432332246601
 20
4.288284231620924
 30
0.0
 11
5.558182332246601
 21
4.325784231620923
 31
0.0
  0
LINE
  5
25B
330
40
100
AcDbEntity
  8
4
100
AcDbLine
 10
5.539432332246601
 20
4.288284231620924
 30
0.0
 11
5.558182332246601
 21
4.250784231620924
 31
0.0
  0
LINE
  5
25C
330
40
100
AcDbEntity
  8
4
100
AcDbLine
 10
5.533182332246601
 20
4.383784231620923
 30
0.0
 11
5.551932332246601
 21
4.346284231620924
 31
0.0
  0
LINE
  5
25D
330
40
100
AcDbEntity
  8
4
100
AcDbLine
 10
5.514432332246602
 20
4.346284231620924
 30
0.0
 11
5.533182332246601
 21
4.383784231620923
 31
0.0
  0
LINE
  5
25E
330
40
100
AcDbEntity
  8
4
100
AcDbLine
 10
5.533182332246601
 20
4.308784231620924
 30
0.0
 11
5.551932332246601
 21
4.346284231620924
 31
0.0
  0
LINE
  5
25F
330
40
100
AcDbEntity
  8
4
100
AcDbLine
 10
5.514432332246602
 20
4.346284231620924
 30
0.0
 11
5.533182332246601
 21
4.308784231620924
 31
0.0
  0
LINE
  5
260
330
40
100
AcDbEntity
  8
4
100
AcDbLine
 10
7.388432332246601
 20
3.54706852820108
 30
0.0
 11
7.4071823322466
 21
3.584568528201079
 31
0.0
  0
LINE
  5
261
330
40
100
AcDbEntity
  8
4
100
AcDbLine
 10
7.4071823322466
 20
3.584568528201079
 30
0.0
 11
7.425932332246601
 21
3.54706852820108
 31
0.0
  0
LINE
  5
262
330
40
100
AcDbEntity
  8
4
100
AcDbLine
 10
7.1571823322466
 20
3.584568528201079
 30
0.0
 11
7.175932332246601
 21
3.54706852820108
 31
0.0
  0
LINE
  5
263
330
40
100
AcDbEntity
  8
4
100
AcDbLine
 10
6.849432332246601
 20
3.54706852820108
 30
0.0
 11
6.8681823322466
 21
3.584568528201079
 31
0.0
  0
LINE
  5
264
330
40
100
AcDbEntity
  8
4
100
AcDbLine
 10
6.8681823322466
 20
3.584568528201079
 30
0.0
 11
6.886932332246601
 21
3.54706852820108
 31
0.0
  0
LINE
  5
265
330
40
100
AcDbEntity
  8
4
100
AcDbLine
 10
6.599432332246601
 20
3.54706852820108
 30
0.0
 11
6.6181823322466
 21
3.584568528201079
 31
0.0
  0
LINE
  5
266
330
40
100
AcDbEntity
  8
4
100
AcDbLine
 10
6.6181823322466
 20
3.584568528201079
 30
0.0
 11
6.636932332246601
 21
3.54706852820108
 31
0.0
  0
LINE
  5
267
330
40
100
AcDbEntity
  8
4
100
AcDbLine
 10
7.138432332246601
 20
3.54706852820108
 30
0.0
 11
7.1571823322466
 21
3.584568528201079
 31
0.0
  0
LINE
  5
268
330
40
100
AcDbEntity
  8
2
100
AcDbLine
 10
7.425932332246601
 20
3.666676349608688
 30
0.0
 11
7.425932332246601
 21
3.54706852820108
 31
0.0
  0
LINE
  5
269
330
40
100
AcDbEntity
  8
2
100
AcDbLine
 10
6.886932332246601
 20
3.666676349608688
 30
0.0
 11
6.886932332246601
 21
3.54706852820108
 31
0.0
  0
LINE
  5
26A
330
40
100
AcDbEntity
  8
2
100
AcDbLine
 10
7.425932332246601
 20
2.775581379315957
 30
0.0
 11
7.425932332246601
 21
2.565273557908348
 31
0.0
  0
LINE
  5
26B
330
40
100
AcDbEntity
  8
2
100
AcDbLine
 10
7.113432332246601
 20
2.833581379315957
 30
0.0
 11
7.113432332246601
 21
2.623273557908348
 31
0.0
  0
LINE
  5
26C
330
40
100
AcDbEntity
  8
2
100
AcDbLine
 10
6.574432332246601
 20
2.833581379315957
 30
0.0
 11
6.574432332246601
 21
2.623273557908348
 31
0.0
  0
LINE
  5
26D
330
40
100
AcDbEntity
  8
2
100
AcDbLine
 10
6.886932332246601
 20
2.775581379315957
 30
0.0
 11
6.886932332246601
 21
2.565273557908348
 31
0.0
  0
LINE
  5
26E
330
40
100
AcDbEntity
  8
2
100
AcDbLine
 10
6.6181823322466
 20
2.527773557908349
 30
0.0
 11
6.8681823322466
 21
2.527773557908349
 31
0.0
  0
LINE
  5
26F
330
40
100
AcDbEntity
  8
2
100
AcDbLine
 10
6.593182332246602
 20
2.384660771128389
 30
0.0
 11
6.843182332246601
 21
2.384660771128388
 31
0.0
  0
LINE
  5
270
330
40
100
AcDbEntity
  8
2
100
AcDbLine
 10
6.593182332246602
 20
1.996661446463317
 30
0.0
 11
6.843182332246601
 21
1.996661446463317
 31
0.0
  0
LINE
  5
271
330
40
100
AcDbEntity
  8
2
100
AcDbLine
 10
6.6181823322466
 20
2.13205294972078
 30
0.0
 11
6.8681823322466
 21
2.13205294972078
 31
0.0
  0
LINE
  5
272
330
40
100
AcDbEntity
  8
4
100
AcDbLine
 10
6.599432332246601
 20
2.289160771128389
 30
0.0
 11
6.618182332246601
 21
2.251660771128389
 31
0.0
  0
LINE
  5
273
330
40
100
AcDbEntity
  8
2
100
AcDbLine
 10
6.574432332246601
 20
2.347160771128389
 30
0.0
 11
6.574432332246601
 21
2.22755294972078
 31
0.0
  0
LINE
  5
274
330
40
100
AcDbEntity
  8
4
100
AcDbLine
 10
6.618182332246601
 20
2.251660771128389
 30
0.0
 11
6.636932332246601
 21
2.289160771128389
 31
0.0
  0
LINE
  5
275
330
40
100
AcDbEntity
  8
4
100
AcDbLine
 10
6.574432332246601
 20
1.959161446463317
 30
0.0
 11
6.593182332246601
 21
1.921661446463317
 31
0.0
  0
LINE
  5
276
330
40
100
AcDbEntity
  8
4
100
AcDbLine
 10
6.574432332246601
 20
1.959161446463317
 30
0.0
 11
6.593182332246601
 21
1.996661446463317
 31
0.0
  0
LINE
  5
277
330
40
100
AcDbEntity
  8
4
100
AcDbLine
 10
6.593182332246601
 20
1.921661446463317
 30
0.0
 11
6.611932332246601
 21
1.959161446463317
 31
0.0
  0
LINE
  5
278
330
40
100
AcDbEntity
  8
4
100
AcDbLine
 10
6.599432332246601
 20
1.901161446463317
 30
0.0
 11
6.618182332246601
 21
1.938661446463317
 31
0.0
  0
LINE
  5
279
330
40
100
AcDbEntity
  8
4
100
AcDbLine
 10
6.618182332246601
 20
1.938661446463317
 30
0.0
 11
6.636932332246601
 21
1.901161446463317
 31
0.0
  0
LINE
  5
27A
330
40
100
AcDbEntity
  8
4
100
AcDbLine
 10
6.599432332246601
 20
1.901161446463317
 30
0.0
 11
6.618182332246601
 21
1.863661446463317
 31
0.0
  0
LINE
  5
27B
330
40
100
AcDbEntity
  8
4
100
AcDbLine
 10
6.618182332246601
 20
1.863661446463317
 30
0.0
 11
6.636932332246601
 21
1.901161446463317
 31
0.0
  0
LINE
  5
27C
330
40
100
AcDbEntity
  8
4
100
AcDbLine
 10
6.593182332246601
 20
1.996661446463317
 30
0.0
 11
6.611932332246601
 21
1.959161446463317
 31
0.0
  0
LINE
  5
27D
330
40
100
AcDbEntity
  8
4
100
AcDbLine
 10
6.574432332246601
 20
2.22755294972078
 30
0.0
 11
6.593182332246601
 21
2.26505294972078
 31
0.0
  0
LINE
  5
27E
330
40
100
AcDbEntity
  8
4
100
AcDbLine
 10
6.574432332246601
 20
2.22755294972078
 30
0.0
 11
6.593182332246601
 21
2.19005294972078
 31
0.0
  0
LINE
  5
27F
330
40
100
AcDbEntity
  8
4
100
AcDbLine
 10
6.599432332246601
 20
2.16955294972078
 30
0.0
 11
6.6181823322466
 21
2.20705294972078
 31
0.0
  0
LINE
  5
280
330
40
100
AcDbEntity
  8
4
100
AcDbLine
 10
6.6181823322466
 20
2.20705294972078
 30
0.0
 11
6.636932332246601
 21
2.16955294972078
 31
0.0
  0
LINE
  5
281
330
40
100
AcDbEntity
  8
4
100
AcDbLine
 10
6.599432332246601
 20
2.16955294972078
 30
0.0
 11
6.6181823322466
 21
2.13205294972078
 31
0.0
  0
LINE
  5
282
330
40
100
AcDbEntity
  8
4
100
AcDbLine
 10
6.6181823322466
 20
2.13205294972078
 30
0.0
 11
6.636932332246601
 21
2.16955294972078
 31
0.0
  0
LINE
  5
283
330
40
100
AcDbEntity
  8
4
100
AcDbLine
 10
6.593182332246601
 20
2.26505294972078
 30
0.0
 11
6.611932332246601
 21
2.22755294972078
 31
0.0
  0
LINE
  5
284
330
40
100
AcDbEntity
  8
4
100
AcDbLine
 10
6.593182332246601
 20
2.19005294972078
 30
0.0
 11
6.611932332246601
 21
2.22755294972078
 31
0.0
  0
LINE
  5
285
330
40
100
AcDbEntity
  8
4
100
AcDbLine
 10
6.574432332246601
 20
2.347160771128389
 30
0.0
 11
6.593182332246601
 21
2.384660771128388
 31
0.0
  0
LINE
  5
286
330
40
100
AcDbEntity
  8
4
100
AcDbLine
 10
6.574432332246601
 20
2.347160771128389
 30
0.0
 11
6.593182332246601
 21
2.309660771128389
 31
0.0
  0
LINE
  5
287
330
40
100
AcDbEntity
  8
4
100
AcDbLine
 10
6.593182332246601
 20
2.384660771128388
 30
0.0
 11
6.611932332246601
 21
2.347160771128389
 31
0.0
  0
LINE
  5
288
330
40
100
AcDbEntity
  8
4
100
AcDbLine
 10
6.593182332246601
 20
2.309660771128389
 30
0.0
 11
6.611932332246601
 21
2.347160771128389
 31
0.0
  0
LINE
  5
289
330
40
100
AcDbEntity
  8
4
100
AcDbLine
 10
6.599432332246601
 20
2.289160771128389
 30
0.0
 11
6.618182332246601
 21
2.326660771128389
 31
0.0
  0
LINE
  5
28A
330
40
100
AcDbEntity
  8
4
100
AcDbLine
 10
6.618182332246601
 20
2.326660771128389
 30
0.0
 11
6.636932332246601
 21
2.289160771128389
 31
0.0
  0
LINE
  5
28B
330
40
100
AcDbEntity
  8
4
100
AcDbLine
 10
6.574432332246601
 20
2.623273557908348
 30
0.0
 11
6.593182332246601
 21
2.660773557908348
 31
0.0
  0
LINE
  5
28C
330
40
100
AcDbEntity
  8
4
100
AcDbLine
 10
6.574432332246601
 20
2.623273557908348
 30
0.0
 11
6.593182332246601
 21
2.585773557908348
 31
0.0
  0
LINE
  5
28D
330
40
100
AcDbEntity
  8
4
100
AcDbLine
 10
6.593182332246601
 20
2.585773557908348
 30
0.0
 11
6.611932332246601
 21
2.623273557908348
 31
0.0
  0
LINE
  5
28E
330
40
100
AcDbEntity
  8
4
100
AcDbLine
 10
6.6181823322466
 20
2.602773557908348
 30
0.0
 11
6.636932332246601
 21
2.565273557908348
 31
0.0
  0
LINE
  5
28F
330
40
100
AcDbEntity
  8
4
100
AcDbLine
 10
6.599432332246601
 20
2.565273557908348
 30
0.0
 11
6.6181823322466
 21
2.602773557908348
 31
0.0
  0
LINE
  5
290
330
40
100
AcDbEntity
  8
4
100
AcDbLine
 10
6.599432332246601
 20
2.565273557908348
 30
0.0
 11
6.6181823322466
 21
2.527773557908349
 31
0.0
  0
LINE
  5
291
330
40
100
AcDbEntity
  8
4
100
AcDbLine
 10
6.6181823322466
 20
2.527773557908349
 30
0.0
 11
6.636932332246601
 21
2.565273557908348
 31
0.0
  0
LINE
  5
292
330
40
100
AcDbEntity
  8
4
100
AcDbLine
 10
6.593182332246601
 20
2.660773557908348
 30
0.0
 11
6.611932332246601
 21
2.623273557908348
 31
0.0
  0
LINE
  5
293
330
40
100
AcDbEntity
  8
4
100
AcDbLine
 10
7.388432332246601
 20
2.289160771128389
 30
0.0
 11
7.4071823322466
 21
2.251660771128389
 31
0.0
  0
LINE
  5
294
330
40
100
AcDbEntity
  8
4
100
AcDbLine
 10
7.4071823322466
 20
2.251660771128389
 30
0.0
 11
7.425932332246601
 21
2.289160771128389
 31
0.0
  0
LINE
  5
295
330
40
100
AcDbEntity
  8
4
100
AcDbLine
 10
7.157182332246602
 20
2.251660771128389
 30
0.0
 11
7.175932332246601
 21
2.289160771128389
 31
0.0
  0
LINE
  5
296
330
40
100
AcDbEntity
  8
2
100
AcDbLine
 10
7.113432332246601
 20
2.347160771128389
 30
0.0
 11
7.113432332246601
 21
2.22755294972078
 31
0.0
  0
LINE
  5
297
330
40
100
AcDbEntity
  8
4
100
AcDbLine
 10
6.849432332246601
 20
2.289160771128389
 30
0.0
 11
6.8681823322466
 21
2.251660771128389
 31
0.0
  0
LINE
  5
298
330
40
100
AcDbEntity
  8
4
100
AcDbLine
 10
6.8681823322466
 20
2.251660771128389
 30
0.0
 11
6.886932332246601
 21
2.289160771128389
 31
0.0
  0
LINE
  5
299
330
40
100
AcDbEntity
  8
4
100
AcDbLine
 10
7.138432332246601
 20
2.289160771128389
 30
0.0
 11
7.157182332246602
 21
2.251660771128389
 31
0.0
  0
LINE
  5
29A
330
40
100
AcDbEntity
  8
2
100
AcDbLine
 10
7.425932332246601
 20
2.289160771128389
 30
0.0
 11
7.425932332246601
 21
2.16955294972078
 31
0.0
  0
LINE
  5
29B
330
40
100
AcDbEntity
  8
2
100
AcDbLine
 10
6.886932332246601
 20
2.289160771128389
 30
0.0
 11
6.886932332246601
 21
2.16955294972078
 31
0.0
  0
LINE
  5
29C
330
40
100
AcDbEntity
  8
4
100
AcDbLine
 10
6.824432332246601
 20
1.959161446463317
 30
0.0
 11
6.843182332246601
 21
1.921661446463317
 31
0.0
  0
LINE
  5
29D
330
40
100
AcDbEntity
  8
4
100
AcDbLine
 10
6.843182332246601
 20
1.921661446463317
 30
0.0
 11
6.861932332246601
 21
1.959161446463317
 31
0.0
  0
LINE
  5
29E
330
40
100
AcDbEntity
  8
4
100
AcDbLine
 10
6.8681823322466
 20
1.938661446463317
 30
0.0
 11
6.886932332246601
 21
1.901161446463317
 31
0.0
  0
LINE
  5
29F
330
40
100
AcDbEntity
  8
4
100
AcDbLine
 10
6.849432332246601
 20
1.901161446463317
 30
0.0
 11
6.8681823322466
 21
1.938661446463317
 31
0.0
  0
LINE
  5
2A0
330
40
100
AcDbEntity
  8
4
100
AcDbLine
 10
6.8681823322466
 20
1.863661446463317
 30
0.0
 11
6.886932332246601
 21
1.901161446463317
 31
0.0
  0
LINE
  5
2A1
330
40
100
AcDbEntity
  8
4
100
AcDbLine
 10
6.849432332246601
 20
1.901161446463317
 30
0.0
 11
6.8681823322466
 21
1.863661446463317
 31
0.0
  0
LINE
  5
2A2
330
40
100
AcDbEntity
  8
4
100
AcDbLine
 10
6.843182332246601
 20
1.996661446463317
 30
0.0
 11
6.861932332246601
 21
1.959161446463317
 31
0.0
  0
LINE
  5
2A3
330
40
100
AcDbEntity
  8
4
100
AcDbLine
 10
6.824432332246601
 20
1.959161446463317
 30
0.0
 11
6.843182332246601
 21
1.996661446463317
 31
0.0
  0
LINE
  5
2A4
330
40
100
AcDbEntity
  8
4
100
AcDbLine
 10
6.8681823322466
 20
2.20705294972078
 30
0.0
 11
6.886932332246601
 21
2.16955294972078
 31
0.0
  0
LINE
  5
2A5
330
40
100
AcDbEntity
  8
4
100
AcDbLine
 10
6.849432332246601
 20
2.16955294972078
 30
0.0
 11
6.8681823322466
 21
2.20705294972078
 31
0.0
  0
LINE
  5
2A6
330
40
100
AcDbEntity
  8
4
100
AcDbLine
 10
6.8681823322466
 20
2.13205294972078
 30
0.0
 11
6.886932332246601
 21
2.16955294972078
 31
0.0
  0
LINE
  5
2A7
330
40
100
AcDbEntity
  8
4
100
AcDbLine
 10
6.849432332246601
 20
2.16955294972078
 30
0.0
 11
6.8681823322466
 21
2.13205294972078
 31
0.0
  0
LINE
  5
2A8
330
40
100
AcDbEntity
  8
4
100
AcDbLine
 10
6.843182332246601
 20
2.26505294972078
 30
0.0
 11
6.861932332246601
 21
2.22755294972078
 31
0.0
  0
LINE
  5
2A9
330
40
100
AcDbEntity
  8
4
100
AcDbLine
 10
6.843182332246601
 20
2.19005294972078
 30
0.0
 11
6.861932332246601
 21
2.22755294972078
 31
0.0
  0
LINE
  5
2AA
330
40
100
AcDbEntity
  8
4
100
AcDbLine
 10
6.824432332246601
 20
2.22755294972078
 30
0.0
 11
6.843182332246601
 21
2.26505294972078
 31
0.0
  0
LINE
  5
2AB
330
40
100
AcDbEntity
  8
4
100
AcDbLine
 10
6.824432332246601
 20
2.22755294972078
 30
0.0
 11
6.843182332246601
 21
2.19005294972078
 31
0.0
  0
LINE
  5
2AC
330
40
100
AcDbEntity
  8
2
100
AcDbLine
 10
7.132182332246602
 20
1.996661446463317
 30
0.0
 11
7.3821823322466
 21
1.996661446463317
 31
0.0
  0
LINE
  5
2AD
330
40
100
AcDbEntity
  8
4
100
AcDbLine
 10
7.113432332246601
 20
1.959161446463317
 30
0.0
 11
7.1321823322466
 21
1.921661446463317
 31
0.0
  0
LINE
  5
2AE
330
40
100
AcDbEntity
  8
4
100
AcDbLine
 10
7.1321823322466
 20
1.921661446463317
 30
0.0
 11
7.1509323322466
 21
1.959161446463317
 31
0.0
  0
LINE
  5
2AF
330
40
100
AcDbEntity
  8
4
100
AcDbLine
 10
7.157182332246602
 20
1.938661446463317
 30
0.0
 11
7.175932332246601
 21
1.901161446463317
 31
0.0
  0
LINE
  5
2B0
330
40
100
AcDbEntity
  8
4
100
AcDbLine
 10
7.157182332246602
 20
1.863661446463317
 30
0.0
 11
7.175932332246601
 21
1.901161446463317
 31
0.0
  0
LINE
  5
2B1
330
40
100
AcDbEntity
  8
4
100
AcDbLine
 10
7.138432332246601
 20
1.901161446463317
 30
0.0
 11
7.157182332246602
 21
1.938661446463317
 31
0.0
  0
LINE
  5
2B2
330
40
100
AcDbEntity
  8
4
100
AcDbLine
 10
7.138432332246601
 20
1.901161446463317
 30
0.0
 11
7.157182332246602
 21
1.863661446463317
 31
0.0
  0
LINE
  5
2B3
330
40
100
AcDbEntity
  8
4
100
AcDbLine
 10
7.113432332246601
 20
1.959161446463317
 30
0.0
 11
7.1321823322466
 21
1.996661446463317
 31
0.0
  0
LINE
  5
2B4
330
40
100
AcDbEntity
  8
4
100
AcDbLine
 10
7.1321823322466
 20
1.996661446463317
 30
0.0
 11
7.1509323322466
 21
1.959161446463317
 31
0.0
  0
LINE
  5
2B5
330
40
100
AcDbEntity
  8
4
100
AcDbLine
 10
7.363432332246601
 20
1.959161446463317
 30
0.0
 11
7.3821823322466
 21
1.921661446463317
 31
0.0
  0
LINE
  5
2B6
330
40
100
AcDbEntity
  8
4
100
AcDbLine
 10
7.3821823322466
 20
1.921661446463317
 30
0.0
 11
7.4009323322466
 21
1.959161446463317
 31
0.0
  0
LINE
  5
2B7
330
40
100
AcDbEntity
  8
4
100
AcDbLine
 10
7.4071823322466
 20
1.938661446463317
 30
0.0
 11
7.425932332246601
 21
1.901161446463317
 31
0.0
  0
LINE
  5
2B8
330
40
100
AcDbEntity
  8
4
100
AcDbLine
 10
7.388432332246601
 20
1.901161446463317
 30
0.0
 11
7.4071823322466
 21
1.938661446463317
 31
0.0
  0
LINE
  5
2B9
330
40
100
AcDbEntity
  8
4
100
AcDbLine
 10
7.4071823322466
 20
1.863661446463317
 30
0.0
 11
7.425932332246601
 21
1.901161446463317
 31
0.0
  0
LINE
  5
2BA
330
40
100
AcDbEntity
  8
4
100
AcDbLine
 10
7.388432332246601
 20
1.901161446463317
 30
0.0
 11
7.4071823322466
 21
1.863661446463317
 31
0.0
  0
LINE
  5
2BB
330
40
100
AcDbEntity
  8
4
100
AcDbLine
 10
7.363432332246601
 20
1.959161446463317
 30
0.0
 11
7.3821823322466
 21
1.996661446463317
 31
0.0
  0
LINE
  5
2BC
330
40
100
AcDbEntity
  8
4
100
AcDbLine
 10
7.3821823322466
 20
1.996661446463317
 30
0.0
 11
7.4009323322466
 21
1.959161446463317
 31
0.0
  0
LINE
  5
2BD
330
40
100
AcDbEntity
  8
2
100
AcDbLine
 10
7.1571823322466
 20
2.13205294972078
 30
0.0
 11
7.4071823322466
 21
2.13205294972078
 31
0.0
  0
LINE
  5
2BE
330
40
100
AcDbEntity
  8
4
100
AcDbLine
 10
7.1571823322466
 20
2.20705294972078
 30
0.0
 11
7.175932332246601
 21
2.16955294972078
 31
0.0
  0
LINE
  5
2BF
330
40
100
AcDbEntity
  8
4
100
AcDbLine
 10
7.138432332246601
 20
2.16955294972078
 30
0.0
 11
7.1571823322466
 21
2.20705294972078
 31
0.0
  0
LINE
  5
2C0
330
40
100
AcDbEntity
  8
4
100
AcDbLine
 10
7.1571823322466
 20
2.13205294972078
 30
0.0
 11
7.175932332246601
 21
2.16955294972078
 31
0.0
  0
LINE
  5
2C1
330
40
100
AcDbEntity
  8
4
100
AcDbLine
 10
7.138432332246601
 20
2.16955294972078
 30
0.0
 11
7.1571823322466
 21
2.13205294972078
 31
0.0
  0
LINE
  5
2C2
330
40
100
AcDbEntity
  8
4
100
AcDbLine
 10
7.113432332246601
 20
2.22755294972078
 30
0.0
 11
7.1321823322466
 21
2.26505294972078
 31
0.0
  0
LINE
  5
2C3
330
40
100
AcDbEntity
  8
4
100
AcDbLine
 10
7.1321823322466
 20
2.26505294972078
 30
0.0
 11
7.1509323322466
 21
2.22755294972078
 31
0.0
  0
LINE
  5
2C4
330
40
100
AcDbEntity
  8
4
100
AcDbLine
 10
7.1321823322466
 20
2.19005294972078
 30
0.0
 11
7.1509323322466
 21
2.22755294972078
 31
0.0
  0
LINE
  5
2C5
330
40
100
AcDbEntity
  8
4
100
AcDbLine
 10
7.113432332246601
 20
2.22755294972078
 30
0.0
 11
7.1321823322466
 21
2.19005294972078
 31
0.0
  0
LINE
  5
2C6
330
40
100
AcDbEntity
  8
4
100
AcDbLine
 10
7.4071823322466
 20
2.20705294972078
 30
0.0
 11
7.425932332246601
 21
2.16955294972078
 31
0.0
  0
LINE
  5
2C7
330
40
100
AcDbEntity
  8
4
100
AcDbLine
 10
7.388432332246601
 20
2.16955294972078
 30
0.0
 11
7.4071823322466
 21
2.20705294972078
 31
0.0
  0
LINE
  5
2C8
330
40
100
AcDbEntity
  8
4
100
AcDbLine
 10
7.4071823322466
 20
2.13205294972078
 30
0.0
 11
7.425932332246601
 21
2.16955294972078
 31
0.0
  0
LINE
  5
2C9
330
40
100
AcDbEntity
  8
4
100
AcDbLine
 10
7.388432332246601
 20
2.16955294972078
 30
0.0
 11
7.4071823322466
 21
2.13205294972078
 31
0.0
  0
LINE
  5
2CA
330
40
100
AcDbEntity
  8
4
100
AcDbLine
 10
7.363432332246601
 20
2.22755294972078
 30
0.0
 11
7.3821823322466
 21
2.26505294972078
 31
0.0
  0
LINE
  5
2CB
330
40
100
AcDbEntity
  8
4
100
AcDbLine
 10
7.3821823322466
 20
2.26505294972078
 30
0.0
 11
7.4009323322466
 21
2.22755294972078
 31
0.0
  0
LINE
  5
2CC
330
40
100
AcDbEntity
  8
4
100
AcDbLine
 10
7.363432332246601
 20
2.22755294972078
 30
0.0
 11
7.3821823322466
 21
2.19005294972078
 31
0.0
  0
LINE
  5
2CD
330
40
100
AcDbEntity
  8
4
100
AcDbLine
 10
7.3821823322466
 20
2.19005294972078
 30
0.0
 11
7.4009323322466
 21
2.22755294972078
 31
0.0
  0
LINE
  5
2CE
330
40
100
AcDbEntity
  8
4
100
AcDbLine
 10
6.843182332246601
 20
2.384660771128388
 30
0.0
 11
6.861932332246601
 21
2.347160771128389
 31
0.0
  0
LINE
  5
2CF
330
40
100
AcDbEntity
  8
4
100
AcDbLine
 10
6.824432332246601
 20
2.347160771128389
 30
0.0
 11
6.843182332246601
 21
2.384660771128388
 31
0.0
  0
LINE
  5
2D0
330
40
100
AcDbEntity
  8
4
100
AcDbLine
 10
6.843182332246601
 20
2.309660771128389
 30
0.0
 11
6.861932332246601
 21
2.347160771128389
 31
0.0
  0
LINE
  5
2D1
330
40
100
AcDbEntity
  8
4
100
AcDbLine
 10
6.824432332246601
 20
2.347160771128389
 30
0.0
 11
6.843182332246601
 21
2.309660771128389
 31
0.0
  0
LINE
  5
2D2
330
40
100
AcDbEntity
  8
4
100
AcDbLine
 10
6.849432332246601
 20
2.289160771128389
 30
0.0
 11
6.8681823322466
 21
2.326660771128389
 31
0.0
  0
LINE
  5
2D3
330
40
100
AcDbEntity
  8
4
100
AcDbLine
 10
6.8681823322466
 20
2.326660771128389
 30
0.0
 11
6.886932332246601
 21
2.289160771128389
 31
0.0
  0
LINE
  5
2D4
330
40
100
AcDbEntity
  8
4
100
AcDbLine
 10
6.843182332246601
 20
2.585773557908348
 30
0.0
 11
6.861932332246601
 21
2.623273557908348
 31
0.0
  0
LINE
  5
2D5
330
40
100
AcDbEntity
  8
4
100
AcDbLine
 10
6.824432332246601
 20
2.623273557908348
 30
0.0
 11
6.843182332246601
 21
2.585773557908348
 31
0.0
  0
LINE
  5
2D6
330
40
100
AcDbEntity
  8
4
100
AcDbLine
 10
6.849432332246601
 20
2.565273557908348
 30
0.0
 11
6.8681823322466
 21
2.602773557908348
 31
0.0
  0
LINE
  5
2D7
330
40
100
AcDbEntity
  8
4
100
AcDbLine
 10
6.8681823322466
 20
2.602773557908348
 30
0.0
 11
6.886932332246601
 21
2.565273557908348
 31
0.0
  0
LINE
  5
2D8
330
40
100
AcDbEntity
  8
4
100
AcDbLine
 10
6.849432332246601
 20
2.565273557908348
 30
0.0
 11
6.8681823322466
 21
2.527773557908349
 31
0.0
  0
LINE
  5
2D9
330
40
100
AcDbEntity
  8
4
100
AcDbLine
 10
6.8681823322466
 20
2.527773557908349
 30
0.0
 11
6.886932332246601
 21
2.565273557908348
 31
0.0
  0
LINE
  5
2DA
330
40
100
AcDbEntity
  8
4
100
AcDbLine
 10
6.843182332246601
 20
2.660773557908348
 30
0.0
 11
6.861932332246601
 21
2.623273557908348
 31
0.0
  0
LINE
  5
2DB
330
40
100
AcDbEntity
  8
4
100
AcDbLine
 10
6.824432332246601
 20
2.623273557908348
 30
0.0
 11
6.843182332246601
 21
2.660773557908348
 31
0.0
  0
LINE
  5
2DC
330
40
100
AcDbEntity
  8
2
100
AcDbLine
 10
7.132182332246602
 20
2.384660771128389
 30
0.0
 11
7.3821823322466
 21
2.384660771128388
 31
0.0
  0
LINE
  5
2DD
330
40
100
AcDbEntity
  8
4
100
AcDbLine
 10
7.113432332246601
 20
2.347160771128389
 30
0.0
 11
7.1321823322466
 21
2.384660771128388
 31
0.0
  0
LINE
  5
2DE
330
40
100
AcDbEntity
  8
4
100
AcDbLine
 10
7.1321823322466
 20
2.384660771128388
 30
0.0
 11
7.1509323322466
 21
2.347160771128389
 31
0.0
  0
LINE
  5
2DF
330
40
100
AcDbEntity
  8
4
100
AcDbLine
 10
7.157182332246602
 20
2.326660771128389
 30
0.0
 11
7.175932332246601
 21
2.289160771128389
 31
0.0
  0
LINE
  5
2E0
330
40
100
AcDbEntity
  8
4
100
AcDbLine
 10
7.113432332246601
 20
2.347160771128389
 30
0.0
 11
7.1321823322466
 21
2.309660771128389
 31
0.0
  0
LINE
  5
2E1
330
40
100
AcDbEntity
  8
4
100
AcDbLine
 10
7.1321823322466
 20
2.309660771128389
 30
0.0
 11
7.1509323322466
 21
2.347160771128389
 31
0.0
  0
LINE
  5
2E2
330
40
100
AcDbEntity
  8
4
100
AcDbLine
 10
7.138432332246601
 20
2.289160771128389
 30
0.0
 11
7.157182332246602
 21
2.326660771128389
 31
0.0
  0
LINE
  5
2E3
330
40
100
AcDbEntity
  8
4
100
AcDbLine
 10
7.3821823322466
 20
2.384660771128388
 30
0.0
 11
7.4009323322466
 21
2.347160771128389
 31
0.0
  0
LINE
  5
2E4
330
40
100
AcDbEntity
  8
4
100
AcDbLine
 10
7.363432332246601
 20
2.347160771128389
 30
0.0
 11
7.3821823322466
 21
2.384660771128388
 31
0.0
  0
LINE
  5
2E5
330
40
100
AcDbEntity
  8
4
100
AcDbLine
 10
7.388432332246601
 20
2.289160771128389
 30
0.0
 11
7.4071823322466
 21
2.326660771128389
 31
0.0
  0
LINE
  5
2E6
330
40
100
AcDbEntity
  8
4
100
AcDbLine
 10
7.4071823322466
 20
2.326660771128389
 30
0.0
 11
7.425932332246601
 21
2.289160771128389
 31
0.0
  0
LINE
  5
2E7
330
40
100
AcDbEntity
  8
4
100
AcDbLine
 10
7.3821823322466
 20
2.309660771128389
 30
0.0
 11
7.4009323322466
 21
2.347160771128389
 31
0.0
  0
LINE
  5
2E8
330
40
100
AcDbEntity
  8
4
100
AcDbLine
 10
7.363432332246601
 20
2.347160771128389
 30
0.0
 11
7.3821823322466
 21
2.309660771128389
 31
0.0
  0
LINE
  5
2E9
330
40
100
AcDbEntity
  8
2
100
AcDbLine
 10
7.1571823322466
 20
2.527773557908349
 30
0.0
 11
7.4071823322466
 21
2.527773557908349
 31
0.0
  0
LINE
  5
2EA
330
40
100
AcDbEntity
  8
4
100
AcDbLine
 10
7.1571823322466
 20
2.602773557908348
 30
0.0
 11
7.175932332246601
 21
2.565273557908348
 31
0.0
  0
LINE
  5
2EB
330
40
100
AcDbEntity
  8
4
100
AcDbLine
 10
7.113432332246601
 20
2.623273557908348
 30
0.0
 11
7.1321823322466
 21
2.585773557908348
 31
0.0
  0
LINE
  5
2EC
330
40
100
AcDbEntity
  8
4
100
AcDbLine
 10
7.1321823322466
 20
2.585773557908348
 30
0.0
 11
7.1509323322466
 21
2.623273557908348
 31
0.0
  0
LINE
  5
2ED
330
40
100
AcDbEntity
  8
4
100
AcDbLine
 10
7.138432332246601
 20
2.565273557908348
 30
0.0
 11
7.1571823322466
 21
2.602773557908348
 31
0.0
  0
LINE
  5
2EE
330
40
100
AcDbEntity
  8
4
100
AcDbLine
 10
7.1571823322466
 20
2.527773557908349
 30
0.0
 11
7.175932332246601
 21
2.565273557908348
 31
0.0
  0
LINE
  5
2EF
330
40
100
AcDbEntity
  8
4
100
AcDbLine
 10
7.138432332246601
 20
2.565273557908348
 30
0.0
 11
7.1571823322466
 21
2.527773557908349
 31
0.0
  0
LINE
  5
2F0
330
40
100
AcDbEntity
  8
4
100
AcDbLine
 10
7.113432332246601
 20
2.623273557908348
 30
0.0
 11
7.1321823322466
 21
2.660773557908348
 31
0.0
  0
LINE
  5
2F1
330
40
100
AcDbEntity
  8
4
100
AcDbLine
 10
7.1321823322466
 20
2.660773557908348
 30
0.0
 11
7.1509323322466
 21
2.623273557908348
 31
0.0
  0
LINE
  5
2F2
330
40
100
AcDbEntity
  8
4
100
AcDbLine
 10
7.3821823322466
 20
2.585773557908348
 30
0.0
 11
7.4009323322466
 21
2.623273557908348
 31
0.0
  0
LINE
  5
2F3
330
40
100
AcDbEntity
  8
4
100
AcDbLine
 10
7.363432332246601
 20
2.623273557908348
 30
0.0
 11
7.3821823322466
 21
2.585773557908348
 31
0.0
  0
LINE
  5
2F4
330
40
100
AcDbEntity
  8
4
100
AcDbLine
 10
7.388432332246601
 20
2.565273557908348
 30
0.0
 11
7.4071823322466
 21
2.602773557908348
 31
0.0
  0
LINE
  5
2F5
330
40
100
AcDbEntity
  8
4
100
AcDbLine
 10
7.4071823322466
 20
2.602773557908348
 30
0.0
 11
7.425932332246601
 21
2.565273557908348
 31
0.0
  0
LINE
  5
2F6
330
40
100
AcDbEntity
  8
4
100
AcDbLine
 10
7.388432332246601
 20
2.565273557908348
 30
0.0
 11
7.4071823322466
 21
2.527773557908349
 31
0.0
  0
LINE
  5
2F7
330
40
100
AcDbEntity
  8
4
100
AcDbLine
 10
7.4071823322466
 20
2.527773557908349
 30
0.0
 11
7.425932332246601
 21
2.565273557908348
 31
0.0
  0
LINE
  5
2F8
330
40
100
AcDbEntity
  8
4
100
AcDbLine
 10
7.3821823322466
 20
2.660773557908348
 30
0.0
 11
7.4009323322466
 21
2.623273557908348
 31
0.0
  0
LINE
  5
2F9
330
40
100
AcDbEntity
  8
4
100
AcDbLine
 10
7.363432332246601
 20
2.623273557908348
 30
0.0
 11
7.3821823322466
 21
2.660773557908348
 31
0.0
  0
LINE
  5
2FA
330
40
100
AcDbEntity
  8
2
100
AcDbLine
 10
6.593182332246602
 20
3.352081379315957
 30
0.0
 11
6.843182332246601
 21
3.352081379315957
 31
0.0
  0
LINE
  5
2FB
330
40
100
AcDbEntity
  8
2
100
AcDbLine
 10
6.6181823322466
 20
3.50956852820108
 30
0.0
 11
6.8681823322466
 21
3.50956852820108
 31
0.0
  0
LINE
  5
2FC
330
40
100
AcDbEntity
  8
2
100
AcDbLine
 10
6.6181823322466
 20
3.008773557908349
 30
0.0
 11
6.8681823322466
 21
3.008773557908349
 31
0.0
  0
LINE
  5
2FD
330
40
100
AcDbEntity
  8
2
100
AcDbLine
 10
6.593182332246602
 20
2.871081379315958
 30
0.0
 11
6.843182332246601
 21
2.871081379315956
 31
0.0
  0
LINE
  5
2FE
330
40
100
AcDbEntity
  8
4
100
AcDbLine
 10
6.574432332246601
 20
3.104273557908348
 30
0.0
 11
6.593182332246601
 21
3.141773557908349
 31
0.0
  0
LINE
  5
2FF
330
40
100
AcDbEntity
  8
4
100
AcDbLine
 10
6.593182332246601
 20
3.141773557908349
 30
0.0
 11
6.611932332246601
 21
3.104273557908348
 31
0.0
  0
LINE
  5
300
330
40
100
AcDbEntity
  8
2
100
AcDbLine
 10
6.574432332246601
 20
3.314581379315958
 30
0.0
 11
6.574432332246601
 21
3.104273557908348
 31
0.0
  0
LINE
  5
301
330
40
100
AcDbEntity
  8
4
100
AcDbLine
 10
6.574432332246601
 20
2.833581379315957
 30
0.0
 11
6.593182332246601
 21
2.796081379315957
 31
0.0
  0
LINE
  5
302
330
40
100
AcDbEntity
  8
4
100
AcDbLine
 10
6.574432332246601
 20
2.833581379315957
 30
0.0
 11
6.593182332246601
 21
2.871081379315956
 31
0.0
  0
LINE
  5
303
330
40
100
AcDbEntity
  8
4
100
AcDbLine
 10
6.599432332246601
 20
2.775581379315957
 30
0.0
 11
6.618182332246601
 21
2.813081379315957
 31
0.0
  0
LINE
  5
304
330
40
100
AcDbEntity
  8
4
100
AcDbLine
 10
6.593182332246601
 20
2.796081379315957
 30
0.0
 11
6.611932332246601
 21
2.833581379315957
 31
0.0
  0
LINE
  5
305
330
40
100
AcDbEntity
  8
4
100
AcDbLine
 10
6.618182332246601
 20
2.813081379315957
 30
0.0
 11
6.636932332246601
 21
2.775581379315957
 31
0.0
  0
LINE
  5
306
330
40
100
AcDbEntity
  8
4
100
AcDbLine
 10
6.599432332246601
 20
2.775581379315957
 30
0.0
 11
6.618182332246601
 21
2.738081379315957
 31
0.0
  0
LINE
  5
307
330
40
100
AcDbEntity
  8
4
100
AcDbLine
 10
6.618182332246601
 20
2.738081379315957
 30
0.0
 11
6.636932332246601
 21
2.775581379315957
 31
0.0
  0
LINE
  5
308
330
40
100
AcDbEntity
  8
4
100
AcDbLine
 10
6.593182332246601
 20
2.871081379315956
 30
0.0
 11
6.611932332246601
 21
2.833581379315957
 31
0.0
  0
LINE
  5
309
330
40
100
AcDbEntity
  8
4
100
AcDbLine
 10
6.574432332246601
 20
3.104273557908348
 30
0.0
 11
6.593182332246601
 21
3.066773557908349
 31
0.0
  0
LINE
  5
30A
330
40
100
AcDbEntity
  8
4
100
AcDbLine
 10
6.599432332246601
 20
3.046273557908349
 30
0.0
 11
6.6181823322466
 21
3.008773557908349
 31
0.0
  0
LINE
  5
30B
330
40
100
AcDbEntity
  8
4
100
AcDbLine
 10
6.6181823322466
 20
3.008773557908349
 30
0.0
 11
6.636932332246601
 21
3.046273557908349
 31
0.0
  0
LINE
  5
30C
330
40
100
AcDbEntity
  8
4
100
AcDbLine
 10
6.599432332246601
 20
3.046273557908349
 30
0.0
 11
6.6181823322466
 21
3.083773557908348
 31
0.0
  0
LINE
  5
30D
330
40
100
AcDbEntity
  8
4
100
AcDbLine
 10
6.6181823322466
 20
3.083773557908348
 30
0.0
 11
6.636932332246601
 21
3.046273557908349
 31
0.0
  0
LINE
  5
30E
330
40
100
AcDbEntity
  8
4
100
AcDbLine
 10
6.593182332246601
 20
3.066773557908349
 30
0.0
 11
6.611932332246601
 21
3.104273557908348
 31
0.0
  0
LINE
  5
30F
330
40
100
AcDbEntity
  8
4
100
AcDbLine
 10
6.593182332246601
 20
3.352081379315957
 30
0.0
 11
6.611932332246601
 21
3.314581379315958
 31
0.0
  0
LINE
  5
310
330
40
100
AcDbEntity
  8
4
100
AcDbLine
 10
6.574432332246601
 20
3.314581379315958
 30
0.0
 11
6.593182332246601
 21
3.352081379315957
 31
0.0
  0
LINE
  5
311
330
40
100
AcDbEntity
  8
4
100
AcDbLine
 10
6.574432332246601
 20
3.314581379315958
 30
0.0
 11
6.593182332246601
 21
3.277081379315958
 31
0.0
  0
LINE
  5
312
330
40
100
AcDbEntity
  8
4
100
AcDbLine
 10
6.599432332246601
 20
3.256581379315958
 30
0.0
 11
6.618182332246601
 21
3.219081379315958
 31
0.0
  0
LINE
  5
313
330
40
100
AcDbEntity
  8
4
100
AcDbLine
 10
6.618182332246601
 20
3.219081379315958
 30
0.0
 11
6.636932332246601
 21
3.256581379315958
 31
0.0
  0
LINE
  5
314
330
40
100
AcDbEntity
  8
4
100
AcDbLine
 10
6.599432332246601
 20
3.256581379315958
 30
0.0
 11
6.618182332246601
 21
3.294081379315958
 31
0.0
  0
LINE
  5
315
330
40
100
AcDbEntity
  8
4
100
AcDbLine
 10
6.618182332246601
 20
3.294081379315958
 30
0.0
 11
6.636932332246601
 21
3.256581379315958
 31
0.0
  0
LINE
  5
316
330
40
100
AcDbEntity
  8
4
100
AcDbLine
 10
6.593182332246601
 20
3.277081379315958
 30
0.0
 11
6.611932332246601
 21
3.314581379315958
 31
0.0
  0
LINE
  5
317
330
40
100
AcDbEntity
  8
4
100
AcDbLine
 10
6.599432332246601
 20
3.54706852820108
 30
0.0
 11
6.6181823322466
 21
3.50956852820108
 31
0.0
  0
LINE
  5
318
330
40
100
AcDbEntity
  8
4
100
AcDbLine
 10
6.6181823322466
 20
3.50956852820108
 30
0.0
 11
6.636932332246601
 21
3.54706852820108
 31
0.0
  0
LINE
  5
319
330
40
100
AcDbEntity
  8
4
100
AcDbLine
 10
7.3821823322466
 20
3.141773557908349
 30
0.0
 11
7.4009323322466
 21
3.104273557908348
 31
0.0
  0
LINE
  5
31A
330
40
100
AcDbEntity
  8
4
100
AcDbLine
 10
7.363432332246601
 20
3.104273557908348
 30
0.0
 11
7.3821823322466
 21
3.141773557908349
 31
0.0
  0
LINE
  5
31B
330
40
100
AcDbEntity
  8
2
100
AcDbLine
 10
7.425932332246601
 20
3.256581379315958
 30
0.0
 11
7.425932332246601
 21
3.046273557908349
 31
0.0
  0
LINE
  5
31C
330
40
100
AcDbEntity
  8
4
100
AcDbLine
 10
7.113432332246601
 20
3.104273557908348
 30
0.0
 11
7.1321823322466
 21
3.141773557908349
 31
0.0
  0
LINE
  5
31D
330
40
100
AcDbEntity
  8
4
100
AcDbLine
 10
6.843182332246601
 20
3.141773557908349
 30
0.0
 11
6.861932332246601
 21
3.104273557908348
 31
0.0
  0
LINE
  5
31E
330
40
100
AcDbEntity
  8
4
100
AcDbLine
 10
6.824432332246601
 20
3.104273557908348
 30
0.0
 11
6.843182332246601
 21
3.141773557908349
 31
0.0
  0
LINE
  5
31F
330
40
100
AcDbEntity
  8
2
100
AcDbLine
 10
6.886932332246601
 20
3.256581379315958
 30
0.0
 11
6.886932332246601
 21
3.046273557908349
 31
0.0
  0
LINE
  5
320
330
40
100
AcDbEntity
  8
2
100
AcDbLine
 10
7.113432332246601
 20
3.314581379315958
 30
0.0
 11
7.113432332246601
 21
3.104273557908348
 31
0.0
  0
LINE
  5
321
330
40
100
AcDbEntity
  8
4
100
AcDbLine
 10
7.1321823322466
 20
3.141773557908349
 30
0.0
 11
7.1509323322466
 21
3.104273557908348
 31
0.0
  0
LINE
  5
322
330
40
100
AcDbEntity
  8
4
100
AcDbLine
 10
6.824432332246601
 20
2.833581379315957
 30
0.0
 11
6.843182332246601
 21
2.796081379315957
 31
0.0
  0
LINE
  5
323
330
40
100
AcDbEntity
  8
4
100
AcDbLine
 10
6.843182332246601
 20
2.796081379315957
 30
0.0
 11
6.861932332246601
 21
2.833581379315957
 31
0.0
  0
LINE
  5
324
330
40
100
AcDbEntity
  8
4
100
AcDbLine
 10
6.8681823322466
 20
2.813081379315957
 30
0.0
 11
6.886932332246601
 21
2.775581379315957
 31
0.0
  0
LINE
  5
325
330
40
100
AcDbEntity
  8
4
100
AcDbLine
 10
6.849432332246601
 20
2.775581379315957
 30
0.0
 11
6.8681823322466
 21
2.813081379315957
 31
0.0
  0
LINE
  5
326
330
40
100
AcDbEntity
  8
4
100
AcDbLine
 10
6.8681823322466
 20
2.738081379315957
 30
0.0
 11
6.886932332246601
 21
2.775581379315957
 31
0.0
  0
LINE
  5
327
330
40
100
AcDbEntity
  8
4
100
AcDbLine
 10
6.849432332246601
 20
2.775581379315957
 30
0.0
 11
6.8681823322466
 21
2.738081379315957
 31
0.0
  0
LINE
  5
328
330
40
100
AcDbEntity
  8
4
100
AcDbLine
 10
6.843182332246601
 20
2.871081379315956
 30
0.0
 11
6.861932332246601
 21
2.833581379315957
 31
0.0
  0
LINE
  5
329
330
40
100
AcDbEntity
  8
4
100
AcDbLine
 10
6.824432332246601
 20
2.833581379315957
 30
0.0
 11
6.843182332246601
 21
2.871081379315956
 31
0.0
  0
LINE
  5
32A
330
40
100
AcDbEntity
  8
4
100
AcDbLine
 10
6.849432332246601
 20
3.046273557908349
 30
0.0
 11
6.8681823322466
 21
3.008773557908349
 31
0.0
  0
LINE
  5
32B
330
40
100
AcDbEntity
  8
4
100
AcDbLine
 10
6.8681823322466
 20
3.008773557908349
 30
0.0
 11
6.886932332246601
 21
3.046273557908349
 31
0.0
  0
LINE
  5
32C
330
40
100
AcDbEntity
  8
4
100
AcDbLine
 10
6.843182332246601
 20
3.066773557908349
 30
0.0
 11
6.861932332246601
 21
3.104273557908348
 31
0.0
  0
LINE
  5
32D
330
40
100
AcDbEntity
  8
4
100
AcDbLine
 10
6.824432332246601
 20
3.104273557908348
 30
0.0
 11
6.843182332246601
 21
3.066773557908349
 31
0.0
  0
LINE
  5
32E
330
40
100
AcDbEntity
  8
4
100
AcDbLine
 10
6.849432332246601
 20
3.046273557908349
 30
0.0
 11
6.8681823322466
 21
3.083773557908348
 31
0.0
  0
LINE
  5
32F
330
40
100
AcDbEntity
  8
4
100
AcDbLine
 10
6.8681823322466
 20
3.083773557908348
 30
0.0
 11
6.886932332246601
 21
3.046273557908349
 31
0.0
  0
LINE
  5
330
330
40
100
AcDbEntity
  8
2
100
AcDbLine
 10
7.132182332246602
 20
2.871081379315958
 30
0.0
 11
7.3821823322466
 21
2.871081379315956
 31
0.0
  0
LINE
  5
331
330
40
100
AcDbEntity
  8
4
100
AcDbLine
 10
7.157182332246602
 20
2.813081379315957
 30
0.0
 11
7.175932332246601
 21
2.775581379315957
 31
0.0
  0
LINE
  5
332
330
40
100
AcDbEntity
  8
4
100
AcDbLine
 10
7.113432332246601
 20
2.833581379315957
 30
0.0
 11
7.1321823322466
 21
2.796081379315957
 31
0.0
  0
LINE
  5
333
330
40
100
AcDbEntity
  8
4
100
AcDbLine
 10
7.138432332246601
 20
2.775581379315957
 30
0.0
 11
7.157182332246602
 21
2.813081379315957
 31
0.0
  0
LINE
  5
334
330
40
100
AcDbEntity
  8
4
100
AcDbLine
 10
7.1321823322466
 20
2.796081379315957
 30
0.0
 11
7.1509323322466
 21
2.833581379315957
 31
0.0
  0
LINE
  5
335
330
40
100
AcDbEntity
  8
4
100
AcDbLine
 10
7.157182332246602
 20
2.738081379315957
 30
0.0
 11
7.175932332246601
 21
2.775581379315957
 31
0.0
  0
LINE
  5
336
330
40
100
AcDbEntity
  8
4
100
AcDbLine
 10
7.138432332246601
 20
2.775581379315957
 30
0.0
 11
7.157182332246602
 21
2.738081379315957
 31
0.0
  0
LINE
  5
337
330
40
100
AcDbEntity
  8
4
100
AcDbLine
 10
7.113432332246601
 20
2.833581379315957
 30
0.0
 11
7.1321823322466
 21
2.871081379315956
 31
0.0
  0
LINE
  5
338
330
40
100
AcDbEntity
  8
4
100
AcDbLine
 10
7.1321823322466
 20
2.871081379315956
 30
0.0
 11
7.1509323322466
 21
2.833581379315957
 31
0.0
  0
LINE
  5
339
330
40
100
AcDbEntity
  8
4
100
AcDbLine
 10
7.363432332246601
 20
2.833581379315957
 30
0.0
 11
7.3821823322466
 21
2.796081379315957
 31
0.0
  0
LINE
  5
33A
330
40
100
AcDbEntity
  8
4
100
AcDbLine
 10
7.3821823322466
 20
2.796081379315957
 30
0.0
 11
7.4009323322466
 21
2.833581379315957
 31
0.0
  0
LINE
  5
33B
330
40
100
AcDbEntity
  8
4
100
AcDbLine
 10
7.4071823322466
 20
2.813081379315957
 30
0.0
 11
7.425932332246601
 21
2.775581379315957
 31
0.0
  0
LINE
  5
33C
330
40
100
AcDbEntity
  8
4
100
AcDbLine
 10
7.388432332246601
 20
2.775581379315957
 30
0.0
 11
7.4071823322466
 21
2.813081379315957
 31
0.0
  0
LINE
  5
33D
330
40
100
AcDbEntity
  8
4
100
AcDbLine
 10
7.4071823322466
 20
2.738081379315957
 30
0.0
 11
7.425932332246601
 21
2.775581379315957
 31
0.0
  0
LINE
  5
33E
330
40
100
AcDbEntity
  8
4
100
AcDbLine
 10
7.388432332246601
 20
2.775581379315957
 30
0.0
 11
7.4071823322466
 21
2.738081379315957
 31
0.0
  0
LINE
  5
33F
330
40
100
AcDbEntity
  8
4
100
AcDbLine
 10
7.363432332246601
 20
2.833581379315957
 30
0.0
 11
7.3821823322466
 21
2.871081379315956
 31
0.0
  0
LINE
  5
340
330
40
100
AcDbEntity
  8
4
100
AcDbLine
 10
7.3821823322466
 20
2.871081379315956
 30
0.0
 11
7.4009323322466
 21
2.833581379315957
 31
0.0
  0
LINE
  5
341
330
40
100
AcDbEntity
  8
2
100
AcDbLine
 10
7.1571823322466
 20
3.008773557908349
 30
0.0
 11
7.4071823322466
 21
3.008773557908349
 31
0.0
  0
LINE
  5
342
330
40
100
AcDbEntity
  8
4
100
AcDbLine
 10
7.1571823322466
 20
3.008773557908349
 30
0.0
 11
7.175932332246601
 21
3.046273557908349
 31
0.0
  0
LINE
  5
343
330
40
100
AcDbEntity
  8
4
100
AcDbLine
 10
7.138432332246601
 20
3.046273557908349
 30
0.0
 11
7.1571823322466
 21
3.008773557908349
 31
0.0
  0
LINE
  5
344
330
40
100
AcDbEntity
  8
4
100
AcDbLine
 10
7.1571823322466
 20
3.083773557908348
 30
0.0
 11
7.175932332246601
 21
3.046273557908349
 31
0.0
  0
LINE
  5
345
330
40
100
AcDbEntity
  8
4
100
AcDbLine
 10
7.113432332246601
 20
3.104273557908348
 30
0.0
 11
7.1321823322466
 21
3.066773557908349
 31
0.0
  0
LINE
  5
346
330
40
100
AcDbEntity
  8
4
100
AcDbLine
 10
7.1321823322466
 20
3.066773557908349
 30
0.0
 11
7.1509323322466
 21
3.104273557908348
 31
0.0
  0
LINE
  5
347
330
40
100
AcDbEntity
  8
4
100
AcDbLine
 10
7.138432332246601
 20
3.046273557908349
 30
0.0
 11
7.1571823322466
 21
3.083773557908348
 31
0.0
  0
LINE
  5
348
330
40
100
AcDbEntity
  8
4
100
AcDbLine
 10
7.388432332246601
 20
3.046273557908349
 30
0.0
 11
7.4071823322466
 21
3.008773557908349
 31
0.0
  0
LINE
  5
349
330
40
100
AcDbEntity
  8
4
100
AcDbLine
 10
7.4071823322466
 20
3.008773557908349
 30
0.0
 11
7.425932332246601
 21
3.046273557908349
 31
0.0
  0
LINE
  5
34A
330
40
100
AcDbEntity
  8
4
100
AcDbLine
 10
7.388432332246601
 20
3.046273557908349
 30
0.0
 11
7.4071823322466
 21
3.083773557908348
 31
0.0
  0
LINE
  5
34B
330
40
100
AcDbEntity
  8
4
100
AcDbLine
 10
7.4071823322466
 20
3.083773557908348
 30
0.0
 11
7.425932332246601
 21
3.046273557908349
 31
0.0
  0
LINE
  5
34C
330
40
100
AcDbEntity
  8
4
100
AcDbLine
 10
7.3821823322466
 20
3.066773557908349
 30
0.0
 11
7.4009323322466
 21
3.104273557908348
 31
0.0
  0
LINE
  5
34D
330
40
100
AcDbEntity
  8
4
100
AcDbLine
 10
7.363432332246601
 20
3.104273557908348
 30
0.0
 11
7.3821823322466
 21
3.066773557908349
 31
0.0
  0
LINE
  5
34E
330
40
100
AcDbEntity
  8
4
100
AcDbLine
 10
6.824432332246601
 20
3.314581379315958
 30
0.0
 11
6.843182332246601
 21
3.352081379315957
 31
0.0
  0
LINE
  5
34F
330
40
100
AcDbEntity
  8
4
100
AcDbLine
 10
6.843182332246601
 20
3.352081379315957
 30
0.0
 11
6.861932332246601
 21
3.314581379315958
 31
0.0
  0
LINE
  5
350
330
40
100
AcDbEntity
  8
4
100
AcDbLine
 10
6.8681823322466
 20
3.219081379315958
 30
0.0
 11
6.886932332246601
 21
3.256581379315958
 31
0.0
  0
LINE
  5
351
330
40
100
AcDbEntity
  8
4
100
AcDbLine
 10
6.849432332246601
 20
3.256581379315958
 30
0.0
 11
6.8681823322466
 21
3.219081379315958
 31
0.0
  0
LINE
  5
352
330
40
100
AcDbEntity
  8
4
100
AcDbLine
 10
6.843182332246601
 20
3.277081379315958
 30
0.0
 11
6.861932332246601
 21
3.314581379315958
 31
0.0
  0
LINE
  5
353
330
40
100
AcDbEntity
  8
4
100
AcDbLine
 10
6.824432332246601
 20
3.314581379315958
 30
0.0
 11
6.843182332246601
 21
3.277081379315958
 31
0.0
  0
LINE
  5
354
330
40
100
AcDbEntity
  8
4
100
AcDbLine
 10
6.8681823322466
 20
3.294081379315958
 30
0.0
 11
6.886932332246601
 21
3.256581379315958
 31
0.0
  0
LINE
  5
355
330
40
100
AcDbEntity
  8
4
100
AcDbLine
 10
6.849432332246601
 20
3.256581379315958
 30
0.0
 11
6.8681823322466
 21
3.294081379315958
 31
0.0
  0
LINE
  5
356
330
40
100
AcDbEntity
  8
4
100
AcDbLine
 10
6.849432332246601
 20
3.54706852820108
 30
0.0
 11
6.8681823322466
 21
3.50956852820108
 31
0.0
  0
LINE
  5
357
330
40
100
AcDbEntity
  8
4
100
AcDbLine
 10
6.8681823322466
 20
3.50956852820108
 30
0.0
 11
6.886932332246601
 21
3.54706852820108
 31
0.0
  0
LINE
  5
358
330
40
100
AcDbEntity
  8
4
100
AcDbLine
 10
7.363432332246601
 20
3.314581379315958
 30
0.0
 11
7.3821823322466
 21
3.352081379315957
 31
0.0
  0
LINE
  5
359
330
40
100
AcDbEntity
  8
4
100
AcDbLine
 10
7.3821823322466
 20
3.352081379315957
 30
0.0
 11
7.4009323322466
 21
3.314581379315958
 31
0.0
  0
LINE
  5
35A
330
40
100
AcDbEntity
  8
4
100
AcDbLine
 10
7.113432332246601
 20
3.314581379315958
 30
0.0
 11
7.1321823322466
 21
3.352081379315957
 31
0.0
  0
LINE
  5
35B
330
40
100
AcDbEntity
  8
4
100
AcDbLine
 10
7.1321823322466
 20
3.352081379315957
 30
0.0
 11
7.1509323322466
 21
3.314581379315958
 31
0.0
  0
LINE
  5
35C
330
40
100
AcDbEntity
  8
4
100
AcDbLine
 10
7.157182332246602
 20
3.219081379315958
 30
0.0
 11
7.175932332246601
 21
3.256581379315958
 31
0.0
  0
LINE
  5
35D
330
40
100
AcDbEntity
  8
4
100
AcDbLine
 10
7.138432332246601
 20
3.256581379315958
 30
0.0
 11
7.157182332246602
 21
3.219081379315958
 31
0.0
  0
LINE
  5
35E
330
40
100
AcDbEntity
  8
4
100
AcDbLine
 10
7.157182332246602
 20
3.294081379315958
 30
0.0
 11
7.175932332246601
 21
3.256581379315958
 31
0.0
  0
LINE
  5
35F
330
40
100
AcDbEntity
  8
4
100
AcDbLine
 10
7.113432332246601
 20
3.314581379315958
 30
0.0
 11
7.1321823322466
 21
3.277081379315958
 31
0.0
  0
LINE
  5
360
330
40
100
AcDbEntity
  8
4
100
AcDbLine
 10
7.138432332246601
 20
3.256581379315958
 30
0.0
 11
7.157182332246602
 21
3.294081379315958
 31
0.0
  0
LINE
  5
361
330
40
100
AcDbEntity
  8
4
100
AcDbLine
 10
7.1321823322466
 20
3.277081379315958
 30
0.0
 11
7.1509323322466
 21
3.314581379315958
 31
0.0
  0
LINE
  5
362
330
40
100
AcDbEntity
  8
4
100
AcDbLine
 10
7.4071823322466
 20
3.219081379315958
 30
0.0
 11
7.425932332246601
 21
3.256581379315958
 31
0.0
  0
LINE
  5
363
330
40
100
AcDbEntity
  8
4
100
AcDbLine
 10
7.388432332246601
 20
3.256581379315958
 30
0.0
 11
7.4071823322466
 21
3.219081379315958
 31
0.0
  0
LINE
  5
364
330
40
100
AcDbEntity
  8
4
100
AcDbLine
 10
7.363432332246601
 20
3.314581379315958
 30
0.0
 11
7.3821823322466
 21
3.277081379315958
 31
0.0
  0
LINE
  5
365
330
40
100
AcDbEntity
  8
4
100
AcDbLine
 10
7.3821823322466
 20
3.277081379315958
 30
0.0
 11
7.4009323322466
 21
3.314581379315958
 31
0.0
  0
LINE
  5
366
330
40
100
AcDbEntity
  8
4
100
AcDbLine
 10
7.4071823322466
 20
3.294081379315958
 30
0.0
 11
7.425932332246601
 21
3.256581379315958
 31
0.0
  0
LINE
  5
367
330
40
100
AcDbEntity
  8
4
100
AcDbLine
 10
7.388432332246601
 20
3.256581379315958
 30
0.0
 11
7.4071823322466
 21
3.294081379315958
 31
0.0
  0
LINE
  5
368
330
40
100
AcDbEntity
  8
2
100
AcDbLine
 10
7.1571823322466
 20
3.50956852820108
 30
0.0
 11
7.4071823322466
 21
3.50956852820108
 31
0.0
  0
LINE
  5
369
330
40
100
AcDbEntity
  8
2
100
AcDbLine
 10
7.132182332246602
 20
3.352081379315957
 30
0.0
 11
7.3821823322466
 21
3.352081379315957
 31
0.0
  0
LINE
  5
36A
330
40
100
AcDbEntity
  8
4
100
AcDbLine
 10
7.1571823322466
 20
3.50956852820108
 30
0.0
 11
7.175932332246601
 21
3.54706852820108
 31
0.0
  0
LINE
  5
36B
330
40
100
AcDbEntity
  8
4
100
AcDbLine
 10
7.138432332246601
 20
3.54706852820108
 30
0.0
 11
7.1571823322466
 21
3.50956852820108
 31
0.0
  0
LINE
  5
36C
330
40
100
AcDbEntity
  8
4
100
AcDbLine
 10
7.388432332246601
 20
3.54706852820108
 30
0.0
 11
7.4071823322466
 21
3.50956852820108
 31
0.0
  0
LINE
  5
36D
330
40
100
AcDbEntity
  8
4
100
AcDbLine
 10
7.4071823322466
 20
3.50956852820108
 30
0.0
 11
7.425932332246601
 21
3.54706852820108
 31
0.0
  0
LINE
  5
36E
330
40
100
AcDbEntity
  8
4
100
AcDbLine
 10
7.01949682907573
 20
4.003365996915924
 30
0.0
 11
7.51949682907573
 21
4.003365996915924
 31
0.0
  0
LINE
  5
36F
330
40
100
AcDbEntity
  8
2
100
AcDbLine
 10
6.593182332246602
 20
4.383784231620923
 30
0.0
 11
6.843182332246601
 21
4.383784231620923
 31
0.0
  0
LINE
  5
370
330
40
100
AcDbEntity
  8
4
100
AcDbLine
 10
6.980496829075729
 20
4.003365996915924
 30
0.0
 11
6.48049682907573
 21
4.003365996915924
 31
0.0
  0
LINE
  5
371
330
40
100
AcDbEntity
  8
2
100
AcDbLine
 10
6.6181823322466
 20
4.040476410213315
 30
0.0
 11
6.8681823322466
 21
4.040476410213315
 31
0.0
  0
LINE
  5
372
330
40
100
AcDbEntity
  8
2
100
AcDbLine
 10
6.593182332246602
 20
3.762176349608688
 30
0.0
 11
6.843182332246601
 21
3.762176349608688
 31
0.0
  0
LINE
  5
373
330
40
100
AcDbEntity
  8
4
100
AcDbLine
 10
6.48049682907573
 20
4.003365996915924
 30
0.0
 11
6.48049682907573
 21
3.941365996915924
 31
0.0
  0
LINE
  5
374
330
40
100
AcDbEntity
  8
4
100
AcDbLine
 10
6.574432332246601
 20
3.724676349608688
 30
0.0
 11
6.593182332246601
 21
3.687176349608689
 31
0.0
  0
LINE
  5
375
330
40
100
AcDbEntity
  8
4
100
AcDbLine
 10
6.574432332246601
 20
3.724676349608688
 30
0.0
 11
6.593182332246601
 21
3.762176349608688
 31
0.0
  0
LINE
  5
376
330
40
100
AcDbEntity
  8
4
100
AcDbLine
 10
6.574432332246601
 20
3.605068528201079
 30
0.0
 11
6.593182332246601
 21
3.56756852820108
 31
0.0
  0
LINE
  5
377
330
40
100
AcDbEntity
  8
4
100
AcDbLine
 10
6.574432332246601
 20
3.605068528201079
 30
0.0
 11
6.593182332246601
 21
3.642568528201079
 31
0.0
  0
LINE
  5
378
330
40
100
AcDbEntity
  8
2
100
AcDbLine
 10
6.574432332246601
 20
3.724676349608688
 30
0.0
 11
6.574432332246601
 21
3.605068528201079
 31
0.0
  0
LINE
  5
379
330
40
100
AcDbEntity
  8
4
100
AcDbLine
 10
6.599432332246601
 20
3.666676349608688
 30
0.0
 11
6.618182332246601
 21
3.629176349608689
 31
0.0
  0
LINE
  5
37A
330
40
100
AcDbEntity
  8
4
100
AcDbLine
 10
6.618182332246601
 20
3.629176349608689
 30
0.0
 11
6.636932332246601
 21
3.666676349608688
 31
0.0
  0
LINE
  5
37B
330
40
100
AcDbEntity
  8
4
100
AcDbLine
 10
6.593182332246601
 20
3.56756852820108
 30
0.0
 11
6.611932332246601
 21
3.605068528201079
 31
0.0
  0
LINE
  5
37C
330
40
100
AcDbEntity
  8
4
100
AcDbLine
 10
6.593182332246601
 20
3.642568528201079
 30
0.0
 11
6.611932332246601
 21
3.605068528201079
 31
0.0
  0
LINE
  5
37D
330
40
100
AcDbEntity
  8
4
100
AcDbLine
 10
6.599432332246601
 20
3.666676349608688
 30
0.0
 11
6.618182332246601
 21
3.704176349608688
 31
0.0
  0
LINE
  5
37E
330
40
100
AcDbEntity
  8
4
100
AcDbLine
 10
6.593182332246601
 20
3.687176349608689
 30
0.0
 11
6.611932332246601
 21
3.724676349608688
 31
0.0
  0
LINE
  5
37F
330
40
100
AcDbEntity
  8
4
100
AcDbLine
 10
6.593182332246601
 20
3.762176349608688
 30
0.0
 11
6.611932332246601
 21
3.724676349608688
 31
0.0
  0
LINE
  5
380
330
40
100
AcDbEntity
  8
4
100
AcDbLine
 10
6.618182332246601
 20
3.704176349608688
 30
0.0
 11
6.636932332246601
 21
3.666676349608688
 31
0.0
  0
LINE
  5
381
330
40
100
AcDbEntity
  8
4
100
AcDbLine
 10
6.48049682907573
 20
3.941365996915924
 30
0.0
 11
6.51149682907573
 21
3.972365996915923
 31
0.0
  0
LINE
  5
382
330
40
100
AcDbEntity
  8
4
100
AcDbLine
 10
6.698476719178215
 20
3.904365996915923
 30
0.0
 11
6.698476719178215
 21
3.842365996915924
 31
0.0
  0
LINE
  5
383
330
40
100
AcDbEntity
  8
4
100
AcDbLine
 10
6.667476719178215
 20
3.904365996915923
 30
0.0
 11
6.729476719178214
 21
3.904365996915923
 31
0.0
  0
LINE
  5
384
330
40
100
AcDbEntity
  8
4
100
AcDbLine
 10
6.375496829075729
 20
4.403365996915924
 30
0.0
 11
6.437496829075729
 21
4.403365996915924
 31
0.0
  0
LINE
  5
385
330
40
100
AcDbEntity
  8
2
100
AcDbLine
 10
6.574432332246601
 20
4.346284231620924
 30
0.0
 11
6.574432332246601
 21
4.135976410213315
 31
0.0
  0
LINE
  5
386
330
40
100
AcDbEntity
  8
4
100
AcDbLine
 10
6.574432332246601
 20
4.135976410213315
 30
0.0
 11
6.593182332246601
 21
4.098476410213315
 31
0.0
  0
LINE
  5
387
330
40
100
AcDbEntity
  8
4
100
AcDbLine
 10
6.574432332246601
 20
4.135976410213315
 30
0.0
 11
6.593182332246601
 21
4.173476410213314
 31
0.0
  0
LINE
  5
388
330
40
100
AcDbEntity
  8
4
100
AcDbLine
 10
6.599432332246601
 20
4.077976410213315
 30
0.0
 11
6.6181823322466
 21
4.115476410213315
 31
0.0
  0
LINE
  5
389
330
40
100
AcDbEntity
  8
4
100
AcDbLine
 10
6.6181823322466
 20
4.115476410213315
 30
0.0
 11
6.636932332246601
 21
4.077976410213315
 31
0.0
  0
LINE
  5
38A
330
40
100
AcDbEntity
  8
4
100
AcDbLine
 10
6.599432332246601
 20
4.077976410213315
 30
0.0
 11
6.6181823322466
 21
4.040476410213315
 31
0.0
  0
LINE
  5
38B
330
40
100
AcDbEntity
  8
4
100
AcDbLine
 10
6.6181823322466
 20
4.040476410213315
 30
0.0
 11
6.636932332246601
 21
4.077976410213315
 31
0.0
  0
LINE
  5
38C
330
40
100
AcDbEntity
  8
4
100
AcDbLine
 10
6.593182332246601
 20
4.098476410213315
 30
0.0
 11
6.611932332246601
 21
4.135976410213315
 31
0.0
  0
LINE
  5
38D
330
40
100
AcDbEntity
  8
4
100
AcDbLine
 10
6.593182332246601
 20
4.173476410213314
 30
0.0
 11
6.611932332246601
 21
4.135976410213315
 31
0.0
  0
LINE
  5
38E
330
40
100
AcDbEntity
  8
4
100
AcDbLine
 10
6.574432332246601
 20
4.346284231620924
 30
0.0
 11
6.593182332246601
 21
4.383784231620923
 31
0.0
  0
LINE
  5
38F
330
40
100
AcDbEntity
  8
4
100
AcDbLine
 10
6.574432332246601
 20
4.346284231620924
 30
0.0
 11
6.593182332246601
 21
4.308784231620924
 31
0.0
  0
LINE
  5
390
330
40
100
AcDbEntity
  8
4
100
AcDbLine
 10
6.599432332246601
 20
4.288284231620924
 30
0.0
 11
6.618182332246601
 21
4.325784231620923
 31
0.0
  0
LINE
  5
391
330
40
100
AcDbEntity
  8
4
100
AcDbLine
 10
6.618182332246601
 20
4.325784231620923
 30
0.0
 11
6.636932332246601
 21
4.288284231620924
 31
0.0
  0
LINE
  5
392
330
40
100
AcDbEntity
  8
4
100
AcDbLine
 10
6.599432332246601
 20
4.288284231620924
 30
0.0
 11
6.618182332246601
 21
4.250784231620924
 31
0.0
  0
LINE
  5
393
330
40
100
AcDbEntity
  8
4
100
AcDbLine
 10
6.618182332246601
 20
4.250784231620924
 30
0.0
 11
6.636932332246601
 21
4.288284231620924
 31
0.0
  0
LINE
  5
394
330
40
100
AcDbEntity
  8
4
100
AcDbLine
 10
6.593182332246601
 20
4.383784231620923
 30
0.0
 11
6.611932332246601
 21
4.346284231620924
 31
0.0
  0
LINE
  5
395
330
40
100
AcDbEntity
  8
4
100
AcDbLine
 10
6.593182332246601
 20
4.308784231620924
 30
0.0
 11
6.611932332246601
 21
4.346284231620924
 31
0.0
  0
LINE
  5
396
330
40
100
AcDbEntity
  8
4
100
AcDbLine
 10
6.980496829075729
 20
3.941365996915924
 30
0.0
 11
6.980496829075729
 21
4.003365996915924
 31
0.0
  0
LINE
  5
397
330
40
100
AcDbEntity
  8
4
100
AcDbLine
 10
7.01949682907573
 20
3.941365996915924
 30
0.0
 11
7.01949682907573
 21
4.003365996915924
 31
0.0
  0
LINE
  5
398
330
40
100
AcDbEntity
  8
4
100
AcDbLine
 10
6.8681823322466
 20
3.629176349608689
 30
0.0
 11
6.886932332246601
 21
3.666676349608688
 31
0.0
  0
LINE
  5
399
330
40
100
AcDbEntity
  8
4
100
AcDbLine
 10
6.849432332246601
 20
3.666676349608688
 30
0.0
 11
6.8681823322466
 21
3.629176349608689
 31
0.0
  0
LINE
  5
39A
330
40
100
AcDbEntity
  8
4
100
AcDbLine
 10
6.843182332246601
 20
3.56756852820108
 30
0.0
 11
6.861932332246601
 21
3.605068528201079
 31
0.0
  0
LINE
  5
39B
330
40
100
AcDbEntity
  8
4
100
AcDbLine
 10
6.843182332246601
 20
3.642568528201079
 30
0.0
 11
6.861932332246601
 21
3.605068528201079
 31
0.0
  0
LINE
  5
39C
330
40
100
AcDbEntity
  8
4
100
AcDbLine
 10
6.824432332246601
 20
3.605068528201079
 30
0.0
 11
6.843182332246601
 21
3.56756852820108
 31
0.0
  0
LINE
  5
39D
330
40
100
AcDbEntity
  8
4
100
AcDbLine
 10
6.824432332246601
 20
3.605068528201079
 30
0.0
 11
6.843182332246601
 21
3.642568528201079
 31
0.0
  0
LINE
  5
39E
330
40
100
AcDbEntity
  8
4
100
AcDbLine
 10
6.843182332246601
 20
3.762176349608688
 30
0.0
 11
6.861932332246601
 21
3.724676349608688
 31
0.0
  0
LINE
  5
39F
330
40
100
AcDbEntity
  8
4
100
AcDbLine
 10
6.843182332246601
 20
3.687176349608689
 30
0.0
 11
6.861932332246601
 21
3.724676349608688
 31
0.0
  0
LINE
  5
3A0
330
40
100
AcDbEntity
  8
4
100
AcDbLine
 10
6.824432332246601
 20
3.724676349608688
 30
0.0
 11
6.843182332246601
 21
3.762176349608688
 31
0.0
  0
LINE
  5
3A1
330
40
100
AcDbEntity
  8
4
100
AcDbLine
 10
6.824432332246601
 20
3.724676349608688
 30
0.0
 11
6.843182332246601
 21
3.687176349608689
 31
0.0
  0
LINE
  5
3A2
330
40
100
AcDbEntity
  8
4
100
AcDbLine
 10
6.8681823322466
 20
3.704176349608688
 30
0.0
 11
6.886932332246601
 21
3.666676349608688
 31
0.0
  0
LINE
  5
3A3
330
40
100
AcDbEntity
  8
4
100
AcDbLine
 10
6.849432332246601
 20
3.666676349608688
 30
0.0
 11
6.8681823322466
 21
3.704176349608688
 31
0.0
  0
ARC
  5
3A4
330
40
100
AcDbEntity
  8
4
100
AcDbCircle
 10
6.95549682907573
 20
3.841365996915925
 30
0.0
 40
0.025
100
AcDbArc
 50
180.0
 51
0.0
  0
LINE
  5
3A5
330
40
100
AcDbEntity
  8
4
100
AcDbLine
 10
6.980496829075729
 20
3.841365996915925
 30
0.0
 11
6.980496829075729
 21
3.891365996915924
 31
0.0
  0
LINE
  5
3A6
330
40
100
AcDbEntity
  8
4
100
AcDbLine
 10
7.01949682907573
 20
3.841365996915925
 30
0.0
 11
7.01949682907573
 21
3.891365996915924
 31
0.0
  0
ARC
  5
3A7
330
40
100
AcDbEntity
  8
4
100
AcDbCircle
 10
7.044496829075729
 20
3.841365996915925
 30
0.0
 40
0.025
100
AcDbArc
 50
180.0
 51
0.0
  0
LINE
  5
3A8
330
40
100
AcDbEntity
  8
2
100
AcDbLine
 10
7.132182332246602
 20
3.762176349608688
 30
0.0
 11
7.3821823322466
 21
3.762176349608688
 31
0.0
  0
LINE
  5
3A9
330
40
100
AcDbEntity
  8
2
100
AcDbLine
 10
7.113432332246601
 20
3.724676349608688
 30
0.0
 11
7.113432332246601
 21
3.605068528201079
 31
0.0
  0
LINE
  5
3AA
330
40
100
AcDbEntity
  8
4
100
AcDbLine
 10
7.138432332246601
 20
3.666676349608688
 30
0.0
 11
7.157182332246602
 21
3.629176349608689
 31
0.0
  0
LINE
  5
3AB
330
40
100
AcDbEntity
  8
4
100
AcDbLine
 10
7.157182332246602
 20
3.629176349608689
 30
0.0
 11
7.175932332246601
 21
3.666676349608688
 31
0.0
  0
LINE
  5
3AC
330
40
100
AcDbEntity
  8
4
100
AcDbLine
 10
7.113432332246601
 20
3.605068528201079
 30
0.0
 11
7.1321823322466
 21
3.56756852820108
 31
0.0
  0
LINE
  5
3AD
330
40
100
AcDbEntity
  8
4
100
AcDbLine
 10
7.1321823322466
 20
3.56756852820108
 30
0.0
 11
7.1509323322466
 21
3.605068528201079
 31
0.0
  0
LINE
  5
3AE
330
40
100
AcDbEntity
  8
4
100
AcDbLine
 10
7.113432332246601
 20
3.605068528201079
 30
0.0
 11
7.1321823322466
 21
3.642568528201079
 31
0.0
  0
LINE
  5
3AF
330
40
100
AcDbEntity
  8
4
100
AcDbLine
 10
7.1321823322466
 20
3.642568528201079
 30
0.0
 11
7.1509323322466
 21
3.605068528201079
 31
0.0
  0
LINE
  5
3B0
330
40
100
AcDbEntity
  8
4
100
AcDbLine
 10
7.157182332246602
 20
3.704176349608688
 30
0.0
 11
7.175932332246601
 21
3.666676349608688
 31
0.0
  0
LINE
  5
3B1
330
40
100
AcDbEntity
  8
4
100
AcDbLine
 10
7.113432332246601
 20
3.724676349608688
 30
0.0
 11
7.1321823322466
 21
3.687176349608689
 31
0.0
  0
LINE
  5
3B2
330
40
100
AcDbEntity
  8
4
100
AcDbLine
 10
7.113432332246601
 20
3.724676349608688
 30
0.0
 11
7.1321823322466
 21
3.762176349608688
 31
0.0
  0
LINE
  5
3B3
330
40
100
AcDbEntity
  8
4
100
AcDbLine
 10
7.138432332246601
 20
3.666676349608688
 30
0.0
 11
7.157182332246602
 21
3.704176349608688
 31
0.0
  0
LINE
  5
3B4
330
40
100
AcDbEntity
  8
4
100
AcDbLine
 10
7.1321823322466
 20
3.687176349608689
 30
0.0
 11
7.1509323322466
 21
3.724676349608688
 31
0.0
  0
LINE
  5
3B5
330
40
100
AcDbEntity
  8
4
100
AcDbLine
 10
7.1321823322466
 20
3.762176349608688
 30
0.0
 11
7.1509323322466
 21
3.724676349608688
 31
0.0
  0
LINE
  5
3B6
330
40
100
AcDbEntity
  8
4
100
AcDbLine
 10
7.4071823322466
 20
3.629176349608689
 30
0.0
 11
7.425932332246601
 21
3.666676349608688
 31
0.0
  0
LINE
  5
3B7
330
40
100
AcDbEntity
  8
4
100
AcDbLine
 10
7.388432332246601
 20
3.666676349608688
 30
0.0
 11
7.4071823322466
 21
3.629176349608689
 31
0.0
  0
LINE
  5
3B8
330
40
100
AcDbEntity
  8
4
100
AcDbLine
 10
7.3821823322466
 20
3.56756852820108
 30
0.0
 11
7.4009323322466
 21
3.605068528201079
 31
0.0
  0
LINE
  5
3B9
330
40
100
AcDbEntity
  8
4
100
AcDbLine
 10
7.363432332246601
 20
3.605068528201079
 30
0.0
 11
7.3821823322466
 21
3.56756852820108
 31
0.0
  0
LINE
  5
3BA
330
40
100
AcDbEntity
  8
4
100
AcDbLine
 10
7.3821823322466
 20
3.642568528201079
 30
0.0
 11
7.4009323322466
 21
3.605068528201079
 31
0.0
  0
LINE
  5
3BB
330
40
100
AcDbEntity
  8
4
100
AcDbLine
 10
7.363432332246601
 20
3.605068528201079
 30
0.0
 11
7.3821823322466
 21
3.642568528201079
 31
0.0
  0
LINE
  5
3BC
330
40
100
AcDbEntity
  8
4
100
AcDbLine
 10
7.363432332246601
 20
3.724676349608688
 30
0.0
 11
7.3821823322466
 21
3.762176349608688
 31
0.0
  0
LINE
  5
3BD
330
40
100
AcDbEntity
  8
4
100
AcDbLine
 10
7.3821823322466
 20
3.762176349608688
 30
0.0
 11
7.4009323322466
 21
3.724676349608688
 31
0.0
  0
LINE
  5
3BE
330
40
100
AcDbEntity
  8
4
100
AcDbLine
 10
7.363432332246601
 20
3.724676349608688
 30
0.0
 11
7.3821823322466
 21
3.687176349608689
 31
0.0
  0
LINE
  5
3BF
330
40
100
AcDbEntity
  8
4
100
AcDbLine
 10
7.3821823322466
 20
3.687176349608689
 30
0.0
 11
7.4009323322466
 21
3.724676349608688
 31
0.0
  0
LINE
  5
3C0
330
40
100
AcDbEntity
  8
4
100
AcDbLine
 10
7.4071823322466
 20
3.704176349608688
 30
0.0
 11
7.425932332246601
 21
3.666676349608688
 31
0.0
  0
LINE
  5
3C1
330
40
100
AcDbEntity
  8
4
100
AcDbLine
 10
7.388432332246601
 20
3.666676349608688
 30
0.0
 11
7.4071823322466
 21
3.704176349608688
 31
0.0
  0
LINE
  5
3C2
330
40
100
AcDbEntity
  8
4
100
AcDbLine
 10
7.332516938973245
 20
3.904365996915923
 30
0.0
 11
7.270516938973246
 21
3.904365996915923
 31
0.0
  0
LINE
  5
3C3
330
40
100
AcDbEntity
  8
4
100
AcDbLine
 10
7.301516938973247
 20
3.904365996915923
 30
0.0
 11
7.301516938973247
 21
3.842365996915924
 31
0.0
  0
LINE
  5
3C4
330
40
100
AcDbEntity
  8
2
100
AcDbLine
 10
6.886932332246601
 20
4.288284231620924
 30
0.0
 11
6.886932332246601
 21
4.077976410213315
 31
0.0
  0
LINE
  5
3C5
330
40
100
AcDbEntity
  8
4
100
AcDbLine
 10
6.8681823322466
 20
4.115476410213315
 30
0.0
 11
6.886932332246601
 21
4.077976410213315
 31
0.0
  0
LINE
  5
3C6
330
40
100
AcDbEntity
  8
4
100
AcDbLine
 10
6.849432332246601
 20
4.077976410213315
 30
0.0
 11
6.8681823322466
 21
4.115476410213315
 31
0.0
  0
LINE
  5
3C7
330
40
100
AcDbEntity
  8
4
100
AcDbLine
 10
6.8681823322466
 20
4.040476410213315
 30
0.0
 11
6.886932332246601
 21
4.077976410213315
 31
0.0
  0
LINE
  5
3C8
330
40
100
AcDbEntity
  8
4
100
AcDbLine
 10
6.849432332246601
 20
4.077976410213315
 30
0.0
 11
6.8681823322466
 21
4.040476410213315
 31
0.0
  0
LINE
  5
3C9
330
40
100
AcDbEntity
  8
4
100
AcDbLine
 10
6.843182332246601
 20
4.098476410213315
 30
0.0
 11
6.861932332246601
 21
4.135976410213315
 31
0.0
  0
LINE
  5
3CA
330
40
100
AcDbEntity
  8
4
100
AcDbLine
 10
6.843182332246601
 20
4.173476410213314
 30
0.0
 11
6.861932332246601
 21
4.135976410213315
 31
0.0
  0
LINE
  5
3CB
330
40
100
AcDbEntity
  8
4
100
AcDbLine
 10
6.824432332246601
 20
4.135976410213315
 30
0.0
 11
6.843182332246601
 21
4.098476410213315
 31
0.0
  0
LINE
  5
3CC
330
40
100
AcDbEntity
  8
4
100
AcDbLine
 10
6.824432332246601
 20
4.135976410213315
 30
0.0
 11
6.843182332246601
 21
4.173476410213314
 31
0.0
  0
LINE
  5
3CD
330
40
100
AcDbEntity
  8
4
100
AcDbLine
 10
6.849432332246601
 20
4.288284231620924
 30
0.0
 11
6.8681823322466
 21
4.325784231620923
 31
0.0
  0
LINE
  5
3CE
330
40
100
AcDbEntity
  8
4
100
AcDbLine
 10
6.8681823322466
 20
4.325784231620923
 30
0.0
 11
6.886932332246601
 21
4.288284231620924
 31
0.0
  0
LINE
  5
3CF
330
40
100
AcDbEntity
  8
4
100
AcDbLine
 10
6.849432332246601
 20
4.288284231620924
 30
0.0
 11
6.8681823322466
 21
4.250784231620924
 31
0.0
  0
LINE
  5
3D0
330
40
100
AcDbEntity
  8
4
100
AcDbLine
 10
6.8681823322466
 20
4.250784231620924
 30
0.0
 11
6.886932332246601
 21
4.288284231620924
 31
0.0
  0
LINE
  5
3D1
330
40
100
AcDbEntity
  8
4
100
AcDbLine
 10
6.843182332246601
 20
4.383784231620923
 30
0.0
 11
6.861932332246601
 21
4.346284231620924
 31
0.0
  0
LINE
  5
3D2
330
40
100
AcDbEntity
  8
4
100
AcDbLine
 10
6.843182332246601
 20
4.308784231620924
 30
0.0
 11
6.861932332246601
 21
4.346284231620924
 31
0.0
  0
LINE
  5
3D3
330
40
100
AcDbEntity
  8
4
100
AcDbLine
 10
6.824432332246601
 20
4.346284231620924
 30
0.0
 11
6.843182332246601
 21
4.383784231620923
 31
0.0
  0
LINE
  5
3D4
330
40
100
AcDbEntity
  8
4
100
AcDbLine
 10
6.824432332246601
 20
4.346284231620924
 30
0.0
 11
6.843182332246601
 21
4.308784231620924
 31
0.0
  0
LINE
  5
3D5
330
40
100
AcDbEntity
  8
2
100
AcDbLine
 10
7.425932332246601
 20
4.288284231620924
 30
0.0
 11
7.425932332246601
 21
4.077976410213315
 31
0.0
  0
LINE
  5
3D6
330
40
100
AcDbEntity
  8
2
100
AcDbLine
 10
7.113432332246601
 20
4.346284231620924
 30
0.0
 11
7.113432332246601
 21
4.135976410213315
 31
0.0
  0
LINE
  5
3D7
330
40
100
AcDbEntity
  8
2
100
AcDbLine
 10
7.1571823322466
 20
4.040476410213315
 30
0.0
 11
7.4071823322466
 21
4.040476410213315
 31
0.0
  0
LINE
  5
3D8
330
40
100
AcDbEntity
  8
4
100
AcDbLine
 10
7.1571823322466
 20
4.115476410213315
 30
0.0
 11
7.175932332246601
 21
4.077976410213315
 31
0.0
  0
LINE
  5
3D9
330
40
100
AcDbEntity
  8
4
100
AcDbLine
 10
7.138432332246601
 20
4.077976410213315
 30
0.0
 11
7.1571823322466
 21
4.115476410213315
 31
0.0
  0
LINE
  5
3DA
330
40
100
AcDbEntity
  8
4
100
AcDbLine
 10
7.1571823322466
 20
4.040476410213315
 30
0.0
 11
7.175932332246601
 21
4.077976410213315
 31
0.0
  0
LINE
  5
3DB
330
40
100
AcDbEntity
  8
4
100
AcDbLine
 10
7.138432332246601
 20
4.077976410213315
 30
0.0
 11
7.1571823322466
 21
4.040476410213315
 31
0.0
  0
LINE
  5
3DC
330
40
100
AcDbEntity
  8
4
100
AcDbLine
 10
7.113432332246601
 20
4.135976410213315
 30
0.0
 11
7.1321823322466
 21
4.098476410213315
 31
0.0
  0
LINE
  5
3DD
330
40
100
AcDbEntity
  8
4
100
AcDbLine
 10
7.113432332246601
 20
4.135976410213315
 30
0.0
 11
7.1321823322466
 21
4.173476410213314
 31
0.0
  0
LINE
  5
3DE
330
40
100
AcDbEntity
  8
4
100
AcDbLine
 10
7.1321823322466
 20
4.098476410213315
 30
0.0
 11
7.1509323322466
 21
4.135976410213315
 31
0.0
  0
LINE
  5
3DF
330
40
100
AcDbEntity
  8
4
100
AcDbLine
 10
7.1321823322466
 20
4.173476410213314
 30
0.0
 11
7.1509323322466
 21
4.135976410213315
 31
0.0
  0
LINE
  5
3E0
330
40
100
AcDbEntity
  8
4
100
AcDbLine
 10
7.4071823322466
 20
4.115476410213315
 30
0.0
 11
7.425932332246601
 21
4.077976410213315
 31
0.0
  0
LINE
  5
3E1
330
40
100
AcDbEntity
  8
4
100
AcDbLine
 10
7.388432332246601
 20
4.077976410213315
 30
0.0
 11
7.4071823322466
 21
4.115476410213315
 31
0.0
  0
LINE
  5
3E2
330
40
100
AcDbEntity
  8
4
100
AcDbLine
 10
7.4071823322466
 20
4.040476410213315
 30
0.0
 11
7.425932332246601
 21
4.077976410213315
 31
0.0
  0
LINE
  5
3E3
330
40
100
AcDbEntity
  8
4
100
AcDbLine
 10
7.388432332246601
 20
4.077976410213315
 30
0.0
 11
7.4071823322466
 21
4.040476410213315
 31
0.0
  0
LINE
  5
3E4
330
40
100
AcDbEntity
  8
4
100
AcDbLine
 10
7.363432332246601
 20
4.135976410213315
 30
0.0
 11
7.3821823322466
 21
4.098476410213315
 31
0.0
  0
LINE
  5
3E5
330
40
100
AcDbEntity
  8
4
100
AcDbLine
 10
7.3821823322466
 20
4.098476410213315
 30
0.0
 11
7.4009323322466
 21
4.135976410213315
 31
0.0
  0
LINE
  5
3E6
330
40
100
AcDbEntity
  8
4
100
AcDbLine
 10
7.363432332246601
 20
4.135976410213315
 30
0.0
 11
7.3821823322466
 21
4.173476410213314
 31
0.0
  0
LINE
  5
3E7
330
40
100
AcDbEntity
  8
4
100
AcDbLine
 10
7.3821823322466
 20
4.173476410213314
 30
0.0
 11
7.4009323322466
 21
4.135976410213315
 31
0.0
  0
LINE
  5
3E8
330
40
100
AcDbEntity
  8
2
100
AcDbLine
 10
7.132182332246602
 20
4.383784231620923
 30
0.0
 11
7.3821823322466
 21
4.383784231620923
 31
0.0
  0
LINE
  5
3E9
330
40
100
AcDbEntity
  8
4
100
AcDbLine
 10
7.157182332246602
 20
4.325784231620923
 30
0.0
 11
7.175932332246601
 21
4.288284231620924
 31
0.0
  0
LINE
  5
3EA
330
40
100
AcDbEntity
  8
4
100
AcDbLine
 10
7.138432332246601
 20
4.288284231620924
 30
0.0
 11
7.157182332246602
 21
4.325784231620923
 31
0.0
  0
LINE
  5
3EB
330
40
100
AcDbEntity
  8
4
100
AcDbLine
 10
7.157182332246602
 20
4.250784231620924
 30
0.0
 11
7.175932332246601
 21
4.288284231620924
 31
0.0
  0
LINE
  5
3EC
330
40
100
AcDbEntity
  8
4
100
AcDbLine
 10
7.138432332246601
 20
4.288284231620924
 30
0.0
 11
7.157182332246602
 21
4.250784231620924
 31
0.0
  0
LINE
  5
3ED
330
40
100
AcDbEntity
  8
4
100
AcDbLine
 10
7.113432332246601
 20
4.346284231620924
 30
0.0
 11
7.1321823322466
 21
4.383784231620923
 31
0.0
  0
LINE
  5
3EE
330
40
100
AcDbEntity
  8
4
100
AcDbLine
 10
7.1321823322466
 20
4.383784231620923
 30
0.0
 11
7.1509323322466
 21
4.346284231620924
 31
0.0
  0
LINE
  5
3EF
330
40
100
AcDbEntity
  8
4
100
AcDbLine
 10
7.113432332246601
 20
4.346284231620924
 30
0.0
 11
7.1321823322466
 21
4.308784231620924
 31
0.0
  0
LINE
  5
3F0
330
40
100
AcDbEntity
  8
4
100
AcDbLine
 10
7.1321823322466
 20
4.308784231620924
 30
0.0
 11
7.1509323322466
 21
4.346284231620924
 31
0.0
  0
LINE
  5
3F1
330
40
100
AcDbEntity
  8
4
100
AcDbLine
 10
7.388432332246601
 20
4.288284231620924
 30
0.0
 11
7.4071823322466
 21
4.325784231620923
 31
0.0
  0
LINE
  5
3F2
330
40
100
AcDbEntity
  8
4
100
AcDbLine
 10
7.4071823322466
 20
4.325784231620923
 30
0.0
 11
7.425932332246601
 21
4.288284231620924
 31
0.0
  0
LINE
  5
3F3
330
40
100
AcDbEntity
  8
4
100
AcDbLine
 10
7.388432332246601
 20
4.288284231620924
 30
0.0
 11
7.4071823322466
 21
4.250784231620924
 31
0.0
  0
LINE
  5
3F4
330
40
100
AcDbEntity
  8
4
100
AcDbLine
 10
7.4071823322466
 20
4.250784231620924
 30
0.0
 11
7.425932332246601
 21
4.288284231620924
 31
0.0
  0
LINE
  5
3F5
330
40
100
AcDbEntity
  8
4
100
AcDbLine
 10
7.3821823322466
 20
4.383784231620923
 30
0.0
 11
7.4009323322466
 21
4.346284231620924
 31
0.0
  0
LINE
  5
3F6
330
40
100
AcDbEntity
  8
4
100
AcDbLine
 10
7.363432332246601
 20
4.346284231620924
 30
0.0
 11
7.3821823322466
 21
4.383784231620923
 31
0.0
  0
LINE
  5
3F7
330
40
100
AcDbEntity
  8
4
100
AcDbLine
 10
7.3821823322466
 20
4.308784231620924
 30
0.0
 11
7.4009323322466
 21
4.346284231620924
 31
0.0
  0
LINE
  5
3F8
330
40
100
AcDbEntity
  8
4
100
AcDbLine
 10
7.363432332246601
 20
4.346284231620924
 30
0.0
 11
7.3821823322466
 21
4.308784231620924
 31
0.0
  0
LINE
  5
3F9
330
40
100
AcDbEntity
  8
4
100
AcDbLine
 10
7.51949682907573
 20
4.003365996915924
 30
0.0
 11
7.51949682907573
 21
3.941365996915924
 31
0.0
  0
LINE
  5
3FA
330
40
100
AcDbEntity
  8
4
100
AcDbLine
 10
7.51949682907573
 20
3.941365996915924
 30
0.0
 11
7.488496829075732
 21
3.972365996915923
 31
0.0
  0
LINE
  5
3FB
330
40
100
AcDbEntity
  8
4
100
AcDbLine
 10
7.624496829075731
 20
4.403365996915924
 30
0.0
 11
7.56249682907573
 21
4.403365996915924
 31
0.0
  0
ENDBLK
  5
3FD
330
40
100
AcDbEntity
  8
0
100
AcDbBlockEnd
  0
BLOCK
  5
405
330
403
100
AcDbEntity
  8
0
100
AcDbBlockBegin
  2
LE1201
 70
     0
 10
0.0
 20
0.0
 30
0.0
  3
LE1201
  1

  0
INSERT
  5
404
330
403
100
AcDbEntity
  8
2
100
AcDbBlockReference
  2
SPL2ATHLETICDOOR72
 10
0.0
 20
0.0
 30
0.0
  0
ENDBLK
  5
406
330
403
100
AcDbEntity
  8
0
100
AcDbBlockEnd
  0
BLOCK
  5
4CD
330
40A
100
AcDbEntity
  8
0
100
AcDbBlockBegin
  2
LE1005
 70
     0
 10
0.0
 20
0.0
 30
0.0
  3
LE1005
  1

  0
TEXT
  5
40B
330
40A
100
AcDbEntity
  8
8
100
AcDbText
 10
5.2125
 20
0.9038482379456846
 30
0.0
 40
0.07
  1
DEPTH
  7
ROMANS
 72
     1
 11
5.3775
 21
0.9038482379456846
 31
0.0
100
AcDbText
  0
TEXT
  5
40C
330
40A
100
AcDbEntity
  8
8
100
AcDbText
 10
6.834999999999999
 20
0.9038482379456846
 30
0.0
 40
0.07
  1
DEPTH
  7
ROMANS
 72
     1
 11
7.0
 21
0.9038482379456846
 31
0.0
100
AcDbText
  0
TEXT
  5
40D
330
40A
100
AcDbEntity
  8
8
100
AcDbText
 10
6.899267058502116
 20
0.7466010068253098
 30
0.0
 40
0.1
  1
DR
  7
ROMANS
 72
     1
 11
7.001648010883068
 21
0.7466010068253098
 31
0.0
100
AcDbText
  0
TEXT
  5
40E
330
40A
100
AcDbEntity
  8
8
100
AcDbText
 10
5.794389324558379
 20
0.5620000000000003
 30
0.0
 40
0.1
  1
SECTIONS
  7
ROMANS
 72
     1
 11
6.146770276939331
 21
0.5620000000000003
 31
0.0
100
AcDbText
  0
TEXT
  5
40F
330
40A
100
AcDbEntity
  8
8
100
AcDbText
 10
5.302053163126957
 20
0.7466010068253098
 30
0.0
 40
0.1
  1
SR
  7
ROMANS
 72
     1
 11
5.399672210746004
 21
0.7466010068253098
 31
0.0
100
AcDbText
  0
LINE
  5
410
330
40A
100
AcDbEntity
  8
4
100
AcDbLine
 10
5.628
 20
4.25
 30
0.0
 11
5.891731602665403
 21
4.25
 31
0.0
  0
LINE
  5
411
330
40A
100
AcDbEntity
  8
4
100
AcDbLine
 10
5.93215881233783
 20
4.25
 30
0.0
 11
6.112622609161773
 21
4.25
 31
0.0
  0
INSERT
  5
412
330
40A
100
AcDbEntity
  8
4
100
AcDbBlockReference
  2
ARRO
 10
5.93215881233783
 20
4.25
 30
0.0
  0
LINE
  5
413
330
40A
100
AcDbEntity
  8
4
100
AcDbLine
 10
6.112622609161773
 20
4.25
 30
0.0
 11
6.112622609161773
 21
4.047012330209487
 31
0.0
  0
TEXT
  5
414
330
40A
100
AcDbEntity
  8
8
100
AcDbText
 10
6.147622609161773
 20
2.671678996876154
 30
0.0
 40
0.07
  1
ANCHORING BY ERECTOR
 50
90.0
  7
ROMANS
 72
     2
 11
6.147622609161773
 21
3.985012330209487
 31
0.0
100
AcDbText
  0
TEXT
  5
415
330
40A
100
AcDbEntity
  8
8
100
AcDbText
 10
4.500499999999999
 20
2.578333333333333
 30
0.0
 40
0.07
  1
LOCKER HEIGHT
 50
90.0
  7
ROMANS
 72
     1
 11
4.500499999999999
 21
3.0
 31
0.0
100
AcDbText
  0
TEXT
  5
416
330
40A
100
AcDbEntity
  8
8
100
AcDbText
 10
1.344999999999998
 20
1.062
 30
0.0
 40
0.07
  1
LOCKER WIDTH - SEE SCHEDULE
  7
ROMANS
 72
     1
 11
2.249999999999999
 21
1.062
 31
0.0
100
AcDbText
  0
TEXT
  5
417
330
40A
100
AcDbEntity
  8
8
100
AcDbText
 10
1.585714285714285
 20
0.5620000000000003
 30
0.0
 40
0.1
  1
FRONT ELEVATION
  7
ROMANS
 72
     1
 11
2.249999999999999
 21
0.5620000000000003
 31
0.0
100
AcDbText
  0
LINE
  5
418
330
40A
100
AcDbEntity
  8
1
100
AcDbLine
 10
0.0
 20
0.0
 30
0.0
 11
8.25
 21
0.0
 31
0.0
  0
LINE
  5
419
330
40A
100
AcDbEntity
  8
1
100
AcDbLine
 10
8.25
 20
0.0
 30
0.0
 11
8.25
 21
5.25
 31
0.0
  0
LINE
  5
41A
330
40A
100
AcDbEntity
  8
1
100
AcDbLine
 10
8.25
 20
5.25
 30
0.0
 11
0.0
 21
5.25
 31
0.0
  0
LINE
  5
41B
330
40A
100
AcDbEntity
  8
1
100
AcDbLine
 10
0.0
 20
5.25
 30
0.0
 11
0.0
 21
0.0
 31
0.0
  0
LINE
  5
41C
330
40A
100
AcDbEntity
  8
1
100
AcDbLine
 10
1.0
 20
1.5
 30
0.0
 11
2.5
 21
1.5
 31
0.0
  0
LINE
  5
41D
330
40A
100
AcDbEntity
  8
1
100
AcDbLine
 10
1.0
 20
1.5
 30
0.0
 11
1.0
 21
4.5
 31
0.0
  0
LINE
  5
41E
330
40A
100
AcDbEntity
  8
1
100
AcDbLine
 10
1.0
 20
4.5
 30
0.0
 11
2.5
 21
4.5
 31
0.0
  0
LINE
  5
41F
330
40A
100
AcDbEntity
  8
1
100
AcDbLine
 10
2.625
 20
4.5
 30
0.0
 11
3.5
 21
4.5
 31
0.0
  0
LINE
  5
420
330
40A
100
AcDbEntity
  8
1
100
AcDbLine
 10
3.5
 20
4.5
 30
0.0
 11
3.499999999999999
 21
1.5
 31
0.0
  0
LINE
  5
421
330
40A
100
AcDbEntity
  8
1
100
AcDbLine
 10
3.499999999999999
 20
1.5
 30
0.0
 11
2.624999999999999
 21
1.5
 31
0.0
  0
LINE
  5
422
330
40A
100
AcDbEntity
  8
1
100
AcDbLine
 10
7.0
 20
1.5
 30
0.0
 11
7.0
 21
4.5
 31
0.0
  0
LINE
  5
423
330
40A
100
AcDbEntity
  8
1
100
AcDbLine
 10
5.75
 20
1.5
 30
0.0
 11
5.75
 21
4.875
 31
0.0
  0
CIRCLE
  5
424
330
40A
100
AcDbEntity
  8
1
100
AcDbCircle
 10
4.125
 20
0.5
 30
0.0
 40
0.1875
  0
LINE
  5
425
330
40A
100
AcDbEntity
  8
1
100
AcDbLine
 10
2.625
 20
4.625
 30
0.0
 11
2.625
 21
3.709974179311579
 31
0.0
  0
LINE
  5
426
330
40A
100
AcDbEntity
  8
1
100
AcDbLine
 10
2.5
 20
4.625
 30
0.0
 11
2.5
 21
4.344974179311579
 31
0.0
  0
LINE
  5
427
330
40A
100
AcDbEntity
  8
1
100
AcDbLine
 10
2.455
 20
4.389974179311579
 30
0.0
 11
2.544999999999999
 21
4.299974179311579
 31
0.0
  0
LINE
  5
428
330
40A
100
AcDbEntity
  8
1
100
AcDbLine
 10
2.544999999999999
 20
4.299974179311579
 30
0.0
 11
2.455
 21
4.299974179311579
 31
0.0
  0
LINE
  5
429
330
40A
100
AcDbEntity
  8
1
100
AcDbLine
 10
2.455
 20
4.299974179311579
 30
0.0
 11
2.544999999999999
 21
4.209974179311579
 31
0.0
  0
LINE
  5
42A
330
40A
100
AcDbEntity
  8
1
100
AcDbLine
 10
2.512196030826982
 20
4.242778148484597
 30
0.0
 11
2.512196030826982
 21
3.07567852914767
 31
0.0
  0
LINE
  5
42B
330
40A
100
AcDbEntity
  8
1
100
AcDbLine
 10
2.454999999999999
 20
3.049974179311579
 30
0.0
 11
2.544999999999999
 21
2.959974179311579
 31
0.0
  0
LINE
  5
42C
330
40A
100
AcDbEntity
  8
1
100
AcDbLine
 10
2.544999999999999
 20
3.049974179311579
 30
0.0
 11
2.454999999999999
 21
3.049974179311579
 31
0.0
  0
LINE
  5
42D
330
40A
100
AcDbEntity
  8
1
100
AcDbLine
 10
2.454999999999999
 20
3.139974179311579
 30
0.0
 11
2.544999999999999
 21
3.049974179311579
 31
0.0
  0
LINE
  5
42E
330
40A
100
AcDbEntity
  8
1
100
AcDbLine
 10
2.454999999999999
 20
1.799974179311579
 30
0.0
 11
2.544999999999999
 21
1.709974179311579
 31
0.0
  0
LINE
  5
42F
330
40A
100
AcDbEntity
  8
1
100
AcDbLine
 10
2.544999999999999
 20
1.799974179311579
 30
0.0
 11
2.454999999999999
 21
1.799974179311579
 31
0.0
  0
LINE
  5
430
330
40A
100
AcDbEntity
  8
1
100
AcDbLine
 10
2.454999999999999
 20
1.889974179311579
 30
0.0
 11
2.544999999999999
 21
1.799974179311579
 31
0.0
  0
LINE
  5
431
330
40A
100
AcDbEntity
  8
1
100
AcDbLine
 10
2.5
 20
3.004974179311579
 30
0.0
 11
2.5
 21
2.469974179311579
 31
0.0
  0
LINE
  5
432
330
40A
100
AcDbEntity
  8
1
100
AcDbLine
 10
2.5
 20
2.469974179311579
 30
0.0
 11
2.499999999999999
 21
1.844974179311579
 31
0.0
  0
LINE
  5
433
330
40A
100
AcDbEntity
  8
1
100
AcDbLine
 10
2.499999999999999
 20
1.754974179311579
 30
0.0
 11
2.499999999999999
 21
1.375
 31
0.0
  0
LINE
  5
434
330
40A
100
AcDbEntity
  8
1
100
AcDbLine
 10
2.579999999999999
 20
2.514974179311579
 30
0.0
 11
2.669999999999999
 21
2.424974179311579
 31
0.0
  0
LINE
  5
435
330
40A
100
AcDbEntity
  8
1
100
AcDbLine
 10
2.669999999999999
 20
2.424974179311579
 30
0.0
 11
2.579999999999999
 21
2.424974179311579
 31
0.0
  0
LINE
  5
436
330
40A
100
AcDbEntity
  8
1
100
AcDbLine
 10
2.579999999999999
 20
2.424974179311579
 30
0.0
 11
2.669999999999999
 21
2.334974179311579
 31
0.0
  0
LINE
  5
437
330
40A
100
AcDbEntity
  8
1
100
AcDbLine
 10
2.58
 20
3.754974179311579
 30
0.0
 11
2.669999999999999
 21
3.664974179311579
 31
0.0
  0
LINE
  5
438
330
40A
100
AcDbEntity
  8
1
100
AcDbLine
 10
2.669999999999999
 20
3.664974179311579
 30
0.0
 11
2.58
 21
3.664974179311579
 31
0.0
  0
LINE
  5
439
330
40A
100
AcDbEntity
  8
1
100
AcDbLine
 10
2.58
 20
3.664974179311579
 30
0.0
 11
2.669999999999999
 21
3.574974179311579
 31
0.0
  0
LINE
  5
43A
330
40A
100
AcDbEntity
  8
1
100
AcDbLine
 10
2.625
 20
3.625967704151865
 30
0.0
 11
2.625
 21
2.782474179311579
 31
0.0
  0
LINE
  5
43B
330
40A
100
AcDbEntity
  8
1
100
AcDbLine
 10
2.625
 20
2.782474179311579
 30
0.0
 11
2.625
 21
2.469974179311579
 31
0.0
  0
LINE
  5
43C
330
40A
100
AcDbEntity
  8
1
100
AcDbLine
 10
2.625
 20
2.379974179311579
 30
0.0
 11
2.624999999999999
 21
1.375
 31
0.0
  0
LINE
  5
43D
330
40A
100
AcDbEntity
  8
1
100
AcDbLine
 10
5.75
 20
1.5
 30
0.0
 11
5.937999999999999
 21
1.687999999999999
 31
0.0
  0
LINE
  5
43E
330
40A
100
AcDbEntity
  8
1
100
AcDbLine
 10
5.75
 20
1.625
 30
0.0
 11
5.937999999999999
 21
1.812999999999999
 31
0.0
  0
LINE
  5
43F
330
40A
100
AcDbEntity
  8
1
100
AcDbLine
 10
5.75
 20
2.0
 30
0.0
 11
5.937999999999999
 21
2.187999999999999
 31
0.0
  0
LINE
  5
440
330
40A
100
AcDbEntity
  8
1
100
AcDbLine
 10
5.75
 20
2.125
 30
0.0
 11
5.937999999999999
 21
2.312999999999999
 31
0.0
  0
LINE
  5
441
330
40A
100
AcDbEntity
  8
1
100
AcDbLine
 10
5.75
 20
2.25
 30
0.0
 11
5.937999999999999
 21
2.437999999999999
 31
0.0
  0
LINE
  5
442
330
40A
100
AcDbEntity
  8
1
100
AcDbLine
 10
5.75
 20
2.375
 30
0.0
 11
5.937999999999999
 21
2.562999999999999
 31
0.0
  0
LINE
  5
443
330
40A
100
AcDbEntity
  8
1
100
AcDbLine
 10
5.75
 20
2.5
 30
0.0
 11
5.937999999999999
 21
2.687999999999999
 31
0.0
  0
LINE
  5
444
330
40A
100
AcDbEntity
  8
1
100
AcDbLine
 10
5.75
 20
2.625
 30
0.0
 11
5.937999999999999
 21
2.812999999999999
 31
0.0
  0
LINE
  5
445
330
40A
100
AcDbEntity
  8
1
100
AcDbLine
 10
5.75
 20
2.75
 30
0.0
 11
5.937999999999999
 21
2.937999999999999
 31
0.0
  0
LINE
  5
446
330
40A
100
AcDbEntity
  8
1
100
AcDbLine
 10
5.75
 20
2.875
 30
0.0
 11
5.937999999999999
 21
3.062999999999999
 31
0.0
  0
LINE
  5
447
330
40A
100
AcDbEntity
  8
1
100
AcDbLine
 10
5.75
 20
3.0
 30
0.0
 11
5.937999999999999
 21
3.187999999999999
 31
0.0
  0
LINE
  5
448
330
40A
100
AcDbEntity
  8
1
100
AcDbLine
 10
5.75
 20
3.125
 30
0.0
 11
5.937999999999999
 21
3.312999999999999
 31
0.0
  0
LINE
  5
449
330
40A
100
AcDbEntity
  8
1
100
AcDbLine
 10
5.75
 20
3.25
 30
0.0
 11
5.937999999999999
 21
3.437999999999999
 31
0.0
  0
LINE
  5
44A
330
40A
100
AcDbEntity
  8
1
100
AcDbLine
 10
5.75
 20
3.375
 30
0.0
 11
5.937999999999999
 21
3.562999999999999
 31
0.0
  0
LINE
  5
44B
330
40A
100
AcDbEntity
  8
1
100
AcDbLine
 10
5.75
 20
3.5
 30
0.0
 11
5.937999999999999
 21
3.687999999999999
 31
0.0
  0
LINE
  5
44C
330
40A
100
AcDbEntity
  8
1
100
AcDbLine
 10
5.75
 20
3.625
 30
0.0
 11
5.937999999999999
 21
3.812999999999999
 31
0.0
  0
LINE
  5
44D
330
40A
100
AcDbEntity
  8
1
100
AcDbLine
 10
5.75
 20
3.75
 30
0.0
 11
5.937999999999999
 21
3.937999999999999
 31
0.0
  0
LINE
  5
44E
330
40A
100
AcDbEntity
  8
1
100
AcDbLine
 10
5.75
 20
3.875
 30
0.0
 11
5.937999999999999
 21
4.062999999999999
 31
0.0
  0
LINE
  5
44F
330
40A
100
AcDbEntity
  8
1
100
AcDbLine
 10
5.75
 20
4.0
 30
0.0
 11
5.937999999999999
 21
4.187999999999999
 31
0.0
  0
LINE
  5
450
330
40A
100
AcDbEntity
  8
1
100
AcDbLine
 10
5.75
 20
4.125
 30
0.0
 11
5.937999999999999
 21
4.312999999999999
 31
0.0
  0
LINE
  5
451
330
40A
100
AcDbEntity
  8
1
100
AcDbLine
 10
5.75
 20
4.25
 30
0.0
 11
5.937999999999999
 21
4.437999999999999
 31
0.0
  0
LINE
  5
452
330
40A
100
AcDbEntity
  8
1
100
AcDbLine
 10
5.75
 20
4.375
 30
0.0
 11
5.937999999999999
 21
4.562999999999999
 31
0.0
  0
LINE
  5
453
330
40A
100
AcDbEntity
  8
1
100
AcDbLine
 10
5.75
 20
4.5
 30
0.0
 11
5.937999999999999
 21
4.687999999999999
 31
0.0
  0
LINE
  5
454
330
40A
100
AcDbEntity
  8
1
100
AcDbLine
 10
5.75
 20
4.625
 30
0.0
 11
5.937999999999999
 21
4.812999999999999
 31
0.0
  0
LINE
  5
455
330
40A
100
AcDbEntity
  8
1
100
AcDbLine
 10
5.75
 20
4.75
 30
0.0
 11
5.875
 21
4.875
 31
0.0
  0
LINE
  5
456
330
40A
100
AcDbEntity
  8
1
100
AcDbLine
 10
5.69
 20
1.5
 30
0.0
 11
5.69
 21
4.5
 31
0.0
  0
LINE
  5
457
330
40A
100
AcDbEntity
  8
4
100
AcDbLine
 10
1.0
 20
1.437999999999999
 30
0.0
 11
0.9999999999999998
 21
0.9379999999999999
 31
0.0
  0
LINE
  5
458
330
40A
100
AcDbEntity
  8
4
100
AcDbLine
 10
3.499999999999999
 20
1.437999999999999
 30
0.0
 11
3.499999999999999
 21
0.9379999999999999
 31
0.0
  0
LINE
  5
459
330
40A
100
AcDbEntity
  8
4
100
AcDbLine
 10
3.499999999999999
 20
1.0
 30
0.0
 11
0.9999999999999998
 21
1.0
 31
0.0
  0
INSERT
  5
45A
330
40A
100
AcDbEntity
  8
4
100
AcDbBlockReference
  2
ARRO
 10
0.9999999999999998
 20
1.0
 30
0.0
  0
INSERT
  5
45B
330
40A
100
AcDbEntity
  8
4
100
AcDbBlockReference
  2
ARRO
 10
3.499999999999999
 20
0.9999999999999998
 30
0.0
 50
180.0
  0
LINE
  5
45C
330
40A
100
AcDbEntity
  8
4
100
AcDbLine
 10
5.0025
 20
1.5
 30
0.0
 11
4.5025
 21
1.5
 31
0.0
  0
LINE
  5
45D
330
40A
100
AcDbEntity
  8
4
100
AcDbLine
 10
4.5625
 20
1.5
 30
0.0
 11
4.5625
 21
4.5
 31
0.0
  0
LINE
  5
45E
330
40A
100
AcDbEntity
  8
4
100
AcDbLine
 10
5.0025
 20
4.5
 30
0.0
 11
4.5025
 21
4.5
 31
0.0
  0
INSERT
  5
45F
330
40A
100
AcDbEntity
  8
4
100
AcDbBlockReference
  2
ARRO
 10
4.5625
 20
4.5
 30
0.0
 50
270.0
  0
INSERT
  5
460
330
40A
100
AcDbEntity
  8
4
100
AcDbBlockReference
  2
ARRO
 10
4.5625
 20
1.5
 30
0.0
 50
90.0
  0
LINE
  5
461
330
40A
100
AcDbEntity
  8
4
100
AcDbLine
 10
5.69
 20
0.9999999999999998
 30
0.0
 11
5.065
 21
0.9999999999999998
 31
0.0
  0
LINE
  5
462
330
40A
100
AcDbEntity
  8
4
100
AcDbLine
 10
5.75
 20
0.9999999999999998
 30
0.0
 11
6.0
 21
0.9999999999999998
 31
0.0
  0
LINE
  5
463
330
40A
100
AcDbEntity
  8
4
100
AcDbLine
 10
6.375
 20
0.9999999999999998
 30
0.0
 11
7.625
 21
0.9999999999999998
 31
0.0
  0
INSERT
  5
464
330
40A
100
AcDbEntity
  8
4
100
AcDbBlockReference
  2
ARRO
 10
5.065
 20
0.9999999999999998
 30
0.0
  0
INSERT
  5
465
330
40A
100
AcDbEntity
  8
4
100
AcDbBlockReference
  2
ARRO
 10
5.69
 20
0.9999999999999998
 30
0.0
 50
180.0
  0
INSERT
  5
466
330
40A
100
AcDbEntity
  8
4
100
AcDbBlockReference
  2
ARRO
 10
5.75
 20
0.9999999999999998
 30
0.0
  0
INSERT
  5
467
330
40A
100
AcDbEntity
  8
4
100
AcDbBlockReference
  2
ARRO
 10
6.375
 20
0.9999999999999998
 30
0.0
  0
INSERT
  5
468
330
40A
100
AcDbEntity
  8
4
100
AcDbBlockReference
  2
ARRO
 10
7.625
 20
0.9999999999999998
 30
0.0
 50
180.0
  0
LINE
  5
469
330
40A
100
AcDbEntity
  8
1
100
AcDbLine
 10
1.062
 20
1.562
 30
0.0
 11
1.062
 21
4.438
 31
0.0
  0
LINE
  5
46A
330
40A
100
AcDbEntity
  8
1
100
AcDbLine
 10
1.062
 20
4.438
 30
0.0
 11
1.563
 21
4.438
 31
0.0
  0
LINE
  5
46B
330
40A
100
AcDbEntity
  8
1
100
AcDbLine
 10
1.563
 20
4.438
 30
0.0
 11
1.562999999999999
 21
1.562
 31
0.0
  0
LINE
  5
46C
330
40A
100
AcDbEntity
  8
1
100
AcDbLine
 10
1.687
 20
1.562
 30
0.0
 11
1.687
 21
4.438
 31
0.0
  0
LINE
  5
46D
330
40A
100
AcDbEntity
  8
1
100
AcDbLine
 10
1.687
 20
4.438
 30
0.0
 11
2.188
 21
4.438
 31
0.0
  0
LINE
  5
46E
330
40A
100
AcDbEntity
  8
1
100
AcDbLine
 10
2.188
 20
4.438
 30
0.0
 11
2.187999999999999
 21
1.562
 31
0.0
  0
LINE
  5
46F
330
40A
100
AcDbEntity
  8
1
100
AcDbLine
 10
2.187999999999999
 20
1.562
 30
0.0
 11
1.687
 21
1.562
 31
0.0
  0
LINE
  5
470
330
40A
100
AcDbEntity
  8
1
100
AcDbLine
 10
2.312
 20
1.562
 30
0.0
 11
2.312
 21
4.438
 31
0.0
  0
LINE
  5
471
330
40A
100
AcDbEntity
  8
1
100
AcDbLine
 10
2.312
 20
4.438
 30
0.0
 11
2.5
 21
4.438
 31
0.0
  0
LINE
  5
472
330
40A
100
AcDbEntity
  8
1
100
AcDbLine
 10
2.813
 20
4.438
 30
0.0
 11
2.812999999999999
 21
1.562
 31
0.0
  0
LINE
  5
473
330
40A
100
AcDbEntity
  8
1
100
AcDbLine
 10
2.812999999999999
 20
1.562
 30
0.0
 11
2.625
 21
1.562
 31
0.0
  0
LINE
  5
474
330
40A
100
AcDbEntity
  8
1
100
AcDbLine
 10
2.937
 20
1.562
 30
0.0
 11
2.937
 21
4.438
 31
0.0
  0
LINE
  5
475
330
40A
100
AcDbEntity
  8
1
100
AcDbLine
 10
2.937
 20
4.438
 30
0.0
 11
3.438
 21
4.438
 31
0.0
  0
LINE
  5
476
330
40A
100
AcDbEntity
  8
1
100
AcDbLine
 10
3.438
 20
4.438
 30
0.0
 11
3.437999999999999
 21
1.562
 31
0.0
  0
LINE
  5
477
330
40A
100
AcDbEntity
  8
1
100
AcDbLine
 10
3.437999999999999
 20
1.562
 30
0.0
 11
2.937
 21
1.562
 31
0.0
  0
LINE
  5
478
330
40A
100
AcDbEntity
  8
1
100
AcDbLine
 10
1.625
 20
1.5
 30
0.0
 11
1.625
 21
4.5
 31
0.0
  0
LINE
  5
479
330
40A
100
AcDbEntity
  8
1
100
AcDbLine
 10
2.25
 20
1.5
 30
0.0
 11
2.25
 21
4.5
 31
0.0
  0
LINE
  5
47A
330
40A
100
AcDbEntity
  8
1
100
AcDbLine
 10
2.875
 20
1.5
 30
0.0
 11
2.875
 21
4.5
 31
0.0
  0
LINE
  5
47B
330
40A
100
AcDbEntity
  8
1
100
AcDbLine
 10
2.625
 20
4.438
 30
0.0
 11
2.813
 21
4.438
 31
0.0
  0
LINE
  5
47C
330
40A
100
AcDbEntity
  8
1
100
AcDbLine
 10
2.499999999999999
 20
1.562
 30
0.0
 11
2.312
 21
1.562
 31
0.0
  0
LINE
  5
47D
330
40A
100
AcDbEntity
  8
4
100
AcDbLine
 10
1.9375
 20
4.406
 30
0.0
 11
1.9375
 21
4.531
 31
0.0
  0
CIRCLE
  5
47E
330
40A
100
AcDbEntity
  8
4
100
AcDbCircle
 10
1.9375
 20
4.312
 30
0.0
 40
0.094
  0
CIRCLE
  5
47F
330
40A
100
AcDbEntity
  8
4
100
AcDbCircle
 10
1.778866710308013
 20
1.373999999999999
 30
0.0
 40
0.094
  0
LINE
  5
480
330
40A
100
AcDbEntity
  8
4
100
AcDbLine
 10
1.778866710308013
 20
1.467999999999999
 30
0.0
 11
1.778866710308013
 21
1.592999999999999
 31
0.0
  0
CIRCLE
  5
481
330
40A
100
AcDbEntity
  8
4
100
AcDbCircle
 10
2.028866710308013
 20
1.373999999999999
 30
0.0
 40
0.094
  0
LINE
  5
482
330
40A
100
AcDbEntity
  8
4
100
AcDbLine
 10
1.872866710308013
 20
1.373999999999999
 30
0.0
 11
1.934866710308013
 21
1.373999999999999
 31
0.0
  0
LINE
  5
483
330
40A
100
AcDbEntity
  8
1
100
AcDbLine
 10
1.062
 20
1.562
 30
0.0
 11
1.562999999999999
 21
1.562
 31
0.0
  0
LINE
  5
484
330
40A
100
AcDbEntity
  8
1
100
AcDbLine
 10
5.203499999999999
 20
4.5
 30
0.0
 11
5.188499999999999
 21
4.484999999999999
 31
0.0
  0
LINE
  5
485
330
40A
100
AcDbEntity
  8
1
100
AcDbLine
 10
5.188499999999999
 20
4.484999999999999
 30
0.0
 11
5.090499999999999
 21
4.484999999999999
 31
0.0
  0
LINE
  5
486
330
40A
100
AcDbEntity
  8
1
100
AcDbLine
 10
5.090499999999999
 20
4.484999999999999
 30
0.0
 11
5.090499999999999
 21
4.456753857562439
 31
0.0
  0
LINE
  5
487
330
40A
100
AcDbEntity
  8
1
100
AcDbLine
 10
5.265499999999999
 20
4.437999999999999
 30
0.0
 11
5.203499999999999
 21
4.5
 31
0.0
  0
LINE
  5
488
330
40A
100
AcDbEntity
  8
1
100
AcDbLine
 10
5.630499999999999
 20
4.437999999999999
 30
0.0
 11
5.265499999999999
 21
4.437999999999999
 31
0.0
  0
LINE
  5
489
330
40A
100
AcDbEntity
  8
1
100
AcDbLine
 10
5.630499999999999
 20
4.5
 30
0.0
 11
5.630499999999999
 21
4.437999999999999
 31
0.0
  0
LINE
  5
48A
330
40A
100
AcDbEntity
  8
1
100
AcDbLine
 10
5.670499999999999
 20
4.5
 30
0.0
 11
5.670499999999999
 21
4.437999999999999
 31
0.0
  0
LINE
  5
48B
330
40A
100
AcDbEntity
  8
1
100
AcDbLine
 10
5.065499999999999
 20
4.5
 30
0.0
 11
5.173499999999998
 21
4.5
 31
0.0
  0
LINE
  5
48C
330
40A
100
AcDbEntity
  8
1
100
AcDbLine
 10
5.065499999999999
 20
4.437999999999999
 30
0.0
 11
5.065499999999999
 21
4.5
 31
0.0
  0
LINE
  5
48D
330
40A
100
AcDbEntity
  8
1
100
AcDbLine
 10
5.127499999999999
 20
4.437999999999999
 30
0.0
 11
5.065499999999999
 21
4.437999999999999
 31
0.0
  0
LINE
  5
48E
330
40A
100
AcDbEntity
  8
1
100
AcDbLine
 10
5.203499999999999
 20
4.5
 30
0.0
 11
5.670499999999999
 21
4.5
 31
0.0
  0
LINE
  5
48F
330
40A
100
AcDbEntity
  8
1
100
AcDbLine
 10
6.513499999999998
 20
4.5
 30
0.0
 11
6.980499999999999
 21
4.5
 31
0.0
  0
LINE
  5
490
330
40A
100
AcDbEntity
  8
1
100
AcDbLine
 10
6.437499999999999
 20
4.437999999999999
 30
0.0
 11
6.375499999999998
 21
4.437999999999999
 31
0.0
  0
LINE
  5
491
330
40A
100
AcDbEntity
  8
1
100
AcDbLine
 10
6.375499999999998
 20
4.437999999999999
 30
0.0
 11
6.375499999999998
 21
4.5
 31
0.0
  0
LINE
  5
492
330
40A
100
AcDbEntity
  8
1
100
AcDbLine
 10
6.375499999999998
 20
4.5
 30
0.0
 11
6.483499999999998
 21
4.5
 31
0.0
  0
LINE
  5
493
330
40A
100
AcDbEntity
  8
1
100
AcDbLine
 10
6.980499999999999
 20
4.5
 30
0.0
 11
6.980499999999999
 21
4.437999999999999
 31
0.0
  0
LINE
  5
494
330
40A
100
AcDbEntity
  8
1
100
AcDbLine
 10
6.940499999999999
 20
4.5
 30
0.0
 11
6.940499999999999
 21
4.437999999999999
 31
0.0
  0
LINE
  5
495
330
40A
100
AcDbEntity
  8
1
100
AcDbLine
 10
6.940499999999999
 20
4.437999999999999
 30
0.0
 11
6.575499999999999
 21
4.437999999999999
 31
0.0
  0
LINE
  5
496
330
40A
100
AcDbEntity
  8
1
100
AcDbLine
 10
6.575499999999999
 20
4.437999999999999
 30
0.0
 11
6.513499999999998
 21
4.5
 31
0.0
  0
LINE
  5
497
330
40A
100
AcDbEntity
  8
1
100
AcDbLine
 10
6.400499999999999
 20
4.484999999999999
 30
0.0
 11
6.400499999999999
 21
4.456753857562439
 31
0.0
  0
LINE
  5
498
330
40A
100
AcDbEntity
  8
1
100
AcDbLine
 10
6.498499999999999
 20
4.484999999999999
 30
0.0
 11
6.400499999999999
 21
4.484999999999999
 31
0.0
  0
LINE
  5
499
330
40A
100
AcDbEntity
  8
1
100
AcDbLine
 10
6.513499999999998
 20
4.5
 30
0.0
 11
6.498499999999999
 21
4.484999999999999
 31
0.0
  0
LINE
  5
49A
330
40A
100
AcDbEntity
  8
1
100
AcDbLine
 10
7.486500000000001
 20
4.5
 30
0.0
 11
7.5015
 21
4.484999999999999
 31
0.0
  0
LINE
  5
49B
330
40A
100
AcDbEntity
  8
1
100
AcDbLine
 10
7.5015
 20
4.484999999999999
 30
0.0
 11
7.5995
 21
4.484999999999999
 31
0.0
  0
LINE
  5
49C
330
40A
100
AcDbEntity
  8
1
100
AcDbLine
 10
7.5995
 20
4.484999999999999
 30
0.0
 11
7.5995
 21
4.456753857562439
 31
0.0
  0
LINE
  5
49D
330
40A
100
AcDbEntity
  8
1
100
AcDbLine
 10
7.4245
 20
4.437999999999999
 30
0.0
 11
7.486500000000001
 21
4.5
 31
0.0
  0
LINE
  5
49E
330
40A
100
AcDbEntity
  8
1
100
AcDbLine
 10
7.0595
 20
4.437999999999999
 30
0.0
 11
7.4245
 21
4.437999999999999
 31
0.0
  0
LINE
  5
49F
330
40A
100
AcDbEntity
  8
1
100
AcDbLine
 10
7.0595
 20
4.5
 30
0.0
 11
7.0595
 21
4.437999999999999
 31
0.0
  0
LINE
  5
4A0
330
40A
100
AcDbEntity
  8
1
100
AcDbLine
 10
7.0195
 20
4.5
 30
0.0
 11
7.0195
 21
4.437999999999999
 31
0.0
  0
LINE
  5
4A1
330
40A
100
AcDbEntity
  8
1
100
AcDbLine
 10
7.624500000000001
 20
4.5
 30
0.0
 11
7.516500000000001
 21
4.5
 31
0.0
  0
LINE
  5
4A2
330
40A
100
AcDbEntity
  8
1
100
AcDbLine
 10
7.624500000000001
 20
4.437999999999999
 30
0.0
 11
7.624500000000001
 21
4.5
 31
0.0
  0
LINE
  5
4A3
330
40A
100
AcDbEntity
  8
1
100
AcDbLine
 10
7.5625
 20
4.437999999999999
 30
0.0
 11
7.624500000000001
 21
4.437999999999999
 31
0.0
  0
LINE
  5
4A4
330
40A
100
AcDbEntity
  8
1
100
AcDbLine
 10
7.486500000000001
 20
4.5
 30
0.0
 11
7.0195
 21
4.5
 31
0.0
  0
LINE
  5
4A5
330
40A
100
AcDbEntity
  8
1
100
AcDbLine
 10
7.486500000000001
 20
1.5625
 30
0.0
 11
7.0195
 21
1.5625
 31
0.0
  0
LINE
  5
4A6
330
40A
100
AcDbEntity
  8
1
100
AcDbLine
 10
7.5625
 20
1.500499999999999
 30
0.0
 11
7.624500000000001
 21
1.500499999999999
 31
0.0
  0
LINE
  5
4A7
330
40A
100
AcDbEntity
  8
1
100
AcDbLine
 10
7.624500000000001
 20
1.500499999999999
 30
0.0
 11
7.624500000000001
 21
1.5625
 31
0.0
  0
LINE
  5
4A8
330
40A
100
AcDbEntity
  8
1
100
AcDbLine
 10
7.624500000000001
 20
1.5625
 30
0.0
 11
7.516500000000001
 21
1.5625
 31
0.0
  0
LINE
  5
4A9
330
40A
100
AcDbEntity
  8
1
100
AcDbLine
 10
7.0195
 20
1.5625
 30
0.0
 11
7.0195
 21
1.500499999999999
 31
0.0
  0
LINE
  5
4AA
330
40A
100
AcDbEntity
  8
1
100
AcDbLine
 10
7.0595
 20
1.5625
 30
0.0
 11
7.0595
 21
1.500499999999999
 31
0.0
  0
LINE
  5
4AB
330
40A
100
AcDbEntity
  8
1
100
AcDbLine
 10
7.0595
 20
1.500499999999999
 30
0.0
 11
7.4245
 21
1.500499999999999
 31
0.0
  0
LINE
  5
4AC
330
40A
100
AcDbEntity
  8
1
100
AcDbLine
 10
7.4245
 20
1.500499999999999
 30
0.0
 11
7.486500000000001
 21
1.5625
 31
0.0
  0
LINE
  5
4AD
330
40A
100
AcDbEntity
  8
1
100
AcDbLine
 10
7.5995
 20
1.547499999999999
 30
0.0
 11
7.5995
 21
1.519253857562439
 31
0.0
  0
LINE
  5
4AE
330
40A
100
AcDbEntity
  8
1
100
AcDbLine
 10
7.5015
 20
1.547499999999999
 30
0.0
 11
7.5995
 21
1.547499999999999
 31
0.0
  0
LINE
  5
4AF
330
40A
100
AcDbEntity
  8
1
100
AcDbLine
 10
7.486500000000001
 20
1.5625
 30
0.0
 11
7.5015
 21
1.547499999999999
 31
0.0
  0
LINE
  5
4B0
330
40A
100
AcDbEntity
  8
1
100
AcDbLine
 10
6.513499999999998
 20
1.5625
 30
0.0
 11
6.498499999999999
 21
1.547499999999999
 31
0.0
  0
LINE
  5
4B1
330
40A
100
AcDbEntity
  8
1
100
AcDbLine
 10
6.498499999999999
 20
1.547499999999999
 30
0.0
 11
6.400499999999999
 21
1.547499999999999
 31
0.0
  0
LINE
  5
4B2
330
40A
100
AcDbEntity
  8
1
100
AcDbLine
 10
6.400499999999999
 20
1.547499999999999
 30
0.0
 11
6.400499999999999
 21
1.519253857562439
 31
0.0
  0
LINE
  5
4B3
330
40A
100
AcDbEntity
  8
1
100
AcDbLine
 10
6.575499999999999
 20
1.500499999999999
 30
0.0
 11
6.513499999999998
 21
1.5625
 31
0.0
  0
LINE
  5
4B4
330
40A
100
AcDbEntity
  8
1
100
AcDbLine
 10
6.940499999999999
 20
1.500499999999999
 30
0.0
 11
6.575499999999999
 21
1.500499999999999
 31
0.0
  0
LINE
  5
4B5
330
40A
100
AcDbEntity
  8
1
100
AcDbLine
 10
6.940499999999999
 20
1.5625
 30
0.0
 11
6.940499999999999
 21
1.500499999999999
 31
0.0
  0
LINE
  5
4B6
330
40A
100
AcDbEntity
  8
1
100
AcDbLine
 10
6.980499999999999
 20
1.5625
 30
0.0
 11
6.980499999999999
 21
1.500499999999999
 31
0.0
  0
LINE
  5
4B7
330
40A
100
AcDbEntity
  8
1
100
AcDbLine
 10
6.375499999999998
 20
1.5625
 30
0.0
 11
6.483499999999998
 21
1.5625
 31
0.0
  0
LINE
  5
4B8
330
40A
100
AcDbEntity
  8
1
100
AcDbLine
 10
6.375499999999998
 20
1.500499999999999
 30
0.0
 11
6.375499999999998
 21
1.5625
 31
0.0
  0
LINE
  5
4B9
330
40A
100
AcDbEntity
  8
1
100
AcDbLine
 10
6.437499999999999
 20
1.500499999999999
 30
0.0
 11
6.375499999999998
 21
1.500499999999999
 31
0.0
  0
LINE
  5
4BA
330
40A
100
AcDbEntity
  8
1
100
AcDbLine
 10
6.513499999999998
 20
1.5625
 30
0.0
 11
6.980499999999999
 21
1.5625
 31
0.0
  0
LINE
  5
4BB
330
40A
100
AcDbEntity
  8
1
100
AcDbLine
 10
5.203499999999999
 20
1.5625
 30
0.0
 11
5.670499999999999
 21
1.5625
 31
0.0
  0
LINE
  5
4BC
330
40A
100
AcDbEntity
  8
1
100
AcDbLine
 10
5.127499999999999
 20
1.500499999999999
 30
0.0
 11
5.065499999999999
 21
1.500499999999999
 31
0.0
  0
LINE
  5
4BD
330
40A
100
AcDbEntity
  8
1
100
AcDbLine
 10
5.065499999999999
 20
1.500499999999999
 30
0.0
 11
5.065499999999999
 21
1.5625
 31
0.0
  0
LINE
  5
4BE
330
40A
100
AcDbEntity
  8
1
100
AcDbLine
 10
5.065499999999999
 20
1.5625
 30
0.0
 11
5.173499999999998
 21
1.5625
 31
0.0
  0
LINE
  5
4BF
330
40A
100
AcDbEntity
  8
1
100
AcDbLine
 10
5.670499999999999
 20
1.5625
 30
0.0
 11
5.670499999999999
 21
1.500499999999999
 31
0.0
  0
LINE
  5
4C0
330
40A
100
AcDbEntity
  8
1
100
AcDbLine
 10
5.630499999999999
 20
1.5625
 30
0.0
 11
5.630499999999999
 21
1.500499999999999
 31
0.0
  0
LINE
  5
4C1
330
40A
100
AcDbEntity
  8
1
100
AcDbLine
 10
5.630499999999999
 20
1.500499999999999
 30
0.0
 11
5.265499999999999
 21
1.500499999999999
 31
0.0
  0
LINE
  5
4C2
330
40A
100
AcDbEntity
  8
1
100
AcDbLine
 10
5.265499999999999
 20
1.500499999999999
 30
0.0
 11
5.203499999999999
 21
1.5625
 31
0.0
  0
LINE
  5
4C3
330
40A
100
AcDbEntity
  8
1
100
AcDbLine
 10
5.090499999999999
 20
1.547499999999999
 30
0.0
 11
5.090499999999999
 21
1.519253857562439
 31
0.0
  0
LINE
  5
4C4
330
40A
100
AcDbEntity
  8
1
100
AcDbLine
 10
5.188499999999999
 20
1.547499999999999
 30
0.0
 11
5.090499999999999
 21
1.547499999999999
 31
0.0
  0
LINE
  5
4C5
330
40A
100
AcDbEntity
  8
1
100
AcDbLine
 10
5.203499999999999
 20
1.5625
 30
0.0
 11
5.188499999999999
 21
1.547499999999999
 31
0.0
  0
LINE
  5
4C6
330
40A
100
AcDbEntity
  8
1
100
AcDbLine
 10
5.75
 20
1.875
 30
0.0
 11
5.937999999999999
 21
2.062999999999999
 31
0.0
  0
LINE
  5
4C7
330
40A
100
AcDbEntity
  8
1
100
AcDbLine
 10
5.75
 20
1.75
 30
0.0
 11
5.937999999999999
 21
1.937999999999999
 31
0.0
  0
LINE
  5
4C8
330
40A
100
AcDbEntity
  8
4
100
AcDbLine
 10
5.065
 20
0.9379999999999999
 30
0.0
 11
5.065
 21
1.125999999999999
 31
0.0
  0
LINE
  5
4C9
330
40A
100
AcDbEntity
  8
4
100
AcDbLine
 10
5.69
 20
0.9379999999999999
 30
0.0
 11
5.69
 21
1.125999999999999
 31
0.0
  0
LINE
  5
4CA
330
40A
100
AcDbEntity
  8
4
100
AcDbLine
 10
5.75
 20
0.9379999999999999
 30
0.0
 11
5.75
 21
1.125999999999999
 31
0.0
  0
LINE
  5
4CB
330
40A
100
AcDbEntity
  8
4
100
AcDbLine
 10
6.375
 20
0.9379999999999999
 30
0.0
 11
6.375
 21
1.125999999999999
 31
0.0
  0
LINE
  5
4CC
330
40A
100
AcDbEntity
  8
4
100
AcDbLine
 10
7.625
 20
0.9379999999999999
 30
0.0
 11
7.625
 21
1.125999999999999
 31
0.0
  0
ENDBLK
  5
4CE
330
40A
100
AcDbEntity
  8
0
100
AcDbBlockEnd
  0
BLOCK
  5
983
330
96F
100
AcDbEntity
  8
0
100
AcDbBlockBegin
  2
HDV hooks
 70
     0
 10
0.0
 20
0.0
 30
0.0
  3
HDV hooks
  1

  0
ARC
  5
970
330
96F
100
AcDbEntity
  8
4
100
AcDbCircle
 10
0.0477506151055565
 20
-0.094959694567347
 30
0.0
 40
0.025
100
AcDbArc
 50
180.0
 51
0.0
  0
LINE
  5
971
330
96F
100
AcDbEntity
  8
4
100
AcDbLine
 10
0.0227506151055561
 20
-0.094959694567347
 30
0.0
 11
0.0227506151055561
 21
0.0
 31
0.0
  0
LINE
  5
972
330
96F
100
AcDbEntity
  8
4
100
AcDbLine
 10
0.218
 20
0.0005777676988341
 30
0.0
 11
0.218
 21
-0.1199596945673473
 31
0.0
  0
LINE
  5
973
330
96F
100
AcDbEntity
  8
4
100
AcDbLine
 10
0.2799999999999976
 20
0.0008254941851167
 30
0.0
 11
0.2799999999999976
 21
-0.1199596945673473
 31
0.0
  0
LINE
  5
974
330
96F
100
AcDbEntity
  8
4
100
AcDbLine
 10
0.4869331585908921
 20
-0.094959694567347
 30
0.0
 11
0.4869331585908921
 21
0.0
 31
0.0
  0
ARC
  5
975
330
96F
100
AcDbEntity
  8
4
100
AcDbCircle
 10
0.4619430241573639
 20
-0.094959694567347
 30
0.0
 40
0.025
100
AcDbArc
 50
180.0
 51
0.0
  0
ARC
  5
976
330
96F
100
AcDbEntity
  8
4
100
AcDbCircle
 10
0.6714820743968737
 20
-0.094959694567347
 30
0.0
 40
0.025
100
AcDbArc
 50
180.0
 51
0.0
  0
LINE
  5
977
330
96F
100
AcDbEntity
  8
4
100
AcDbLine
 10
0.6464820743968734
 20
-0.094959694567347
 30
0.0
 11
0.6464820743968734
 21
0.0
 31
0.0
  0
LINE
  5
978
330
96F
100
AcDbEntity
  8
4
100
AcDbLine
 10
1.110664617882209
 20
-0.094959694567347
 30
0.0
 11
1.110664617882209
 21
0.0
 31
0.0
  0
ARC
  5
979
330
96F
100
AcDbEntity
  8
4
100
AcDbCircle
 10
1.085674483448681
 20
-0.094959694567347
 30
0.0
 40
0.025
100
AcDbArc
 50
180.0
 51
0.0
  0
ARC
  5
97A
330
96F
100
AcDbEntity
  8
4
100
AcDbCircle
 10
1.290857194253597
 20
-0.094959694567347
 30
0.0
 40
0.025
100
AcDbArc
 50
180.0
 51
0.0
  0
LINE
  5
97B
330
96F
100
AcDbEntity
  8
4
100
AcDbLine
 10
1.265857194253596
 20
-0.094959694567347
 30
0.0
 11
1.265857194253596
 21
0.0
 31
0.0
  0
LINE
  5
97C
330
96F
100
AcDbEntity
  8
4
100
AcDbLine
 10
1.523106579148038
 20
0.0008254941851167
 30
0.0
 11
1.523106579148038
 21
-0.1199596945673473
 31
0.0
  0
LINE
  5
97D
330
96F
100
AcDbEntity
  8
4
100
AcDbLine
 10
1.46110657914804
 20
0.0005777676988341
 30
0.0
 11
1.46110657914804
 21
-0.1199596945673473
 31
0.0
  0
ARC
  5
97E
330
96F
100
AcDbEntity
  8
4
100
AcDbCircle
 10
1.705049603305404
 20
-0.094959694567347
 30
0.0
 40
0.025
100
AcDbArc
 50
180.0
 51
0.0
  0
LINE
  5
97F
330
96F
100
AcDbEntity
  8
4
100
AcDbLine
 10
1.730039737738932
 20
-0.094959694567347
 30
0.0
 11
1.730039737738932
 21
0.0
 31
0.0
  0
LINE
  5
980
330
96F
100
AcDbEntity
  8
4
100
AcDbLine
 10
3.733499999999998
 20
0.0619999999999994
 30
0.0
 11
3.733499999999998
 21
-0.1198201480656689
 31
0.0
  0
LINE
  5
981
330
96F
100
AcDbEntity
  8
4
100
AcDbLine
 10
3.954876537991797
 20
-0.094959694567347
 30
0.0
 11
3.954876537991797
 21
0.0619999999999994
 31
0.0
  0
ARC
  5
982
330
96F
100
AcDbEntity
  8
4
100
AcDbCircle
 10
3.929886403558269
 20
-0.094959694567347
 30
0.0
 40
0.025
100
AcDbArc
 50
180.0
 51
0.0
  0
ENDBLK
  5
984
330
96F
100
AcDbEntity
  8
0
100
AcDbBlockEnd
  0
ENDSEC
  0
SECTION
  2
ENTITIES
  0
TEXT
  5
4EA
330
1F
100
AcDbEntity
  8
8
100
AcDbText
 10
5.2125
 20
0.9038482379456846
 30
0.0
 40
0.07
  1
DEPTH
  7
ROMANS
 72
     1
 11
5.3775
 21
0.9038482379456846
 31
0.0
100
AcDbText
  0
TEXT
  5
4EB
330
1F
100
AcDbEntity
  8
8
100
AcDbText
 10
6.834999999999999
 20
0.9038482379456846
 30
0.0
 40
0.07
  1
DEPTH
  7
ROMANS
 72
     1
 11
7.0
 21
0.9038482379456846
 31
0.0
100
AcDbText
  0
TEXT
  5
4EC
330
1F
100
AcDbEntity
  8
8
100
AcDbText
 10
6.277838487073544
 20
0.7466010068253098
 30
0.0
 40
0.1
  1
SR BACK TO BACK
  7
ROMANS
 72
     1
 11
7.001648010883068
 21
0.7466010068253098
 31
0.0
100
AcDbText
  0
TEXT
  5
4ED
330
1F
100
AcDbEntity
  8
8
100
AcDbText
 10
5.794389324558379
 20
0.5620000000000003
 30
0.0
 40
0.1
  1
SECTIONS
  7
ROMANS
 72
     1
 11
6.146770276939331
 21
0.5620000000000003
 31
0.0
100
AcDbText
  0
TEXT
  5
4EE
330
1F
100
AcDbEntity
  8
8
100
AcDbText
 10
5.302053163126957
 20
0.7466010068253098
 30
0.0
 40
0.1
  1
SR
  7
ROMANS
 72
     1
 11
5.399672210746004
 21
0.7466010068253098
 31
0.0
100
AcDbText
  0
LINE
  5
4EF
330
1F
100
AcDbEntity
  8
4
100
AcDbLine
 10
5.628
 20
4.25
 30
0.0
 11
5.891731602665403
 21
4.25
 31
0.0
  0
LINE
  5
4F0
330
1F
100
AcDbEntity
  8
4
100
AcDbLine
 10
5.93215881233783
 20
4.25
 30
0.0
 11
6.112622609161773
 21
4.25
 31
0.0
  0
INSERT
  5
4F1
330
1F
100
AcDbEntity
  8
4
100
AcDbBlockReference
  2
ARRO
 10
5.93215881233783
 20
4.25
 30
0.0
  0
LINE
  5
4F2
330
1F
100
AcDbEntity
  8
4
100
AcDbLine
 10
6.112622609161773
 20
4.25
 30
0.0
 11
6.112622609161773
 21
4.047012330209487
 31
0.0
  0
TEXT
  5
4F3
330
1F
100
AcDbEntity
  8
8
100
AcDbText
 10
6.147622609161773
 20
2.671678996876154
 30
0.0
 40
0.07
  1
ANCHORING BY ERECTOR
 50
90.0
  7
ROMANS
 72
     2
 11
6.147622609161773
 21
3.985012330209487
 31
0.0
100
AcDbText
  0
TEXT
  5
4F4
330
1F
100
AcDbEntity
  8
8
100
AcDbText
 10
4.500499999999999
 20
2.578333333333333
 30
0.0
 40
0.07
  1
LOCKER HEIGHT
 50
90.0
  7
ROMANS
 72
     1
 11
4.500499999999999
 21
3.0
 31
0.0
100
AcDbText
  0
TEXT
  5
4F5
330
1F
100
AcDbEntity
  8
8
100
AcDbText
 10
1.344999999999998
 20
1.062
 30
0.0
 40
0.07
  1
LOCKER WIDTH - SEE SCHEDULE
  7
ROMANS
 72
     1
 11
2.249999999999999
 21
1.062
 31
0.0
100
AcDbText
  0
TEXT
  5
4F6
330
1F
100
AcDbEntity
  8
8
100
AcDbText
 10
1.585714285714285
 20
0.5620000000000003
 30
0.0
 40
0.1
  1
FRONT ELEVATION
  7
ROMANS
 72
     1
 11
2.249999999999999
 21
0.5620000000000003
 31
0.0
100
AcDbText
  0
LINE
  5
4F7
330
1F
100
AcDbEntity
  8
1
100
AcDbLine
 10
0.0
 20
0.0
 30
0.0
 11
8.25
 21
0.0
 31
0.0
  0
LINE
  5
4F8
330
1F
100
AcDbEntity
  8
1
100
AcDbLine
 10
8.25
 20
0.0
 30
0.0
 11
8.25
 21
5.25
 31
0.0
  0
LINE
  5
4F9
330
1F
100
AcDbEntity
  8
1
100
AcDbLine
 10
8.25
 20
5.25
 30
0.0
 11
0.0
 21
5.25
 31
0.0
  0
LINE
  5
4FA
330
1F
100
AcDbEntity
  8
1
100
AcDbLine
 10
0.0
 20
5.25
 30
0.0
 11
0.0
 21
0.0
 31
0.0
  0
LINE
  5
4FB
330
1F
100
AcDbEntity
  8
1
100
AcDbLine
 10
1.0
 20
1.5
 30
0.0
 11
2.5
 21
1.5
 31
0.0
  0
LINE
  5
4FC
330
1F
100
AcDbEntity
  8
1
100
AcDbLine
 10
1.0
 20
1.5
 30
0.0
 11
1.0
 21
4.5
 31
0.0
  0
LINE
  5
4FD
330
1F
100
AcDbEntity
  8
1
100
AcDbLine
 10
1.0
 20
4.5
 30
0.0
 11
2.5
 21
4.5
 31
0.0
  0
LINE
  5
4FE
330
1F
100
AcDbEntity
  8
1
100
AcDbLine
 10
2.625
 20
4.5
 30
0.0
 11
3.5
 21
4.5
 31
0.0
  0
LINE
  5
4FF
330
1F
100
AcDbEntity
  8
1
100
AcDbLine
 10
3.5
 20
4.5
 30
0.0
 11
3.499999999999999
 21
1.5
 31
0.0
  0
LINE
  5
500
330
1F
100
AcDbEntity
  8
1
100
AcDbLine
 10
3.499999999999999
 20
1.5
 30
0.0
 11
2.624999999999999
 21
1.5
 31
0.0
  0
LINE
  5
501
330
1F
100
AcDbEntity
  8
1
100
AcDbLine
 10
7.0
 20
1.5
 30
0.0
 11
7.0
 21
4.5
 31
0.0
  0
LINE
  5
502
330
1F
100
AcDbEntity
  8
1
100
AcDbLine
 10
5.75
 20
1.5
 30
0.0
 11
5.75
 21
4.875
 31
0.0
  0
CIRCLE
  5
503
330
1F
100
AcDbEntity
  8
1
100
AcDbCircle
 10
4.125
 20
0.5
 30
0.0
 40
0.1875
  0
LINE
  5
504
330
1F
100
AcDbEntity
  8
1
100
AcDbLine
 10
2.625
 20
4.625
 30
0.0
 11
2.625
 21
3.709974179311579
 31
0.0
  0
LINE
  5
505
330
1F
100
AcDbEntity
  8
1
100
AcDbLine
 10
2.5
 20
4.625
 30
0.0
 11
2.5
 21
4.344974179311579
 31
0.0
  0
LINE
  5
506
330
1F
100
AcDbEntity
  8
1
100
AcDbLine
 10
2.455
 20
4.389974179311579
 30
0.0
 11
2.544999999999999
 21
4.299974179311579
 31
0.0
  0
LINE
  5
507
330
1F
100
AcDbEntity
  8
1
100
AcDbLine
 10
2.544999999999999
 20
4.299974179311579
 30
0.0
 11
2.455
 21
4.299974179311579
 31
0.0
  0
LINE
  5
508
330
1F
100
AcDbEntity
  8
1
100
AcDbLine
 10
2.455
 20
4.299974179311579
 30
0.0
 11
2.544999999999999
 21
4.209974179311579
 31
0.0
  0
LINE
  5
509
330
1F
100
AcDbEntity
  8
1
100
AcDbLine
 10
2.512196030826982
 20
4.242778148484597
 30
0.0
 11
2.512196030826982
 21
3.07567852914767
 31
0.0
  0
LINE
  5
50A
330
1F
100
AcDbEntity
  8
1
100
AcDbLine
 10
2.454999999999999
 20
3.049974179311579
 30
0.0
 11
2.544999999999999
 21
2.959974179311579
 31
0.0
  0
LINE
  5
50B
330
1F
100
AcDbEntity
  8
1
100
AcDbLine
 10
2.544999999999999
 20
3.049974179311579
 30
0.0
 11
2.454999999999999
 21
3.049974179311579
 31
0.0
  0
LINE
  5
50C
330
1F
100
AcDbEntity
  8
1
100
AcDbLine
 10
2.454999999999999
 20
3.139974179311579
 30
0.0
 11
2.544999999999999
 21
3.049974179311579
 31
0.0
  0
LINE
  5
50D
330
1F
100
AcDbEntity
  8
1
100
AcDbLine
 10
2.454999999999999
 20
1.799974179311579
 30
0.0
 11
2.544999999999999
 21
1.709974179311579
 31
0.0
  0
LINE
  5
50E
330
1F
100
AcDbEntity
  8
1
100
AcDbLine
 10
2.544999999999999
 20
1.799974179311579
 30
0.0
 11
2.454999999999999
 21
1.799974179311579
 31
0.0
  0
LINE
  5
50F
330
1F
100
AcDbEntity
  8
1
100
AcDbLine
 10
2.454999999999999
 20
1.889974179311579
 30
0.0
 11
2.544999999999999
 21
1.799974179311579
 31
0.0
  0
LINE
  5
510
330
1F
100
AcDbEntity
  8
1
100
AcDbLine
 10
2.5
 20
3.004974179311579
 30
0.0
 11
2.5
 21
2.469974179311579
 31
0.0
  0
LINE
  5
511
330
1F
100
AcDbEntity
  8
1
100
AcDbLine
 10
2.5
 20
2.469974179311579
 30
0.0
 11
2.499999999999999
 21
1.844974179311579
 31
0.0
  0
LINE
  5
512
330
1F
100
AcDbEntity
  8
1
100
AcDbLine
 10
2.499999999999999
 20
1.754974179311579
 30
0.0
 11
2.499999999999999
 21
1.375
 31
0.0
  0
LINE
  5
513
330
1F
100
AcDbEntity
  8
1
100
AcDbLine
 10
2.579999999999999
 20
2.514974179311579
 30
0.0
 11
2.669999999999999
 21
2.424974179311579
 31
0.0
  0
LINE
  5
514
330
1F
100
AcDbEntity
  8
1
100
AcDbLine
 10
2.669999999999999
 20
2.424974179311579
 30
0.0
 11
2.579999999999999
 21
2.424974179311579
 31
0.0
  0
LINE
  5
515
330
1F
100
AcDbEntity
  8
1
100
AcDbLine
 10
2.579999999999999
 20
2.424974179311579
 30
0.0
 11
2.669999999999999
 21
2.334974179311579
 31
0.0
  0
LINE
  5
516
330
1F
100
AcDbEntity
  8
1
100
AcDbLine
 10
2.58
 20
3.754974179311579
 30
0.0
 11
2.669999999999999
 21
3.664974179311579
 31
0.0
  0
LINE
  5
517
330
1F
100
AcDbEntity
  8
1
100
AcDbLine
 10
2.669999999999999
 20
3.664974179311579
 30
0.0
 11
2.58
 21
3.664974179311579
 31
0.0
  0
LINE
  5
518
330
1F
100
AcDbEntity
  8
1
100
AcDbLine
 10
2.58
 20
3.664974179311579
 30
0.0
 11
2.669999999999999
 21
3.574974179311579
 31
0.0
  0
LINE
  5
519
330
1F
100
AcDbEntity
  8
1
100
AcDbLine
 10
2.625
 20
3.625967704151865
 30
0.0
 11
2.625
 21
2.782474179311579
 31
0.0
  0
LINE
  5
51A
330
1F
100
AcDbEntity
  8
1
100
AcDbLine
 10
2.625
 20
2.782474179311579
 30
0.0
 11
2.625
 21
2.469974179311579
 31
0.0
  0
LINE
  5
51B
330
1F
100
AcDbEntity
  8
1
100
AcDbLine
 10
2.625
 20
2.379974179311579
 30
0.0
 11
2.624999999999999
 21
1.375
 31
0.0
  0
LINE
  5
51C
330
1F
100
AcDbEntity
  8
1
100
AcDbLine
 10
5.75
 20
1.5
 30
0.0
 11
5.937999999999999
 21
1.687999999999999
 31
0.0
  0
LINE
  5
51D
330
1F
100
AcDbEntity
  8
1
100
AcDbLine
 10
5.75
 20
1.625
 30
0.0
 11
5.937999999999999
 21
1.812999999999999
 31
0.0
  0
LINE
  5
51E
330
1F
100
AcDbEntity
  8
1
100
AcDbLine
 10
5.75
 20
2.0
 30
0.0
 11
5.937999999999999
 21
2.187999999999999
 31
0.0
  0
LINE
  5
51F
330
1F
100
AcDbEntity
  8
1
100
AcDbLine
 10
5.75
 20
2.125
 30
0.0
 11
5.937999999999999
 21
2.312999999999999
 31
0.0
  0
LINE
  5
520
330
1F
100
AcDbEntity
  8
1
100
AcDbLine
 10
5.75
 20
2.25
 30
0.0
 11
5.937999999999999
 21
2.437999999999999
 31
0.0
  0
LINE
  5
521
330
1F
100
AcDbEntity
  8
1
100
AcDbLine
 10
5.75
 20
2.375
 30
0.0
 11
5.937999999999999
 21
2.562999999999999
 31
0.0
  0
LINE
  5
522
330
1F
100
AcDbEntity
  8
1
100
AcDbLine
 10
5.75
 20
2.5
 30
0.0
 11
5.937999999999999
 21
2.687999999999999
 31
0.0
  0
LINE
  5
523
330
1F
100
AcDbEntity
  8
1
100
AcDbLine
 10
5.75
 20
2.625
 30
0.0
 11
5.937999999999999
 21
2.812999999999999
 31
0.0
  0
LINE
  5
524
330
1F
100
AcDbEntity
  8
1
100
AcDbLine
 10
5.75
 20
2.75
 30
0.0
 11
5.937999999999999
 21
2.937999999999999
 31
0.0
  0
LINE
  5
525
330
1F
100
AcDbEntity
  8
1
100
AcDbLine
 10
5.75
 20
2.875
 30
0.0
 11
5.937999999999999
 21
3.062999999999999
 31
0.0
  0
LINE
  5
526
330
1F
100
AcDbEntity
  8
1
100
AcDbLine
 10
5.75
 20
3.0
 30
0.0
 11
5.937999999999999
 21
3.187999999999999
 31
0.0
  0
LINE
  5
527
330
1F
100
AcDbEntity
  8
1
100
AcDbLine
 10
5.75
 20
3.125
 30
0.0
 11
5.937999999999999
 21
3.312999999999999
 31
0.0
  0
LINE
  5
528
330
1F
100
AcDbEntity
  8
1
100
AcDbLine
 10
5.75
 20
3.25
 30
0.0
 11
5.937999999999999
 21
3.437999999999999
 31
0.0
  0
LINE
  5
529
330
1F
100
AcDbEntity
  8
1
100
AcDbLine
 10
5.75
 20
3.375
 30
0.0
 11
5.937999999999999
 21
3.562999999999999
 31
0.0
  0
LINE
  5
52A
330
1F
100
AcDbEntity
  8
1
100
AcDbLine
 10
5.75
 20
3.5
 30
0.0
 11
5.937999999999999
 21
3.687999999999999
 31
0.0
  0
LINE
  5
52B
330
1F
100
AcDbEntity
  8
1
100
AcDbLine
 10
5.75
 20
3.625
 30
0.0
 11
5.937999999999999
 21
3.812999999999999
 31
0.0
  0
LINE
  5
52C
330
1F
100
AcDbEntity
  8
1
100
AcDbLine
 10
5.75
 20
3.75
 30
0.0
 11
5.937999999999999
 21
3.937999999999999
 31
0.0
  0
LINE
  5
52D
330
1F
100
AcDbEntity
  8
1
100
AcDbLine
 10
5.75
 20
3.875
 30
0.0
 11
5.937999999999999
 21
4.062999999999999
 31
0.0
  0
LINE
  5
52E
330
1F
100
AcDbEntity
  8
1
100
AcDbLine
 10
5.75
 20
4.0
 30
0.0
 11
5.937999999999999
 21
4.187999999999999
 31
0.0
  0
LINE
  5
52F
330
1F
100
AcDbEntity
  8
1
100
AcDbLine
 10
5.75
 20
4.125
 30
0.0
 11
5.937999999999999
 21
4.312999999999999
 31
0.0
  0
LINE
  5
530
330
1F
100
AcDbEntity
  8
1
100
AcDbLine
 10
5.75
 20
4.25
 30
0.0
 11
5.937999999999999
 21
4.437999999999999
 31
0.0
  0
LINE
  5
531
330
1F
100
AcDbEntity
  8
1
100
AcDbLine
 10
5.75
 20
4.375
 30
0.0
 11
5.937999999999999
 21
4.562999999999999
 31
0.0
  0
LINE
  5
532
330
1F
100
AcDbEntity
  8
1
100
AcDbLine
 10
5.75
 20
4.5
 30
0.0
 11
5.937999999999999
 21
4.687999999999999
 31
0.0
  0
LINE
  5
533
330
1F
100
AcDbEntity
  8
1
100
AcDbLine
 10
5.75
 20
4.625
 30
0.0
 11
5.937999999999999
 21
4.812999999999999
 31
0.0
  0
LINE
  5
534
330
1F
100
AcDbEntity
  8
1
100
AcDbLine
 10
5.75
 20
4.75
 30
0.0
 11
5.875
 21
4.875
 31
0.0
  0
LINE
  5
535
330
1F
100
AcDbEntity
  8
1
100
AcDbLine
 10
5.69
 20
1.5
 30
0.0
 11
5.69
 21
4.5
 31
0.0
  0
LINE
  5
536
330
1F
100
AcDbEntity
  8
4
100
AcDbLine
 10
1.0
 20
1.437999999999999
 30
0.0
 11
0.9999999999999998
 21
0.9379999999999999
 31
0.0
  0
LINE
  5
537
330
1F
100
AcDbEntity
  8
4
100
AcDbLine
 10
3.499999999999999
 20
1.437999999999999
 30
0.0
 11
3.499999999999999
 21
0.9379999999999999
 31
0.0
  0
LINE
  5
538
330
1F
100
AcDbEntity
  8
4
100
AcDbLine
 10
3.499999999999999
 20
1.0
 30
0.0
 11
0.9999999999999998
 21
1.0
 31
0.0
  0
INSERT
  5
539
330
1F
100
AcDbEntity
  8
4
100
AcDbBlockReference
  2
ARRO
 10
0.9999999999999998
 20
1.0
 30
0.0
  0
INSERT
  5
53A
330
1F
100
AcDbEntity
  8
4
100
AcDbBlockReference
  2
ARRO
 10
3.499999999999999
 20
0.9999999999999998
 30
0.0
 50
180.0
  0
LINE
  5
53B
330
1F
100
AcDbEntity
  8
4
100
AcDbLine
 10
5.0025
 20
1.5
 30
0.0
 11
4.5025
 21
1.5
 31
0.0
  0
LINE
  5
53C
330
1F
100
AcDbEntity
  8
4
100
AcDbLine
 10
4.5625
 20
1.5
 30
0.0
 11
4.5625
 21
4.5
 31
0.0
  0
LINE
  5
53D
330
1F
100
AcDbEntity
  8
4
100
AcDbLine
 10
5.0025
 20
4.5
 30
0.0
 11
4.5025
 21
4.5
 31
0.0
  0
INSERT
  5
53E
330
1F
100
AcDbEntity
  8
4
100
AcDbBlockReference
  2
ARRO
 10
4.5625
 20
4.5
 30
0.0
 50
270.0
  0
INSERT
  5
53F
330
1F
100
AcDbEntity
  8
4
100
AcDbBlockReference
  2
ARRO
 10
4.5625
 20
1.5
 30
0.0
 50
90.0
  0
LINE
  5
540
330
1F
100
AcDbEntity
  8
4
100
AcDbLine
 10
5.69
 20
0.9999999999999998
 30
0.0
 11
5.065
 21
0.9999999999999998
 31
0.0
  0
LINE
  5
541
330
1F
100
AcDbEntity
  8
4
100
AcDbLine
 10
5.75
 20
0.9999999999999998
 30
0.0
 11
6.0
 21
0.9999999999999998
 31
0.0
  0
LINE
  5
542
330
1F
100
AcDbEntity
  8
4
100
AcDbLine
 10
6.375
 20
0.9999999999999998
 30
0.0
 11
7.658267269776935
 21
0.9999999999999998
 31
0.0
  0
INSERT
  5
543
330
1F
100
AcDbEntity
  8
4
100
AcDbBlockReference
  2
ARRO
 10
5.065
 20
0.9999999999999998
 30
0.0
  0
INSERT
  5
544
330
1F
100
AcDbEntity
  8
4
100
AcDbBlockReference
  2
ARRO
 10
5.69
 20
0.9999999999999998
 30
0.0
 50
180.0
  0
INSERT
  5
545
330
1F
100
AcDbEntity
  8
4
100
AcDbBlockReference
  2
ARRO
 10
5.75
 20
0.9999999999999998
 30
0.0
  0
INSERT
  5
546
330
1F
100
AcDbEntity
  8
4
100
AcDbBlockReference
  2
ARRO
 10
6.375
 20
0.9999999999999998
 30
0.0
  0
INSERT
  5
547
330
1F
100
AcDbEntity
  8
4
100
AcDbBlockReference
  2
ARRO
 10
7.658267269776935
 20
0.9999999999999998
 30
0.0
 50
180.0
  0
LINE
  5
548
330
1F
100
AcDbEntity
  8
1
100
AcDbLine
 10
1.062
 20
1.562
 30
0.0
 11
1.062
 21
4.438
 31
0.0
  0
LINE
  5
549
330
1F
100
AcDbEntity
  8
1
100
AcDbLine
 10
1.062
 20
4.438
 30
0.0
 11
1.563
 21
4.438
 31
0.0
  0
LINE
  5
54A
330
1F
100
AcDbEntity
  8
1
100
AcDbLine
 10
1.563
 20
4.438
 30
0.0
 11
1.562999999999999
 21
1.562
 31
0.0
  0
LINE
  5
54B
330
1F
100
AcDbEntity
  8
1
100
AcDbLine
 10
1.687
 20
1.562
 30
0.0
 11
1.687
 21
4.438
 31
0.0
  0
LINE
  5
54C
330
1F
100
AcDbEntity
  8
1
100
AcDbLine
 10
1.687
 20
4.438
 30
0.0
 11
2.188
 21
4.438
 31
0.0
  0
LINE
  5
54D
330
1F
100
AcDbEntity
  8
1
100
AcDbLine
 10
2.188
 20
4.438
 30
0.0
 11
2.187999999999999
 21
1.562
 31
0.0
  0
LINE
  5
54E
330
1F
100
AcDbEntity
  8
1
100
AcDbLine
 10
2.187999999999999
 20
1.562
 30
0.0
 11
1.687
 21
1.562
 31
0.0
  0
LINE
  5
54F
330
1F
100
AcDbEntity
  8
1
100
AcDbLine
 10
2.312
 20
1.562
 30
0.0
 11
2.312
 21
4.438
 31
0.0
  0
LINE
  5
550
330
1F
100
AcDbEntity
  8
1
100
AcDbLine
 10
2.312
 20
4.438
 30
0.0
 11
2.5
 21
4.438
 31
0.0
  0
LINE
  5
551
330
1F
100
AcDbEntity
  8
1
100
AcDbLine
 10
2.813
 20
4.438
 30
0.0
 11
2.812999999999999
 21
1.562
 31
0.0
  0
LINE
  5
552
330
1F
100
AcDbEntity
  8
1
100
AcDbLine
 10
2.812999999999999
 20
1.562
 30
0.0
 11
2.625
 21
1.562
 31
0.0
  0
LINE
  5
553
330
1F
100
AcDbEntity
  8
1
100
AcDbLine
 10
2.937
 20
1.562
 30
0.0
 11
2.937
 21
4.438
 31
0.0
  0
LINE
  5
554
330
1F
100
AcDbEntity
  8
1
100
AcDbLine
 10
2.937
 20
4.438
 30
0.0
 11
3.438
 21
4.438
 31
0.0
  0
LINE
  5
555
330
1F
100
AcDbEntity
  8
1
100
AcDbLine
 10
3.438
 20
4.438
 30
0.0
 11
3.437999999999999
 21
1.562
 31
0.0
  0
LINE
  5
556
330
1F
100
AcDbEntity
  8
1
100
AcDbLine
 10
3.437999999999999
 20
1.562
 30
0.0
 11
2.937
 21
1.562
 31
0.0
  0
LINE
  5
557
330
1F
100
AcDbEntity
  8
1
100
AcDbLine
 10
1.625
 20
1.5
 30
0.0
 11
1.625
 21
4.5
 31
0.0
  0
LINE
  5
558
330
1F
100
AcDbEntity
  8
1
100
AcDbLine
 10
2.25
 20
1.5
 30
0.0
 11
2.25
 21
4.5
 31
0.0
  0
LINE
  5
559
330
1F
100
AcDbEntity
  8
1
100
AcDbLine
 10
2.875
 20
1.5
 30
0.0
 11
2.875
 21
4.5
 31
0.0
  0
LINE
  5
55A
330
1F
100
AcDbEntity
  8
1
100
AcDbLine
 10
2.625
 20
4.438
 30
0.0
 11
2.813
 21
4.438
 31
0.0
  0
LINE
  5
55B
330
1F
100
AcDbEntity
  8
1
100
AcDbLine
 10
2.499999999999999
 20
1.562
 30
0.0
 11
2.312
 21
1.562
 31
0.0
  0
LINE
  5
55C
330
1F
100
AcDbEntity
  8
4
100
AcDbLine
 10
1.9375
 20
4.406
 30
0.0
 11
1.9375
 21
4.531
 31
0.0
  0
CIRCLE
  5
55D
330
1F
100
AcDbEntity
  8
4
100
AcDbCircle
 10
1.9375
 20
4.312
 30
0.0
 40
0.094
  0
CIRCLE
  5
55E
330
1F
100
AcDbEntity
  8
4
100
AcDbCircle
 10
1.778866710308013
 20
1.373999999999999
 30
0.0
 40
0.094
  0
LINE
  5
55F
330
1F
100
AcDbEntity
  8
4
100
AcDbLine
 10
1.778866710308013
 20
1.467999999999999
 30
0.0
 11
1.778866710308013
 21
1.592999999999999
 31
0.0
  0
CIRCLE
  5
560
330
1F
100
AcDbEntity
  8
4
100
AcDbCircle
 10
2.028866710308013
 20
1.373999999999999
 30
0.0
 40
0.094
  0
LINE
  5
561
330
1F
100
AcDbEntity
  8
4
100
AcDbLine
 10
1.872866710308013
 20
1.373999999999999
 30
0.0
 11
1.934866710308013
 21
1.373999999999999
 31
0.0
  0
LINE
  5
562
330
1F
100
AcDbEntity
  8
1
100
AcDbLine
 10
1.062
 20
1.562
 30
0.0
 11
1.562999999999999
 21
1.562
 31
0.0
  0
LINE
  5
563
330
1F
100
AcDbEntity
  8
1
100
AcDbLine
 10
5.203499999999999
 20
4.5
 30
0.0
 11
5.188499999999999
 21
4.484999999999999
 31
0.0
  0
LINE
  5
564
330
1F
100
AcDbEntity
  8
1
100
AcDbLine
 10
5.188499999999999
 20
4.484999999999999
 30
0.0
 11
5.090499999999999
 21
4.484999999999999
 31
0.0
  0
LINE
  5
565
330
1F
100
AcDbEntity
  8
1
100
AcDbLine
 10
5.090499999999999
 20
4.484999999999999
 30
0.0
 11
5.090499999999999
 21
4.456753857562439
 31
0.0
  0
LINE
  5
566
330
1F
100
AcDbEntity
  8
1
100
AcDbLine
 10
5.265499999999999
 20
4.437999999999999
 30
0.0
 11
5.203499999999999
 21
4.5
 31
0.0
  0
LINE
  5
567
330
1F
100
AcDbEntity
  8
1
100
AcDbLine
 10
5.630499999999999
 20
4.437999999999999
 30
0.0
 11
5.265499999999999
 21
4.437999999999999
 31
0.0
  0
LINE
  5
568
330
1F
100
AcDbEntity
  8
1
100
AcDbLine
 10
5.630499999999999
 20
4.5
 30
0.0
 11
5.630499999999999
 21
4.437999999999999
 31
0.0
  0
LINE
  5
569
330
1F
100
AcDbEntity
  8
1
100
AcDbLine
 10
5.670499999999999
 20
4.5
 30
0.0
 11
5.670499999999999
 21
4.437999999999999
 31
0.0
  0
LINE
  5
56A
330
1F
100
AcDbEntity
  8
1
100
AcDbLine
 10
5.065499999999999
 20
4.5
 30
0.0
 11
5.173499999999998
 21
4.5
 31
0.0
  0
LINE
  5
56B
330
1F
100
AcDbEntity
  8
1
100
AcDbLine
 10
5.065499999999999
 20
4.437999999999999
 30
0.0
 11
5.065499999999999
 21
4.5
 31
0.0
  0
LINE
  5
56C
330
1F
100
AcDbEntity
  8
1
100
AcDbLine
 10
5.127499999999999
 20
4.437999999999999
 30
0.0
 11
5.065499999999999
 21
4.437999999999999
 31
0.0
  0
LINE
  5
56D
330
1F
100
AcDbEntity
  8
1
100
AcDbLine
 10
5.203499999999999
 20
4.5
 30
0.0
 11
5.670499999999999
 21
4.5
 31
0.0
  0
LINE
  5
56E
330
1F
100
AcDbEntity
  8
1
100
AcDbLine
 10
6.513499999999998
 20
4.5
 30
0.0
 11
6.980499999999999
 21
4.5
 31
0.0
  0
LINE
  5
56F
330
1F
100
AcDbEntity
  8
1
100
AcDbLine
 10
6.437499999999999
 20
4.437999999999999
 30
0.0
 11
6.375499999999998
 21
4.437999999999999
 31
0.0
  0
LINE
  5
570
330
1F
100
AcDbEntity
  8
1
100
AcDbLine
 10
6.375499999999998
 20
4.437999999999999
 30
0.0
 11
6.375499999999998
 21
4.5
 31
0.0
  0
LINE
  5
571
330
1F
100
AcDbEntity
  8
1
100
AcDbLine
 10
6.375499999999998
 20
4.5
 30
0.0
 11
6.483499999999998
 21
4.5
 31
0.0
  0
LINE
  5
572
330
1F
100
AcDbEntity
  8
1
100
AcDbLine
 10
6.980499999999999
 20
4.5
 30
0.0
 11
6.980499999999999
 21
4.437999999999999
 31
0.0
  0
LINE
  5
573
330
1F
100
AcDbEntity
  8
1
100
AcDbLine
 10
6.940499999999999
 20
4.5
 30
0.0
 11
6.940499999999999
 21
4.437999999999999
 31
0.0
  0
LINE
  5
574
330
1F
100
AcDbEntity
  8
1
100
AcDbLine
 10
6.940499999999999
 20
4.437999999999999
 30
0.0
 11
6.575499999999999
 21
4.437999999999999
 31
0.0
  0
LINE
  5
575
330
1F
100
AcDbEntity
  8
1
100
AcDbLine
 10
6.575499999999999
 20
4.437999999999999
 30
0.0
 11
6.513499999999998
 21
4.5
 31
0.0
  0
LINE
  5
576
330
1F
100
AcDbEntity
  8
1
100
AcDbLine
 10
6.400499999999999
 20
4.484999999999999
 30
0.0
 11
6.400499999999999
 21
4.456753857562439
 31
0.0
  0
LINE
  5
577
330
1F
100
AcDbEntity
  8
1
100
AcDbLine
 10
6.498499999999999
 20
4.484999999999999
 30
0.0
 11
6.400499999999999
 21
4.484999999999999
 31
0.0
  0
LINE
  5
578
330
1F
100
AcDbEntity
  8
1
100
AcDbLine
 10
6.513499999999998
 20
4.5
 30
0.0
 11
6.498499999999999
 21
4.484999999999999
 31
0.0
  0
LINE
  5
579
330
1F
100
AcDbEntity
  8
1
100
AcDbLine
 10
7.521500000000001
 20
4.5
 30
0.0
 11
7.536500000000001
 21
4.484999999999999
 31
0.0
  0
LINE
  5
57A
330
1F
100
AcDbEntity
  8
1
100
AcDbLine
 10
7.536500000000001
 20
4.484999999999999
 30
0.0
 11
7.6345
 21
4.484999999999999
 31
0.0
  0
LINE
  5
57B
330
1F
100
AcDbEntity
  8
1
100
AcDbLine
 10
7.6345
 20
4.484999999999999
 30
0.0
 11
7.6345
 21
4.456753857562439
 31
0.0
  0
LINE
  5
57C
330
1F
100
AcDbEntity
  8
1
100
AcDbLine
 10
7.459500000000001
 20
4.437999999999999
 30
0.0
 11
7.521500000000001
 21
4.5
 31
0.0
  0
LINE
  5
57D
330
1F
100
AcDbEntity
  8
1
100
AcDbLine
 10
7.0945
 20
4.437999999999999
 30
0.0
 11
7.459500000000001
 21
4.437999999999999
 31
0.0
  0
LINE
  5
57E
330
1F
100
AcDbEntity
  8
1
100
AcDbLine
 10
7.0945
 20
4.5
 30
0.0
 11
7.0945
 21
4.437999999999999
 31
0.0
  0
LINE
  5
57F
330
1F
100
AcDbEntity
  8
1
100
AcDbLine
 10
7.0545
 20
4.5
 30
0.0
 11
7.0545
 21
4.437999999999999
 31
0.0
  0
LINE
  5
580
330
1F
100
AcDbEntity
  8
1
100
AcDbLine
 10
7.659500000000001
 20
4.5
 30
0.0
 11
7.551500000000001
 21
4.5
 31
0.0
  0
LINE
  5
581
330
1F
100
AcDbEntity
  8
1
100
AcDbLine
 10
7.659500000000001
 20
4.437999999999999
 30
0.0
 11
7.659500000000001
 21
4.5
 31
0.0
  0
LINE
  5
582
330
1F
100
AcDbEntity
  8
1
100
AcDbLine
 10
7.597500000000001
 20
4.437999999999999
 30
0.0
 11
7.659500000000001
 21
4.437999999999999
 31
0.0
  0
LINE
  5
583
330
1F
100
AcDbEntity
  8
1
100
AcDbLine
 10
7.521500000000001
 20
4.5
 30
0.0
 11
7.0545
 21
4.5
 31
0.0
  0
LINE
  5
584
330
1F
100
AcDbEntity
  8
1
100
AcDbLine
 10
7.521500000000001
 20
1.5625
 30
0.0
 11
7.0545
 21
1.5625
 31
0.0
  0
LINE
  5
585
330
1F
100
AcDbEntity
  8
1
100
AcDbLine
 10
7.597500000000001
 20
1.500499999999999
 30
0.0
 11
7.659500000000001
 21
1.500499999999999
 31
0.0
  0
LINE
  5
586
330
1F
100
AcDbEntity
  8
1
100
AcDbLine
 10
7.659500000000001
 20
1.500499999999999
 30
0.0
 11
7.659500000000001
 21
1.5625
 31
0.0
  0
LINE
  5
587
330
1F
100
AcDbEntity
  8
1
100
AcDbLine
 10
7.659500000000001
 20
1.5625
 30
0.0
 11
7.551500000000001
 21
1.5625
 31
0.0
  0
LINE
  5
588
330
1F
100
AcDbEntity
  8
1
100
AcDbLine
 10
7.0545
 20
1.5625
 30
0.0
 11
7.0545
 21
1.500499999999999
 31
0.0
  0
LINE
  5
589
330
1F
100
AcDbEntity
  8
1
100
AcDbLine
 10
7.0945
 20
1.5625
 30
0.0
 11
7.0945
 21
1.500499999999999
 31
0.0
  0
LINE
  5
58A
330
1F
100
AcDbEntity
  8
1
100
AcDbLine
 10
7.0945
 20
1.500499999999999
 30
0.0
 11
7.459500000000001
 21
1.500499999999999
 31
0.0
  0
LINE
  5
58B
330
1F
100
AcDbEntity
  8
1
100
AcDbLine
 10
7.459500000000001
 20
1.500499999999999
 30
0.0
 11
7.521500000000001
 21
1.5625
 31
0.0
  0
LINE
  5
58C
330
1F
100
AcDbEntity
  8
1
100
AcDbLine
 10
7.6345
 20
1.547499999999999
 30
0.0
 11
7.6345
 21
1.519253857562439
 31
0.0
  0
LINE
  5
58D
330
1F
100
AcDbEntity
  8
1
100
AcDbLine
 10
7.536500000000001
 20
1.547499999999999
 30
0.0
 11
7.6345
 21
1.547499999999999
 31
0.0
  0
LINE
  5
58E
330
1F
100
AcDbEntity
  8
1
100
AcDbLine
 10
7.521500000000001
 20
1.5625
 30
0.0
 11
7.536500000000001
 21
1.547499999999999
 31
0.0
  0
LINE
  5
58F
330
1F
100
AcDbEntity
  8
1
100
AcDbLine
 10
6.513499999999998
 20
1.5625
 30
0.0
 11
6.498499999999999
 21
1.547499999999999
 31
0.0
  0
LINE
  5
590
330
1F
100
AcDbEntity
  8
1
100
AcDbLine
 10
6.498499999999999
 20
1.547499999999999
 30
0.0
 11
6.400499999999999
 21
1.547499999999999
 31
0.0
  0
LINE
  5
591
330
1F
100
AcDbEntity
  8
1
100
AcDbLine
 10
6.400499999999999
 20
1.547499999999999
 30
0.0
 11
6.400499999999999
 21
1.519253857562439
 31
0.0
  0
LINE
  5
592
330
1F
100
AcDbEntity
  8
1
100
AcDbLine
 10
6.575499999999999
 20
1.500499999999999
 30
0.0
 11
6.513499999999998
 21
1.5625
 31
0.0
  0
LINE
  5
593
330
1F
100
AcDbEntity
  8
1
100
AcDbLine
 10
6.940499999999999
 20
1.500499999999999
 30
0.0
 11
6.575499999999999
 21
1.500499999999999
 31
0.0
  0
LINE
  5
594
330
1F
100
AcDbEntity
  8
1
100
AcDbLine
 10
6.940499999999999
 20
1.5625
 30
0.0
 11
6.940499999999999
 21
1.500499999999999
 31
0.0
  0
LINE
  5
595
330
1F
100
AcDbEntity
  8
1
100
AcDbLine
 10
6.980499999999999
 20
1.5625
 30
0.0
 11
6.980499999999999
 21
1.500499999999999
 31
0.0
  0
LINE
  5
596
330
1F
100
AcDbEntity
  8
1
100
AcDbLine
 10
6.375499999999998
 20
1.5625
 30
0.0
 11
6.483499999999998
 21
1.5625
 31
0.0
  0
LINE
  5
597
330
1F
100
AcDbEntity
  8
1
100
AcDbLine
 10
6.375499999999998
 20
1.500499999999999
 30
0.0
 11
6.375499999999998
 21
1.5625
 31
0.0
  0
LINE
  5
598
330
1F
100
AcDbEntity
  8
1
100
AcDbLine
 10
6.437499999999999
 20
1.500499999999999
 30
0.0
 11
6.375499999999998
 21
1.500499999999999
 31
0.0
  0
LINE
  5
599
330
1F
100
AcDbEntity
  8
1
100
AcDbLine
 10
6.513499999999998
 20
1.5625
 30
0.0
 11
6.980499999999999
 21
1.5625
 31
0.0
  0
LINE
  5
59A
330
1F
100
AcDbEntity
  8
1
100
AcDbLine
 10
5.203499999999999
 20
1.5625
 30
0.0
 11
5.670499999999999
 21
1.5625
 31
0.0
  0
LINE
  5
59B
330
1F
100
AcDbEntity
  8
1
100
AcDbLine
 10
5.127499999999999
 20
1.500499999999999
 30
0.0
 11
5.065499999999999
 21
1.500499999999999
 31
0.0
  0
LINE
  5
59C
330
1F
100
AcDbEntity
  8
1
100
AcDbLine
 10
5.065499999999999
 20
1.500499999999999
 30
0.0
 11
5.065499999999999
 21
1.5625
 31
0.0
  0
LINE
  5
59D
330
1F
100
AcDbEntity
  8
1
100
AcDbLine
 10
5.065499999999999
 20
1.5625
 30
0.0
 11
5.173499999999998
 21
1.5625
 31
0.0
  0
LINE
  5
59E
330
1F
100
AcDbEntity
  8
1
100
AcDbLine
 10
5.670499999999999
 20
1.5625
 30
0.0
 11
5.670499999999999
 21
1.500499999999999
 31
0.0
  0
LINE
  5
59F
330
1F
100
AcDbEntity
  8
1
100
AcDbLine
 10
5.630499999999999
 20
1.5625
 30
0.0
 11
5.630499999999999
 21
1.500499999999999
 31
0.0
  0
LINE
  5
5A0
330
1F
100
AcDbEntity
  8
1
100
AcDbLine
 10
5.630499999999999
 20
1.500499999999999
 30
0.0
 11
5.265499999999999
 21
1.500499999999999
 31
0.0
  0
LINE
  5
5A1
330
1F
100
AcDbEntity
  8
1
100
AcDbLine
 10
5.265499999999999
 20
1.500499999999999
 30
0.0
 11
5.203499999999999
 21
1.5625
 31
0.0
  0
LINE
  5
5A2
330
1F
100
AcDbEntity
  8
1
100
AcDbLine
 10
5.090499999999999
 20
1.547499999999999
 30
0.0
 11
5.090499999999999
 21
1.519253857562439
 31
0.0
  0
LINE
  5
5A3
330
1F
100
AcDbEntity
  8
1
100
AcDbLine
 10
5.188499999999999
 20
1.547499999999999
 30
0.0
 11
5.090499999999999
 21
1.547499999999999
 31
0.0
  0
LINE
  5
5A4
330
1F
100
AcDbEntity
  8
1
100
AcDbLine
 10
5.203499999999999
 20
1.5625
 30
0.0
 11
5.188499999999999
 21
1.547499999999999
 31
0.0
  0
LINE
  5
5A5
330
1F
100
AcDbEntity
  8
1
100
AcDbLine
 10
5.75
 20
1.875
 30
0.0
 11
5.937999999999999
 21
2.062999999999999
 31
0.0
  0
LINE
  5
5A6
330
1F
100
AcDbEntity
  8
1
100
AcDbLine
 10
5.75
 20
1.75
 30
0.0
 11
5.937999999999999
 21
1.937999999999999
 31
0.0
  0
LINE
  5
5A7
330
1F
100
AcDbEntity
  8
4
100
AcDbLine
 10
5.065
 20
0.9379999999999999
 30
0.0
 11
5.065
 21
1.125999999999999
 31
0.0
  0
LINE
  5
5A8
330
1F
100
AcDbEntity
  8
4
100
AcDbLine
 10
5.69
 20
0.9379999999999999
 30
0.0
 11
5.69
 21
1.125999999999999
 31
0.0
  0
LINE
  5
5A9
330
1F
100
AcDbEntity
  8
4
100
AcDbLine
 10
5.75
 20
0.9379999999999999
 30
0.0
 11
5.75
 21
1.125999999999999
 31
0.0
  0
LINE
  5
5AA
330
1F
100
AcDbEntity
  8
4
100
AcDbLine
 10
6.375
 20
0.9379999999999999
 30
0.0
 11
6.375
 21
1.125999999999999
 31
0.0
  0
LINE
  5
5AB
330
1F
100
AcDbEntity
  8
4
100
AcDbLine
 10
7.658267269776935
 20
0.9379999999999999
 30
0.0
 11
7.658267269776935
 21
1.125999999999999
 31
0.0
  0
LINE
  5
5AD
330
1F
100
AcDbEntity
  8
4
100
AcDbLine
 10
2.93699682907573
 20
3.941365996915924
 30
0.0
 11
3.437996829075729
 21
3.941365996915924
 31
0.0
  0
LINE
  5
5AE
330
1F
100
AcDbEntity
  8
4
100
AcDbLine
 10
2.93699682907573
 20
4.003365996915924
 30
0.0
 11
3.437996829075729
 21
4.003365996915924
 31
0.0
  0
TEXT
  5
5AF
330
1F
100
AcDbEntity
  8
8
100
AcDbText
 10
1.467258733837635
 20
0.0913659969159239
 30
0.0
 40
0.125
  1
SINGLE POINT 2 ATHLETIC LOCKER - 72" SINGLE TIER
  7
ROMANS
 72
     1
 11
4.12499682907573
 21
0.0913659969159239
 31
0.0
100
AcDbText
  0
LINE
  5
5B0
330
1F
100
AcDbEntity
  8
4
100
AcDbLine
 10
1.524072185130417
 20
1.910808635296394
 30
0.0
 11
1.524072185130417
 21
1.829601447210457
 31
0.0
  0
LINE
  5
5B1
330
1F
100
AcDbEntity
  8
2
100
AcDbLine
 10
1.172056451731979
 20
1.750134222146501
 30
0.0
 11
1.172056451731979
 21
2.757355159646502
 31
0.0
  0
LINE
  5
5B2
330
1F
100
AcDbEntity
  8
2
100
AcDbLine
 10
1.36091037751323
 20
2.706994112771501
 30
0.0
 11
1.36091037751323
 21
1.699773175271502
 31
0.0
  0
LINE
  5
5B3
330
1F
100
AcDbEntity
  8
4
  6
HIDDEN
100
AcDbLine
 10
1.505093121005106
 20
1.595485530550286
 30
0.0
 11
1.505093121005102
 21
4.399246165431563
 31
0.0
  0
LINE
  5
5B4
330
1F
100
AcDbEntity
  8
4
  6
HIDDEN
100
AcDbLine
 10
1.482732816192604
 20
1.595485530550288
 30
0.0
 11
1.482732816192604
 21
4.399246165431559
 31
0.0
  0
LINE
  5
5B5
330
1F
100
AcDbEntity
  8
4
  6
HIDDEN
100
AcDbLine
 10
1.412461959536353
 20
1.595485530550292
 30
0.0
 11
1.412461959536353
 21
4.399246165431554
 31
0.0
  0
LINE
  5
5B6
330
1F
100
AcDbEntity
  8
4
  6
HIDDEN
100
AcDbLine
 10
1.390101654723856
 20
1.595485530550294
 30
0.0
 11
1.390101654723856
 21
4.399246165431554
 31
0.0
  0
LINE
  5
5B7
330
1F
100
AcDbEntity
  8
4
100
AcDbLine
 10
1.530996829075728
 20
1.591365996915924
 30
0.0
 11
1.530996829075729
 21
4.403365699065926
 31
0.0
  0
LINE
  5
5B8
330
1F
100
AcDbEntity
  8
4
100
AcDbLine
 10
1.09399682907573
 20
4.403365699065926
 30
0.0
 11
1.09399682907573
 21
1.591365996915924
 31
0.0
  0
POINT
  5
5B9
330
1F
100
AcDbEntity
  8
0
100
AcDbPoint
 10
0.0
 20
0.0
 30
0.0
  0
LINE
  5
5BA
330
1F
100
AcDbEntity
  8
2
100
AcDbLine
 10
1.287814650169479
 20
1.669556547146501
 30
0.0
 11
1.345802063450729
 21
1.669556547146501
 31
0.0
  0
LINE
  5
5BB
330
1F
100
AcDbEntity
  8
4
100
AcDbLine
 10
1.09399682907573
 20
1.591365996915924
 30
0.0
 11
1.530996829075728
 21
1.591365996915924
 31
0.0
  0
LINE
  5
5BC
330
1F
100
AcDbEntity
  8
4
100
AcDbLine
 10
1.189403936597154
 20
1.721283820978176
 30
0.0
 11
1.202047277062184
 21
1.749092022736031
 31
0.0
  0
LINE
  5
5BD
330
1F
100
AcDbEntity
  8
4
100
AcDbLine
 10
1.184925594991804
 20
1.721283820978176
 30
0.0
 11
1.172282254526774
 21
1.749092022736031
 31
0.0
  0
LINE
  5
5BE
330
1F
100
AcDbEntity
  8
4
100
AcDbLine
 10
1.212066407690904
 20
1.728623576439828
 30
0.0
 11
1.224709748155933
 21
1.700815374681973
 31
0.0
  0
LINE
  5
5BF
330
1F
100
AcDbEntity
  8
4
100
AcDbLine
 10
1.212066407690904
 20
1.670922774103175
 30
0.0
 11
1.224709748155933
 21
1.69873097586103
 31
0.0
  0
LINE
  5
5C0
330
1F
100
AcDbEntity
  8
2
100
AcDbLine
 10
1.209827236888229
 20
1.669556547146501
 30
0.0
 11
1.267814650169479
 21
1.669556547146501
 31
0.0
  0
ARC
  5
5C1
330
1F
100
AcDbEntity
  8
4
100
AcDbCircle
 10
1.18716476579448
 20
1.722435646365252
 30
0.0
 40
0.00251805234375
100
AcDbArc
 50
201.6777967963419
 51
338.322203203658
  0
ARC
  5
5C2
330
1F
100
AcDbEntity
  8
4
100
AcDbCircle
 10
1.209827236888229
 20
1.727471751052752
 30
0.0
 40
0.00251805234375
100
AcDbArc
 50
21.67779679634199
 51
158.3222032036579
  0
ARC
  5
5C3
330
1F
100
AcDbEntity
  8
4
100
AcDbCircle
 10
1.197236975169478
 20
1.699773175271502
 30
0.0
 40
0.00251805234375
100
AcDbArc
 50
155.5504979363151
 51
204.4495020636847
  0
LINE
  5
5C4
330
1F
100
AcDbEntity
  8
4
100
AcDbLine
 10
1.207588066085555
 20
1.728623576439828
 30
0.0
 11
1.194944725620525
 21
1.700815374681973
 31
0.0
  0
ARC
  5
5C5
330
1F
100
AcDbEntity
  8
4
100
AcDbCircle
 10
1.209827236888229
 20
1.672074599490251
 30
0.0
 40
0.00251805234375
100
AcDbArc
 50
201.6777967963419
 51
338.322203203658
  0
LINE
  5
5C6
330
1F
100
AcDbEntity
  8
4
100
AcDbLine
 10
1.207588066085555
 20
1.670922774103175
 30
0.0
 11
1.194944725620525
 21
1.69873097586103
 31
0.0
  0
ARC
  5
5C7
330
1F
100
AcDbEntity
  8
4
100
AcDbCircle
 10
1.222417498606978
 20
1.699773175271502
 30
0.0
 40
0.00251805234375
100
AcDbArc
 50
335.5504979363153
 51
24.44950206368473
  0
LINE
  5
5C8
330
1F
100
AcDbEntity
  8
4
100
AcDbLine
 10
1.189403936597154
 20
1.778984623314828
 30
0.0
 11
1.202047277062184
 21
1.751176421556972
 31
0.0
  0
ARC
  5
5C9
330
1F
100
AcDbEntity
  8
4
100
AcDbCircle
 10
1.18716476579448
 20
1.777832797927751
 30
0.0
 40
0.00251805234375
100
AcDbArc
 50
21.67779679634199
 51
158.3222032036579
  0
ARC
  5
5CA
330
1F
100
AcDbEntity
  8
4
100
AcDbCircle
 10
1.199755027513229
 20
1.750134222146501
 30
0.0
 40
0.00251805234375
100
AcDbArc
 50
335.5504979363153
 51
24.44950206368473
  0
ARC
  5
5CB
330
1F
100
AcDbEntity
  8
4
100
AcDbCircle
 10
1.174574504075729
 20
1.750134222146501
 30
0.0
 40
0.00251805234375
100
AcDbArc
 50
155.5504979363151
 51
204.4495020636847
  0
LINE
  5
5CC
330
1F
100
AcDbEntity
  8
4
100
AcDbLine
 10
1.184925594991805
 20
1.778984623314828
 30
0.0
 11
1.172282254526774
 21
1.751176421556972
 31
0.0
  0
LINE
  5
5CD
330
1F
100
AcDbEntity
  8
4
  6
HIDDEN
100
AcDbLine
 10
1.505093121005106
 20
1.595485530550286
 30
0.0
 11
1.390101654723856
 21
1.595485530550294
 31
0.0
  0
LINE
  5
5CE
330
1F
100
AcDbEntity
  8
4
100
AcDbLine
 10
1.320900421554305
 20
1.721283820978176
 30
0.0
 11
1.308257081089275
 21
1.749092022736031
 31
0.0
  0
LINE
  5
5CF
330
1F
100
AcDbEntity
  8
4
100
AcDbLine
 10
1.325378763159654
 20
1.721283820978176
 30
0.0
 11
1.338022103624683
 21
1.749092022736031
 31
0.0
  0
ARC
  5
5D0
330
1F
100
AcDbEntity
  8
4
100
AcDbCircle
 10
1.345802063450729
 20
1.727471751052752
 30
0.0
 40
0.00251805234375
100
AcDbArc
 50
21.67779679634199
 51
158.3222032036579
  0
ARC
  5
5D1
330
1F
100
AcDbEntity
  8
4
100
AcDbCircle
 10
1.35839232516948
 20
1.699773175271502
 30
0.0
 40
0.00251805234375
100
AcDbArc
 50
335.5504979363153
 51
24.44950206368473
  0
LINE
  5
5D2
330
1F
100
AcDbEntity
  8
4
100
AcDbLine
 10
1.348041234253403
 20
1.728623576439828
 30
0.0
 11
1.360684574718434
 21
1.700815374681973
 31
0.0
  0
ARC
  5
5D3
330
1F
100
AcDbEntity
  8
4
100
AcDbCircle
 10
1.323139592356979
 20
1.722435646365252
 30
0.0
 40
0.00251805234375
100
AcDbArc
 50
201.6777967963419
 51
338.322203203658
  0
ARC
  5
5D4
330
1F
100
AcDbEntity
  8
4
100
AcDbCircle
 10
1.333211801731979
 20
1.699773175271502
 30
0.0
 40
0.00251805234375
100
AcDbArc
 50
155.5504979363151
 51
204.4495020636847
  0
LINE
  5
5D5
330
1F
100
AcDbEntity
  8
4
100
AcDbLine
 10
1.343562892648054
 20
1.728623576439828
 30
0.0
 11
1.330919552183025
 21
1.700815374681973
 31
0.0
  0
ARC
  5
5D6
330
1F
100
AcDbEntity
  8
4
100
AcDbCircle
 10
1.345802063450729
 20
1.672074599490251
 30
0.0
 40
0.00251805234375
100
AcDbArc
 50
201.6777967963419
 51
338.322203203658
  0
LINE
  5
5D7
330
1F
100
AcDbEntity
  8
4
100
AcDbLine
 10
1.343562892648054
 20
1.670922774103175
 30
0.0
 11
1.330919552183025
 21
1.69873097586103
 31
0.0
  0
LINE
  5
5D8
330
1F
100
AcDbEntity
  8
4
100
AcDbLine
 10
1.348041234253403
 20
1.670922774103175
 30
0.0
 11
1.360684574718434
 21
1.69873097586103
 31
0.0
  0
LINE
  5
5D9
330
1F
100
AcDbEntity
  8
4
100
AcDbLine
 10
1.320900421554305
 20
1.778984623314828
 30
0.0
 11
1.308257081089275
 21
1.751176421556972
 31
0.0
  0
ARC
  5
5DA
330
1F
100
AcDbEntity
  8
4
100
AcDbCircle
 10
1.310549330638228
 20
1.750134222146501
 30
0.0
 40
0.00251805234375
100
AcDbArc
 50
155.5504979363151
 51
204.4495020636847
  0
ARC
  5
5DB
330
1F
100
AcDbEntity
  8
4
100
AcDbCircle
 10
1.335729854075728
 20
1.750134222146501
 30
0.0
 40
0.00251805234375
100
AcDbArc
 50
335.5504979363153
 51
24.44950206368473
  0
LINE
  5
5DC
330
1F
100
AcDbEntity
  8
4
100
AcDbLine
 10
1.325378763159654
 20
1.778984623314828
 30
0.0
 11
1.338022103624683
 21
1.751176421556972
 31
0.0
  0
ARC
  5
5DD
330
1F
100
AcDbEntity
  8
4
100
AcDbCircle
 10
1.323139592356979
 20
1.777832797927751
 30
0.0
 40
0.00251805234375
100
AcDbArc
 50
21.67779679634199
 51
158.3222032036579
  0
LINE
  5
5DE
330
1F
100
AcDbEntity
  8
4
100
AcDbLine
 10
1.524072185130417
 20
1.829601447210457
 30
0.0
 11
1.530996829075729
 21
1.829601447210457
 31
0.0
  0
LINE
  5
5DF
330
1F
100
AcDbEntity
  8
4
100
AcDbLine
 10
0.9609087115990472
 20
3.126044667974729
 30
0.0
 11
0.5859087115990473
 21
3.126044667974729
 31
0.0
  0
LINE
  5
5E0
330
1F
100
AcDbEntity
  8
4
100
AcDbLine
 10
0.9609087115990472
 20
2.985601731127685
 30
0.0
 11
0.5859087115990473
 21
2.985601731127685
 31
0.0
  0
TEXT
  5
5E1
330
1F
100
AcDbEntity
  8
8
100
AcDbText
 10
0.6159087115990474
 20
3.250044667974729
 30
0.0
 40
0.07
  1
HANDLE & P/A
 50
90.0
  7
ROMANS
100
AcDbText
  0
TEXT
  5
5E2
330
1F
100
AcDbEntity
  8
8
100
AcDbText
 10
0.6159087115990473
 20
1.854935064461018
 30
0.0
 40
0.07
  1
LOCK ESCUTCHEON
 50
90.0
  7
ROMANS
 72
     2
 11
0.6159087115990474
 21
2.861601731127685
 31
0.0
100
AcDbText
  0
LINE
  5
5E3
330
1F
100
AcDbEntity
  8
4
100
AcDbLine
 10
0.5859087115990473
 20
3.126044667974729
 30
0.0
 11
0.5859087115990473
 21
3.188044667974728
 31
0.0
  0
LINE
  5
5E4
330
1F
100
AcDbEntity
  8
4
100
AcDbLine
 10
0.5859087115990473
 20
2.985601731127685
 30
0.0
 11
0.5859087115990473
 21
2.923601731127685
 31
0.0
  0
LINE
  5
5E5
330
1F
100
AcDbEntity
  8
2
100
AcDbLine
 10
1.163781124509478
 20
3.283864807558113
 30
0.0
 11
1.163781124509478
 21
4.291085745058113
 31
0.0
  0
LINE
  5
5E6
330
1F
100
AcDbEntity
  8
2
100
AcDbLine
 10
1.352409247495934
 20
4.239682498772642
 30
0.0
 11
1.352635050227321
 21
3.23350432577496
 31
0.0
  0
LINE
  5
5E7
330
1F
100
AcDbEntity
  8
4
100
AcDbLine
 10
1.348041234253403
 20
2.678143711603176
 30
0.0
 11
1.360684574718434
 21
2.705951913361031
 31
0.0
  0
LINE
  5
5E8
330
1F
100
AcDbEntity
  8
4
100
AcDbLine
 10
1.343562892648054
 20
2.678143711603176
 30
0.0
 11
1.330919552183025
 21
2.705951913361031
 31
0.0
  0
LINE
  5
5E9
330
1F
100
AcDbEntity
  8
4
100
AcDbLine
 10
1.212066407690904
 20
2.678143711603176
 30
0.0
 11
1.224709748155933
 21
2.705951913361031
 31
0.0
  0
LINE
  5
5EA
330
1F
100
AcDbEntity
  8
4
100
AcDbLine
 10
1.207588066085555
 20
2.678143711603176
 30
0.0
 11
1.194944725620525
 21
2.705951913361031
 31
0.0
  0
ARC
  5
5EB
330
1F
100
AcDbEntity
  8
4
100
AcDbCircle
 10
1.209827236888229
 20
2.679295536990252
 30
0.0
 40
0.00251805234375
100
AcDbArc
 50
201.6777967963419
 51
338.322203203658
  0
LINE
  5
5EC
330
1F
100
AcDbEntity
  8
4
100
AcDbLine
 10
1.530996829075729
 20
1.910808635296394
 30
0.0
 11
1.524072185130417
 21
1.910808635296394
 31
0.0
  0
LINE
  5
5ED
330
1F
100
AcDbEntity
  8
4
100
AcDbLine
 10
1.545248858808911
 20
1.868634280201391
 30
0.0
 11
1.513999343681407
 21
1.868634280201391
 31
0.0
  0
ARC
  5
5EE
330
1F
100
AcDbEntity
  8
4
100
AcDbCircle
 10
1.345802063450729
 20
2.679295536990252
 30
0.0
 40
0.00251805234375
100
AcDbArc
 50
201.6777967963419
 51
338.322203203658
  0
LINE
  5
5EF
330
1F
100
AcDbEntity
  8
2
100
AcDbLine
 10
1.20155190966573
 20
3.203287132558113
 30
0.0
 11
1.337526736228229
 21
3.203287132558113
 31
0.0
  0
LINE
  5
5F0
330
1F
100
AcDbEntity
  8
2
100
AcDbLine
 10
1.265152179075729
 20
2.787571787771502
 30
0.0
 11
1.323139592356979
 21
2.787571787771502
 31
0.0
  0
LINE
  5
5F1
330
1F
100
AcDbEntity
  8
4
100
AcDbLine
 10
0.8359087115990455
 20
3.10604466797473
 30
0.0
 11
0.8359087115990455
 21
3.14604466797473
 31
0.0
  0
LINE
  5
5F2
330
1F
100
AcDbEntity
  8
4
100
AcDbLine
 10
0.8359087115990455
 20
3.13604466797473
 30
0.0
 11
0.9609087115990464
 21
3.126044667974729
 31
0.0
  0
LINE
  5
5F3
330
1F
100
AcDbEntity
  8
4
100
AcDbLine
 10
0.9609087115990455
 20
3.126044667974729
 30
0.0
 11
0.8359087115990455
 21
3.14604466797473
 31
0.0
  0
LINE
  5
5F4
330
1F
100
AcDbEntity
  8
4
100
AcDbLine
 10
0.8359087115990455
 20
2.995601731127685
 30
0.0
 11
0.9609087115990464
 21
2.985601731127685
 31
0.0
  0
LINE
  5
5F5
330
1F
100
AcDbEntity
  8
4
100
AcDbLine
 10
0.8359087115990455
 20
2.975601731127686
 30
0.0
 11
0.9609087115990455
 21
2.985601731127685
 31
0.0
  0
LINE
  5
5F6
330
1F
100
AcDbEntity
  8
4
100
AcDbLine
 10
0.9609087115990455
 20
2.985601731127685
 30
0.0
 11
0.8359087115990455
 21
3.005601731127685
 31
0.0
  0
LINE
  5
5F7
330
1F
100
AcDbEntity
  8
4
100
AcDbLine
 10
0.8359087115990455
 20
2.965601731127685
 30
0.0
 11
0.9609087115990455
 21
2.985601731127685
 31
0.0
  0
LINE
  5
5F8
330
1F
100
AcDbEntity
  8
4
100
AcDbLine
 10
0.8359087115990455
 20
3.11604466797473
 30
0.0
 11
0.9609087115990455
 21
3.126044667974729
 31
0.0
  0
LINE
  5
5F9
330
1F
100
AcDbEntity
  8
4
100
AcDbLine
 10
0.8359087115990455
 20
3.10604466797473
 30
0.0
 11
0.9609087115990455
 21
3.126044667974729
 31
0.0
  0
LINE
  5
5FA
330
1F
100
AcDbEntity
  8
4
100
AcDbLine
 10
0.8359087115990455
 20
2.965601731127685
 30
0.0
 11
0.8359087115990455
 21
3.005601731127685
 31
0.0
  0
ARC
  5
5FB
330
1F
100
AcDbEntity
  8
4
100
AcDbCircle
 10
1.228347308951554
 20
2.937715706019834
 30
0.0
 40
0.02014441875
100
AcDbArc
 50
270.0
 51
356.4236656250018
  0
LINE
  5
5FC
330
1F
100
AcDbEntity
  8
4
100
AcDbLine
 10
1.272690221304968
 20
3.082039035831506
 30
0.0
 11
1.262239291731536
 21
2.914824162656612
 31
0.0
  0
ARC
  5
5FD
330
1F
100
AcDbEntity
  8
4
100
AcDbCircle
 10
1.148500274981155
 20
2.937715706019834
 30
0.0
 40
0.02014441875
100
AcDbArc
 50
183.5763343749982
 51
270.0
  0
LINE
  5
5FE
330
1F
100
AcDbEntity
  8
4
100
AcDbLine
 10
1.104157362627741
 20
3.082039035831506
 30
0.0
 11
1.114608292201174
 21
2.914824162656612
 31
0.0
  0
ARC
  5
5FF
330
1F
100
AcDbEntity
  8
4
100
AcDbCircle
 10
1.140996352862734
 20
2.916473416447956
 30
0.0
 40
0.026439549609375
100
AcDbArc
 50
183.5763343749982
 51
270.0
  0
LINE
  5
600
330
1F
100
AcDbEntity
  8
2
100
AcDbLine
 10
1.18716476579448
 20
2.787571787771502
 30
0.0
 11
1.24515217907573
 21
2.787571787771502
 31
0.0
  0
LINE
  5
601
330
1F
100
AcDbEntity
  8
4
100
AcDbLine
 10
1.212066407690904
 20
2.735844513939828
 30
0.0
 11
1.224709748155933
 21
2.708036312181973
 31
0.0
  0
LINE
  5
602
330
1F
100
AcDbEntity
  8
4
100
AcDbLine
 10
1.189403936597154
 20
2.786205560814828
 30
0.0
 11
1.202047277062184
 21
2.758397359056973
 31
0.0
  0
ARC
  5
603
330
1F
100
AcDbEntity
  8
4
100
AcDbCircle
 10
1.18716476579448
 20
2.785053735427752
 30
0.0
 40
0.00251805234375
100
AcDbArc
 50
21.67779679634199
 51
158.3222032036579
  0
ARC
  5
604
330
1F
100
AcDbEntity
  8
4
100
AcDbCircle
 10
1.199755027513229
 20
2.757355159646502
 30
0.0
 40
0.00251805234375
100
AcDbArc
 50
335.5504979363153
 51
24.44950206368473
  0
ARC
  5
605
330
1F
100
AcDbEntity
  8
4
100
AcDbCircle
 10
1.174574504075729
 20
2.757355159646502
 30
0.0
 40
0.00251805234375
100
AcDbArc
 50
155.5504979363151
 51
204.4495020636847
  0
LINE
  5
606
330
1F
100
AcDbEntity
  8
4
100
AcDbLine
 10
1.184925594991805
 20
2.786205560814828
 30
0.0
 11
1.172282254526774
 21
2.758397359056973
 31
0.0
  0
ARC
  5
607
330
1F
100
AcDbEntity
  8
4
100
AcDbCircle
 10
1.18716476579448
 20
2.729656583865252
 30
0.0
 40
0.00251805234375
100
AcDbArc
 50
201.6777967963419
 51
338.322203203658
  0
ARC
  5
608
330
1F
100
AcDbEntity
  8
4
100
AcDbCircle
 10
1.209827236888229
 20
2.734692688552752
 30
0.0
 40
0.00251805234375
100
AcDbArc
 50
21.67779679634199
 51
158.3222032036579
  0
ARC
  5
609
330
1F
100
AcDbEntity
  8
4
100
AcDbCircle
 10
1.197236975169478
 20
2.706994112771501
 30
0.0
 40
0.00251805234375
100
AcDbArc
 50
155.5504979363151
 51
204.4495020636847
  0
LINE
  5
60A
330
1F
100
AcDbEntity
  8
4
100
AcDbLine
 10
1.207588066085555
 20
2.735844513939828
 30
0.0
 11
1.194944725620525
 21
2.708036312181973
 31
0.0
  0
LINE
  5
60B
330
1F
100
AcDbEntity
  8
4
100
AcDbLine
 10
1.189403936597154
 20
2.728504758478175
 30
0.0
 11
1.202047277062184
 21
2.756312960236031
 31
0.0
  0
LINE
  5
60C
330
1F
100
AcDbEntity
  8
4
100
AcDbLine
 10
1.184925594991804
 20
2.728504758478175
 30
0.0
 11
1.172282254526774
 21
2.756312960236031
 31
0.0
  0
ARC
  5
60D
330
1F
100
AcDbEntity
  8
4
100
AcDbCircle
 10
1.222417498606978
 20
2.706994112771501
 30
0.0
 40
0.00251805234375
100
AcDbArc
 50
335.5504979363153
 51
24.44950206368473
  0
LINE
  5
60E
330
1F
100
AcDbEntity
  8
4
100
AcDbLine
 10
1.188423791966354
 20
2.890033866838581
 30
0.0
 11
1.235851231069974
 21
2.890033866838581
 31
0.0
  0
CIRCLE
  5
60F
330
1F
100
AcDbEntity
  8
4
100
AcDbCircle
 10
1.188423791966354
 20
2.90136510238546
 30
0.0
 40
0.00724796186625
  0
LINE
  5
610
330
1F
100
AcDbEntity
  8
4
100
AcDbLine
 10
1.188423791966354
 20
2.890033866838581
 30
0.0
 11
1.140996352862734
 21
2.890033866838581
 31
0.0
  0
ARC
  5
611
330
1F
100
AcDbEntity
  8
4
100
AcDbCircle
 10
1.235851231069974
 20
2.916473416447956
 30
0.0
 40
0.026439549609375
100
AcDbArc
 50
270.0
 51
356.4236656250018
  0
ARC
  5
612
330
1F
100
AcDbEntity
  8
4
100
AcDbCircle
 10
1.139990590569468
 20
3.073851687932331
 30
0.0
 40
0.02014441875
100
AcDbArc
 50
90.0
 51
183.5763343749982
  0
LINE
  5
613
330
1F
100
AcDbEntity
  8
4
100
AcDbLine
 10
1.119885401493992
 20
3.072595113615116
 30
0.0
 11
1.128395085905679
 21
2.936440163028152
 31
0.0
  0
ARC
  5
614
330
1F
100
AcDbEntity
  8
4
100
AcDbCircle
 10
1.134315146240957
 20
3.083923897307331
 30
0.0
 40
0.030216628125
100
AcDbArc
 50
90.0
 51
183.5763343749982
  0
LINE
  5
615
330
1F
100
AcDbEntity
  8
4
100
AcDbLine
 10
1.256962182438715
 20
3.072595113615116
 30
0.0
 11
1.24845249802703
 21
2.936459131702615
 31
0.0
  0
LINE
  5
616
330
1F
100
AcDbEntity
  8
4
100
AcDbLine
 10
1.188423791966354
 20
2.917571287269831
 30
0.0
 11
1.228347308951554
 21
2.917571287269834
 31
0.0
  0
CIRCLE
  5
617
330
1F
100
AcDbEntity
  8
4
100
AcDbCircle
 10
1.188423791966354
 20
2.95238587897452
 30
0.0
 40
0.0043914832875
  0
CIRCLE
  5
618
330
1F
100
AcDbEntity
  8
4
100
AcDbCircle
 10
1.188423791966354
 20
2.996421578362019
 30
0.0
 40
0.0132197748046875
  0
LINE
  5
619
330
1F
100
AcDbEntity
  8
4
100
AcDbLine
 10
1.188423791966354
 20
2.917571287269831
 30
0.0
 11
1.148500274981155
 21
2.917571287269834
 31
0.0
  0
LINE
  5
61A
330
1F
100
AcDbEntity
  8
4
100
AcDbLine
 10
1.188423791966354
 20
3.11414052543233
 30
0.0
 11
1.242532437691752
 21
3.11414052543233
 31
0.0
  0
LINE
  5
61B
330
1F
100
AcDbEntity
  8
4
100
AcDbLine
 10
1.188423791966354
 20
3.093996106682331
 30
0.0
 11
1.236856993363239
 21
3.093996106682331
 31
0.0
  0
LINE
  5
61C
330
1F
100
AcDbEntity
  8
4
100
AcDbLine
 10
1.188423791966354
 20
3.11414052543233
 30
0.0
 11
1.134315146240957
 21
3.11414052543233
 31
0.0
  0
CIRCLE
  5
61D
330
1F
100
AcDbEntity
  8
4
100
AcDbCircle
 10
1.188423791966354
 20
3.040457277749522
 30
0.0
 40
0.0043914832875
  0
ARC
  5
61E
330
1F
100
AcDbEntity
  8
4
 62
   130
100
AcDbCircle
 10
1.141079031828062
 20
3.074344322379764
 30
0.0
 40
0.00628505865
100
AcDbArc
 50
45.0
 51
225.0
  0
LINE
  5
61F
330
1F
100
AcDbEntity
  8
4
100
AcDbLine
 10
1.147360717917599
 20
3.071653626205041
 30
0.0
 11
1.143799654142301
 21
3.068092562429745
 31
0.0
  0
LINE
  5
620
330
1F
100
AcDbEntity
  8
4
100
AcDbLine
 10
1.142004877999553
 20
3.077009466123084
 30
0.0
 11
1.138443814224255
 21
3.073448402347787
 31
0.0
  0
LINE
  5
621
330
1F
100
AcDbEntity
  8
4
100
AcDbLine
 10
1.159781708365833
 20
3.059232635756805
 30
0.0
 11
1.156220644590537
 21
3.055671571981508
 31
0.0
  0
LINE
  5
622
330
1F
100
AcDbEntity
  8
4
100
AcDbLine
 10
1.161576484508583
 20
3.050315732063461
 30
0.0
 11
1.165137548283879
 21
3.053876795838758
 31
0.0
  0
ARC
  5
623
330
1F
100
AcDbEntity
  8
4
 62
   130
100
AcDbCircle
 10
1.162472404540562
 20
3.052950949667266
 30
0.0
 40
0.00628505865
100
AcDbArc
 50
225.0
 51
45.0
  0
LINE
  5
624
330
1F
100
AcDbEntity
  8
4
 62
   130
100
AcDbLine
 10
1.13663482423649
 20
3.069900114788195
 30
0.0
 11
1.158028196948992
 21
3.048506742075692
 31
0.0
  0
LINE
  5
625
330
1F
100
AcDbEntity
  8
4
100
AcDbLine
 10
1.138443814224255
 20
3.073448402347787
 30
0.0
 11
1.161576484508583
 21
3.050315732063461
 31
0.0
  0
LINE
  5
626
330
1F
100
AcDbEntity
  8
4
 62
   130
100
AcDbLine
 10
1.14552323941963
 20
3.078788529971333
 30
0.0
 11
1.166916612132133
 21
3.057395157258834
 31
0.0
  0
LINE
  5
627
330
1F
100
AcDbEntity
  8
4
100
AcDbLine
 10
1.142004877999553
 20
3.077009466123084
 30
0.0
 11
1.165137548283879
 21
3.053876795838758
 31
0.0
  0
LINE
  5
628
330
1F
100
AcDbEntity
  8
4
100
AcDbLine
 10
1.188423791966354
 20
3.093996106682331
 30
0.0
 11
1.139990590569468
 21
3.093996106682331
 31
0.0
  0
ARC
  5
629
330
1F
100
AcDbEntity
  8
4
100
AcDbCircle
 10
1.236856993363239
 20
3.073851687932331
 30
0.0
 40
0.02014441875
100
AcDbArc
 50
356.4236656250018
 51
90.0
  0
ARC
  5
62A
330
1F
100
AcDbEntity
  8
4
100
AcDbCircle
 10
1.242532437691752
 20
3.083923897307331
 30
0.0
 40
0.030216628125
100
AcDbArc
 50
356.4236656250018
 51
90.0
  0
LINE
  5
62B
330
1F
100
AcDbEntity
  8
4
100
AcDbLine
 10
1.203791080468405
 20
3.262354161851439
 30
0.0
 11
1.216434420933434
 21
3.234545960093584
 31
0.0
  0
LINE
  5
62C
330
1F
100
AcDbEntity
  8
4
100
AcDbLine
 10
1.199312738863054
 20
3.262354161851439
 30
0.0
 11
1.186669398398024
 21
3.234545960093584
 31
0.0
  0
LINE
  5
62D
330
1F
100
AcDbEntity
  8
4
100
AcDbLine
 10
1.203791080468405
 20
3.204653359514786
 30
0.0
 11
1.216434420933434
 21
3.232461561272641
 31
0.0
  0
LINE
  5
62E
330
1F
100
AcDbEntity
  8
4
100
AcDbLine
 10
1.199312738863054
 20
3.204653359514786
 30
0.0
 11
1.186669398398024
 21
3.232461561272641
 31
0.0
  0
ARC
  5
62F
330
1F
100
AcDbEntity
  8
4
100
AcDbCircle
 10
1.188961647946979
 20
3.233503760683113
 30
0.0
 40
0.00251805234375
100
AcDbArc
 50
155.5504979363151
 51
204.4495020636847
  0
ARC
  5
630
330
1F
100
AcDbEntity
  8
4
100
AcDbCircle
 10
1.20155190966573
 20
3.205805184901863
 30
0.0
 40
0.00251805234375
100
AcDbArc
 50
201.6777967963419
 51
338.322203203658
  0
ARC
  5
631
330
1F
100
AcDbEntity
  8
4
100
AcDbCircle
 10
1.214142171384479
 20
3.233503760683113
 30
0.0
 40
0.00251805234375
100
AcDbArc
 50
335.5504979363153
 51
24.44950206368473
  0
ARC
  5
632
330
1F
100
AcDbEntity
  8
4
100
AcDbCircle
 10
1.191479700290728
 20
3.283864807558113
 30
0.0
 40
0.00251805234375
100
AcDbArc
 50
335.5504979363153
 51
24.44950206368473
  0
ARC
  5
633
330
1F
100
AcDbEntity
  8
4
100
AcDbCircle
 10
1.178889438571981
 20
3.311563383339362
 30
0.0
 40
0.00251805234375
100
AcDbArc
 50
21.67779679634199
 51
158.3222032036579
  0
ARC
  5
634
330
1F
100
AcDbEntity
  8
4
100
AcDbCircle
 10
1.166299176853228
 20
3.283864807558113
 30
0.0
 40
0.00251805234375
100
AcDbArc
 50
155.5504979363151
 51
204.4495020636847
  0
LINE
  5
635
330
1F
100
AcDbEntity
  8
4
100
AcDbLine
 10
1.176650267769304
 20
3.312715208726439
 30
0.0
 11
1.164006927304273
 21
3.284907006968583
 31
0.0
  0
LINE
  5
636
330
1F
100
AcDbEntity
  8
4
100
AcDbLine
 10
1.181128609374655
 20
3.312715208726439
 30
0.0
 11
1.193771949839685
 21
3.284907006968583
 31
0.0
  0
ARC
  5
637
330
1F
100
AcDbEntity
  8
4
100
AcDbCircle
 10
1.20155190966573
 20
3.261202336464363
 30
0.0
 40
0.00251805234375
100
AcDbArc
 50
21.67779679634199
 51
158.3222032036579
  0
ARC
  5
638
330
1F
100
AcDbEntity
  8
4
100
AcDbCircle
 10
1.178889438571981
 20
3.256166231776863
 30
0.0
 40
0.00251805234375
100
AcDbArc
 50
201.6777967963419
 51
338.322203203658
  0
LINE
  5
639
330
1F
100
AcDbEntity
  8
4
100
AcDbLine
 10
1.176650267769303
 20
3.255014406389787
 30
0.0
 11
1.164006927304273
 21
3.282822608147642
 31
0.0
  0
LINE
  5
63A
330
1F
100
AcDbEntity
  8
4
100
AcDbLine
 10
1.181128609374654
 20
3.255014406389787
 30
0.0
 11
1.193771949839685
 21
3.282822608147642
 31
0.0
  0
LINE
  5
63B
330
1F
100
AcDbEntity
  8
4
100
AcDbLine
 10
1.320900421554305
 20
2.786205560814828
 30
0.0
 11
1.308257081089275
 21
2.758397359056973
 31
0.0
  0
ARC
  5
63C
330
1F
100
AcDbEntity
  8
4
100
AcDbCircle
 10
1.310549330638228
 20
2.757355159646502
 30
0.0
 40
0.00251805234375
100
AcDbArc
 50
155.5504979363151
 51
204.4495020636847
  0
ARC
  5
63D
330
1F
100
AcDbEntity
  8
4
100
AcDbCircle
 10
1.335729854075728
 20
2.757355159646502
 30
0.0
 40
0.00251805234375
100
AcDbArc
 50
335.5504979363153
 51
24.44950206368473
  0
LINE
  5
63E
330
1F
100
AcDbEntity
  8
4
100
AcDbLine
 10
1.325378763159654
 20
2.786205560814828
 30
0.0
 11
1.338022103624683
 21
2.758397359056973
 31
0.0
  0
ARC
  5
63F
330
1F
100
AcDbEntity
  8
4
100
AcDbCircle
 10
1.323139592356979
 20
2.785053735427752
 30
0.0
 40
0.00251805234375
100
AcDbArc
 50
21.67779679634199
 51
158.3222032036579
  0
ARC
  5
640
330
1F
100
AcDbEntity
  8
4
100
AcDbCircle
 10
1.35839232516948
 20
2.706994112771501
 30
0.0
 40
0.00251805234375
100
AcDbArc
 50
335.5504979363153
 51
24.44950206368473
  0
LINE
  5
641
330
1F
100
AcDbEntity
  8
4
100
AcDbLine
 10
1.348041234253403
 20
2.735844513939828
 30
0.0
 11
1.360684574718434
 21
2.708036312181973
 31
0.0
  0
ARC
  5
642
330
1F
100
AcDbEntity
  8
4
100
AcDbCircle
 10
1.323139592356979
 20
2.729656583865252
 30
0.0
 40
0.00251805234375
100
AcDbArc
 50
201.6777967963419
 51
338.322203203658
  0
ARC
  5
643
330
1F
100
AcDbEntity
  8
4
100
AcDbCircle
 10
1.333211801731979
 20
2.706994112771501
 30
0.0
 40
0.00251805234375
100
AcDbArc
 50
155.5504979363151
 51
204.4495020636847
  0
LINE
  5
644
330
1F
100
AcDbEntity
  8
4
100
AcDbLine
 10
1.343562892648054
 20
2.735844513939828
 30
0.0
 11
1.330919552183025
 21
2.708036312181973
 31
0.0
  0
ARC
  5
645
330
1F
100
AcDbEntity
  8
4
100
AcDbCircle
 10
1.345802063450729
 20
2.734692688552752
 30
0.0
 40
0.00251805234375
100
AcDbArc
 50
21.67779679634199
 51
158.3222032036579
  0
LINE
  5
646
330
1F
100
AcDbEntity
  8
4
100
AcDbLine
 10
1.325378763159654
 20
2.728504758478175
 30
0.0
 11
1.338022103624683
 21
2.756312960236031
 31
0.0
  0
LINE
  5
647
330
1F
100
AcDbEntity
  8
4
100
AcDbLine
 10
1.320900421554305
 20
2.728504758478175
 30
0.0
 11
1.308257081089275
 21
2.756312960236031
 31
0.0
  0
LINE
  5
648
330
1F
100
AcDbEntity
  8
4
100
AcDbLine
 10
1.524072185130417
 20
3.03889608529639
 30
0.0
 11
1.524072185130417
 21
2.957688897210453
 31
0.0
  0
LINE
  5
649
330
1F
100
AcDbEntity
  8
4
100
AcDbLine
 10
1.524072185130417
 20
2.957688897210453
 30
0.0
 11
1.530996829075729
 21
2.957688897210453
 31
0.0
  0
LINE
  5
64A
330
1F
100
AcDbEntity
  8
4
100
AcDbLine
 10
1.540079766081055
 20
2.996721730201396
 30
0.0
 11
1.516190868118921
 21
2.996721730201396
 31
0.0
  0
LINE
  5
64B
330
1F
100
AcDbEntity
  8
4
100
AcDbLine
 10
1.524072185130417
 20
3.03889608529639
 30
0.0
 11
1.530996829075729
 21
3.03889608529639
 31
0.0
  0
LINE
  5
64C
330
1F
100
AcDbEntity
  8
4
100
AcDbLine
 10
1.335287565425555
 20
3.262354161851439
 30
0.0
 11
1.322644224960526
 21
3.234545960093584
 31
0.0
  0
LINE
  5
64D
330
1F
100
AcDbEntity
  8
4
100
AcDbLine
 10
1.339765907030904
 20
3.262354161851439
 30
0.0
 11
1.352409247495933
 21
3.234545960093584
 31
0.0
  0
ARC
  5
64E
330
1F
100
AcDbEntity
  8
4
100
AcDbCircle
 10
1.350116997946979
 20
3.233503760683113
 30
0.0
 40
0.00251805234375
100
AcDbArc
 50
335.5504979363153
 51
24.44950206368473
  0
ARC
  5
64F
330
1F
100
AcDbEntity
  8
4
100
AcDbCircle
 10
1.337526736228229
 20
3.205805184901863
 30
0.0
 40
0.00251805234375
100
AcDbArc
 50
201.6777967963419
 51
338.322203203658
  0
ARC
  5
650
330
1F
100
AcDbEntity
  8
4
100
AcDbCircle
 10
1.32493647450948
 20
3.233503760683113
 30
0.0
 40
0.00251805234375
100
AcDbArc
 50
155.5504979363151
 51
204.4495020636847
  0
LINE
  5
651
330
1F
100
AcDbEntity
  8
4
100
AcDbLine
 10
1.335287565425555
 20
3.204653359514786
 30
0.0
 11
1.322644224960526
 21
3.232461561272641
 31
0.0
  0
LINE
  5
652
330
1F
100
AcDbEntity
  8
4
100
AcDbLine
 10
1.339765907030904
 20
3.204653359514786
 30
0.0
 11
1.352409247495933
 21
3.232461561272641
 31
0.0
  0
LINE
  5
653
330
1F
100
AcDbEntity
  8
4
100
AcDbLine
 10
1.312625094331804
 20
3.312715208726439
 30
0.0
 11
1.299981753866775
 21
3.284907006968583
 31
0.0
  0
ARC
  5
654
330
1F
100
AcDbEntity
  8
4
100
AcDbCircle
 10
1.302274003415729
 20
3.283864807558113
 30
0.0
 40
0.00251805234375
100
AcDbArc
 50
155.5504979363151
 51
204.4495020636847
  0
ARC
  5
655
330
1F
100
AcDbEntity
  8
4
100
AcDbCircle
 10
1.327454526853229
 20
3.283864807558113
 30
0.0
 40
0.00251805234375
100
AcDbArc
 50
335.5504979363153
 51
24.44950206368473
  0
ARC
  5
656
330
1F
100
AcDbEntity
  8
4
100
AcDbCircle
 10
1.31486426513448
 20
3.311563383339362
 30
0.0
 40
0.00251805234375
100
AcDbArc
 50
21.67779679634199
 51
158.3222032036579
  0
LINE
  5
657
330
1F
100
AcDbEntity
  8
4
100
AcDbLine
 10
1.317103435937155
 20
3.312715208726439
 30
0.0
 11
1.329746776402184
 21
3.284907006968583
 31
0.0
  0
ARC
  5
658
330
1F
100
AcDbEntity
  8
4
100
AcDbCircle
 10
1.31486426513448
 20
3.256166231776863
 30
0.0
 40
0.00251805234375
100
AcDbArc
 50
201.6777967963419
 51
338.322203203658
  0
ARC
  5
659
330
1F
100
AcDbEntity
  8
4
100
AcDbCircle
 10
1.337526736228229
 20
3.261202336464363
 30
0.0
 40
0.00251805234375
100
AcDbArc
 50
21.67779679634199
 51
158.3222032036579
  0
LINE
  5
65A
330
1F
100
AcDbEntity
  8
4
100
AcDbLine
 10
1.312625094331804
 20
3.255014406389787
 30
0.0
 11
1.299981753866775
 21
3.282822608147642
 31
0.0
  0
LINE
  5
65B
330
1F
100
AcDbEntity
  8
4
100
AcDbLine
 10
1.317103435937155
 20
3.255014406389787
 30
0.0
 11
1.329746776402184
 21
3.282822608147642
 31
0.0
  0
LINE
  5
65C
330
1F
100
AcDbEntity
  8
4
100
AcDbLine
 10
1.68699682907573
 20
4.003365996915924
 30
0.0
 11
2.18799682907573
 21
4.003365996915924
 31
0.0
  0
LINE
  5
65D
330
1F
100
AcDbEntity
  8
4
100
AcDbLine
 10
1.68699682907573
 20
3.941365996915924
 30
0.0
 11
2.18799682907573
 21
3.941365996915924
 31
0.0
  0
ARC
  5
65E
330
1F
100
AcDbEntity
  8
4
100
AcDbCircle
 10
1.291663938060104
 20
4.096792826214363
 30
0.0
 40
0.2820218625
100
AcDbArc
 50
81.40466153831992
 51
98.5953384616797
  0
ARC
  5
65F
330
1F
100
AcDbEntity
  8
4
100
AcDbCircle
 10
1.291663938060104
 20
4.619288687542489
 30
0.0
 40
0.2820218625
100
AcDbArc
 50
261.40466153832
 51
278.5953384616799
  0
LINE
  5
660
330
1F
100
AcDbEntity
  8
4
100
AcDbLine
 10
1.530996829075729
 20
4.403365699065926
 30
0.0
 11
1.09399682907573
 21
4.403365699065926
 31
0.0
  0
LINE
  5
661
330
1F
100
AcDbEntity
  8
2
100
AcDbLine
 10
1.25687685185323
 20
4.321302373183112
 30
0.0
 11
1.31486426513448
 21
4.321302373183112
 31
0.0
  0
LINE
  5
662
330
1F
100
AcDbEntity
  8
4
100
AcDbLine
 10
1.176650267769304
 20
4.319936146226439
 30
0.0
 11
1.164006927304273
 21
4.292127944468584
 31
0.0
  0
LINE
  5
663
330
1F
100
AcDbEntity
  8
4
100
AcDbLine
 10
1.181128609374655
 20
4.319936146226439
 30
0.0
 11
1.193771949839685
 21
4.292127944468584
 31
0.0
  0
LINE
  5
664
330
1F
100
AcDbEntity
  8
4
100
AcDbLine
 10
1.203791080468405
 20
4.26957509935144
 30
0.0
 11
1.216434420933434
 21
4.241766897593585
 31
0.0
  0
LINE
  5
665
330
1F
100
AcDbEntity
  8
4
100
AcDbLine
 10
1.203791080468405
 20
4.211874297014787
 30
0.0
 11
1.216434420933434
 21
4.239682498772642
 31
0.0
  0
LINE
  5
666
330
1F
100
AcDbEntity
  8
4
100
AcDbLine
 10
1.199312738863054
 20
4.26957509935144
 30
0.0
 11
1.186669398398024
 21
4.241766897593585
 31
0.0
  0
LINE
  5
667
330
1F
100
AcDbEntity
  8
4
100
AcDbLine
 10
1.199312738863054
 20
4.211874297014787
 30
0.0
 11
1.186669398398024
 21
4.239682498772642
 31
0.0
  0
ARC
  5
668
330
1F
100
AcDbEntity
  8
4
100
AcDbCircle
 10
1.188961647946979
 20
4.240724698183113
 30
0.0
 40
0.00251805234375
100
AcDbArc
 50
155.5504979363151
 51
204.4495020636847
  0
ARC
  5
669
330
1F
100
AcDbEntity
  8
4
100
AcDbCircle
 10
1.191479700290728
 20
4.291085745058113
 30
0.0
 40
0.00251805234375
100
AcDbArc
 50
335.5504979363153
 51
24.44950206368473
  0
ARC
  5
66A
330
1F
100
AcDbEntity
  8
4
100
AcDbCircle
 10
1.20155190966573
 20
4.268423273964364
 30
0.0
 40
0.00251805234375
100
AcDbArc
 50
21.67779679634199
 51
158.3222032036579
  0
ARC
  5
66B
330
1F
100
AcDbEntity
  8
4
100
AcDbCircle
 10
1.20155190966573
 20
4.213026122401863
 30
0.0
 40
0.00251805234375
100
AcDbArc
 50
201.6777967963419
 51
338.322203203658
  0
ARC
  5
66C
330
1F
100
AcDbEntity
  8
4
100
AcDbCircle
 10
1.166299176853228
 20
4.291085745058113
 30
0.0
 40
0.00251805234375
100
AcDbArc
 50
155.5504979363151
 51
204.4495020636847
  0
ARC
  5
66D
330
1F
100
AcDbEntity
  8
4
100
AcDbCircle
 10
1.178889438571981
 20
4.263387169276864
 30
0.0
 40
0.00251805234375
100
AcDbArc
 50
201.6777967963419
 51
338.322203203658
  0
LINE
  5
66E
330
1F
100
AcDbEntity
  8
4
100
AcDbLine
 10
1.176650267769303
 20
4.262235343889786
 30
0.0
 11
1.164006927304273
 21
4.290043545647643
 31
0.0
  0
LINE
  5
66F
330
1F
100
AcDbEntity
  8
4
100
AcDbLine
 10
1.181128609374654
 20
4.262235343889786
 30
0.0
 11
1.193771949839685
 21
4.290043545647643
 31
0.0
  0
ARC
  5
670
330
1F
100
AcDbEntity
  8
4
100
AcDbCircle
 10
1.214142171384479
 20
4.240724698183113
 30
0.0
 40
0.00251805234375
100
AcDbArc
 50
335.5504979363153
 51
24.44950206368473
  0
LINE
  5
671
330
1F
100
AcDbEntity
  8
2
100
AcDbLine
 10
1.178889438571981
 20
4.321302373183112
 30
0.0
 11
1.236876851853231
 21
4.321302373183112
 31
0.0
  0
ARC
  5
672
330
1F
100
AcDbEntity
  8
4
100
AcDbCircle
 10
1.178889438571981
 20
4.318784320839363
 30
0.0
 40
0.00251805234375
100
AcDbArc
 50
21.67779679634199
 51
158.3222032036579
  0
ARC
  5
673
330
1F
100
AcDbEntity
  8
4
100
AcDbCircle
 10
1.329434723216354
 20
4.358040756878425
 30
0.0
 40
0.081836701171875
100
AcDbArc
 50
167.5762104955835
 51
192.4237895044164
  0
CIRCLE
  5
674
330
1F
100
AcDbEntity
  8
4
100
AcDbCircle
 10
1.253893152903855
 20
4.358040756878425
 30
0.0
 40
0.00273964095
  0
LINE
  5
679
330
1F
100
AcDbEntity
  8
4
100
AcDbLine
 10
1.524072185130417
 20
4.166983535296399
 30
0.0
 11
1.524072185130417
 21
4.085776347210462
 31
0.0
  0
LINE
  5
67A
330
1F
100
AcDbEntity
  8
4
100
AcDbLine
 10
1.524072185130417
 20
4.085776347210462
 30
0.0
 11
1.530996829075729
 21
4.085776347210462
 31
0.0
  0
LINE
  5
67B
330
1F
100
AcDbEntity
  8
4
100
AcDbLine
 10
1.530996829075729
 20
4.166983535296399
 30
0.0
 11
1.524072185130417
 21
4.166983535296399
 31
0.0
  0
LINE
  5
67C
330
1F
100
AcDbEntity
  8
4
100
AcDbLine
 10
1.536793061967165
 20
4.124809180201397
 30
0.0
 11
1.515653764043592
 21
4.124809180201397
 31
0.0
  0
LINE
  5
67D
330
1F
100
AcDbEntity
  8
4
  6
HIDDEN
100
AcDbLine
 10
1.505093121005102
 20
4.399246165431563
 30
0.0
 11
1.390101654723856
 21
4.399246165431554
 31
0.0
  0
LINE
  5
67E
330
1F
100
AcDbEntity
  8
4
100
AcDbLine
 10
1.312625094331804
 20
4.319936146226439
 30
0.0
 11
1.299981753866775
 21
4.292127944468584
 31
0.0
  0
LINE
  5
67F
330
1F
100
AcDbEntity
  8
4
100
AcDbLine
 10
1.317103435937155
 20
4.319936146226439
 30
0.0
 11
1.329746776402184
 21
4.292127944468584
 31
0.0
  0
ARC
  5
680
330
1F
100
AcDbEntity
  8
4
100
AcDbCircle
 10
1.350116997946979
 20
4.240724698183113
 30
0.0
 40
0.00251805234375
100
AcDbArc
 50
335.5504979363153
 51
24.44950206368473
  0
LINE
  5
681
330
1F
100
AcDbEntity
  8
4
100
AcDbLine
 10
1.312625094331804
 20
4.262235343889786
 30
0.0
 11
1.299981753866775
 21
4.290043545647643
 31
0.0
  0
ARC
  5
682
330
1F
100
AcDbEntity
  8
4
100
AcDbCircle
 10
1.302274003415729
 20
4.291085745058113
 30
0.0
 40
0.00251805234375
100
AcDbArc
 50
155.5504979363151
 51
204.4495020636847
  0
ARC
  5
683
330
1F
100
AcDbEntity
  8
4
100
AcDbCircle
 10
1.327454526853229
 20
4.291085745058113
 30
0.0
 40
0.00251805234375
100
AcDbArc
 50
335.5504979363153
 51
24.44950206368473
  0
ARC
  5
684
330
1F
100
AcDbEntity
  8
4
100
AcDbCircle
 10
1.337526736228229
 20
4.268423273964364
 30
0.0
 40
0.00251805234375
100
AcDbArc
 50
21.67779679634199
 51
158.3222032036579
  0
ARC
  5
685
330
1F
100
AcDbEntity
  8
4
100
AcDbCircle
 10
1.32493647450948
 20
4.240724698183113
 30
0.0
 40
0.00251805234375
100
AcDbArc
 50
155.5504979363151
 51
204.4495020636847
  0
LINE
  5
686
330
1F
100
AcDbEntity
  8
4
100
AcDbLine
 10
1.335287565425555
 20
4.26957509935144
 30
0.0
 11
1.322644224960526
 21
4.241766897593585
 31
0.0
  0
ARC
  5
687
330
1F
100
AcDbEntity
  8
4
100
AcDbCircle
 10
1.31486426513448
 20
4.263387169276864
 30
0.0
 40
0.00251805234375
100
AcDbArc
 50
201.6777967963419
 51
338.322203203658
  0
LINE
  5
688
330
1F
100
AcDbEntity
  8
4
100
AcDbLine
 10
1.317103435937155
 20
4.262235343889786
 30
0.0
 11
1.329746776402184
 21
4.290043545647643
 31
0.0
  0
ARC
  5
689
330
1F
100
AcDbEntity
  8
4
100
AcDbCircle
 10
1.337526736228229
 20
4.213026122401863
 30
0.0
 40
0.00251805234375
100
AcDbArc
 50
201.6777967963419
 51
338.322203203658
  0
LINE
  5
68A
330
1F
100
AcDbEntity
  8
4
100
AcDbLine
 10
1.335287565425555
 20
4.211874297014787
 30
0.0
 11
1.322644224960526
 21
4.239682498772642
 31
0.0
  0
LINE
  5
68B
330
1F
100
AcDbEntity
  8
4
100
AcDbLine
 10
1.339765907030904
 20
4.26957509935144
 30
0.0
 11
1.352409247495933
 21
4.241766897593585
 31
0.0
  0
LINE
  5
68C
330
1F
100
AcDbEntity
  8
4
100
AcDbLine
 10
1.339765907030904
 20
4.211874297014787
 30
0.0
 11
1.352409247495933
 21
4.239682498772642
 31
0.0
  0
CIRCLE
  5
68D
330
1F
100
AcDbEntity
  8
4
100
AcDbCircle
 10
1.329434723216354
 20
4.358040756878425
 30
0.0
 40
0.00273964095
  0
ARC
  5
68E
330
1F
100
AcDbEntity
  8
4
100
AcDbCircle
 10
1.253893152903855
 20
4.358040756878425
 30
0.0
 40
0.081836701171875
100
AcDbArc
 50
347.5762104955836
 51
12.42378950441644
  0
ARC
  5
68F
330
1F
100
AcDbEntity
  8
4
100
AcDbCircle
 10
1.31486426513448
 20
4.318784320839363
 30
0.0
 40
0.00251805234375
100
AcDbArc
 50
21.67779679634199
 51
158.3222032036579
  0
LINE
  5
690
330
1F
100
AcDbEntity
  8
4
100
AcDbLine
 10
2.62499682907573
 20
4.003365996915924
 30
0.0
 11
2.812996829075729
 21
4.003365996915924
 31
0.0
  0
LINE
  5
691
330
1F
100
AcDbEntity
  8
4
100
AcDbLine
 10
2.62499682907573
 20
3.941365996915924
 30
0.0
 11
2.812996829075729
 21
3.941365996915924
 31
0.0
  0
LINE
  5
693
330
1F
100
AcDbEntity
  8
4
100
AcDbLine
 10
2.31199682907573
 20
3.941365996915924
 30
0.0
 11
2.49999682907573
 21
3.941365996915924
 31
0.0
  0
LINE
  5
695
330
1F
100
AcDbEntity
  8
4
100
AcDbLine
 10
2.31199682907573
 20
4.003365996915924
 30
0.0
 11
2.49999682907573
 21
4.003365996915924
 31
0.0
  0
LINE
  5
69F
330
1F
100
AcDbEntity
  8
2
100
AcDbLine
 10
5.264432332246602
 20
4.346284231620924
 30
0.0
 11
5.264432332246602
 21
1.748853625055708
 31
0.0
  0
LINE
  5
6A0
330
1F
100
AcDbEntity
  8
2
100
AcDbLine
 10
5.576932332246602
 20
4.288284231620924
 30
0.0
 11
5.576932332246602
 21
1.690853625055708
 31
0.0
  0
LINE
  5
6A1
330
1F
100
AcDbEntity
  8
4
100
AcDbLine
 10
7.659496829075731
 20
4.403365996915924
 30
0.0
 11
7.659496829075731
 21
1.591365996915924
 31
0.0
  0
LINE
  5
6A2
330
1F
100
AcDbEntity
  8
4
100
AcDbLine
 10
6.375496829075729
 20
4.403365996915924
 30
0.0
 11
6.375496829075729
 21
1.591365996915924
 31
0.0
  0
LINE
  5
6A3
330
1F
100
AcDbEntity
  8
4
100
AcDbLine
 10
5.06549682907573
 20
4.403365996915924
 30
0.0
 11
5.06549682907573
 21
1.591365996915924
 31
0.0
  0
LINE
  5
6A4
330
1F
100
AcDbEntity
  8
4
100
AcDbLine
 10
4.81249682907573
 20
4.497365996915924
 30
0.0
 11
4.81249682907573
 21
1.559365996915924
 31
0.0
  0
TEXT
  5
6A5
330
1F
100
AcDbEntity
  8
8
100
AcDbText
 10
4.750496829075729
 20
1.688661337841248
 30
0.0
 40
0.07
  1
1
 50
90.0
 72
     1
 11
4.750496829075729
 21
1.700328004507914
 31
0.0
100
AcDbText
  0
LINE
  5
6A6
330
1F
100
AcDbEntity
  8
2
100
AcDbLine
 10
5.308182332246601
 20
1.653353625055709
 30
0.0
 11
5.558182332246601
 21
1.653353625055709
 31
0.0
  0
LINE
  5
6A7
330
1F
100
AcDbEntity
  8
4
100
AcDbLine
 10
4.832496829075729
 20
1.372365996915922
 30
0.0
 11
4.81249682907573
 21
1.497365996915922
 31
0.0
  0
LINE
  5
6A8
330
1F
100
AcDbEntity
  8
4
100
AcDbLine
 10
4.81249682907573
 20
1.497365996915922
 30
0.0
 11
4.792496829075729
 21
1.372365996915922
 31
0.0
  0
LINE
  5
6A9
330
1F
100
AcDbEntity
  8
4
100
AcDbLine
 10
4.822496829075729
 20
1.372365996915922
 30
0.0
 11
4.81249682907573
 21
1.497365996915922
 31
0.0
  0
LINE
  5
6AA
330
1F
100
AcDbEntity
  8
4
100
AcDbLine
 10
4.802496829075729
 20
1.372365996915922
 30
0.0
 11
4.81249682907573
 21
1.497365996915922
 31
0.0
  0
LINE
  5
6AB
330
1F
100
AcDbEntity
  8
4
100
AcDbLine
 10
4.81249682907573
 20
1.497365996915923
 30
0.0
 11
4.81249682907573
 21
1.372365996915923
 31
0.0
  0
LINE
  5
6AC
330
1F
100
AcDbEntity
  8
4
100
AcDbLine
 10
4.832496829075729
 20
1.372365996915922
 30
0.0
 11
4.792496829075729
 21
1.372365996915922
 31
0.0
  0
LINE
  5
6AD
330
1F
100
AcDbEntity
  8
4
100
AcDbLine
 10
4.79249682907573
 20
1.684365996915925
 30
0.0
 11
4.81249682907573
 21
1.559365996915925
 31
0.0
  0
LINE
  5
6AE
330
1F
100
AcDbEntity
  8
4
100
AcDbLine
 10
4.81249682907573
 20
1.559365996915925
 30
0.0
 11
4.83249682907573
 21
1.684365996915925
 31
0.0
  0
LINE
  5
6AF
330
1F
100
AcDbEntity
  8
4
100
AcDbLine
 10
4.802496829075731
 20
1.684365996915925
 30
0.0
 11
4.81249682907573
 21
1.559365996915925
 31
0.0
  0
LINE
  5
6B0
330
1F
100
AcDbEntity
  8
4
100
AcDbLine
 10
4.82249682907573
 20
1.684365996915925
 30
0.0
 11
4.81249682907573
 21
1.559365996915925
 31
0.0
  0
LINE
  5
6B1
330
1F
100
AcDbEntity
  8
4
100
AcDbLine
 10
5.00249682907573
 20
1.559365996915924
 30
0.0
 11
4.81249682907573
 21
1.559365996915924
 31
0.0
  0
LINE
  5
6B2
330
1F
100
AcDbEntity
  8
4
100
AcDbLine
 10
4.81249682907573
 20
1.559365996915924
 30
0.0
 11
4.750496829075729
 21
1.559365996915924
 31
0.0
  0
LINE
  5
6B3
330
1F
100
AcDbEntity
  8
4
100
AcDbLine
 10
4.79249682907573
 20
1.684365996915925
 30
0.0
 11
4.83249682907573
 21
1.684365996915925
 31
0.0
  0
LINE
  5
6B4
330
1F
100
AcDbEntity
  8
4
100
AcDbLine
 10
5.06549682907573
 20
1.591365996915924
 30
0.0
 11
5.12749682907573
 21
1.591365996915924
 31
0.0
  0
LINE
  5
6B5
330
1F
100
AcDbEntity
  8
4
100
AcDbLine
 10
5.264432332246602
 20
1.748853625055708
 30
0.0
 11
5.283182332246601
 21
1.711353625055708
 31
0.0
  0
LINE
  5
6B6
330
1F
100
AcDbEntity
  8
4
100
AcDbLine
 10
5.283182332246601
 20
1.711353625055708
 30
0.0
 11
5.301932332246601
 21
1.748853625055708
 31
0.0
  0
LINE
  5
6B7
330
1F
100
AcDbEntity
  8
4
100
AcDbLine
 10
5.308182332246601
 20
1.653353625055709
 30
0.0
 11
5.326932332246602
 21
1.690853625055708
 31
0.0
  0
LINE
  5
6B8
330
1F
100
AcDbEntity
  8
4
100
AcDbLine
 10
5.308182332246601
 20
1.728353625055708
 30
0.0
 11
5.326932332246602
 21
1.690853625055708
 31
0.0
  0
LINE
  5
6B9
330
1F
100
AcDbEntity
  8
4
100
AcDbLine
 10
5.289432332246601
 20
1.690853625055708
 30
0.0
 11
5.308182332246601
 21
1.653353625055709
 31
0.0
  0
LINE
  5
6BA
330
1F
100
AcDbEntity
  8
4
100
AcDbLine
 10
5.289432332246601
 20
1.690853625055708
 30
0.0
 11
5.308182332246601
 21
1.728353625055708
 31
0.0
  0
LINE
  5
6BB
330
1F
100
AcDbEntity
  8
4
100
AcDbLine
 10
5.264432332246602
 20
1.748853625055708
 30
0.0
 11
5.283182332246601
 21
1.786353625055708
 31
0.0
  0
LINE
  5
6BC
330
1F
100
AcDbEntity
  8
4
100
AcDbLine
 10
5.283182332246601
 20
1.786353625055708
 30
0.0
 11
5.301932332246601
 21
1.748853625055708
 31
0.0
  0
LINE
  5
6BD
330
1F
100
AcDbEntity
  8
4
100
AcDbLine
 10
5.558182332246601
 20
1.653353625055709
 30
0.0
 11
5.576932332246602
 21
1.690853625055708
 31
0.0
  0
LINE
  5
6BE
330
1F
100
AcDbEntity
  8
4
100
AcDbLine
 10
5.558182332246601
 20
1.728353625055708
 30
0.0
 11
5.576932332246602
 21
1.690853625055708
 31
0.0
  0
LINE
  5
6BF
330
1F
100
AcDbEntity
  8
4
100
AcDbLine
 10
5.533182332246601
 20
1.711353625055708
 30
0.0
 11
5.551932332246601
 21
1.748853625055708
 31
0.0
  0
LINE
  5
6C0
330
1F
100
AcDbEntity
  8
4
100
AcDbLine
 10
5.514432332246602
 20
1.748853625055708
 30
0.0
 11
5.533182332246601
 21
1.711353625055708
 31
0.0
  0
LINE
  5
6C1
330
1F
100
AcDbEntity
  8
4
100
AcDbLine
 10
5.539432332246601
 20
1.690853625055708
 30
0.0
 11
5.558182332246601
 21
1.653353625055709
 31
0.0
  0
LINE
  5
6C2
330
1F
100
AcDbEntity
  8
4
100
AcDbLine
 10
5.539432332246601
 20
1.690853625055708
 30
0.0
 11
5.558182332246601
 21
1.728353625055708
 31
0.0
  0
LINE
  5
6C3
330
1F
100
AcDbEntity
  8
4
100
AcDbLine
 10
5.533182332246601
 20
1.786353625055708
 30
0.0
 11
5.551932332246601
 21
1.748853625055708
 31
0.0
  0
LINE
  5
6C4
330
1F
100
AcDbEntity
  8
4
100
AcDbLine
 10
5.514432332246602
 20
1.748853625055708
 30
0.0
 11
5.533182332246601
 21
1.786353625055708
 31
0.0
  0
LINE
  5
6C5
330
1F
100
AcDbEntity
  8
2
100
AcDbLine
 10
6.6181823322466
 20
1.653353625055709
 30
0.0
 11
6.8681823322466
 21
1.653353625055709
 31
0.0
  0
LINE
  5
6C6
330
1F
100
AcDbEntity
  8
4
100
AcDbLine
 10
6.375496829075729
 20
1.591365996915924
 30
0.0
 11
6.43749682907573
 21
1.591365996915924
 31
0.0
  0
LINE
  5
6C7
330
1F
100
AcDbEntity
  8
4
100
AcDbLine
 10
6.574432332246601
 20
1.748853625055708
 30
0.0
 11
6.593182332246601
 21
1.786353625055708
 31
0.0
  0
LINE
  5
6C8
330
1F
100
AcDbEntity
  8
4
100
AcDbLine
 10
6.574432332246601
 20
1.748853625055708
 30
0.0
 11
6.593182332246601
 21
1.711353625055708
 31
0.0
  0
LINE
  5
6C9
330
1F
100
AcDbEntity
  8
4
100
AcDbLine
 10
6.593182332246601
 20
1.711353625055708
 30
0.0
 11
6.611932332246601
 21
1.748853625055708
 31
0.0
  0
LINE
  5
6CA
330
1F
100
AcDbEntity
  8
4
100
AcDbLine
 10
6.599432332246601
 20
1.690853625055708
 30
0.0
 11
6.6181823322466
 21
1.653353625055709
 31
0.0
  0
LINE
  5
6CB
330
1F
100
AcDbEntity
  8
4
100
AcDbLine
 10
6.6181823322466
 20
1.653353625055709
 30
0.0
 11
6.636932332246601
 21
1.690853625055708
 31
0.0
  0
LINE
  5
6CC
330
1F
100
AcDbEntity
  8
4
100
AcDbLine
 10
6.6181823322466
 20
1.728353625055708
 30
0.0
 11
6.636932332246601
 21
1.690853625055708
 31
0.0
  0
LINE
  5
6CD
330
1F
100
AcDbEntity
  8
4
100
AcDbLine
 10
6.599432332246601
 20
1.690853625055708
 30
0.0
 11
6.6181823322466
 21
1.728353625055708
 31
0.0
  0
LINE
  5
6CE
330
1F
100
AcDbEntity
  8
4
100
AcDbLine
 10
6.593182332246601
 20
1.786353625055708
 30
0.0
 11
6.611932332246601
 21
1.748853625055708
 31
0.0
  0
LINE
  5
6CF
330
1F
100
AcDbEntity
  8
4
100
AcDbLine
 10
6.843182332246601
 20
1.711353625055708
 30
0.0
 11
6.861932332246601
 21
1.748853625055708
 31
0.0
  0
LINE
  5
6D0
330
1F
100
AcDbEntity
  8
4
100
AcDbLine
 10
6.824432332246601
 20
1.748853625055708
 30
0.0
 11
6.843182332246601
 21
1.711353625055708
 31
0.0
  0
LINE
  5
6D1
330
1F
100
AcDbEntity
  8
4
100
AcDbLine
 10
6.849432332246601
 20
1.690853625055708
 30
0.0
 11
6.8681823322466
 21
1.653353625055709
 31
0.0
  0
LINE
  5
6D2
330
1F
100
AcDbEntity
  8
4
100
AcDbLine
 10
6.8681823322466
 20
1.653353625055709
 30
0.0
 11
6.886932332246601
 21
1.690853625055708
 31
0.0
  0
LINE
  5
6D3
330
1F
100
AcDbEntity
  8
4
100
AcDbLine
 10
6.849432332246601
 20
1.690853625055708
 30
0.0
 11
6.8681823322466
 21
1.728353625055708
 31
0.0
  0
LINE
  5
6D4
330
1F
100
AcDbEntity
  8
4
100
AcDbLine
 10
6.8681823322466
 20
1.728353625055708
 30
0.0
 11
6.886932332246601
 21
1.690853625055708
 31
0.0
  0
LINE
  5
6D5
330
1F
100
AcDbEntity
  8
4
100
AcDbLine
 10
6.843182332246601
 20
1.786353625055708
 30
0.0
 11
6.861932332246601
 21
1.748853625055708
 31
0.0
  0
LINE
  5
6D6
330
1F
100
AcDbEntity
  8
4
100
AcDbLine
 10
6.824432332246601
 20
1.748853625055708
 30
0.0
 11
6.843182332246601
 21
1.786353625055708
 31
0.0
  0
LINE
  5
6D7
330
1F
100
AcDbEntity
  8
2
100
AcDbLine
 10
7.1921823322466
 20
1.653501297108187
 30
0.0
 11
7.4421823322466
 21
1.653501297108187
 31
0.0
  0
LINE
  5
6D8
330
1F
100
AcDbEntity
  8
4
100
AcDbLine
 10
7.148432332246601
 20
1.749001297108186
 30
0.0
 11
7.1671823322466
 21
1.711501297108187
 31
0.0
  0
LINE
  5
6D9
330
1F
100
AcDbEntity
  8
4
100
AcDbLine
 10
7.1671823322466
 20
1.711501297108187
 30
0.0
 11
7.185932332246601
 21
1.749001297108186
 31
0.0
  0
LINE
  5
6DA
330
1F
100
AcDbEntity
  8
4
100
AcDbLine
 10
7.1921823322466
 20
1.653501297108187
 30
0.0
 11
7.210932332246601
 21
1.691001297108186
 31
0.0
  0
LINE
  5
6DB
330
1F
100
AcDbEntity
  8
4
100
AcDbLine
 10
7.1921823322466
 20
1.728501297108186
 30
0.0
 11
7.210932332246601
 21
1.691001297108186
 31
0.0
  0
LINE
  5
6DC
330
1F
100
AcDbEntity
  8
4
100
AcDbLine
 10
7.173432332246601
 20
1.691001297108186
 30
0.0
 11
7.1921823322466
 21
1.653501297108187
 31
0.0
  0
LINE
  5
6DD
330
1F
100
AcDbEntity
  8
4
100
AcDbLine
 10
7.173432332246601
 20
1.691001297108186
 30
0.0
 11
7.1921823322466
 21
1.728501297108186
 31
0.0
  0
LINE
  5
6DE
330
1F
100
AcDbEntity
  8
4
100
AcDbLine
 10
7.148432332246601
 20
1.749001297108186
 30
0.0
 11
7.1671823322466
 21
1.786501297108186
 31
0.0
  0
LINE
  5
6DF
330
1F
100
AcDbEntity
  8
4
100
AcDbLine
 10
7.1671823322466
 20
1.786501297108186
 30
0.0
 11
7.185932332246601
 21
1.749001297108186
 31
0.0
  0
LINE
  5
6E0
330
1F
100
AcDbEntity
  8
4
100
AcDbLine
 10
7.4171823322466
 20
1.711501297108187
 30
0.0
 11
7.435932332246601
 21
1.749001297108186
 31
0.0
  0
LINE
  5
6E1
330
1F
100
AcDbEntity
  8
4
100
AcDbLine
 10
7.398432332246601
 20
1.749001297108186
 30
0.0
 11
7.4171823322466
 21
1.711501297108187
 31
0.0
  0
LINE
  5
6E2
330
1F
100
AcDbEntity
  8
4
100
AcDbLine
 10
7.423432332246601
 20
1.691001297108186
 30
0.0
 11
7.4421823322466
 21
1.653501297108187
 31
0.0
  0
LINE
  5
6E3
330
1F
100
AcDbEntity
  8
4
100
AcDbLine
 10
7.4421823322466
 20
1.653501297108187
 30
0.0
 11
7.460932332246601
 21
1.691001297108186
 31
0.0
  0
LINE
  5
6E4
330
1F
100
AcDbEntity
  8
4
100
AcDbLine
 10
7.423432332246601
 20
1.691001297108186
 30
0.0
 11
7.4421823322466
 21
1.728501297108186
 31
0.0
  0
LINE
  5
6E5
330
1F
100
AcDbEntity
  8
4
100
AcDbLine
 10
7.4421823322466
 20
1.728501297108186
 30
0.0
 11
7.460932332246601
 21
1.691001297108186
 31
0.0
  0
LINE
  5
6E6
330
1F
100
AcDbEntity
  8
4
100
AcDbLine
 10
7.4171823322466
 20
1.786501297108186
 30
0.0
 11
7.435932332246601
 21
1.749001297108186
 31
0.0
  0
LINE
  5
6E7
330
1F
100
AcDbEntity
  8
4
100
AcDbLine
 10
7.398432332246601
 20
1.749001297108186
 30
0.0
 11
7.4171823322466
 21
1.786501297108186
 31
0.0
  0
LINE
  5
6E8
330
1F
100
AcDbEntity
  8
4
100
AcDbLine
 10
7.659496829075731
 20
1.591365996915924
 30
0.0
 11
7.59749682907573
 21
1.591365996915924
 31
0.0
  0
TEXT
  5
6EE
330
1F
100
AcDbEntity
  8
8
100
AcDbText
 10
4.750496829075729
 20
2.817944481374826
 30
0.0
 40
0.07
  1
59
 50
90.0
 72
     1
 11
4.750496829075729
 21
2.876277814708159
 31
0.0
100
AcDbText
  0
TEXT
  5
6EF
330
1F
100
AcDbEntity
  8
8
100
AcDbText
 10
4.500496829075729
 20
2.300526564886718
 30
0.0
 40
0.07
  1
72
 50
90.0
 72
     1
 11
4.500496829075729
 21
2.358859898220051
 31
0.0
100
AcDbText
  0
TEXT
  5
772
330
1F
100
AcDbEntity
  8
8
100
AcDbText
 10
4.750496829075729
 20
4.205472425975779
 30
0.0
 40
0.07
  1
12
 50
90.0
 72
     1
 11
4.750496829075729
 21
4.252139092642446
 31
0.0
100
AcDbText
  0
LINE
  5
774
330
1F
100
AcDbEntity
  8
4
100
AcDbLine
 10
4.832496829075729
 20
4.372365996915922
 30
0.0
 11
4.81249682907573
 21
4.497365996915922
 31
0.0
  0
LINE
  5
775
330
1F
100
AcDbEntity
  8
4
100
AcDbLine
 10
4.81249682907573
 20
4.497365996915922
 30
0.0
 11
4.792496829075729
 21
4.372365996915922
 31
0.0
  0
LINE
  5
776
330
1F
100
AcDbEntity
  8
4
100
AcDbLine
 10
4.822496829075729
 20
4.372365996915922
 30
0.0
 11
4.81249682907573
 21
4.497365996915922
 31
0.0
  0
LINE
  5
777
330
1F
100
AcDbEntity
  8
4
100
AcDbLine
 10
4.802496829075729
 20
4.372365996915922
 30
0.0
 11
4.81249682907573
 21
4.497365996915922
 31
0.0
  0
LINE
  5
778
330
1F
100
AcDbEntity
  8
2
100
AcDbLine
 10
5.283182332246602
 20
4.383784231620923
 30
0.0
 11
5.533182332246601
 21
4.383784231620923
 31
0.0
  0
LINE
  5
779
330
1F
100
AcDbEntity
  8
4
100
AcDbLine
 10
5.67049682907573
 20
4.003365996915924
 30
0.0
 11
5.17049682907573
 21
4.003365996915924
 31
0.0
  0
LINE
  5
77D
330
1F
100
AcDbEntity
  8
4
100
AcDbLine
 10
4.80249682907573
 20
3.878365996915932
 30
0.0
 11
4.812496829075731
 21
4.003365996915933
 31
0.0
  0
LINE
  5
77E
330
1F
100
AcDbEntity
  8
4
100
AcDbLine
 10
4.822496829075729
 20
3.878365996915932
 30
0.0
 11
4.812496829075731
 21
4.003365996915931
 31
0.0
  0
LINE
  5
77F
330
1F
100
AcDbEntity
  8
4
100
AcDbLine
 10
4.812496829075731
 20
4.003365996915931
 30
0.0
 11
4.79249682907573
 21
3.878365996915932
 31
0.0
  0
LINE
  5
780
330
1F
100
AcDbEntity
  8
4
100
AcDbLine
 10
4.83249682907573
 20
3.878365996915932
 30
0.0
 11
4.812496829075731
 21
4.003365996915931
 31
0.0
  0
LINE
  5
781
330
1F
100
AcDbEntity
  8
4
100
AcDbLine
 10
5.17049682907573
 20
4.003365996915924
 30
0.0
 11
5.17049682907573
 21
3.941365996915924
 31
0.0
  0
LINE
  5
782
330
1F
100
AcDbEntity
  8
4
100
AcDbLine
 10
4.83249682907573
 20
3.878365996915932
 30
0.0
 11
4.79249682907573
 21
3.878365996915932
 31
0.0
  0
LINE
  5
790
330
1F
100
AcDbEntity
  8
4
100
AcDbLine
 10
5.17049682907573
 20
3.941365996915924
 30
0.0
 11
5.20149682907573
 21
3.972365996915923
 31
0.0
  0
LINE
  5
792
330
1F
100
AcDbEntity
  8
4
100
AcDbLine
 10
5.00249682907573
 20
4.003365996915924
 30
0.0
 11
4.81249682907573
 21
4.003365996915924
 31
0.0
  0
LINE
  5
793
330
1F
100
AcDbEntity
  8
4
100
AcDbLine
 10
4.792496829075731
 20
4.128365996915936
 30
0.0
 11
4.812496829075731
 21
4.003365996915936
 31
0.0
  0
LINE
  5
794
330
1F
100
AcDbEntity
  8
4
100
AcDbLine
 10
4.812496829075731
 20
4.003365996915936
 30
0.0
 11
4.832496829075731
 21
4.128365996915936
 31
0.0
  0
LINE
  5
795
330
1F
100
AcDbEntity
  8
4
100
AcDbLine
 10
4.802496829075732
 20
4.128365996915936
 30
0.0
 11
4.812496829075731
 21
4.003365996915936
 31
0.0
  0
LINE
  5
796
330
1F
100
AcDbEntity
  8
4
100
AcDbLine
 10
4.822496829075731
 20
4.128365996915936
 30
0.0
 11
4.812496829075731
 21
4.003365996915935
 31
0.0
  0
LINE
  5
797
330
1F
100
AcDbEntity
  8
4
100
AcDbLine
 10
4.81249682907573
 20
4.003365996915924
 30
0.0
 11
4.750496829075729
 21
4.003365996915924
 31
0.0
  0
LINE
  5
798
330
1F
100
AcDbEntity
  8
4
100
AcDbLine
 10
4.792496829075731
 20
4.128365996915936
 30
0.0
 11
4.832496829075731
 21
4.128365996915936
 31
0.0
  0
LINE
  5
799
330
1F
100
AcDbEntity
  8
4
100
AcDbLine
 10
4.832496829075729
 20
4.372365996915922
 30
0.0
 11
4.792496829075729
 21
4.372365996915922
 31
0.0
  0
LINE
  5
7A3
330
1F
100
AcDbEntity
  8
4
100
AcDbLine
 10
5.065496829075729
 20
4.403365996915924
 30
0.0
 11
5.127496829075729
 21
4.403365996915924
 31
0.0
  0
LINE
  5
7A4
330
1F
100
AcDbEntity
  8
4
100
AcDbLine
 10
5.308182332246602
 20
4.325784231620923
 30
0.0
 11
5.326932332246602
 21
4.288284231620924
 31
0.0
  0
LINE
  5
7A5
330
1F
100
AcDbEntity
  8
4
100
AcDbLine
 10
5.289432332246602
 20
4.288284231620924
 30
0.0
 11
5.308182332246602
 21
4.325784231620923
 31
0.0
  0
LINE
  5
7A6
330
1F
100
AcDbEntity
  8
4
100
AcDbLine
 10
5.308182332246602
 20
4.250784231620924
 30
0.0
 11
5.326932332246602
 21
4.288284231620924
 31
0.0
  0
LINE
  5
7A7
330
1F
100
AcDbEntity
  8
4
100
AcDbLine
 10
5.289432332246602
 20
4.288284231620924
 30
0.0
 11
5.308182332246602
 21
4.250784231620924
 31
0.0
  0
LINE
  5
7A8
330
1F
100
AcDbEntity
  8
4
100
AcDbLine
 10
5.264432332246602
 20
4.346284231620924
 30
0.0
 11
5.283182332246601
 21
4.383784231620923
 31
0.0
  0
LINE
  5
7A9
330
1F
100
AcDbEntity
  8
4
100
AcDbLine
 10
5.283182332246601
 20
4.383784231620923
 30
0.0
 11
5.301932332246601
 21
4.346284231620924
 31
0.0
  0
LINE
  5
7AA
330
1F
100
AcDbEntity
  8
4
100
AcDbLine
 10
5.264432332246602
 20
4.346284231620924
 30
0.0
 11
5.283182332246601
 21
4.308784231620924
 31
0.0
  0
LINE
  5
7AB
330
1F
100
AcDbEntity
  8
4
100
AcDbLine
 10
5.283182332246601
 20
4.308784231620924
 30
0.0
 11
5.301932332246601
 21
4.346284231620924
 31
0.0
  0
LINE
  5
7AC
330
1F
100
AcDbEntity
  8
4
100
AcDbLine
 10
5.67049682907573
 20
3.941365996915924
 30
0.0
 11
5.67049682907573
 21
4.003365996915924
 31
0.0
  0
LINE
  5
7C4
330
1F
100
AcDbEntity
  8
4
100
AcDbLine
 10
5.558182332246601
 20
4.325784231620923
 30
0.0
 11
5.576932332246602
 21
4.288284231620924
 31
0.0
  0
LINE
  5
7C5
330
1F
100
AcDbEntity
  8
4
100
AcDbLine
 10
5.558182332246601
 20
4.250784231620924
 30
0.0
 11
5.576932332246602
 21
4.288284231620924
 31
0.0
  0
LINE
  5
7C6
330
1F
100
AcDbEntity
  8
4
100
AcDbLine
 10
5.539432332246601
 20
4.288284231620924
 30
0.0
 11
5.558182332246601
 21
4.325784231620923
 31
0.0
  0
LINE
  5
7C7
330
1F
100
AcDbEntity
  8
4
100
AcDbLine
 10
5.539432332246601
 20
4.288284231620924
 30
0.0
 11
5.558182332246601
 21
4.250784231620924
 31
0.0
  0
LINE
  5
7C8
330
1F
100
AcDbEntity
  8
4
100
AcDbLine
 10
5.533182332246601
 20
4.383784231620923
 30
0.0
 11
5.551932332246601
 21
4.346284231620924
 31
0.0
  0
LINE
  5
7C9
330
1F
100
AcDbEntity
  8
4
100
AcDbLine
 10
5.514432332246602
 20
4.346284231620924
 30
0.0
 11
5.533182332246601
 21
4.383784231620923
 31
0.0
  0
LINE
  5
7CA
330
1F
100
AcDbEntity
  8
4
100
AcDbLine
 10
5.533182332246601
 20
4.308784231620924
 30
0.0
 11
5.551932332246601
 21
4.346284231620924
 31
0.0
  0
LINE
  5
7CB
330
1F
100
AcDbEntity
  8
4
100
AcDbLine
 10
5.514432332246602
 20
4.346284231620924
 30
0.0
 11
5.533182332246601
 21
4.308784231620924
 31
0.0
  0
LINE
  5
8DA
330
1F
100
AcDbEntity
  8
4
100
AcDbLine
 10
7.054496829075731
 20
4.003365996915924
 30
0.0
 11
7.554496829075731
 21
4.003365996915924
 31
0.0
  0
LINE
  5
8DB
330
1F
100
AcDbEntity
  8
2
100
AcDbLine
 10
6.593182332246602
 20
4.383784231620923
 30
0.0
 11
6.843182332246601
 21
4.383784231620923
 31
0.0
  0
LINE
  5
8DC
330
1F
100
AcDbEntity
  8
4
100
AcDbLine
 10
6.980496829075729
 20
4.003365996915924
 30
0.0
 11
6.48049682907573
 21
4.003365996915924
 31
0.0
  0
LINE
  5
8DF
330
1F
100
AcDbEntity
  8
4
100
AcDbLine
 10
6.48049682907573
 20
4.003365996915924
 30
0.0
 11
6.48049682907573
 21
3.941365996915924
 31
0.0
  0
LINE
  5
8ED
330
1F
100
AcDbEntity
  8
4
100
AcDbLine
 10
6.48049682907573
 20
3.941365996915924
 30
0.0
 11
6.51149682907573
 21
3.972365996915923
 31
0.0
  0
LINE
  5
8F0
330
1F
100
AcDbEntity
  8
4
100
AcDbLine
 10
6.375496829075729
 20
4.403365996915924
 30
0.0
 11
6.437496829075729
 21
4.403365996915924
 31
0.0
  0
LINE
  5
8F1
330
1F
100
AcDbEntity
  8
2
100
AcDbLine
 10
6.574432332246601
 20
4.346284231620924
 30
0.0
 11
6.574432332246601
 21
1.748853625055708
 31
0.0
  0
LINE
  5
8FA
330
1F
100
AcDbEntity
  8
4
100
AcDbLine
 10
6.574432332246601
 20
4.346284231620924
 30
0.0
 11
6.593182332246601
 21
4.383784231620923
 31
0.0
  0
LINE
  5
8FB
330
1F
100
AcDbEntity
  8
4
100
AcDbLine
 10
6.574432332246601
 20
4.346284231620924
 30
0.0
 11
6.593182332246601
 21
4.308784231620924
 31
0.0
  0
LINE
  5
8FC
330
1F
100
AcDbEntity
  8
4
100
AcDbLine
 10
6.599432332246601
 20
4.288284231620924
 30
0.0
 11
6.618182332246601
 21
4.325784231620923
 31
0.0
  0
LINE
  5
8FD
330
1F
100
AcDbEntity
  8
4
100
AcDbLine
 10
6.618182332246601
 20
4.325784231620923
 30
0.0
 11
6.636932332246601
 21
4.288284231620924
 31
0.0
  0
LINE
  5
8FE
330
1F
100
AcDbEntity
  8
4
100
AcDbLine
 10
6.599432332246601
 20
4.288284231620924
 30
0.0
 11
6.618182332246601
 21
4.250784231620924
 31
0.0
  0
LINE
  5
8FF
330
1F
100
AcDbEntity
  8
4
100
AcDbLine
 10
6.618182332246601
 20
4.250784231620924
 30
0.0
 11
6.636932332246601
 21
4.288284231620924
 31
0.0
  0
LINE
  5
900
330
1F
100
AcDbEntity
  8
4
100
AcDbLine
 10
6.593182332246601
 20
4.383784231620923
 30
0.0
 11
6.611932332246601
 21
4.346284231620924
 31
0.0
  0
LINE
  5
901
330
1F
100
AcDbEntity
  8
4
100
AcDbLine
 10
6.593182332246601
 20
4.308784231620924
 30
0.0
 11
6.611932332246601
 21
4.346284231620924
 31
0.0
  0
LINE
  5
902
330
1F
100
AcDbEntity
  8
4
100
AcDbLine
 10
6.980496829075729
 20
3.941365996915924
 30
0.0
 11
6.980496829075729
 21
4.003365996915924
 31
0.0
  0
LINE
  5
903
330
1F
100
AcDbEntity
  8
4
100
AcDbLine
 10
7.054496829075731
 20
3.941365996915924
 30
0.0
 11
7.054496829075731
 21
4.003365996915924
 31
0.0
  0
LINE
  5
930
330
1F
100
AcDbEntity
  8
2
100
AcDbLine
 10
6.886932332246601
 20
4.288284231620924
 30
0.0
 11
6.886932332246601
 21
1.690853625055708
 31
0.0
  0
LINE
  5
939
330
1F
100
AcDbEntity
  8
4
100
AcDbLine
 10
6.849432332246601
 20
4.288284231620924
 30
0.0
 11
6.8681823322466
 21
4.325784231620923
 31
0.0
  0
LINE
  5
93A
330
1F
100
AcDbEntity
  8
4
100
AcDbLine
 10
6.8681823322466
 20
4.325784231620923
 30
0.0
 11
6.886932332246601
 21
4.288284231620924
 31
0.0
  0
LINE
  5
93B
330
1F
100
AcDbEntity
  8
4
100
AcDbLine
 10
6.849432332246601
 20
4.288284231620924
 30
0.0
 11
6.8681823322466
 21
4.250784231620924
 31
0.0
  0
LINE
  5
93C
330
1F
100
AcDbEntity
  8
4
100
AcDbLine
 10
6.8681823322466
 20
4.250784231620924
 30
0.0
 11
6.886932332246601
 21
4.288284231620924
 31
0.0
  0
LINE
  5
93D
330
1F
100
AcDbEntity
  8
4
100
AcDbLine
 10
6.843182332246601
 20
4.383784231620923
 30
0.0
 11
6.861932332246601
 21
4.346284231620924
 31
0.0
  0
LINE
  5
93E
330
1F
100
AcDbEntity
  8
4
100
AcDbLine
 10
6.843182332246601
 20
4.308784231620924
 30
0.0
 11
6.861932332246601
 21
4.346284231620924
 31
0.0
  0
LINE
  5
93F
330
1F
100
AcDbEntity
  8
4
100
AcDbLine
 10
6.824432332246601
 20
4.346284231620924
 30
0.0
 11
6.843182332246601
 21
4.383784231620923
 31
0.0
  0
LINE
  5
940
330
1F
100
AcDbEntity
  8
4
100
AcDbLine
 10
6.824432332246601
 20
4.346284231620924
 30
0.0
 11
6.843182332246601
 21
4.308784231620924
 31
0.0
  0
LINE
  5
942
330
1F
100
AcDbEntity
  8
2
100
AcDbLine
 10
7.148432332246601
 20
4.346284231620924
 30
0.0
 11
7.148432332246601
 21
1.749001297108186
 31
0.0
  0
LINE
  5
954
330
1F
100
AcDbEntity
  8
2
100
AcDbLine
 10
7.167182332246602
 20
4.383784231620923
 30
0.0
 11
7.4171823322466
 21
4.383784231620923
 31
0.0
  0
LINE
  5
955
330
1F
100
AcDbEntity
  8
4
100
AcDbLine
 10
7.192182332246602
 20
4.325784231620923
 30
0.0
 11
7.210932332246601
 21
4.288284231620924
 31
0.0
  0
LINE
  5
956
330
1F
100
AcDbEntity
  8
4
100
AcDbLine
 10
7.173432332246601
 20
4.288284231620924
 30
0.0
 11
7.192182332246602
 21
4.325784231620923
 31
0.0
  0
LINE
  5
957
330
1F
100
AcDbEntity
  8
4
100
AcDbLine
 10
7.192182332246602
 20
4.250784231620924
 30
0.0
 11
7.210932332246601
 21
4.288284231620924
 31
0.0
  0
LINE
  5
958
330
1F
100
AcDbEntity
  8
4
100
AcDbLine
 10
7.173432332246601
 20
4.288284231620924
 30
0.0
 11
7.192182332246602
 21
4.250784231620924
 31
0.0
  0
LINE
  5
959
330
1F
100
AcDbEntity
  8
4
100
AcDbLine
 10
7.148432332246601
 20
4.346284231620924
 30
0.0
 11
7.1671823322466
 21
4.383784231620923
 31
0.0
  0
LINE
  5
95A
330
1F
100
AcDbEntity
  8
4
100
AcDbLine
 10
7.1671823322466
 20
4.383784231620923
 30
0.0
 11
7.185932332246601
 21
4.346284231620924
 31
0.0
  0
LINE
  5
95B
330
1F
100
AcDbEntity
  8
4
100
AcDbLine
 10
7.148432332246601
 20
4.346284231620924
 30
0.0
 11
7.1671823322466
 21
4.308784231620924
 31
0.0
  0
LINE
  5
95C
330
1F
100
AcDbEntity
  8
4
100
AcDbLine
 10
7.1671823322466
 20
4.308784231620924
 30
0.0
 11
7.185932332246601
 21
4.346284231620924
 31
0.0
  0
LINE
  5
95D
330
1F
100
AcDbEntity
  8
4
100
AcDbLine
 10
7.423432332246601
 20
4.288284231620924
 30
0.0
 11
7.4421823322466
 21
4.325784231620923
 31
0.0
  0
LINE
  5
95E
330
1F
100
AcDbEntity
  8
4
100
AcDbLine
 10
7.4421823322466
 20
4.325784231620923
 30
0.0
 11
7.460932332246601
 21
4.288284231620924
 31
0.0
  0
LINE
  5
95F
330
1F
100
AcDbEntity
  8
4
100
AcDbLine
 10
7.423432332246601
 20
4.288284231620924
 30
0.0
 11
7.4421823322466
 21
4.250784231620924
 31
0.0
  0
LINE
  5
960
330
1F
100
AcDbEntity
  8
4
100
AcDbLine
 10
7.4421823322466
 20
4.250784231620924
 30
0.0
 11
7.460932332246601
 21
4.288284231620924
 31
0.0
  0
LINE
  5
961
330
1F
100
AcDbEntity
  8
4
100
AcDbLine
 10
7.4171823322466
 20
4.383784231620923
 30
0.0
 11
7.435932332246601
 21
4.346284231620924
 31
0.0
  0
LINE
  5
962
330
1F
100
AcDbEntity
  8
4
100
AcDbLine
 10
7.398432332246601
 20
4.346284231620924
 30
0.0
 11
7.4171823322466
 21
4.383784231620923
 31
0.0
  0
LINE
  5
963
330
1F
100
AcDbEntity
  8
4
100
AcDbLine
 10
7.4171823322466
 20
4.308784231620924
 30
0.0
 11
7.435932332246601
 21
4.346284231620924
 31
0.0
  0
LINE
  5
964
330
1F
100
AcDbEntity
  8
4
100
AcDbLine
 10
7.398432332246601
 20
4.346284231620924
 30
0.0
 11
7.4171823322466
 21
4.308784231620924
 31
0.0
  0
LINE
  5
965
330
1F
100
AcDbEntity
  8
4
100
AcDbLine
 10
7.554496829075731
 20
4.003365996915924
 30
0.0
 11
7.554496829075731
 21
3.941365996915924
 31
0.0
  0
LINE
  5
966
330
1F
100
AcDbEntity
  8
4
100
AcDbLine
 10
7.554496829075731
 20
3.941365996915924
 30
0.0
 11
7.523496829075732
 21
3.972365996915923
 31
0.0
  0
LINE
  5
967
330
1F
100
AcDbEntity
  8
4
100
AcDbLine
 10
7.659496829075731
 20
4.403365996915924
 30
0.0
 11
7.59749682907573
 21
4.403365996915924
 31
0.0
  0
LINE
  5
968
330
1F
100
AcDbEntity
  8
1
100
AcDbLine
 10
7.035
 20
1.5
 30
0.0
 11
7.035
 21
4.5
 31
0.0
  0
LINE
  5
96A
330
1F
100
AcDbEntity
  8
2
100
AcDbLine
 10
7.460932332246601
 20
4.288284231620924
 30
0.0
 11
7.460932332246601
 21
1.691001297108186
 31
0.0
  0
ARC
  5
986
330
1F
100
AcDbEntity
  8
4
100
AcDbCircle
 10
1.734747444181287
 20
3.846406302348577
 30
0.0
 40
0.025
100
AcDbArc
 50
180.0
 51
0.0
  0
LINE
  5
987
330
1F
100
AcDbEntity
  8
4
100
AcDbLine
 10
1.709747444181286
 20
3.846406302348577
 30
0.0
 11
1.709747444181286
 21
3.941365996915924
 31
0.0
  0
LINE
  5
988
330
1F
100
AcDbEntity
  8
4
100
AcDbLine
 10
1.90499682907573
 20
3.941943764614758
 30
0.0
 11
1.90499682907573
 21
3.821406302348577
 31
0.0
  0
LINE
  5
989
330
1F
100
AcDbEntity
  8
4
100
AcDbLine
 10
1.966996829075728
 20
3.942191491101041
 30
0.0
 11
1.966996829075728
 21
3.821406302348577
 31
0.0
  0
LINE
  5
98A
330
1F
100
AcDbEntity
  8
4
100
AcDbLine
 10
2.173929987666622
 20
3.846406302348577
 30
0.0
 11
2.173929987666622
 21
3.941365996915924
 31
0.0
  0
ARC
  5
98B
330
1F
100
AcDbEntity
  8
4
100
AcDbCircle
 10
2.148939853233094
 20
3.846406302348577
 30
0.0
 40
0.025
100
AcDbArc
 50
180.0
 51
0.0
  0
ARC
  5
98C
330
1F
100
AcDbEntity
  8
4
100
AcDbCircle
 10
2.358478903472604
 20
3.846406302348577
 30
0.0
 40
0.025
100
AcDbArc
 50
180.0
 51
0.0
  0
LINE
  5
98D
330
1F
100
AcDbEntity
  8
4
100
AcDbLine
 10
2.333478903472604
 20
3.846406302348577
 30
0.0
 11
2.333478903472604
 21
3.941365996915924
 31
0.0
  0
LINE
  5
98E
330
1F
100
AcDbEntity
  8
4
100
AcDbLine
 10
2.79766144695794
 20
3.846406302348577
 30
0.0
 11
2.79766144695794
 21
3.941365996915924
 31
0.0
  0
ARC
  5
98F
330
1F
100
AcDbEntity
  8
4
100
AcDbCircle
 10
2.772671312524412
 20
3.846406302348577
 30
0.0
 40
0.025
100
AcDbArc
 50
180.0
 51
0.0
  0
ARC
  5
990
330
1F
100
AcDbEntity
  8
4
100
AcDbCircle
 10
2.977854023329328
 20
3.846406302348577
 30
0.0
 40
0.025
100
AcDbArc
 50
180.0
 51
0.0
  0
LINE
  5
991
330
1F
100
AcDbEntity
  8
4
100
AcDbLine
 10
2.952854023329327
 20
3.846406302348577
 30
0.0
 11
2.952854023329327
 21
3.941365996915924
 31
0.0
  0
LINE
  5
992
330
1F
100
AcDbEntity
  8
4
100
AcDbLine
 10
3.210103408223769
 20
3.942191491101041
 30
0.0
 11
3.210103408223769
 21
3.821406302348577
 31
0.0
  0
LINE
  5
993
330
1F
100
AcDbEntity
  8
4
100
AcDbLine
 10
3.148103408223771
 20
3.941943764614758
 30
0.0
 11
3.148103408223771
 21
3.821406302348577
 31
0.0
  0
ARC
  5
994
330
1F
100
AcDbEntity
  8
4
100
AcDbCircle
 10
3.392046432381135
 20
3.846406302348577
 30
0.0
 40
0.025
100
AcDbArc
 50
180.0
 51
0.0
  0
LINE
  5
995
330
1F
100
AcDbEntity
  8
4
100
AcDbLine
 10
3.417036566814663
 20
3.846406302348577
 30
0.0
 11
3.417036566814663
 21
3.941365996915924
 31
0.0
  0
LINE
  5
996
330
1F
100
AcDbEntity
  8
4
100
AcDbLine
 10
5.420496829075728
 20
4.003365996915924
 30
0.0
 11
5.420496829075728
 21
3.821545848850255
 31
0.0
  0
LINE
  5
997
330
1F
100
AcDbEntity
  8
4
100
AcDbLine
 10
5.641873367067528
 20
3.846406302348577
 30
0.0
 11
5.641873367067528
 21
4.003365996915924
 31
0.0
  0
ARC
  5
998
330
1F
100
AcDbEntity
  8
4
100
AcDbCircle
 10
5.616883232634
 20
3.846406302348577
 30
0.0
 40
0.025
100
AcDbArc
 50
180.0
 51
0.0
  0
LINE
  5
999
330
1F
100
AcDbEntity
  8
4
100
AcDbLine
 10
6.951873367067527
 20
3.846406302348577
 30
0.0
 11
6.951873367067527
 21
4.003365996915924
 31
0.0
  0
ARC
  5
99A
330
1F
100
AcDbEntity
  8
4
100
AcDbCircle
 10
6.926883232633999
 20
3.846406302348577
 30
0.0
 40
0.025
100
AcDbArc
 50
180.0
 51
0.0
  0
LINE
  5
99B
330
1F
100
AcDbEntity
  8
4
100
AcDbLine
 10
6.730496829075727
 20
4.003365996915924
 30
0.0
 11
6.730496829075727
 21
3.821545848850255
 31
0.0
  0
ARC
  5
99C
330
1F
100
AcDbEntity
  8
4
100
AcDbCircle
 10
7.106822519853134
 20
3.846406302348577
 30
0.0
 40
0.025
100
AcDbArc
 50
180.0
 51
360.0
  0
LINE
  5
99D
330
1F
100
AcDbEntity
  8
4
100
AcDbLine
 10
7.081832385419605
 20
3.846406302348577
 30
0.0
 11
7.081832385419605
 21
4.003365996915924
 31
0.0
  0
LINE
  5
99E
330
1F
100
AcDbEntity
  8
4
100
AcDbLine
 10
7.303208923411405
 20
4.003365996915924
 30
0.0
 11
7.303208923411405
 21
3.821545848850255
 31
0.0
  0
VIEWPORT
  5
4D8
102
{ACAD_XDICTIONARY
360
A29
102
}
330
1B
100
AcDbEntity
 67
     1
  8
0
100
AcDbViewport
 10
5.333333052988126
 20
4.083333221946175
 30
0.0
 40
17.55328193054511
 41
8.992999745766947
 68
     1
 69
     1
 12
5.333333052988126
 22
4.083333221946175
 13
0.0
 23
0.0
 14
0.5
 24
0.5
 15
0.5
 25
0.5
 16
0.0
 26
0.0
 36
1.0
 17
0.0
 27
0.0
 37
0.0
 42
50.0
 43
0.0
 44
0.0
 45
8.992999745766947
 50
0.0
 51
0.0
 72
   100
 90
    32800
  1

281
     0
 71
     1
 74
     0
110
0.0
120
0.0
130
0.0
111
1.0
121
0.0
131
0.0
112
0.0
122
1.0
132
0.0
 79
     0
146
0.0
  0
VIEWPORT
  5
4DA
102
{ACAD_XDICTIONARY
360
A2B
102
}
330
1B
100
AcDbEntity
 67
     1
  8
VP-1
100
AcDbViewport
 10
5.259396469703688
 20
3.981225362495727
 30
0.0
 40
10.11099111846132
 41
7.47226285745603
 68
     2
 69
     2
 12
4.125
 22
2.625
 13
0.0
 23
0.0
 14
0.5
 24
0.5
 15
0.5
 25
0.5
 16
0.0
 26
0.0
 36
1.0
 17
0.0
 27
0.0
 37
0.0
 42
50.0
 43
0.0
 44
0.0
 45
7.47226285745603
 50
0.0
 51
0.0
 72
   100
 90
    32864
  1

281
     0
 71
     1
 74
     0
110
0.0
120
0.0
130
0.0
111
1.0
121
0.0
131
0.0
112
0.0
122
1.0
132
0.0
 79
     0
146
0.0
  0
ENDSEC
  0
SECTION
  2
OBJECTS
  0
DICTIONARY
  5
C
330
0
100
AcDbDictionary
281
     1
  3
ACAD_COLOR
350
4E6
  3
ACAD_GROUP
350
D
  3
ACAD_LAYOUT
350
1A
  3
ACAD_MATERIAL
350
4E5
  3
ACAD_MLINESTYLE
350
17
  3
ACAD_PLOTSETTINGS
350
19
  3
ACAD_PLOTSTYLENAME
350
E
  3
ACDBHEADERROUNDTRIPXREC
350
A20
  3
AcDbVariableDictionary
350
A17
  3
DWGPROPS
350
A1F
  0
DICTIONARY
  5
96D
330
2
100
AcDbDictionary
280
     1
281
     1
  3
ACAD_LAYERSTATES
360
96E
  0
DICTIONARY
  5
A29
330
4D8
100
AcDbDictionary
280
     1
281
     1
  3
ACAD_XREC_ROUNDTRIP
360
A2A
  0
DICTIONARY
  5
A2B
330
4DA
100
AcDbDictionary
280
     1
281
     1
  3
ACAD_XREC_ROUNDTRIP
360
A2C
  0
DICTIONARY
  5
4E6
102
{ACAD_REACTORS
330
C
102
}
330
C
100
AcDbDictionary
281
     1
  0
DICTIONARY
  5
D
102
{ACAD_REACTORS
330
C
102
}
330
C
100
AcDbDictionary
281
     1
  0
DICTIONARY
  5
1A
102
{ACAD_REACTORS
330
C
102
}
330
C
100
AcDbDictionary
281
     1
  3
Layout1
350
1E
  3
Layout2
350
26
  3
Model
350
22
  0
DICTIONARY
  5
4E5
102
{ACAD_REACTORS
330
C
102
}
330
C
100
AcDbDictionary
281
     1
  0
DICTIONARY
  5
17
102
{ACAD_REACTORS
330
C
102
}
330
C
100
AcDbDictionary
281
     1
  3
Standard
350
18
  0
DICTIONARY
  5
19
102
{ACAD_REACTORS
330
C
102
}
330
C
100
AcDbDictionary
281
     1
  0
ACDBDICTIONARYWDFLT
  5
E
102
{ACAD_REACTORS
330
C
102
}
330
C
100
AcDbDictionary
281
     1
  3
Normal
350
F
100
AcDbDictionaryWithDefault
340
F
  0
DICTIONARY
  5
A20
102
{ACAD_REACTORS
330
C
102
}
330
C
100
AcDbDictionary
281
     1
  3
COLORDICT
350
A22
  3
MATERIALDICT
350
A21
  0
DICTIONARY
  5
A17
102
{ACAD_REACTORS
330
C
102
}
330
C
100
AcDbDictionary
281
     1
  3
DIMASSOC
350
A18
  3
PROJECTNAME
350
A19
  0
XRECORD
  5
A1F
102
{ACAD_REACTORS
330
C
102
}
330
C
100
AcDbXrecord
280
     1
  1
DWGPROPS COOKIE
  2

  3

  4

  6

  7

  8
dbabbo
  9

300
=
301
=
302
=
303
=
304
=
305
=
306
=
307
=
308
=
309
=
 40
0.3249392013888888
 41
2452631.587613773
 42
2454728.620359329
  1

 90
        0
  0
DICTIONARY
  5
96E
102
{ACAD_REACTORS
330
96D
102
}
330
96D
100
AcDbDictionary
281
     1
  0
XRECORD
  5
A2A
102
{ACAD_REACTORS
330
A29
102
}
330
A29
100
AcDbXrecord
280
     1
102
SHADEPLOT
 70
     0
  0
XRECORD
  5
A2C
102
{ACAD_REACTORS
330
A2B
102
}
330
A2B
100
AcDbXrecord
280
     1
102
SHADEPLOT
 70
     0
  0
LAYOUT
  5
1E
102
{ACAD_XDICTIONARY
360
A23
102
}
102
{ACAD_REACTORS
330
1A
102
}
330
1A
100
AcDbPlotSettings
  1

  2
\\EXCHANGE01\LaserJet 5000 (MEZZ)
  4
Letter
  6

 40
4.233333110809326
 41
4.233341693878173
 42
8.466659545898437
 43
4.23333740234375
 44
215.8999938964844
 45
279.3999938964844
 46
0.0
 47
0.0
 48
0.0
 49
0.0
140
0.0
141
0.0
142
1.0
143
1.0
 70
   688
 72
     0
 73
     1
 74
     5
  7
monochrome.ctb
 75
    16
147
1.0
148
0.0
149
0.0
100
AcDbLayout
  1
Layout1
 70
     1
 71
     1
 10
-0.1666668268639272
 20
-0.166666657905879
 11
10.83333293284018
 21
8.333333101798229
 12
0.0
 22
0.0
 32
0.0
 14
0.2036893511280731
 24
0.2445449930502761
 34
-0.0015258207003583
 15
10.31561234697186
 25
7.717841899724767
 35
0.0000000349246037
146
0.0
 13
0.0
 23
0.0
 33
0.0
 16
1.0
 26
0.0
 36
0.0
 17
0.0
 27
1.0
 37
0.0
 76
     0
330
1B
331
4D8
  0
LAYOUT
  5
26
102
{ACAD_XDICTIONARY
360
A27
102
}
102
{ACAD_REACTORS
330
1A
102
}
330
1A
100
AcDbPlotSettings
  1

  2
Lexmark E210
  4

  6

 40
0.0
 41
0.0
 42
0.0
 43
0.0
 44
0.0
 45
0.0
 46
0.0
 47
0.0
 48
0.0
 49
0.0
140
0.0
141
0.0
142
1.0
143
1.0
 70
   688
 72
     0
 73
     0
 74
     5
  7
monochrome.ctb
 75
    16
147
1.0
148
0.0
149
0.0
100
AcDbLayout
  1
Layout2
 70
     1
 71
     2
 10
0.0
 20
0.0
 11
12.0
 21
9.0
 12
0.0
 22
0.0
 32
0.0
 14
0.0
 24
0.0
 34
0.0
 15
0.0
 25
0.0
 35
0.0
146
0.0
 13
0.0
 23
0.0
 33
0.0
 16
1.0
 26
0.0
 36
0.0
 17
0.0
 27
1.0
 37
0.0
 76
     0
330
23
  0
LAYOUT
  5
22
102
{ACAD_XDICTIONARY
360
A25
102
}
102
{ACAD_REACTORS
330
1A
102
}
330
1A
100
AcDbPlotSettings
  1

  2
true.pc3
  4
Letter
  6

 40
4.233333110809326
 41
4.233341693878173
 42
8.466659545898437
 43
4.23333740234375
 44
215.8999938964844
 45
279.3999938964844
 46
15.494
 47
0.0
 48
0.0
 49
0.0
140
0.0
141
0.0
142
1.0
143
0.7735062170529281
 70
 11956
 72
     0
 73
     1
 74
     1
  7
monochrome.ctb
 75
     0
147
1.292814431162579
148
0.0093010481555268
149
0.0069757861166451
100
AcDbLayout
  1
Model
 70
     1
 71
     0
 10
0.0
 20
0.0
 11
12.0
 21
9.0
 12
0.0
 22
0.0
 32
0.0
 14
0.0
 24
0.0
 34
0.0
 15
0.0
 25
0.0
 35
0.0
146
0.0
 13
0.0
 23
0.0
 33
0.0
 16
1.0
 26
0.0
 36
0.0
 17
0.0
 27
1.0
 37
0.0
 76
     0
330
1F
  0
MLINESTYLE
  5
18
102
{ACAD_REACTORS
330
17
102
}
330
17
100
AcDbMlineStyle
  2
STANDARD
 70
     0
  3

 62
   256
 51
90.0
 52
90.0
 71
     2
 49
0.5
 62
   256
  6
BYLAYER
 49
-0.5
 62
   256
  6
BYLAYER
  0
ACDBPLACEHOLDER
  5
F
102
{ACAD_REACTORS
330
E
102
}
330
E
  0
XRECORD
  5
A22
102
{ACAD_REACTORS
330
A20
102
}
330
A20
100
AcDbXrecord
280
     1
340
4E6
  0
XRECORD
  5
A21
102
{ACAD_REACTORS
330
A20
102
}
330
A20
100
AcDbXrecord
280
     1
340
4E5
  0
DICTIONARYVAR
  5
A18
102
{ACAD_REACTORS
330
A17
102
}
330
A17
100
DictionaryVariables
280
     0
  1
1
  0
DICTIONARYVAR
  5
A19
102
{ACAD_REACTORS
330
A17
102
}
330
A17
100
DictionaryVariables
280
     0
  1

  0
DICTIONARY
  5
A23
330
1E
100
AcDbDictionary
280
     1
281
     1
  3
ACAD_XREC_ROUNDTRIP
360
A24
  0
DICTIONARY
  5
A27
330
26
100
AcDbDictionary
280
     1
281
     1
  3
ACAD_XREC_ROUNDTRIP
360
A28
  0
DICTIONARY
  5
A25
330
22
100
AcDbDictionary
280
     1
281
     1
  3
ACAD_XREC_ROUNDTRIP
360
A26
  0
XRECORD
  5
A24
102
{ACAD_REACTORS
330
A23
102
}
330
A23
100
AcDbXrecord
280
     1
102
SHADEPLOT
 70
     0
102
SHADEPLOTRESLEVEL
 70
     2
102
SHADEPLOTCUSTOMDPI
 70
   300
  0
XRECORD
  5
A28
102
{ACAD_REACTORS
330
A27
102
}
330
A27
100
AcDbXrecord
280
     1
102
SHADEPLOT
 70
     0
102
SHADEPLOTRESLEVEL
 70
     2
102
SHADEPLOTCUSTOMDPI
 70
   300
  0
XRECORD
  5
A26
102
{ACAD_REACTORS
330
A25
102
}
330
A25
100
AcDbXrecord
280
     1
102
SHADEPLOT
 70
     0
102
SHADEPLOTRESLEVEL
 70
     2
102
SHADEPLOTCUSTOMDPI
 70
   300
  0
ENDSEC
  0
EOF
