  0
SECTION
  2
HEADER
  9
$ACADVER
  1
AC1015
  9
$ACADMAINTVER
 70
    20
  9
$DWGCODEPAGE
  3
ANSI_1252
  9
$INSBASE
 10
0.0
 20
0.0
 30
0.0
  9
$EXTMIN
 10
4.404129289845556
 20
2.695495629561477
 30
-0.0000000000000087
  9
$EXTMAX
 10
12.65511328493903
 20
7.946273823438996
 30
0.0000000000000066
  9
$LIMMIN
 10
0.0
 20
0.0
  9
$LIMMAX
 10
12.0
 20
9.0
  9
$ORTHOMODE
 70
     1
  9
$REGENMODE
 70
     1
  9
$FILLMODE
 70
     1
  9
$QTEXTMODE
 70
     0
  9
$MIRRTEXT
 70
     1
  9
$LTSCALE
 40
1.0
  9
$ATTMODE
 70
     1
  9
$TEXTSIZE
 40
0.2
  9
$TRACEWID
 40
0.05
  9
$TEXTSTYLE
  7
Standard
  9
$CLAYER
  8
0
  9
$CELTYPE
  6
ByLayer
  9
$CECOLOR
 62
   256
  9
$CELTSCALE
 40
1.0
  9
$DISPSILH
 70
     0
  9
$DIMSCALE
 40
1.0
  9
$DIMASZ
 40
0.18
  9
$DIMEXO
 40
0.0625
  9
$DIMDLI
 40
0.38
  9
$DIMRND
 40
0.0
  9
$DIMDLE
 40
0.0
  9
$DIMEXE
 40
0.18
  9
$DIMTP
 40
0.0
  9
$DIMTM
 40
0.0
  9
$DIMTXT
 40
0.18
  9
$DIMCEN
 40
0.09
  9
$DIMTSZ
 40
0.0
  9
$DIMTOL
 70
     0
  9
$DIMLIM
 70
     0
  9
$DIMTIH
 70
     1
  9
$DIMTOH
 70
     1
  9
$DIMSE1
 70
     0
  9
$DIMSE2
 70
     0
  9
$DIMTAD
 70
     0
  9
$DIMZIN
 70
     0
  9
$DIMBLK
  1

  9
$DIMASO
 70
     1
  9
$DIMSHO
 70
     1
  9
$DIMPOST
  1

  9
$DIMAPOST
  1

  9
$DIMALT
 70
     0
  9
$DIMALTD
 70
     2
  9
$DIMALTF
 40
25.4
  9
$DIMLFAC
 40
1.0
  9
$DIMTOFL
 70
     0
  9
$DIMTVP
 40
0.0
  9
$DIMTIX
 70
     0
  9
$DIMSOXD
 70
     0
  9
$DIMSAH
 70
     0
  9
$DIMBLK1
  1

  9
$DIMBLK2
  1

  9
$DIMSTYLE
  2
Standard
  9
$DIMCLRD
 70
     0
  9
$DIMCLRE
 70
     0
  9
$DIMCLRT
 70
     0
  9
$DIMTFAC
 40
1.0
  9
$DIMGAP
 40
0.09
  9
$DIMJUST
 70
     0
  9
$DIMSD1
 70
     0
  9
$DIMSD2
 70
     0
  9
$DIMTOLJ
 70
     1
  9
$DIMTZIN
 70
     0
  9
$DIMALTZ
 70
     0
  9
$DIMALTTZ
 70
     0
  9
$DIMUPT
 70
     0
  9
$DIMDEC
 70
     4
  9
$DIMTDEC
 70
     4
  9
$DIMALTU
 70
     2
  9
$DIMALTTD
 70
     2
  9
$DIMTXSTY
  7
Standard
  9
$DIMAUNIT
 70
     0
  9
$DIMADEC
 70
     0
  9
$DIMALTRND
 40
0.0
  9
$DIMAZIN
 70
     0
  9
$DIMDSEP
 70
    46
  9
$DIMATFIT
 70
     3
  9
$DIMFRAC
 70
     0
  9
$DIMLDRBLK
  1

  9
$DIMLUNIT
 70
     2
  9
$DIMLWD
 70
    -2
  9
$DIMLWE
 70
    -2
  9
$DIMTMOVE
 70
     0
  9
$LUNITS
 70
     2
  9
$LUPREC
 70
     4
  9
$SKETCHINC
 40
0.1
  9
$FILLETRAD
 40
0.5
  9
$AUNITS
 70
     0
  9
$AUPREC
 70
     0
  9
$MENU
  1
.
  9
$ELEVATION
 40
0.0
  9
$PELEVATION
 40
0.0
  9
$THICKNESS
 40
0.0
  9
$LIMCHECK
 70
     0
  9
$CHAMFERA
 40
0.5
  9
$CHAMFERB
 40
0.5
  9
$CHAMFERC
 40
1.0
  9
$CHAMFERD
 40
0.0
  9
$SKPOLY
 70
     0
  9
$TDCREATE
 40
2452635.562723426
  9
$TDUCREATE
 40
2452635.771056759
  9
$TDUPDATE
 40
2454728.615104167
  9
$TDUUPDATE
 40
2454728.823437500
  9
$TDINDWG
 40
0.1773240625
  9
$TDUSRTIMER
 40
0.1773240625
  9
$USRTIMER
 70
     1
  9
$ANGBASE
 50
0.0
  9
$ANGDIR
 70
     0
  9
$PDMODE
 70
     0
  9
$PDSIZE
 40
0.0
  9
$PLINEWID
 40
0.0
  9
$SPLFRAME
 70
     0
  9
$SPLINETYPE
 70
     6
  9
$SPLINESEGS
 70
     8
  9
$HANDSEED
  5
13EA
  9
$SURFTAB1
 70
     6
  9
$SURFTAB2
 70
     6
  9
$SURFTYPE
 70
     6
  9
$SURFU
 70
     6
  9
$SURFV
 70
     6
  9
$UCSBASE
  2

  9
$UCSNAME
  2

  9
$UCSORG
 10
0.0
 20
0.0
 30
0.0
  9
$UCSXDIR
 10
1.0
 20
0.0
 30
0.0
  9
$UCSYDIR
 10
0.0
 20
1.0
 30
0.0
  9
$UCSORTHOREF
  2

  9
$UCSORTHOVIEW
 70
     0
  9
$UCSORGTOP
 10
0.0
 20
0.0
 30
0.0
  9
$UCSORGBOTTOM
 10
0.0
 20
0.0
 30
0.0
  9
$UCSORGLEFT
 10
0.0
 20
0.0
 30
0.0
  9
$UCSORGRIGHT
 10
0.0
 20
0.0
 30
0.0
  9
$UCSORGFRONT
 10
0.0
 20
0.0
 30
0.0
  9
$UCSORGBACK
 10
0.0
 20
0.0
 30
0.0
  9
$PUCSBASE
  2

  9
$PUCSNAME
  2

  9
$PUCSORG
 10
0.0
 20
0.0
 30
0.0
  9
$PUCSXDIR
 10
1.0
 20
0.0
 30
0.0
  9
$PUCSYDIR
 10
0.0
 20
1.0
 30
0.0
  9
$PUCSORTHOREF
  2

  9
$PUCSORTHOVIEW
 70
     0
  9
$PUCSORGTOP
 10
0.0
 20
0.0
 30
0.0
  9
$PUCSORGBOTTOM
 10
0.0
 20
0.0
 30
0.0
  9
$PUCSORGLEFT
 10
0.0
 20
0.0
 30
0.0
  9
$PUCSORGRIGHT
 10
0.0
 20
0.0
 30
0.0
  9
$PUCSORGFRONT
 10
0.0
 20
0.0
 30
0.0
  9
$PUCSORGBACK
 10
0.0
 20
0.0
 30
0.0
  9
$USERI1
 70
     0
  9
$USERI2
 70
     0
  9
$USERI3
 70
     0
  9
$USERI4
 70
     0
  9
$USERI5
 70
     0
  9
$USERR1
 40
0.0
  9
$USERR2
 40
0.0
  9
$USERR3
 40
0.0
  9
$USERR4
 40
0.0
  9
$USERR5
 40
0.0
  9
$WORLDVIEW
 70
     1
  9
$SHADEDGE
 70
     3
  9
$SHADEDIF
 70
    70
  9
$TILEMODE
 70
     1
  9
$MAXACTVP
 70
    64
  9
$PINSBASE
 10
0.0
 20
0.0
 30
0.0
  9
$PLIMCHECK
 70
     0
  9
$PEXTMIN
 10
0.2783811220443155
 20
0.3197708210893317
 30
-0.0000000349181948
  9
$PEXTMAX
 10
10.24008134267454
 20
7.680228985705237
 30
0.0000000814935746
  9
$PLIMMIN
 10
-0.1666668268639272
 20
-0.166666657905879
  9
$PLIMMAX
 10
10.83333293284018
 20
8.333333101798229
  9
$UNITMODE
 70
     0
  9
$VISRETAIN
 70
     1
  9
$PLINEGEN
 70
     0
  9
$PSLTSCALE
 70
     1
  9
$TREEDEPTH
 70
  3020
  9
$CMLSTYLE
  2
Standard
  9
$CMLJUST
 70
     0
  9
$CMLSCALE
 40
1.0
  9
$PROXYGRAPHICS
 70
     1
  9
$MEASUREMENT
 70
     0
  9
$CELWEIGHT
370
    -1
  9
$ENDCAPS
280
     0
  9
$JOINSTYLE
280
     0
  9
$LWDISPLAY
290
     0
  9
$INSUNITS
 70
     1
  9
$HYPERLINKBASE
  1

  9
$STYLESHEET
  1
monochrome.ctb
  9
$XEDIT
290
     1
  9
$CEPSNTYPE
380
     0
  9
$PSTYLEMODE
290
     1
  9
$FINGERPRINTGUID
  2
{FDEAD576-A652-11D2-9A35-0060089B3A3F}
  9
$VERSIONGUID
  2
{AFFD8FBA-9A88-4FA1-B030-5F2DFFCA04D3}
  9
$EXTNAMES
290
     1
  9
$PSVPSCALE
 40
0.0
  9
$OLESTARTUP
290
     0
  0
ENDSEC
  0
SECTION
  2
CLASSES
  0
CLASS
  1
ACDBDICTIONARYWDFLT
  2
AcDbDictionaryWithDefault
  3
ObjectDBX Classes
 90
        0
280
     0
281
     0
  0
CLASS
  1
ACDBPLACEHOLDER
  2
AcDbPlaceHolder
  3
ObjectDBX Classes
 90
        0
280
     0
281
     0
  0
CLASS
  1
LAYOUT
  2
AcDbLayout
  3
ObjectDBX Classes
 90
        0
280
     0
281
     0
  0
CLASS
  1
DICTIONARYVAR
  2
AcDbDictionaryVar
  3
ObjectDBX Classes
 90
        0
280
     0
281
     0
  0
ENDSEC
  0
SECTION
  2
TABLES
  0
TABLE
  2
VPORT
  5
8
330
0
100
AcDbSymbolTable
 70
     2
  0
VPORT
  5
13DB
330
8
100
AcDbSymbolTableRecord
100
AcDbViewportTableRecord
  2
*Active
 70
     0
 10
0.0
 20
0.0
 11
1.0
 21
1.0
 12
8.529621287392291
 22
5.320884726500237
 13
0.0
 23
0.0
 14
0.5
 24
0.5
 15
0.5
 25
0.5
 16
0.0
 26
0.0
 36
1.0
 17
0.0
 27
0.0
 37
0.0
 40
5.545358578666549
 41
1.495145631067961
 42
50.0
 43
0.0
 44
0.0
 50
0.0
 51
0.0
 71
     0
 72
   100
 73
     1
 74
     3
 75
     0
 76
     0
 77
     0
 78
     0
281
     0
 65
     1
110
0.0
120
0.0
130
0.0
111
1.0
121
0.0
131
0.0
112
0.0
122
1.0
132
0.0
 79
     0
146
0.0
  0
ENDTAB
  0
TABLE
  2
LTYPE
  5
5
330
0
100
AcDbSymbolTable
 70
     3
  0
LTYPE
  5
14
330
5
100
AcDbSymbolTableRecord
100
AcDbLinetypeTableRecord
  2
ByBlock
 70
     0
  3

 72
    65
 73
     0
 40
0.0
  0
LTYPE
  5
15
330
5
100
AcDbSymbolTableRecord
100
AcDbLinetypeTableRecord
  2
ByLayer
 70
     0
  3

 72
    65
 73
     0
 40
0.0
  0
LTYPE
  5
16
330
5
100
AcDbSymbolTableRecord
100
AcDbLinetypeTableRecord
  2
Continuous
 70
     0
  3
Solid line
 72
    65
 73
     0
 40
0.0
  0
LTYPE
  5
CD6
330
5
100
AcDbSymbolTableRecord
100
AcDbLinetypeTableRecord
  2
HIDDEN2
 70
     0
  3
Hidden (.5x) _ _ _ _ _ _ _ _ _ _ _ _ _ _ _ _ _
 72
    65
 73
     2
 40
0.1875
 49
0.125
 74
     0
 49
-0.0625
 74
     0
  0
LTYPE
  5
1328
330
5
100
AcDbSymbolTableRecord
100
AcDbLinetypeTableRecord
  2
HIDDEN
 70
     0
  3
Hidden __ __ __ __ __ __ __ __ __ __ __ __ __ _
 72
    65
 73
     2
 40
0.375
 49
0.25
 74
     0
 49
-0.125
 74
     0
  0
ENDTAB
  0
TABLE
  2
LAYER
  5
2
330
0
100
AcDbSymbolTable
 70
     6
  0
LAYER
  5
10
330
2
100
AcDbSymbolTableRecord
100
AcDbLayerTableRecord
  2
0
 70
     0
 62
     7
  6
Continuous
370
    -3
390
F
  0
LAYER
  5
6D
330
2
100
AcDbSymbolTableRecord
100
AcDbLayerTableRecord
  2
1
 70
     0
 62
     1
  6
Continuous
370
    -3
390
F
  0
LAYER
  5
6E
330
2
100
AcDbSymbolTableRecord
100
AcDbLayerTableRecord
  2
4
 70
     0
 62
     4
  6
Continuous
370
    -3
390
F
  0
LAYER
  5
6F
330
2
100
AcDbSymbolTableRecord
100
AcDbLayerTableRecord
  2
8
 70
     0
 62
     2
  6
Continuous
370
    -3
390
F
  0
LAYER
  5
CD7
330
2
100
AcDbSymbolTableRecord
100
AcDbLayerTableRecord
  2
2
 70
     0
 62
     3
  6
Continuous
370
    -3
390
F
  0
LAYER
  5
CE4
330
2
100
AcDbSymbolTableRecord
100
AcDbLayerTableRecord
  2
VP-1
 70
     0
 62
    -5
  6
Continuous
370
    -3
390
F
  0
ENDTAB
  0
TABLE
  2
STYLE
  5
3
330
0
100
AcDbSymbolTable
 70
     2
  0
STYLE
  5
11
330
3
100
AcDbSymbolTableRecord
100
AcDbTextStyleTableRecord
  2
Standard
 70
     0
 40
0.0
 41
1.0
 50
0.0
 71
     0
 42
0.2
  3
txt
  4

  0
STYLE
  5
70
330
3
100
AcDbSymbolTableRecord
100
AcDbTextStyleTableRecord
  2
ROMANS
 70
     0
 40
0.0
 41
1.0
 50
0.0
 71
     0
 42
0.07
  3
ROMANS
  4

  0
ENDTAB
  0
TABLE
  2
VIEW
  5
6
330
0
100
AcDbSymbolTable
 70
     0
  0
ENDTAB
  0
TABLE
  2
UCS
  5
7
330
0
100
AcDbSymbolTable
 70
     0
  0
ENDTAB
  0
TABLE
  2
APPID
  5
9
330
0
100
AcDbSymbolTable
 70
     1
  0
APPID
  5
12
330
9
100
AcDbSymbolTableRecord
100
AcDbRegAppTableRecord
  2
ACAD
 70
     0
  0
ENDTAB
  0
TABLE
  2
DIMSTYLE
  5
A
330
0
100
AcDbSymbolTable
 70
     1
100
AcDbDimStyleTable
 71
     0
  0
DIMSTYLE
105
27
330
A
100
AcDbSymbolTableRecord
100
AcDbDimStyleTableRecord
  2
Standard
 70
     0
340
11
  0
ENDTAB
  0
TABLE
  2
BLOCK_RECORD
  5
1
330
0
100
AcDbSymbolTable
 70
     5
  0
BLOCK_RECORD
  5
1F
330
1
100
AcDbSymbolTableRecord
100
AcDbBlockTableRecord
  2
*Model_Space
340
22
  0
BLOCK_RECORD
  5
58
330
1
100
AcDbSymbolTableRecord
100
AcDbBlockTableRecord
  2
*Paper_Space
340
59
  0
BLOCK_RECORD
  5
5D
330
1
100
AcDbSymbolTableRecord
100
AcDbBlockTableRecord
  2
*Paper_Space0
340
5E
  0
BLOCK_RECORD
  5
65
330
1
100
AcDbSymbolTableRecord
100
AcDbBlockTableRecord
  2
ARRO
340
0
102
{BLKREFS
331
181
331
182
331
186
331
187
331
18B
331
18C
331
18D
331
18E
331
18F
331
139
331
D31
331
F41
331
F44
331
11B0
331
126B
331
12B3
331
12B4
331
12B8
331
12B9
331
12BD
331
12BE
331
12BF
331
12C0
331
12C1
102
}
  0
BLOCK_RECORD
  5
131
330
1
100
AcDbSymbolTableRecord
100
AcDbBlockTableRecord
  2
LE1005
340
0
  0
BLOCK_RECORD
  5
76D
330
1
100
AcDbSymbolTableRecord
100
AcDbBlockTableRecord
  2
TEMP4
340
0
102
{BLKREFS
331
CF6
102
}
  0
BLOCK_RECORD
  5
771
330
1
100
AcDbSymbolTableRecord
100
AcDbBlockTableRecord
  2
ARRO2
340
0
102
{BLKREFS
331
D00
331
F3D
331
F48
102
}
  0
ENDTAB
  0
ENDSEC
  0
SECTION
  2
BLOCKS
  0
BLOCK
  5
20
330
1F
100
AcDbEntity
  8
0
100
AcDbBlockBegin
  2
*Model_Space
 70
     0
 10
0.0
 20
0.0
 30
0.0
  3
*Model_Space
  1

  0
ENDBLK
  5
21
330
1F
100
AcDbEntity
  8
0
100
AcDbBlockEnd
  0
BLOCK
  5
5A
330
58
100
AcDbEntity
 67
     1
  8
0
100
AcDbBlockBegin
  2
*Paper_Space
 70
     0
 10
0.0
 20
0.0
 30
0.0
  3
*Paper_Space
  1

  0
ENDBLK
  5
5B
330
58
100
AcDbEntity
 67
     1
  8
0
100
AcDbBlockEnd
  0
BLOCK
  5
5F
330
5D
100
AcDbEntity
  8
0
100
AcDbBlockBegin
  2
*Paper_Space0
 70
     0
 10
0.0
 20
0.0
 30
0.0
  3
*Paper_Space0
  1

  0
ENDBLK
  5
60
330
5D
100
AcDbEntity
  8
0
100
AcDbBlockEnd
  0
BLOCK
  5
6B
330
65
100
AcDbEntity
  8
4
100
AcDbBlockBegin
  2
ARRO
 70
     0
 10
0.0
 20
0.0
 30
0.0
  3
ARRO
  1

  0
LINE
  5
66
330
65
100
AcDbEntity
  8
4
100
AcDbLine
 10
0.1250000000000018
 20
0.0199999999999996
 30
0.0
 11
0.1250000000000018
 21
-0.0200000000000005
 31
0.0
  0
LINE
  5
67
330
65
100
AcDbEntity
  8
4
100
AcDbLine
 10
0.1250000000000018
 20
-0.0100000000000007
 30
0.0
 11
0.0000000000000009
 21
0.0
 31
0.0
  0
LINE
  5
68
330
65
100
AcDbEntity
  8
4
100
AcDbLine
 10
0.1250000000000018
 20
0.0099999999999989
 30
0.0
 11
0.0000000000000018
 21
0.0
 31
0.0
  0
LINE
  5
69
330
65
100
AcDbEntity
  8
4
100
AcDbLine
 10
0.0000000000000018
 20
0.0
 30
0.0
 11
0.1250000000000018
 21
-0.0200000000000005
 31
0.0
  0
LINE
  5
6A
330
65
100
AcDbEntity
  8
4
100
AcDbLine
 10
0.1250000000000018
 20
0.0199999999999996
 30
0.0
 11
0.0000000000000018
 21
0.0
 31
0.0
  0
ENDBLK
  5
6C
330
65
100
AcDbEntity
  8
4
100
AcDbBlockEnd
  0
BLOCK
  5
1F4
330
131
100
AcDbEntity
  8
0
100
AcDbBlockBegin
  2
LE1005
 70
     0
 10
0.0
 20
0.0
 30
0.0
  3
LE1005
  1

  0
TEXT
  5
132
330
131
100
AcDbEntity
  8
8
100
AcDbText
 10
5.2125
 20
0.9038482379456846
 30
0.0
 40
0.07
  1
DEPTH
  7
ROMANS
 72
     1
 11
5.3775
 21
0.9038482379456846
 31
0.0
100
AcDbText
  0
TEXT
  5
133
330
131
100
AcDbEntity
  8
8
100
AcDbText
 10
6.834999999999999
 20
0.9038482379456846
 30
0.0
 40
0.07
  1
DEPTH
  7
ROMANS
 72
     1
 11
7.0
 21
0.9038482379456846
 31
0.0
100
AcDbText
  0
TEXT
  5
134
330
131
100
AcDbEntity
  8
8
100
AcDbText
 10
6.899267058502116
 20
0.7466010068253098
 30
0.0
 40
0.1
  1
DR
  7
ROMANS
 72
     1
 11
7.001648010883068
 21
0.7466010068253098
 31
0.0
100
AcDbText
  0
TEXT
  5
135
330
131
100
AcDbEntity
  8
8
100
AcDbText
 10
5.794389324558379
 20
0.5620000000000003
 30
0.0
 40
0.1
  1
SECTIONS
  7
ROMANS
 72
     1
 11
6.146770276939331
 21
0.5620000000000003
 31
0.0
100
AcDbText
  0
TEXT
  5
136
330
131
100
AcDbEntity
  8
8
100
AcDbText
 10
5.302053163126957
 20
0.7466010068253098
 30
0.0
 40
0.1
  1
SR
  7
ROMANS
 72
     1
 11
5.399672210746004
 21
0.7466010068253098
 31
0.0
100
AcDbText
  0
LINE
  5
137
330
131
100
AcDbEntity
  8
4
100
AcDbLine
 10
5.628
 20
4.25
 30
0.0
 11
5.891731602665403
 21
4.25
 31
0.0
  0
LINE
  5
138
330
131
100
AcDbEntity
  8
4
100
AcDbLine
 10
5.93215881233783
 20
4.25
 30
0.0
 11
6.112622609161773
 21
4.25
 31
0.0
  0
INSERT
  5
139
330
131
100
AcDbEntity
  8
4
100
AcDbBlockReference
  2
ARRO
 10
5.93215881233783
 20
4.25
 30
0.0
  0
LINE
  5
13A
330
131
100
AcDbEntity
  8
4
100
AcDbLine
 10
6.112622609161773
 20
4.25
 30
0.0
 11
6.112622609161773
 21
4.047012330209487
 31
0.0
  0
TEXT
  5
13B
330
131
100
AcDbEntity
  8
8
100
AcDbText
 10
6.147622609161773
 20
2.671678996876154
 30
0.0
 40
0.07
  1
ANCHORING BY ERECTOR
 50
90.0
  7
ROMANS
 72
     2
 11
6.147622609161773
 21
3.985012330209487
 31
0.0
100
AcDbText
  0
TEXT
  5
13C
330
131
100
AcDbEntity
  8
8
100
AcDbText
 10
4.500499999999999
 20
2.578333333333333
 30
0.0
 40
0.07
  1
LOCKER HEIGHT
 50
90.0
  7
ROMANS
 72
     1
 11
4.500499999999999
 21
3.0
 31
0.0
100
AcDbText
  0
TEXT
  5
13D
330
131
100
AcDbEntity
  8
8
100
AcDbText
 10
1.344999999999998
 20
1.062
 30
0.0
 40
0.07
  1
LOCKER WIDTH - SEE SCHEDULE
  7
ROMANS
 72
     1
 11
2.249999999999999
 21
1.062
 31
0.0
100
AcDbText
  0
TEXT
  5
13E
330
131
100
AcDbEntity
  8
8
100
AcDbText
 10
1.585714285714285
 20
0.5620000000000003
 30
0.0
 40
0.1
  1
FRONT ELEVATION
  7
ROMANS
 72
     1
 11
2.249999999999999
 21
0.5620000000000003
 31
0.0
100
AcDbText
  0
LINE
  5
13F
330
131
100
AcDbEntity
  8
1
100
AcDbLine
 10
0.0
 20
0.0
 30
0.0
 11
8.25
 21
0.0
 31
0.0
  0
LINE
  5
140
330
131
100
AcDbEntity
  8
1
100
AcDbLine
 10
8.25
 20
0.0
 30
0.0
 11
8.25
 21
5.25
 31
0.0
  0
LINE
  5
141
330
131
100
AcDbEntity
  8
1
100
AcDbLine
 10
8.25
 20
5.25
 30
0.0
 11
0.0
 21
5.25
 31
0.0
  0
LINE
  5
142
330
131
100
AcDbEntity
  8
1
100
AcDbLine
 10
0.0
 20
5.25
 30
0.0
 11
0.0
 21
0.0
 31
0.0
  0
LINE
  5
143
330
131
100
AcDbEntity
  8
1
100
AcDbLine
 10
1.0
 20
1.5
 30
0.0
 11
2.5
 21
1.5
 31
0.0
  0
LINE
  5
144
330
131
100
AcDbEntity
  8
1
100
AcDbLine
 10
1.0
 20
1.5
 30
0.0
 11
1.0
 21
4.5
 31
0.0
  0
LINE
  5
145
330
131
100
AcDbEntity
  8
1
100
AcDbLine
 10
1.0
 20
4.5
 30
0.0
 11
2.5
 21
4.5
 31
0.0
  0
LINE
  5
146
330
131
100
AcDbEntity
  8
1
100
AcDbLine
 10
2.625
 20
4.5
 30
0.0
 11
3.5
 21
4.5
 31
0.0
  0
LINE
  5
147
330
131
100
AcDbEntity
  8
1
100
AcDbLine
 10
3.5
 20
4.5
 30
0.0
 11
3.499999999999999
 21
1.5
 31
0.0
  0
LINE
  5
148
330
131
100
AcDbEntity
  8
1
100
AcDbLine
 10
3.499999999999999
 20
1.5
 30
0.0
 11
2.624999999999999
 21
1.5
 31
0.0
  0
LINE
  5
149
330
131
100
AcDbEntity
  8
1
100
AcDbLine
 10
7.0
 20
1.5
 30
0.0
 11
7.0
 21
4.5
 31
0.0
  0
LINE
  5
14A
330
131
100
AcDbEntity
  8
1
100
AcDbLine
 10
5.75
 20
1.5
 30
0.0
 11
5.75
 21
4.875
 31
0.0
  0
CIRCLE
  5
14B
330
131
100
AcDbEntity
  8
1
100
AcDbCircle
 10
4.125
 20
0.5
 30
0.0
 40
0.1875
  0
LINE
  5
14C
330
131
100
AcDbEntity
  8
1
100
AcDbLine
 10
2.625
 20
4.625
 30
0.0
 11
2.625
 21
3.709974179311579
 31
0.0
  0
LINE
  5
14D
330
131
100
AcDbEntity
  8
1
100
AcDbLine
 10
2.5
 20
4.625
 30
0.0
 11
2.5
 21
4.344974179311579
 31
0.0
  0
LINE
  5
14E
330
131
100
AcDbEntity
  8
1
100
AcDbLine
 10
2.455
 20
4.389974179311579
 30
0.0
 11
2.544999999999999
 21
4.299974179311579
 31
0.0
  0
LINE
  5
14F
330
131
100
AcDbEntity
  8
1
100
AcDbLine
 10
2.544999999999999
 20
4.299974179311579
 30
0.0
 11
2.455
 21
4.299974179311579
 31
0.0
  0
LINE
  5
150
330
131
100
AcDbEntity
  8
1
100
AcDbLine
 10
2.455
 20
4.299974179311579
 30
0.0
 11
2.544999999999999
 21
4.209974179311579
 31
0.0
  0
LINE
  5
151
330
131
100
AcDbEntity
  8
1
100
AcDbLine
 10
2.512196030826982
 20
4.242778148484597
 30
0.0
 11
2.512196030826982
 21
3.07567852914767
 31
0.0
  0
LINE
  5
152
330
131
100
AcDbEntity
  8
1
100
AcDbLine
 10
2.454999999999999
 20
3.049974179311579
 30
0.0
 11
2.544999999999999
 21
2.959974179311579
 31
0.0
  0
LINE
  5
153
330
131
100
AcDbEntity
  8
1
100
AcDbLine
 10
2.544999999999999
 20
3.049974179311579
 30
0.0
 11
2.454999999999999
 21
3.049974179311579
 31
0.0
  0
LINE
  5
154
330
131
100
AcDbEntity
  8
1
100
AcDbLine
 10
2.454999999999999
 20
3.139974179311579
 30
0.0
 11
2.544999999999999
 21
3.049974179311579
 31
0.0
  0
LINE
  5
155
330
131
100
AcDbEntity
  8
1
100
AcDbLine
 10
2.454999999999999
 20
1.799974179311579
 30
0.0
 11
2.544999999999999
 21
1.709974179311579
 31
0.0
  0
LINE
  5
156
330
131
100
AcDbEntity
  8
1
100
AcDbLine
 10
2.544999999999999
 20
1.799974179311579
 30
0.0
 11
2.454999999999999
 21
1.799974179311579
 31
0.0
  0
LINE
  5
157
330
131
100
AcDbEntity
  8
1
100
AcDbLine
 10
2.454999999999999
 20
1.889974179311579
 30
0.0
 11
2.544999999999999
 21
1.799974179311579
 31
0.0
  0
LINE
  5
158
330
131
100
AcDbEntity
  8
1
100
AcDbLine
 10
2.5
 20
3.004974179311579
 30
0.0
 11
2.5
 21
2.469974179311579
 31
0.0
  0
LINE
  5
159
330
131
100
AcDbEntity
  8
1
100
AcDbLine
 10
2.5
 20
2.469974179311579
 30
0.0
 11
2.499999999999999
 21
1.844974179311579
 31
0.0
  0
LINE
  5
15A
330
131
100
AcDbEntity
  8
1
100
AcDbLine
 10
2.499999999999999
 20
1.754974179311579
 30
0.0
 11
2.499999999999999
 21
1.375
 31
0.0
  0
LINE
  5
15B
330
131
100
AcDbEntity
  8
1
100
AcDbLine
 10
2.579999999999999
 20
2.514974179311579
 30
0.0
 11
2.669999999999999
 21
2.424974179311579
 31
0.0
  0
LINE
  5
15C
330
131
100
AcDbEntity
  8
1
100
AcDbLine
 10
2.669999999999999
 20
2.424974179311579
 30
0.0
 11
2.579999999999999
 21
2.424974179311579
 31
0.0
  0
LINE
  5
15D
330
131
100
AcDbEntity
  8
1
100
AcDbLine
 10
2.579999999999999
 20
2.424974179311579
 30
0.0
 11
2.669999999999999
 21
2.334974179311579
 31
0.0
  0
LINE
  5
15E
330
131
100
AcDbEntity
  8
1
100
AcDbLine
 10
2.58
 20
3.754974179311579
 30
0.0
 11
2.669999999999999
 21
3.664974179311579
 31
0.0
  0
LINE
  5
15F
330
131
100
AcDbEntity
  8
1
100
AcDbLine
 10
2.669999999999999
 20
3.664974179311579
 30
0.0
 11
2.58
 21
3.664974179311579
 31
0.0
  0
LINE
  5
160
330
131
100
AcDbEntity
  8
1
100
AcDbLine
 10
2.58
 20
3.664974179311579
 30
0.0
 11
2.669999999999999
 21
3.574974179311579
 31
0.0
  0
LINE
  5
161
330
131
100
AcDbEntity
  8
1
100
AcDbLine
 10
2.625
 20
3.625967704151865
 30
0.0
 11
2.625
 21
2.782474179311579
 31
0.0
  0
LINE
  5
162
330
131
100
AcDbEntity
  8
1
100
AcDbLine
 10
2.625
 20
2.782474179311579
 30
0.0
 11
2.625
 21
2.469974179311579
 31
0.0
  0
LINE
  5
163
330
131
100
AcDbEntity
  8
1
100
AcDbLine
 10
2.625
 20
2.379974179311579
 30
0.0
 11
2.624999999999999
 21
1.375
 31
0.0
  0
LINE
  5
164
330
131
100
AcDbEntity
  8
1
100
AcDbLine
 10
5.75
 20
1.5
 30
0.0
 11
5.937999999999999
 21
1.687999999999999
 31
0.0
  0
LINE
  5
165
330
131
100
AcDbEntity
  8
1
100
AcDbLine
 10
5.75
 20
1.625
 30
0.0
 11
5.937999999999999
 21
1.812999999999999
 31
0.0
  0
LINE
  5
166
330
131
100
AcDbEntity
  8
1
100
AcDbLine
 10
5.75
 20
2.0
 30
0.0
 11
5.937999999999999
 21
2.187999999999999
 31
0.0
  0
LINE
  5
167
330
131
100
AcDbEntity
  8
1
100
AcDbLine
 10
5.75
 20
2.125
 30
0.0
 11
5.937999999999999
 21
2.312999999999999
 31
0.0
  0
LINE
  5
168
330
131
100
AcDbEntity
  8
1
100
AcDbLine
 10
5.75
 20
2.25
 30
0.0
 11
5.937999999999999
 21
2.437999999999999
 31
0.0
  0
LINE
  5
169
330
131
100
AcDbEntity
  8
1
100
AcDbLine
 10
5.75
 20
2.375
 30
0.0
 11
5.937999999999999
 21
2.562999999999999
 31
0.0
  0
LINE
  5
16A
330
131
100
AcDbEntity
  8
1
100
AcDbLine
 10
5.75
 20
2.5
 30
0.0
 11
5.937999999999999
 21
2.687999999999999
 31
0.0
  0
LINE
  5
16B
330
131
100
AcDbEntity
  8
1
100
AcDbLine
 10
5.75
 20
2.625
 30
0.0
 11
5.937999999999999
 21
2.812999999999999
 31
0.0
  0
LINE
  5
16C
330
131
100
AcDbEntity
  8
1
100
AcDbLine
 10
5.75
 20
2.75
 30
0.0
 11
5.937999999999999
 21
2.937999999999999
 31
0.0
  0
LINE
  5
16D
330
131
100
AcDbEntity
  8
1
100
AcDbLine
 10
5.75
 20
2.875
 30
0.0
 11
5.937999999999999
 21
3.062999999999999
 31
0.0
  0
LINE
  5
16E
330
131
100
AcDbEntity
  8
1
100
AcDbLine
 10
5.75
 20
3.0
 30
0.0
 11
5.937999999999999
 21
3.187999999999999
 31
0.0
  0
LINE
  5
16F
330
131
100
AcDbEntity
  8
1
100
AcDbLine
 10
5.75
 20
3.125
 30
0.0
 11
5.937999999999999
 21
3.312999999999999
 31
0.0
  0
LINE
  5
170
330
131
100
AcDbEntity
  8
1
100
AcDbLine
 10
5.75
 20
3.25
 30
0.0
 11
5.937999999999999
 21
3.437999999999999
 31
0.0
  0
LINE
  5
171
330
131
100
AcDbEntity
  8
1
100
AcDbLine
 10
5.75
 20
3.375
 30
0.0
 11
5.937999999999999
 21
3.562999999999999
 31
0.0
  0
LINE
  5
172
330
131
100
AcDbEntity
  8
1
100
AcDbLine
 10
5.75
 20
3.5
 30
0.0
 11
5.937999999999999
 21
3.687999999999999
 31
0.0
  0
LINE
  5
173
330
131
100
AcDbEntity
  8
1
100
AcDbLine
 10
5.75
 20
3.625
 30
0.0
 11
5.937999999999999
 21
3.812999999999999
 31
0.0
  0
LINE
  5
174
330
131
100
AcDbEntity
  8
1
100
AcDbLine
 10
5.75
 20
3.75
 30
0.0
 11
5.937999999999999
 21
3.937999999999999
 31
0.0
  0
LINE
  5
175
330
131
100
AcDbEntity
  8
1
100
AcDbLine
 10
5.75
 20
3.875
 30
0.0
 11
5.937999999999999
 21
4.062999999999999
 31
0.0
  0
LINE
  5
176
330
131
100
AcDbEntity
  8
1
100
AcDbLine
 10
5.75
 20
4.0
 30
0.0
 11
5.937999999999999
 21
4.187999999999999
 31
0.0
  0
LINE
  5
177
330
131
100
AcDbEntity
  8
1
100
AcDbLine
 10
5.75
 20
4.125
 30
0.0
 11
5.937999999999999
 21
4.312999999999999
 31
0.0
  0
LINE
  5
178
330
131
100
AcDbEntity
  8
1
100
AcDbLine
 10
5.75
 20
4.25
 30
0.0
 11
5.937999999999999
 21
4.437999999999999
 31
0.0
  0
LINE
  5
179
330
131
100
AcDbEntity
  8
1
100
AcDbLine
 10
5.75
 20
4.375
 30
0.0
 11
5.937999999999999
 21
4.562999999999999
 31
0.0
  0
LINE
  5
17A
330
131
100
AcDbEntity
  8
1
100
AcDbLine
 10
5.75
 20
4.5
 30
0.0
 11
5.937999999999999
 21
4.687999999999999
 31
0.0
  0
LINE
  5
17B
330
131
100
AcDbEntity
  8
1
100
AcDbLine
 10
5.75
 20
4.625
 30
0.0
 11
5.937999999999999
 21
4.812999999999999
 31
0.0
  0
LINE
  5
17C
330
131
100
AcDbEntity
  8
1
100
AcDbLine
 10
5.75
 20
4.75
 30
0.0
 11
5.875
 21
4.875
 31
0.0
  0
LINE
  5
17D
330
131
100
AcDbEntity
  8
1
100
AcDbLine
 10
5.69
 20
1.5
 30
0.0
 11
5.69
 21
4.5
 31
0.0
  0
LINE
  5
17E
330
131
100
AcDbEntity
  8
4
100
AcDbLine
 10
1.0
 20
1.437999999999999
 30
0.0
 11
0.9999999999999998
 21
0.9379999999999999
 31
0.0
  0
LINE
  5
17F
330
131
100
AcDbEntity
  8
4
100
AcDbLine
 10
3.499999999999999
 20
1.437999999999999
 30
0.0
 11
3.499999999999999
 21
0.9379999999999999
 31
0.0
  0
LINE
  5
180
330
131
100
AcDbEntity
  8
4
100
AcDbLine
 10
3.499999999999999
 20
1.0
 30
0.0
 11
0.9999999999999998
 21
1.0
 31
0.0
  0
INSERT
  5
181
330
131
100
AcDbEntity
  8
4
100
AcDbBlockReference
  2
ARRO
 10
0.9999999999999998
 20
1.0
 30
0.0
  0
INSERT
  5
182
330
131
100
AcDbEntity
  8
4
100
AcDbBlockReference
  2
ARRO
 10
3.499999999999999
 20
0.9999999999999998
 30
0.0
 50
180.0
  0
LINE
  5
183
330
131
100
AcDbEntity
  8
4
100
AcDbLine
 10
5.0025
 20
1.5
 30
0.0
 11
4.5025
 21
1.5
 31
0.0
  0
LINE
  5
184
330
131
100
AcDbEntity
  8
4
100
AcDbLine
 10
4.5625
 20
1.5
 30
0.0
 11
4.5625
 21
4.5
 31
0.0
  0
LINE
  5
185
330
131
100
AcDbEntity
  8
4
100
AcDbLine
 10
5.0025
 20
4.5
 30
0.0
 11
4.5025
 21
4.5
 31
0.0
  0
INSERT
  5
186
330
131
100
AcDbEntity
  8
4
100
AcDbBlockReference
  2
ARRO
 10
4.5625
 20
4.5
 30
0.0
 50
270.0
  0
INSERT
  5
187
330
131
100
AcDbEntity
  8
4
100
AcDbBlockReference
  2
ARRO
 10
4.5625
 20
1.5
 30
0.0
 50
90.0
  0
LINE
  5
188
330
131
100
AcDbEntity
  8
4
100
AcDbLine
 10
5.69
 20
0.9999999999999998
 30
0.0
 11
5.065
 21
0.9999999999999998
 31
0.0
  0
LINE
  5
189
330
131
100
AcDbEntity
  8
4
100
AcDbLine
 10
5.75
 20
0.9999999999999998
 30
0.0
 11
6.0
 21
0.9999999999999998
 31
0.0
  0
LINE
  5
18A
330
131
100
AcDbEntity
  8
4
100
AcDbLine
 10
6.375
 20
0.9999999999999998
 30
0.0
 11
7.625
 21
0.9999999999999998
 31
0.0
  0
INSERT
  5
18B
330
131
100
AcDbEntity
  8
4
100
AcDbBlockReference
  2
ARRO
 10
5.065
 20
0.9999999999999998
 30
0.0
  0
INSERT
  5
18C
330
131
100
AcDbEntity
  8
4
100
AcDbBlockReference
  2
ARRO
 10
5.69
 20
0.9999999999999998
 30
0.0
 50
180.0
  0
INSERT
  5
18D
330
131
100
AcDbEntity
  8
4
100
AcDbBlockReference
  2
ARRO
 10
5.75
 20
0.9999999999999998
 30
0.0
  0
INSERT
  5
18E
330
131
100
AcDbEntity
  8
4
100
AcDbBlockReference
  2
ARRO
 10
6.375
 20
0.9999999999999998
 30
0.0
  0
INSERT
  5
18F
330
131
100
AcDbEntity
  8
4
100
AcDbBlockReference
  2
ARRO
 10
7.625
 20
0.9999999999999998
 30
0.0
 50
180.0
  0
LINE
  5
190
330
131
100
AcDbEntity
  8
1
100
AcDbLine
 10
1.062
 20
1.562
 30
0.0
 11
1.062
 21
4.438
 31
0.0
  0
LINE
  5
191
330
131
100
AcDbEntity
  8
1
100
AcDbLine
 10
1.062
 20
4.438
 30
0.0
 11
1.563
 21
4.438
 31
0.0
  0
LINE
  5
192
330
131
100
AcDbEntity
  8
1
100
AcDbLine
 10
1.563
 20
4.438
 30
0.0
 11
1.562999999999999
 21
1.562
 31
0.0
  0
LINE
  5
193
330
131
100
AcDbEntity
  8
1
100
AcDbLine
 10
1.687
 20
1.562
 30
0.0
 11
1.687
 21
4.438
 31
0.0
  0
LINE
  5
194
330
131
100
AcDbEntity
  8
1
100
AcDbLine
 10
1.687
 20
4.438
 30
0.0
 11
2.188
 21
4.438
 31
0.0
  0
LINE
  5
195
330
131
100
AcDbEntity
  8
1
100
AcDbLine
 10
2.188
 20
4.438
 30
0.0
 11
2.187999999999999
 21
1.562
 31
0.0
  0
LINE
  5
196
330
131
100
AcDbEntity
  8
1
100
AcDbLine
 10
2.187999999999999
 20
1.562
 30
0.0
 11
1.687
 21
1.562
 31
0.0
  0
LINE
  5
197
330
131
100
AcDbEntity
  8
1
100
AcDbLine
 10
2.312
 20
1.562
 30
0.0
 11
2.312
 21
4.438
 31
0.0
  0
LINE
  5
198
330
131
100
AcDbEntity
  8
1
100
AcDbLine
 10
2.312
 20
4.438
 30
0.0
 11
2.5
 21
4.438
 31
0.0
  0
LINE
  5
199
330
131
100
AcDbEntity
  8
1
100
AcDbLine
 10
2.813
 20
4.438
 30
0.0
 11
2.812999999999999
 21
1.562
 31
0.0
  0
LINE
  5
19A
330
131
100
AcDbEntity
  8
1
100
AcDbLine
 10
2.812999999999999
 20
1.562
 30
0.0
 11
2.625
 21
1.562
 31
0.0
  0
LINE
  5
19B
330
131
100
AcDbEntity
  8
1
100
AcDbLine
 10
2.937
 20
1.562
 30
0.0
 11
2.937
 21
4.438
 31
0.0
  0
LINE
  5
19C
330
131
100
AcDbEntity
  8
1
100
AcDbLine
 10
2.937
 20
4.438
 30
0.0
 11
3.438
 21
4.438
 31
0.0
  0
LINE
  5
19D
330
131
100
AcDbEntity
  8
1
100
AcDbLine
 10
3.438
 20
4.438
 30
0.0
 11
3.437999999999999
 21
1.562
 31
0.0
  0
LINE
  5
19E
330
131
100
AcDbEntity
  8
1
100
AcDbLine
 10
3.437999999999999
 20
1.562
 30
0.0
 11
2.937
 21
1.562
 31
0.0
  0
LINE
  5
19F
330
131
100
AcDbEntity
  8
1
100
AcDbLine
 10
1.625
 20
1.5
 30
0.0
 11
1.625
 21
4.5
 31
0.0
  0
LINE
  5
1A0
330
131
100
AcDbEntity
  8
1
100
AcDbLine
 10
2.25
 20
1.5
 30
0.0
 11
2.25
 21
4.5
 31
0.0
  0
LINE
  5
1A1
330
131
100
AcDbEntity
  8
1
100
AcDbLine
 10
2.875
 20
1.5
 30
0.0
 11
2.875
 21
4.5
 31
0.0
  0
LINE
  5
1A2
330
131
100
AcDbEntity
  8
1
100
AcDbLine
 10
2.625
 20
4.438
 30
0.0
 11
2.813
 21
4.438
 31
0.0
  0
LINE
  5
1A3
330
131
100
AcDbEntity
  8
1
100
AcDbLine
 10
2.499999999999999
 20
1.562
 30
0.0
 11
2.312
 21
1.562
 31
0.0
  0
LINE
  5
1A4
330
131
100
AcDbEntity
  8
4
100
AcDbLine
 10
1.9375
 20
4.406
 30
0.0
 11
1.9375
 21
4.531
 31
0.0
  0
CIRCLE
  5
1A5
330
131
100
AcDbEntity
  8
4
100
AcDbCircle
 10
1.9375
 20
4.312
 30
0.0
 40
0.094
  0
CIRCLE
  5
1A6
330
131
100
AcDbEntity
  8
4
100
AcDbCircle
 10
1.778866710308013
 20
1.373999999999999
 30
0.0
 40
0.094
  0
LINE
  5
1A7
330
131
100
AcDbEntity
  8
4
100
AcDbLine
 10
1.778866710308013
 20
1.467999999999999
 30
0.0
 11
1.778866710308013
 21
1.592999999999999
 31
0.0
  0
CIRCLE
  5
1A8
330
131
100
AcDbEntity
  8
4
100
AcDbCircle
 10
2.028866710308013
 20
1.373999999999999
 30
0.0
 40
0.094
  0
LINE
  5
1A9
330
131
100
AcDbEntity
  8
4
100
AcDbLine
 10
1.872866710308013
 20
1.373999999999999
 30
0.0
 11
1.934866710308013
 21
1.373999999999999
 31
0.0
  0
LINE
  5
1AA
330
131
100
AcDbEntity
  8
1
100
AcDbLine
 10
1.062
 20
1.562
 30
0.0
 11
1.562999999999999
 21
1.562
 31
0.0
  0
LINE
  5
1AB
330
131
100
AcDbEntity
  8
1
100
AcDbLine
 10
5.203499999999999
 20
4.5
 30
0.0
 11
5.188499999999999
 21
4.484999999999999
 31
0.0
  0
LINE
  5
1AC
330
131
100
AcDbEntity
  8
1
100
AcDbLine
 10
5.188499999999999
 20
4.484999999999999
 30
0.0
 11
5.090499999999999
 21
4.484999999999999
 31
0.0
  0
LINE
  5
1AD
330
131
100
AcDbEntity
  8
1
100
AcDbLine
 10
5.090499999999999
 20
4.484999999999999
 30
0.0
 11
5.090499999999999
 21
4.456753857562439
 31
0.0
  0
LINE
  5
1AE
330
131
100
AcDbEntity
  8
1
100
AcDbLine
 10
5.265499999999999
 20
4.437999999999999
 30
0.0
 11
5.203499999999999
 21
4.5
 31
0.0
  0
LINE
  5
1AF
330
131
100
AcDbEntity
  8
1
100
AcDbLine
 10
5.630499999999999
 20
4.437999999999999
 30
0.0
 11
5.265499999999999
 21
4.437999999999999
 31
0.0
  0
LINE
  5
1B0
330
131
100
AcDbEntity
  8
1
100
AcDbLine
 10
5.630499999999999
 20
4.5
 30
0.0
 11
5.630499999999999
 21
4.437999999999999
 31
0.0
  0
LINE
  5
1B1
330
131
100
AcDbEntity
  8
1
100
AcDbLine
 10
5.670499999999999
 20
4.5
 30
0.0
 11
5.670499999999999
 21
4.437999999999999
 31
0.0
  0
LINE
  5
1B2
330
131
100
AcDbEntity
  8
1
100
AcDbLine
 10
5.065499999999999
 20
4.5
 30
0.0
 11
5.173499999999998
 21
4.5
 31
0.0
  0
LINE
  5
1B3
330
131
100
AcDbEntity
  8
1
100
AcDbLine
 10
5.065499999999999
 20
4.437999999999999
 30
0.0
 11
5.065499999999999
 21
4.5
 31
0.0
  0
LINE
  5
1B4
330
131
100
AcDbEntity
  8
1
100
AcDbLine
 10
5.127499999999999
 20
4.437999999999999
 30
0.0
 11
5.065499999999999
 21
4.437999999999999
 31
0.0
  0
LINE
  5
1B5
330
131
100
AcDbEntity
  8
1
100
AcDbLine
 10
5.203499999999999
 20
4.5
 30
0.0
 11
5.670499999999999
 21
4.5
 31
0.0
  0
LINE
  5
1B6
330
131
100
AcDbEntity
  8
1
100
AcDbLine
 10
6.513499999999998
 20
4.5
 30
0.0
 11
6.980499999999999
 21
4.5
 31
0.0
  0
LINE
  5
1B7
330
131
100
AcDbEntity
  8
1
100
AcDbLine
 10
6.437499999999999
 20
4.437999999999999
 30
0.0
 11
6.375499999999998
 21
4.437999999999999
 31
0.0
  0
LINE
  5
1B8
330
131
100
AcDbEntity
  8
1
100
AcDbLine
 10
6.375499999999998
 20
4.437999999999999
 30
0.0
 11
6.375499999999998
 21
4.5
 31
0.0
  0
LINE
  5
1B9
330
131
100
AcDbEntity
  8
1
100
AcDbLine
 10
6.375499999999998
 20
4.5
 30
0.0
 11
6.483499999999998
 21
4.5
 31
0.0
  0
LINE
  5
1BA
330
131
100
AcDbEntity
  8
1
100
AcDbLine
 10
6.980499999999999
 20
4.5
 30
0.0
 11
6.980499999999999
 21
4.437999999999999
 31
0.0
  0
LINE
  5
1BB
330
131
100
AcDbEntity
  8
1
100
AcDbLine
 10
6.940499999999999
 20
4.5
 30
0.0
 11
6.940499999999999
 21
4.437999999999999
 31
0.0
  0
LINE
  5
1BC
330
131
100
AcDbEntity
  8
1
100
AcDbLine
 10
6.940499999999999
 20
4.437999999999999
 30
0.0
 11
6.575499999999999
 21
4.437999999999999
 31
0.0
  0
LINE
  5
1BD
330
131
100
AcDbEntity
  8
1
100
AcDbLine
 10
6.575499999999999
 20
4.437999999999999
 30
0.0
 11
6.513499999999998
 21
4.5
 31
0.0
  0
LINE
  5
1BE
330
131
100
AcDbEntity
  8
1
100
AcDbLine
 10
6.400499999999999
 20
4.484999999999999
 30
0.0
 11
6.400499999999999
 21
4.456753857562439
 31
0.0
  0
LINE
  5
1BF
330
131
100
AcDbEntity
  8
1
100
AcDbLine
 10
6.498499999999999
 20
4.484999999999999
 30
0.0
 11
6.400499999999999
 21
4.484999999999999
 31
0.0
  0
LINE
  5
1C0
330
131
100
AcDbEntity
  8
1
100
AcDbLine
 10
6.513499999999998
 20
4.5
 30
0.0
 11
6.498499999999999
 21
4.484999999999999
 31
0.0
  0
LINE
  5
1C1
330
131
100
AcDbEntity
  8
1
100
AcDbLine
 10
7.486500000000001
 20
4.5
 30
0.0
 11
7.5015
 21
4.484999999999999
 31
0.0
  0
LINE
  5
1C2
330
131
100
AcDbEntity
  8
1
100
AcDbLine
 10
7.5015
 20
4.484999999999999
 30
0.0
 11
7.5995
 21
4.484999999999999
 31
0.0
  0
LINE
  5
1C3
330
131
100
AcDbEntity
  8
1
100
AcDbLine
 10
7.5995
 20
4.484999999999999
 30
0.0
 11
7.5995
 21
4.456753857562439
 31
0.0
  0
LINE
  5
1C4
330
131
100
AcDbEntity
  8
1
100
AcDbLine
 10
7.4245
 20
4.437999999999999
 30
0.0
 11
7.486500000000001
 21
4.5
 31
0.0
  0
LINE
  5
1C5
330
131
100
AcDbEntity
  8
1
100
AcDbLine
 10
7.0595
 20
4.437999999999999
 30
0.0
 11
7.4245
 21
4.437999999999999
 31
0.0
  0
LINE
  5
1C6
330
131
100
AcDbEntity
  8
1
100
AcDbLine
 10
7.0595
 20
4.5
 30
0.0
 11
7.0595
 21
4.437999999999999
 31
0.0
  0
LINE
  5
1C7
330
131
100
AcDbEntity
  8
1
100
AcDbLine
 10
7.0195
 20
4.5
 30
0.0
 11
7.0195
 21
4.437999999999999
 31
0.0
  0
LINE
  5
1C8
330
131
100
AcDbEntity
  8
1
100
AcDbLine
 10
7.624500000000001
 20
4.5
 30
0.0
 11
7.516500000000001
 21
4.5
 31
0.0
  0
LINE
  5
1C9
330
131
100
AcDbEntity
  8
1
100
AcDbLine
 10
7.624500000000001
 20
4.437999999999999
 30
0.0
 11
7.624500000000001
 21
4.5
 31
0.0
  0
LINE
  5
1CA
330
131
100
AcDbEntity
  8
1
100
AcDbLine
 10
7.5625
 20
4.437999999999999
 30
0.0
 11
7.624500000000001
 21
4.437999999999999
 31
0.0
  0
LINE
  5
1CB
330
131
100
AcDbEntity
  8
1
100
AcDbLine
 10
7.486500000000001
 20
4.5
 30
0.0
 11
7.0195
 21
4.5
 31
0.0
  0
LINE
  5
1CC
330
131
100
AcDbEntity
  8
1
100
AcDbLine
 10
7.486500000000001
 20
1.5625
 30
0.0
 11
7.0195
 21
1.5625
 31
0.0
  0
LINE
  5
1CD
330
131
100
AcDbEntity
  8
1
100
AcDbLine
 10
7.5625
 20
1.500499999999999
 30
0.0
 11
7.624500000000001
 21
1.500499999999999
 31
0.0
  0
LINE
  5
1CE
330
131
100
AcDbEntity
  8
1
100
AcDbLine
 10
7.624500000000001
 20
1.500499999999999
 30
0.0
 11
7.624500000000001
 21
1.5625
 31
0.0
  0
LINE
  5
1CF
330
131
100
AcDbEntity
  8
1
100
AcDbLine
 10
7.624500000000001
 20
1.5625
 30
0.0
 11
7.516500000000001
 21
1.5625
 31
0.0
  0
LINE
  5
1D0
330
131
100
AcDbEntity
  8
1
100
AcDbLine
 10
7.0195
 20
1.5625
 30
0.0
 11
7.0195
 21
1.500499999999999
 31
0.0
  0
LINE
  5
1D1
330
131
100
AcDbEntity
  8
1
100
AcDbLine
 10
7.0595
 20
1.5625
 30
0.0
 11
7.0595
 21
1.500499999999999
 31
0.0
  0
LINE
  5
1D2
330
131
100
AcDbEntity
  8
1
100
AcDbLine
 10
7.0595
 20
1.500499999999999
 30
0.0
 11
7.4245
 21
1.500499999999999
 31
0.0
  0
LINE
  5
1D3
330
131
100
AcDbEntity
  8
1
100
AcDbLine
 10
7.4245
 20
1.500499999999999
 30
0.0
 11
7.486500000000001
 21
1.5625
 31
0.0
  0
LINE
  5
1D4
330
131
100
AcDbEntity
  8
1
100
AcDbLine
 10
7.5995
 20
1.547499999999999
 30
0.0
 11
7.5995
 21
1.519253857562439
 31
0.0
  0
LINE
  5
1D5
330
131
100
AcDbEntity
  8
1
100
AcDbLine
 10
7.5015
 20
1.547499999999999
 30
0.0
 11
7.5995
 21
1.547499999999999
 31
0.0
  0
LINE
  5
1D6
330
131
100
AcDbEntity
  8
1
100
AcDbLine
 10
7.486500000000001
 20
1.5625
 30
0.0
 11
7.5015
 21
1.547499999999999
 31
0.0
  0
LINE
  5
1D7
330
131
100
AcDbEntity
  8
1
100
AcDbLine
 10
6.513499999999998
 20
1.5625
 30
0.0
 11
6.498499999999999
 21
1.547499999999999
 31
0.0
  0
LINE
  5
1D8
330
131
100
AcDbEntity
  8
1
100
AcDbLine
 10
6.498499999999999
 20
1.547499999999999
 30
0.0
 11
6.400499999999999
 21
1.547499999999999
 31
0.0
  0
LINE
  5
1D9
330
131
100
AcDbEntity
  8
1
100
AcDbLine
 10
6.400499999999999
 20
1.547499999999999
 30
0.0
 11
6.400499999999999
 21
1.519253857562439
 31
0.0
  0
LINE
  5
1DA
330
131
100
AcDbEntity
  8
1
100
AcDbLine
 10
6.575499999999999
 20
1.500499999999999
 30
0.0
 11
6.513499999999998
 21
1.5625
 31
0.0
  0
LINE
  5
1DB
330
131
100
AcDbEntity
  8
1
100
AcDbLine
 10
6.940499999999999
 20
1.500499999999999
 30
0.0
 11
6.575499999999999
 21
1.500499999999999
 31
0.0
  0
LINE
  5
1DC
330
131
100
AcDbEntity
  8
1
100
AcDbLine
 10
6.940499999999999
 20
1.5625
 30
0.0
 11
6.940499999999999
 21
1.500499999999999
 31
0.0
  0
LINE
  5
1DD
330
131
100
AcDbEntity
  8
1
100
AcDbLine
 10
6.980499999999999
 20
1.5625
 30
0.0
 11
6.980499999999999
 21
1.500499999999999
 31
0.0
  0
LINE
  5
1DE
330
131
100
AcDbEntity
  8
1
100
AcDbLine
 10
6.375499999999998
 20
1.5625
 30
0.0
 11
6.483499999999998
 21
1.5625
 31
0.0
  0
LINE
  5
1DF
330
131
100
AcDbEntity
  8
1
100
AcDbLine
 10
6.375499999999998
 20
1.500499999999999
 30
0.0
 11
6.375499999999998
 21
1.5625
 31
0.0
  0
LINE
  5
1E0
330
131
100
AcDbEntity
  8
1
100
AcDbLine
 10
6.437499999999999
 20
1.500499999999999
 30
0.0
 11
6.375499999999998
 21
1.500499999999999
 31
0.0
  0
LINE
  5
1E1
330
131
100
AcDbEntity
  8
1
100
AcDbLine
 10
6.513499999999998
 20
1.5625
 30
0.0
 11
6.980499999999999
 21
1.5625
 31
0.0
  0
LINE
  5
1E2
330
131
100
AcDbEntity
  8
1
100
AcDbLine
 10
5.203499999999999
 20
1.5625
 30
0.0
 11
5.670499999999999
 21
1.5625
 31
0.0
  0
LINE
  5
1E3
330
131
100
AcDbEntity
  8
1
100
AcDbLine
 10
5.127499999999999
 20
1.500499999999999
 30
0.0
 11
5.065499999999999
 21
1.500499999999999
 31
0.0
  0
LINE
  5
1E4
330
131
100
AcDbEntity
  8
1
100
AcDbLine
 10
5.065499999999999
 20
1.500499999999999
 30
0.0
 11
5.065499999999999
 21
1.5625
 31
0.0
  0
LINE
  5
1E5
330
131
100
AcDbEntity
  8
1
100
AcDbLine
 10
5.065499999999999
 20
1.5625
 30
0.0
 11
5.173499999999998
 21
1.5625
 31
0.0
  0
LINE
  5
1E6
330
131
100
AcDbEntity
  8
1
100
AcDbLine
 10
5.670499999999999
 20
1.5625
 30
0.0
 11
5.670499999999999
 21
1.500499999999999
 31
0.0
  0
LINE
  5
1E7
330
131
100
AcDbEntity
  8
1
100
AcDbLine
 10
5.630499999999999
 20
1.5625
 30
0.0
 11
5.630499999999999
 21
1.500499999999999
 31
0.0
  0
LINE
  5
1E8
330
131
100
AcDbEntity
  8
1
100
AcDbLine
 10
5.630499999999999
 20
1.500499999999999
 30
0.0
 11
5.265499999999999
 21
1.500499999999999
 31
0.0
  0
LINE
  5
1E9
330
131
100
AcDbEntity
  8
1
100
AcDbLine
 10
5.265499999999999
 20
1.500499999999999
 30
0.0
 11
5.203499999999999
 21
1.5625
 31
0.0
  0
LINE
  5
1EA
330
131
100
AcDbEntity
  8
1
100
AcDbLine
 10
5.090499999999999
 20
1.547499999999999
 30
0.0
 11
5.090499999999999
 21
1.519253857562439
 31
0.0
  0
LINE
  5
1EB
330
131
100
AcDbEntity
  8
1
100
AcDbLine
 10
5.188499999999999
 20
1.547499999999999
 30
0.0
 11
5.090499999999999
 21
1.547499999999999
 31
0.0
  0
LINE
  5
1EC
330
131
100
AcDbEntity
  8
1
100
AcDbLine
 10
5.203499999999999
 20
1.5625
 30
0.0
 11
5.188499999999999
 21
1.547499999999999
 31
0.0
  0
LINE
  5
1ED
330
131
100
AcDbEntity
  8
1
100
AcDbLine
 10
5.75
 20
1.875
 30
0.0
 11
5.937999999999999
 21
2.062999999999999
 31
0.0
  0
LINE
  5
1EE
330
131
100
AcDbEntity
  8
1
100
AcDbLine
 10
5.75
 20
1.75
 30
0.0
 11
5.937999999999999
 21
1.937999999999999
 31
0.0
  0
LINE
  5
1EF
330
131
100
AcDbEntity
  8
4
100
AcDbLine
 10
5.065
 20
0.9379999999999999
 30
0.0
 11
5.065
 21
1.125999999999999
 31
0.0
  0
LINE
  5
1F0
330
131
100
AcDbEntity
  8
4
100
AcDbLine
 10
5.69
 20
0.9379999999999999
 30
0.0
 11
5.69
 21
1.125999999999999
 31
0.0
  0
LINE
  5
1F1
330
131
100
AcDbEntity
  8
4
100
AcDbLine
 10
5.75
 20
0.9379999999999999
 30
0.0
 11
5.75
 21
1.125999999999999
 31
0.0
  0
LINE
  5
1F2
330
131
100
AcDbEntity
  8
4
100
AcDbLine
 10
6.375
 20
0.9379999999999999
 30
0.0
 11
6.375
 21
1.125999999999999
 31
0.0
  0
LINE
  5
1F3
330
131
100
AcDbEntity
  8
4
100
AcDbLine
 10
7.625
 20
0.9379999999999999
 30
0.0
 11
7.625
 21
1.125999999999999
 31
0.0
  0
ENDBLK
  5
1F5
330
131
100
AcDbEntity
  8
0
100
AcDbBlockEnd
  0
BLOCK
  5
76F
330
76D
100
AcDbEntity
  8
8
100
AcDbBlockBegin
  2
TEMP4
 70
     0
 10
0.0
 20
0.0
 30
0.0
  3
TEMP4
  1

  0
TEXT
  5
76E
330
76D
100
AcDbEntity
  8
8
100
AcDbText
 10
0.03
 20
0.0619999999999998
 30
0.0
 40
0.07
  1
LOCKING DEVICE AS SPECIFIED IN NOTES
 50
90.0
  7
ROMANS
100
AcDbText
  0
ENDBLK
  5
770
330
76D
100
AcDbEntity
  8
8
100
AcDbBlockEnd
  0
BLOCK
  5
77C
330
771
100
AcDbEntity
  8
8
100
AcDbBlockBegin
  2
ARRO2
 70
     0
 10
0.0
 20
0.0
 30
0.0
  3
ARRO2
  1

  0
LINE
  5
772
330
771
100
AcDbEntity
  8
4
100
AcDbLine
 10
-0.124999999999992
 20
-0.0200000000000005
 30
0.0
 11
0.000000000000008
 21
-0.0000000000000009
 31
0.0
  0
LINE
  5
773
330
771
100
AcDbEntity
  8
4
100
AcDbLine
 10
0.000000000000008
 20
-0.0000000000000009
 30
0.0
 11
-0.124999999999992
 21
0.0199999999999996
 31
0.0
  0
LINE
  5
774
330
771
100
AcDbEntity
  8
4
100
AcDbLine
 10
-0.124999999999992
 20
-0.0099999999999998
 30
0.0
 11
0.000000000000008
 21
-0.0000000000000009
 31
0.0
  0
LINE
  5
775
330
771
100
AcDbEntity
  8
4
100
AcDbLine
 10
-0.124999999999992
 20
0.0099999999999998
 30
0.0
 11
0.0000000000000089
 21
-0.0000000000000009
 31
0.0
  0
LINE
  5
776
330
771
100
AcDbEntity
  8
4
100
AcDbLine
 10
-0.124999999999992
 20
-0.0200000000000005
 30
0.0
 11
-0.124999999999992
 21
0.0199999999999996
 31
0.0
  0
LINE
  5
777
330
771
100
AcDbEntity
  8
4
100
AcDbLine
 10
0.1250000000000124
 20
0.0199999999999987
 30
0.0
 11
0.1250000000000124
 21
-0.0200000000000014
 31
0.0
  0
LINE
  5
778
330
771
100
AcDbEntity
  8
4
100
AcDbLine
 10
0.1250000000000124
 20
-0.0100000000000016
 30
0.0
 11
0.0000000000000115
 21
-0.0000000000000009
 31
0.0
  0
LINE
  5
779
330
771
100
AcDbEntity
  8
4
100
AcDbLine
 10
0.1250000000000124
 20
0.009999999999998
 30
0.0
 11
0.0000000000000124
 21
-0.0000000000000009
 31
0.0
  0
LINE
  5
77A
330
771
100
AcDbEntity
  8
4
100
AcDbLine
 10
0.0000000000000124
 20
-0.0000000000000009
 30
0.0
 11
0.1250000000000124
 21
-0.0200000000000014
 31
0.0
  0
LINE
  5
77B
330
771
100
AcDbEntity
  8
4
100
AcDbLine
 10
0.1250000000000124
 20
0.0199999999999987
 30
0.0
 11
0.0000000000000124
 21
-0.0000000000000009
 31
0.0
  0
ENDBLK
  5
77D
330
771
100
AcDbEntity
  8
8
100
AcDbBlockEnd
  0
ENDSEC
  0
SECTION
  2
ENTITIES
  0
LINE
  5
CF5
330
1F
100
AcDbEntity
  8
4
100
AcDbLine
 10
5.365638843252161
 20
4.63833782771624
 30
0.0
 11
4.990638843252161
 21
4.63833782771624
 31
0.0
  0
INSERT
  5
CF6
330
1F
100
AcDbEntity
  8
8
100
AcDbBlockReference
  2
TEMP4
 10
4.990638843252161
 20
4.70033782771624
 30
0.0
  0
POINT
  5
CF7
330
1F
100
AcDbEntity
  8
4
100
AcDbPoint
 10
4.404726960728844
 20
2.696145553440054
 30
0.0
  0
LINE
  5
CF8
330
1F
100
AcDbEntity
  8
4
100
AcDbLine
 10
4.990638843252161
 20
4.63833782771624
 30
0.0
 11
4.990638843252161
 21
4.70033782771624
 31
0.0
  0
LINE
  5
CF9
330
1F
100
AcDbEntity
  8
4
  6
HIDDEN2
100
AcDbLine
 10
5.789748590446512
 20
5.762321134909742
 30
0.0
 11
5.789748590446511
 21
6.364707725524317
 31
0.0
  0
LINE
  5
CFA
330
1F
100
AcDbEntity
  8
4
  6
HIDDEN2
100
AcDbLine
 10
5.810912845248511
 20
5.762321199800983
 30
0.0
 11
5.810912845248509
 21
6.364707725524317
 31
0.0
  0
LINE
  5
CFB
330
1F
100
AcDbEntity
  8
4
  6
HIDDEN2
100
AcDbLine
 10
5.890011686585479
 20
5.76232144232414
 30
0.0
 11
5.890011686585479
 21
6.364708097829962
 31
0.0
  0
LINE
  5
CFC
330
1F
100
AcDbEntity
  8
4
  6
HIDDEN2
100
AcDbLine
 10
5.911175941387479
 20
5.762321507215381
 30
0.0
 11
5.911175941387477
 21
6.364708097829958
 31
0.0
  0
LINE
  5
CFD
330
1F
100
AcDbEntity
  8
4
100
AcDbLine
 10
5.498726960728844
 20
6.368602006315931
 30
0.0
 11
5.498726960728844
 21
5.760101399549411
 31
0.0
  0
LINE
  5
CFE
330
1F
100
AcDbEntity
  8
4
100
AcDbLine
 10
5.935694063234228
 20
5.760106671340019
 30
0.0
 11
5.935694063234228
 21
6.36860727810654
 31
0.0
  0
LINE
  5
CFF
330
1F
100
AcDbEntity
  8
4
100
AcDbLine
 10
9.217226960728844
 20
7.196145553440053
 30
0.0
 11
9.217226960728844
 21
4.258145553440053
 31
0.0
  0
INSERT
  5
D00
330
1F
100
AcDbEntity
  8
4
100
AcDbBlockReference
  2
ARRO2
 10
9.217226960728844
 20
6.461651431997184
 30
0.0
 50
90.0
  0
LINE
  5
D01
330
1F
100
AcDbEntity
  8
4
100
AcDbLine
 10
9.470226960728844
 20
6.367651431997184
 30
0.0
 11
9.470226960728844
 21
5.75910727810654
 31
0.0
  0
LINE
  5
D02
330
1F
100
AcDbEntity
  8
4
100
AcDbLine
 10
10.78022696072884
 20
6.367651431997184
 30
0.0
 11
10.78022696072884
 21
5.75910727810654
 31
0.0
  0
LINE
  5
D03
330
1F
100
AcDbEntity
  8
4
100
AcDbLine
 10
12.06122696072884
 20
6.367651431997184
 30
0.0
 11
12.06122696072884
 21
5.75910727810654
 31
0.0
  0
TEXT
  5
D04
330
1F
100
AcDbEntity
  8
8
100
AcDbText
 10
5.979131722633605
 20
2.790145553440053
 30
0.0
 40
0.125
  1
SINGLE POINT 2 ATHLETIC LOCKER  -   FOUR TIER
  7
ROMANS
 72
     1
 11
8.529726960728844
 21
2.790145553440053
 31
0.0
100
AcDbText
  0
LINE
  5
D05
330
1F
100
AcDbEntity
  8
4
100
AcDbLine
 10
6.091726960728844
 20
4.930651431997183
 30
0.0
 11
6.592726960728843
 21
4.930651431997183
 31
0.0
  0
LINE
  5
D06
330
1F
100
AcDbEntity
  8
4
100
AcDbLine
 10
5.588103036750803
 20
4.693379105609474
 30
0.0
 11
5.639317417535242
 21
4.693379105609474
 31
0.0
  0
LINE
  5
D07
330
1F
100
AcDbEntity
  8
4
100
AcDbLine
 10
5.588103036750803
 20
4.674312209391456
 30
0.0
 11
5.633945552040096
 21
4.674312209391456
 31
0.0
  0
LINE
  5
D08
330
1F
100
AcDbEntity
  8
4
100
AcDbLine
 10
5.588103036750803
 20
4.481259885184024
 30
0.0
 11
5.632993587850724
 21
4.481259885184024
 31
0.0
  0
LINE
  5
D09
330
1F
100
AcDbEntity
  8
2
  6
HIDDEN
 62
     2
 48
0.75
100
AcDbLine
 10
5.624098589087566
 20
4.819679244097066
 30
0.0
 11
5.636065638794364
 21
4.793358499700968
 31
0.0
  0
LINE
  5
D0A
330
1F
100
AcDbEntity
  8
2
  6
HIDDEN
 62
     2
 48
0.75
100
AcDbLine
 10
5.624098589087566
 20
4.765064850725735
 30
0.0
 11
5.636065638794364
 21
4.791385595121834
 31
0.0
  0
LINE
  5
D0B
330
1F
100
AcDbEntity
  8
4
100
AcDbLine
 10
5.466726960728844
 20
4.930651431997183
 30
0.0
 11
5.967726960728843
 21
4.930651431997183
 31
0.0
  0
LINE
  5
D0C
330
1F
100
AcDbEntity
  8
4
100
AcDbLine
 10
5.935694063234228
 20
4.898651431997183
 30
0.0
 11
5.498726960728844
 21
4.898646160206575
 31
0.0
  0
LINE
  5
D0D
330
1F
100
AcDbEntity
  8
4
100
AcDbLine
 10
5.935694063234228
 20
4.290150825230663
 30
0.0
 11
5.498726960728844
 21
4.290145553440054
 31
0.0
  0
ARC
  5
D0E
330
1F
100
AcDbEntity
  8
4
100
AcDbCircle
 10
5.625891049622363
 20
4.526391228532076
 30
0.0
 40
0.019066896218018
100
AcDbArc
 50
270.0
 51
356.4236656250017
  0
LINE
  5
D0F
330
1F
100
AcDbEntity
  8
2
  6
HIDDEN
 62
     2
 48
0.75
100
AcDbLine
 10
5.624098589087567
 20
4.393227007406
 30
0.0
 11
5.636065638794365
 21
4.419547751802099
 31
0.0
  0
LINE
  5
D10
330
1F
100
AcDbEntity
  8
2
  6
HIDDEN
 62
     2
 48
0.75
100
AcDbLine
 10
5.624098589087567
 20
4.447841400777331
 30
0.0
 11
5.636065638794365
 21
4.421520656381232
 31
0.0
  0
CIRCLE
  5
D11
330
1F
100
AcDbEntity
  8
4
100
AcDbCircle
 10
5.588103036750803
 20
4.581956930835432
 30
0.0
 40
0.0125126506430743
  0
LINE
  5
D12
330
1F
100
AcDbEntity
  8
4
100
AcDbLine
 10
5.498726960728844
 20
4.898646160206575
 30
0.0
 11
5.498726960728844
 21
4.290145553440054
 31
0.0
  0
LINE
  5
D13
330
1F
100
AcDbEntity
  8
4
100
AcDbLine
 10
5.523230756527453
 20
4.654055952865062
 30
0.0
 11
5.531285258945186
 21
4.525183914181344
 31
0.0
  0
LINE
  5
D14
330
1F
100
AcDbEntity
  8
4
100
AcDbLine
 10
5.508344008565277
 20
4.66299472081988
 30
0.0
 11
5.518235919174932
 21
4.504724151065429
 31
0.0
  0
LINE
  5
D15
330
1F
100
AcDbEntity
  8
2
  6
HIDDEN
 62
     2
 48
0.75
100
AcDbLine
 10
5.576959276944606
 20
4.393227007406
 30
0.0
 11
5.564992227237809
 21
4.419547751802099
 31
0.0
  0
LINE
  5
D16
330
1F
100
AcDbEntity
  8
2
  6
HIDDEN
 62
     2
 48
0.75
100
AcDbLine
 10
5.581198072597026
 20
4.393227007406
 30
0.0
 11
5.593165122303824
 21
4.419547751802099
 31
0.0
  0
LINE
  5
D17
330
1F
100
AcDbEntity
  8
2
  6
HIDDEN
 62
     2
 48
0.75
100
AcDbLine
 10
5.619859793435146
 20
4.393227007406
 30
0.0
 11
5.607892743728349
 21
4.419547751802099
 31
0.0
  0
ARC
  5
D18
330
1F
100
AcDbEntity
  8
2
  6
HIDDEN
 62
     2
 48
0.75
100
AcDbCircle
 10
5.600528933016088
 20
4.346649981246846
 30
0.0
 40
0.0023833620272523
100
AcDbArc
 50
201.6777967963417
 51
338.3222032036581
  0
LINE
  5
D19
330
1F
100
AcDbEntity
  8
2
  6
HIDDEN
 62
     2
 48
0.75
100
AcDbLine
 10
5.598409535189876
 20
4.345559766860955
 30
0.0
 11
5.586442485483079
 21
4.371880511257053
 31
0.0
  0
LINE
  5
D1A
330
1F
100
AcDbEntity
  8
2
  6
HIDDEN
 62
     2
 48
0.75
100
AcDbLine
 10
5.602648330842296
 20
4.345559766860955
 30
0.0
 11
5.614615380549095
 21
4.371880511257053
 31
0.0
  0
ARC
  5
D1B
330
1F
100
AcDbEntity
  8
2
  6
HIDDEN
 62
     2
 48
0.75
100
AcDbCircle
 10
5.579078674770817
 20
4.394317221791891
 30
0.0
 40
0.0023833620272523
100
AcDbArc
 50
201.6777967963417
 51
338.3222032036581
  0
ARC
  5
D1C
330
1F
100
AcDbEntity
  8
2
  6
HIDDEN
 62
     2
 48
0.75
100
AcDbCircle
 10
5.621979191261357
 20
4.394317221791891
 30
0.0
 40
0.0023833620272523
100
AcDbArc
 50
201.6777967963417
 51
338.3222032036581
  0
ARC
  5
D1D
330
1F
100
AcDbEntity
  8
2
  6
HIDDEN
 62
     2
 48
0.75
100
AcDbCircle
 10
5.600528933016088
 20
4.399083945846395
 30
0.0
 40
0.0023833620272523
100
AcDbArc
 50
21.67779679634189
 51
158.322203203658
  0
LINE
  5
D1E
330
1F
100
AcDbEntity
  8
2
  6
HIDDEN
 62
     2
 48
0.75
100
AcDbLine
 10
5.602648330842296
 20
4.400174160232286
 30
0.0
 11
5.614615380549095
 21
4.373853415836187
 31
0.0
  0
LINE
  5
D1F
330
1F
100
AcDbEntity
  8
2
  6
HIDDEN
 62
     2
 48
0.75
100
AcDbLine
 10
5.598409535189876
 20
4.400174160232286
 30
0.0
 11
5.586442485483079
 21
4.373853415836187
 31
0.0
  0
ARC
  5
D20
330
1F
100
AcDbEntity
  8
2
  6
HIDDEN
 62
     2
 48
0.75
100
AcDbCircle
 10
5.588612122879824
 20
4.372866963546621
 30
0.0
 40
0.0023833620272523
100
AcDbArc
 50
155.5504979363153
 51
204.4495020636847
  0
ARC
  5
D21
330
1F
100
AcDbEntity
  8
2
  6
HIDDEN
 62
     2
 48
0.75
100
AcDbCircle
 10
5.612445743152346
 20
4.372866963546621
 30
0.0
 40
0.0023833620272523
100
AcDbArc
 50
335.5504979363153
 51
24.44950206368468
  0
LINE
  5
D22
330
1F
100
AcDbEntity
  8
4
100
AcDbLine
 10
5.588103036750803
 20
4.507324332314054
 30
0.0
 11
5.625891049622363
 21
4.507324332314059
 31
0.0
  0
CIRCLE
  5
D23
330
1F
100
AcDbEntity
  8
4
100
AcDbCircle
 10
5.588103036750803
 20
4.540276695702846
 30
0.0
 40
0.0041565833755279
  0
CIRCLE
  5
D24
330
1F
100
AcDbEntity
  8
4
100
AcDbCircle
 10
5.588103036750803
 20
4.491985014306663
 30
0.0
 40
0.0068602692592429
  0
LINE
  5
D25
330
1F
100
AcDbEntity
  8
4
100
AcDbLine
 10
5.588103036750803
 20
4.507324332314054
 30
0.0
 11
5.550315023879244
 21
4.507324332314059
 31
0.0
  0
LINE
  5
D26
330
1F
100
AcDbEntity
  8
4
100
AcDbLine
 10
5.588103036750803
 20
4.481259885184024
 30
0.0
 11
5.543212485650883
 21
4.481259885184024
 31
0.0
  0
ARC
  5
D27
330
1F
100
AcDbEntity
  8
2
  6
HIDDEN
 62
     2
 48
0.75
100
AcDbCircle
 10
5.579078674770817
 20
4.44675118639144
 30
0.0
 40
0.0023833620272523
100
AcDbArc
 50
21.67779679634189
 51
158.322203203658
  0
ARC
  5
D28
330
1F
100
AcDbEntity
  8
4
100
AcDbCircle
 10
5.550315023879244
 20
4.526391228532076
 30
0.0
 40
0.019066896218018
100
AcDbArc
 50
183.5763343749981
 51
270.0
  0
ARC
  5
D29
330
1F
100
AcDbEntity
  8
4
100
AcDbCircle
 10
5.543212485650883
 20
4.506285186470172
 30
0.0
 40
0.0250253012861486
100
AcDbArc
 50
183.5763343749981
 51
270.0
  0
ARC
  5
D2A
330
1F
100
AcDbEntity
  8
2
  6
HIDDEN
 62
     2
 48
0.75
100
AcDbCircle
 10
5.567161864634554
 20
4.420534204091666
 30
0.0
 40
0.0023833620272523
100
AcDbArc
 50
155.5504979363153
 51
204.4495020636847
  0
LINE
  5
D2B
330
1F
100
AcDbEntity
  8
2
  6
HIDDEN
 62
     2
 48
0.75
100
AcDbLine
 10
5.576959276944606
 20
4.447841400777331
 30
0.0
 11
5.564992227237809
 21
4.421520656381232
 31
0.0
  0
LINE
  5
D2C
330
1F
100
AcDbEntity
  8
2
  6
HIDDEN
 62
     2
 48
0.75
100
AcDbLine
 10
5.581198072597027
 20
4.447841400777331
 30
0.0
 11
5.593165122303824
 21
4.421520656381232
 31
0.0
  0
ARC
  5
D2D
330
1F
100
AcDbEntity
  8
2
  6
HIDDEN
 62
     2
 48
0.75
100
AcDbCircle
 10
5.621979191261357
 20
4.44675118639144
 30
0.0
 40
0.0023833620272523
100
AcDbArc
 50
21.67779679634189
 51
158.322203203658
  0
LINE
  5
D2E
330
1F
100
AcDbEntity
  8
2
  6
HIDDEN
 62
     2
 48
0.75
100
AcDbLine
 10
5.619859793435146
 20
4.447841400777331
 30
0.0
 11
5.607892743728349
 21
4.421520656381232
 31
0.0
  0
ARC
  5
D2F
330
1F
100
AcDbEntity
  8
2
  6
HIDDEN
 62
     2
 48
0.75
100
AcDbCircle
 10
5.590995484907076
 20
4.420534204091666
 30
0.0
 40
0.0023833620272523
100
AcDbArc
 50
335.5504979363153
 51
24.44950206368468
  0
ARC
  5
D30
330
1F
100
AcDbEntity
  8
2
  6
HIDDEN
 62
     2
 48
0.75
100
AcDbCircle
 10
5.610062381125096
 20
4.420534204091666
 30
0.0
 40
0.0023833620272523
100
AcDbArc
 50
155.5504979363153
 51
204.4495020636847
  0
INSERT
  5
D31
330
1F
100
AcDbEntity
  8
4
100
AcDbBlockReference
  2
ARRO
 10
5.365638843252161
 20
4.63833782771624
 30
0.0
 50
180.0
  0
LINE
  5
D32
330
1F
100
AcDbEntity
  8
2
  6
HIDDEN
 62
     2
 48
0.75
100
AcDbLine
 10
5.602648330842296
 20
4.772012003552021
 30
0.0
 11
5.614615380549094
 21
4.745691259155923
 31
0.0
  0
LINE
  5
D33
330
1F
100
AcDbEntity
  8
2
  6
HIDDEN
 62
     2
 48
0.75
100
AcDbLine
 10
5.598409535189875
 20
4.772012003552021
 30
0.0
 11
5.586442485483078
 21
4.745691259155923
 31
0.0
  0
ARC
  5
D34
330
1F
100
AcDbEntity
  8
2
  6
HIDDEN
 62
     2
 48
0.75
100
AcDbCircle
 10
5.621979191261357
 20
4.766155065111626
 30
0.0
 40
0.0023833620272523
100
AcDbArc
 50
201.6777967963417
 51
338.3222032036581
  0
ARC
  5
D35
330
1F
100
AcDbEntity
  8
2
  6
HIDDEN
 62
     2
 48
0.75
100
AcDbCircle
 10
5.579078674770816
 20
4.766155065111626
 30
0.0
 40
0.0023833620272523
100
AcDbArc
 50
201.6777967963417
 51
338.3222032036581
  0
LINE
  5
D36
330
1F
100
AcDbEntity
  8
4
100
AcDbLine
 10
5.544167064899637
 20
4.658234182189209
 30
0.0
 11
5.540796481996652
 21
4.654863599286224
 31
0.0
  0
ARC
  5
D37
330
1F
100
AcDbEntity
  8
4
 62
   130
100
AcDbCircle
 10
5.543290742128315
 20
4.655711596663629
 30
0.0
 40
0.0059488716200216
100
AcDbArc
 50
44.99999999999996
 51
225.0
  0
LINE
  5
D38
330
1F
100
AcDbEntity
  8
4
100
AcDbLine
 10
5.562691788534443
 20
4.632968292748433
 30
0.0
 11
5.566062371437428
 21
4.63633887565142
 31
0.0
  0
ARC
  5
D39
330
1F
100
AcDbEntity
  8
4
 62
   130
100
AcDbCircle
 10
5.563539785911851
 20
4.635462552880096
 30
0.0
 40
0.0059488716200216
100
AcDbArc
 50
225.0
 51
44.99999999999996
  0
CIRCLE
  5
D3A
330
1F
100
AcDbEntity
  8
4
100
AcDbCircle
 10
5.588103036750803
 20
4.623637165968021
 30
0.0
 40
0.0041565833755279
  0
ARC
  5
D3B
330
1F
100
AcDbEntity
  8
2
  6
HIDDEN
 62
     2
 48
0.75
100
AcDbCircle
 10
5.588612122879824
 20
4.744704806866356
 30
0.0
 40
0.0023833620272523
100
AcDbArc
 50
155.5504979363153
 51
204.4495020636847
  0
ARC
  5
D3C
330
1F
100
AcDbEntity
  8
2
  6
HIDDEN
 62
     2
 48
0.75
100
AcDbCircle
 10
5.612445743152346
 20
4.744704806866356
 30
0.0
 40
0.0023833620272523
100
AcDbArc
 50
335.5504979363153
 51
24.44950206368468
  0
ARC
  5
D3D
330
1F
100
AcDbEntity
  8
2
  6
HIDDEN
 62
     2
 48
0.75
100
AcDbCircle
 10
5.600528933016087
 20
4.718487824566581
 30
0.0
 40
0.0023833620272523
100
AcDbArc
 50
201.6777967963417
 51
338.3222032036581
  0
LINE
  5
D3E
330
1F
100
AcDbEntity
  8
2
  6
HIDDEN
 62
     2
 48
0.75
100
AcDbLine
 10
5.598409535189875
 20
4.71739761018069
 30
0.0
 11
5.586442485483078
 21
4.743718354576789
 31
0.0
  0
LINE
  5
D3F
330
1F
100
AcDbEntity
  8
2
  6
HIDDEN
 62
     2
 48
0.75
100
AcDbLine
 10
5.602648330842296
 20
4.71739761018069
 30
0.0
 11
5.614615380549094
 21
4.743718354576789
 31
0.0
  0
LINE
  5
D40
330
1F
100
AcDbEntity
  8
4
100
AcDbLine
 10
5.588103036750803
 20
4.674312209391456
 30
0.0
 11
5.542260521461511
 21
4.674312209391456
 31
0.0
  0
LINE
  5
D41
330
1F
100
AcDbEntity
  8
4
100
AcDbLine
 10
5.588103036750803
 20
4.693379105609474
 30
0.0
 11
5.536888655966366
 21
4.693379105609474
 31
0.0
  0
LINE
  5
D42
330
1F
100
AcDbEntity
  8
4
100
AcDbLine
 10
5.544167064899637
 20
4.658234182189209
 30
0.0
 11
5.566062371437428
 21
4.63633887565142
 31
0.0
  0
LINE
  5
D43
330
1F
100
AcDbEntity
  8
4
100
AcDbLine
 10
5.560993014751338
 20
4.64140823233751
 30
0.0
 11
5.557622431848354
 21
4.638037649434525
 31
0.0
  0
LINE
  5
D44
330
1F
100
AcDbEntity
  8
4
100
AcDbLine
 10
5.540796481996652
 20
4.654863599286224
 30
0.0
 11
5.562691788534443
 21
4.632968292748433
 31
0.0
  0
LINE
  5
D45
330
1F
100
AcDbEntity
  8
4
 62
   130
100
AcDbLine
 10
5.539084254665389
 20
4.651505109200705
 30
0.0
 11
5.559333298448924
 21
4.631256065417169
 31
0.0
  0
LINE
  5
D46
330
1F
100
AcDbEntity
  8
4
 62
   130
100
AcDbLine
 10
5.54749722959124
 20
4.659918084126553
 30
0.0
 11
5.567746273374775
 21
4.63966904034302
 31
0.0
  0
ARC
  5
D47
330
1F
100
AcDbEntity
  8
4
100
AcDbCircle
 10
5.536888655966366
 20
4.664778761282448
 30
0.0
 40
0.028600344327027
100
AcDbArc
 50
90.0
 51
183.5763343749981
  0
LINE
  5
D48
330
1F
100
AcDbEntity
  8
4
100
AcDbLine
 10
5.549236421585727
 20
4.653164825503123
 30
0.0
 11
5.545865838682741
 21
4.649794242600139
 31
0.0
  0
ARC
  5
D49
330
1F
100
AcDbEntity
  8
4
100
AcDbCircle
 10
5.542260521461511
 20
4.655245313173439
 30
0.0
 40
0.019066896218018
100
AcDbArc
 50
90.0
 51
183.5763343749981
  0
LINE
  5
D4A
330
1F
100
AcDbEntity
  8
2
  6
HIDDEN
 62
     2
 48
0.75
100
AcDbLine
 10
5.581198072597026
 20
4.819679244097066
 30
0.0
 11
5.593165122303823
 21
4.793358499700968
 31
0.0
  0
LINE
  5
D4B
330
1F
100
AcDbEntity
  8
2
  6
HIDDEN
 62
     2
 48
0.75
100
AcDbLine
 10
5.619859793435146
 20
4.819679244097066
 30
0.0
 11
5.607892743728348
 21
4.793358499700968
 31
0.0
  0
ARC
  5
D4C
330
1F
100
AcDbEntity
  8
2
  6
HIDDEN
 62
     2
 48
0.75
100
AcDbCircle
 10
5.621979191261357
 20
4.818589029711175
 30
0.0
 40
0.0023833620272523
100
AcDbArc
 50
21.67779679634189
 51
158.322203203658
  0
LINE
  5
D4D
330
1F
100
AcDbEntity
  8
2
  6
HIDDEN
 62
     2
 48
0.75
100
AcDbLine
 10
5.581198072597025
 20
4.765064850725735
 30
0.0
 11
5.593165122303823
 21
4.791385595121834
 31
0.0
  0
LINE
  5
D4E
330
1F
100
AcDbEntity
  8
2
  6
HIDDEN
 62
     2
 48
0.75
100
AcDbLine
 10
5.619859793435146
 20
4.765064850725735
 30
0.0
 11
5.607892743728348
 21
4.791385595121834
 31
0.0
  0
ARC
  5
D4F
330
1F
100
AcDbEntity
  8
2
  6
HIDDEN
 62
     2
 48
0.75
100
AcDbCircle
 10
5.590995484907076
 20
4.792372047411401
 30
0.0
 40
0.0023833620272523
100
AcDbArc
 50
335.5504979363153
 51
24.44950206368468
  0
ARC
  5
D50
330
1F
100
AcDbEntity
  8
2
  6
HIDDEN
 62
     2
 48
0.75
100
AcDbCircle
 10
5.610062381125095
 20
4.792372047411401
 30
0.0
 40
0.0023833620272523
100
AcDbArc
 50
155.5504979363153
 51
204.4495020636847
  0
ARC
  5
D51
330
1F
100
AcDbEntity
  8
2
  6
HIDDEN
 62
     2
 48
0.75
100
AcDbCircle
 10
5.600528933016087
 20
4.770921789166131
 30
0.0
 40
0.0023833620272523
100
AcDbArc
 50
21.67779679634189
 51
158.322203203658
  0
ARC
  5
D52
330
1F
100
AcDbEntity
  8
2
  6
HIDDEN
 62
     2
 48
0.75
100
AcDbCircle
 10
5.579078674770816
 20
4.818589029711175
 30
0.0
 40
0.0023833620272523
100
AcDbArc
 50
21.67779679634189
 51
158.322203203658
  0
ARC
  5
D53
330
1F
100
AcDbEntity
  8
2
  6
HIDDEN
 62
     2
 48
0.75
100
AcDbCircle
 10
5.567161864634553
 20
4.792372047411401
 30
0.0
 40
0.0023833620272523
100
AcDbArc
 50
155.5504979363153
 51
204.4495020636847
  0
LINE
  5
D54
330
1F
100
AcDbEntity
  8
2
  6
HIDDEN
 62
     2
 48
0.75
100
AcDbLine
 10
5.576959276944605
 20
4.765064850725735
 30
0.0
 11
5.564992227237808
 21
4.791385595121834
 31
0.0
  0
LINE
  5
D55
330
1F
100
AcDbEntity
  8
2
  6
HIDDEN
 62
     2
 48
0.75
100
AcDbLine
 10
5.576959276944606
 20
4.819679244097066
 30
0.0
 11
5.564992227237808
 21
4.793358499700968
 31
0.0
  0
LINE
  5
D56
330
1F
100
AcDbEntity
  8
4
  6
HIDDEN2
100
AcDbLine
 10
5.810912845248511
 20
4.292365353691626
 30
0.0
 11
5.810912845248509
 21
4.89475187941496
 31
0.0
  0
LINE
  5
D57
330
1F
100
AcDbEntity
  8
4
  6
HIDDEN2
100
AcDbLine
 10
5.789748590446512
 20
4.292365288800386
 30
0.0
 11
5.789748590446511
 21
4.89475187941496
 31
0.0
  0
LINE
  5
D58
330
1F
100
AcDbEntity
  8
4
  6
HIDDEN2
100
AcDbLine
 10
5.911175941387479
 20
4.292365661106024
 30
0.0
 11
5.911175941387477
 21
4.894752251720602
 31
0.0
  0
LINE
  5
D59
330
1F
100
AcDbEntity
  8
4
  6
HIDDEN2
100
AcDbLine
 10
5.890011686585479
 20
4.292365596214784
 30
0.0
 11
5.890011686585479
 21
4.894752251720605
 31
0.0
  0
LINE
  5
D5A
330
1F
100
AcDbEntity
  8
4
100
AcDbLine
 10
5.935694063234228
 20
4.290150825230663
 30
0.0
 11
5.935694063234228
 21
4.898651431997183
 31
0.0
  0
LINE
  5
D5B
330
1F
100
AcDbEntity
  8
4
100
AcDbLine
 10
5.667862064936329
 20
4.66299472081988
 30
0.0
 11
5.657970154326676
 21
4.504724151065429
 31
0.0
  0
LINE
  5
D5C
330
1F
100
AcDbEntity
  8
4
100
AcDbLine
 10
5.652975316974154
 20
4.654055952865062
 30
0.0
 11
5.644920814556421
 21
4.525201868223695
 31
0.0
  0
LINE
  5
D5D
330
1F
100
AcDbEntity
  8
4
100
AcDbLine
 10
5.911175941387479
 20
4.292365661106024
 30
0.0
 11
5.789748590446511
 21
4.292365288800386
 31
0.0
  0
LINE
  5
D5E
330
1F
100
AcDbEntity
  8
2
  6
HIDDEN
 62
     2
 48
0.75
100
AcDbLine
 10
5.709899622068649
 20
4.393227007406
 30
0.0
 11
5.721866671775445
 21
4.419547751802099
 31
0.0
  0
LINE
  5
D5F
330
1F
100
AcDbEntity
  8
2
  6
HIDDEN
 62
     2
 48
0.75
100
AcDbLine
 10
5.705660826416227
 20
4.393227007406
 30
0.0
 11
5.69369377670943
 21
4.419547751802099
 31
0.0
  0
LINE
  5
D60
330
1F
100
AcDbEntity
  8
2
  6
HIDDEN
 62
     2
 48
0.75
100
AcDbLine
 10
5.662760309925686
 20
4.393227007406
 30
0.0
 11
5.650793260218889
 21
4.419547751802099
 31
0.0
  0
LINE
  5
D61
330
1F
100
AcDbEntity
  8
2
  6
HIDDEN
 62
     2
 48
0.75
100
AcDbLine
 10
5.666999105578107
 20
4.393227007406
 30
0.0
 11
5.678966155284904
 21
4.419547751802099
 31
0.0
  0
ARC
  5
D62
330
1F
100
AcDbEntity
  8
2
  6
HIDDEN
 62
     2
 48
0.75
100
AcDbCircle
 10
5.643429449506627
 20
4.399083945846395
 30
0.0
 40
0.0023833620272523
100
AcDbArc
 50
21.67779679634189
 51
158.322203203658
  0
ARC
  5
D63
330
1F
100
AcDbEntity
  8
2
  6
HIDDEN
 62
     2
 48
0.75
100
AcDbCircle
 10
5.631512639370366
 20
4.372866963546621
 30
0.0
 40
0.0023833620272523
100
AcDbArc
 50
155.5504979363153
 51
204.4495020636847
  0
LINE
  5
D64
330
1F
100
AcDbEntity
  8
2
  6
HIDDEN
 62
     2
 48
0.75
100
AcDbLine
 10
5.641310051680417
 20
4.400174160232286
 30
0.0
 11
5.629343001973619
 21
4.373853415836187
 31
0.0
  0
ARC
  5
D65
330
1F
100
AcDbEntity
  8
2
  6
HIDDEN
 62
     2
 48
0.75
100
AcDbCircle
 10
5.655346259642889
 20
4.372866963546621
 30
0.0
 40
0.0023833620272523
100
AcDbArc
 50
335.5504979363153
 51
24.44950206368468
  0
ARC
  5
D66
330
1F
100
AcDbEntity
  8
2
  6
HIDDEN
 62
     2
 48
0.75
100
AcDbCircle
 10
5.643429449506627
 20
4.346649981246846
 30
0.0
 40
0.0023833620272523
100
AcDbArc
 50
201.6777967963417
 51
338.3222032036581
  0
LINE
  5
D67
330
1F
100
AcDbEntity
  8
2
  6
HIDDEN
 62
     2
 48
0.75
100
AcDbLine
 10
5.645548847332837
 20
4.345559766860955
 30
0.0
 11
5.657515897039634
 21
4.371880511257053
 31
0.0
  0
LINE
  5
D68
330
1F
100
AcDbEntity
  8
2
  6
HIDDEN
 62
     2
 48
0.75
100
AcDbLine
 10
5.641310051680417
 20
4.345559766860955
 30
0.0
 11
5.629343001973619
 21
4.371880511257053
 31
0.0
  0
ARC
  5
D69
330
1F
100
AcDbEntity
  8
2
  6
HIDDEN
 62
     2
 48
0.75
100
AcDbCircle
 10
5.707780224242438
 20
4.394317221791891
 30
0.0
 40
0.0023833620272523
100
AcDbArc
 50
201.6777967963417
 51
338.3222032036581
  0
ARC
  5
D6A
330
1F
100
AcDbEntity
  8
2
  6
HIDDEN
 62
     2
 48
0.75
100
AcDbCircle
 10
5.717313672351447
 20
4.372866963546621
 30
0.0
 40
0.0023833620272523
100
AcDbArc
 50
155.5504979363153
 51
204.4495020636847
  0
ARC
  5
D6B
330
1F
100
AcDbEntity
  8
2
  6
HIDDEN
 62
     2
 48
0.75
100
AcDbCircle
 10
5.729230482487708
 20
4.399083945846395
 30
0.0
 40
0.0023833620272523
100
AcDbArc
 50
21.67779679634189
 51
158.322203203658
  0
LINE
  5
D6C
330
1F
100
AcDbEntity
  8
2
  6
HIDDEN
 62
     2
 48
0.75
100
AcDbLine
 10
5.731349880313919
 20
4.400174160232286
 30
0.0
 11
5.743316930020715
 21
4.373853415836187
 31
0.0
  0
ARC
  5
D6D
330
1F
100
AcDbEntity
  8
2
  6
HIDDEN
 62
     2
 48
0.75
100
AcDbCircle
 10
5.74114729262397
 20
4.372866963546621
 30
0.0
 40
0.0023833620272523
100
AcDbArc
 50
335.5504979363153
 51
24.44950206368468
  0
ARC
  5
D6E
330
1F
100
AcDbEntity
  8
2
  6
HIDDEN
 62
     2
 48
0.75
100
AcDbCircle
 10
5.729230482487708
 20
4.346649981246846
 30
0.0
 40
0.0023833620272523
100
AcDbArc
 50
201.6777967963417
 51
338.3222032036581
  0
LINE
  5
D6F
330
1F
100
AcDbEntity
  8
2
  6
HIDDEN
 62
     2
 48
0.75
100
AcDbLine
 10
5.731349880313919
 20
4.345559766860955
 30
0.0
 11
5.743316930020715
 21
4.371880511257053
 31
0.0
  0
LINE
  5
D70
330
1F
100
AcDbEntity
  8
2
  6
HIDDEN
 62
     2
 48
0.75
100
AcDbLine
 10
5.727111084661498
 20
4.400174160232286
 30
0.0
 11
5.7151440349547
 21
4.373853415836187
 31
0.0
  0
LINE
  5
D71
330
1F
100
AcDbEntity
  8
2
  6
HIDDEN
 62
     2
 48
0.75
100
AcDbLine
 10
5.727111084661498
 20
4.345559766860955
 30
0.0
 11
5.7151440349547
 21
4.371880511257053
 31
0.0
  0
ARC
  5
D72
330
1F
100
AcDbEntity
  8
2
  6
HIDDEN
 62
     2
 48
0.75
100
AcDbCircle
 10
5.698246776133428
 20
4.372866963546621
 30
0.0
 40
0.0023833620272523
100
AcDbArc
 50
335.5504979363153
 51
24.44950206368468
  0
ARC
  5
D73
330
1F
100
AcDbEntity
  8
2
  6
HIDDEN
 62
     2
 48
0.75
100
AcDbCircle
 10
5.664879707751897
 20
4.394317221791891
 30
0.0
 40
0.0023833620272523
100
AcDbArc
 50
201.6777967963417
 51
338.3222032036581
  0
ARC
  5
D74
330
1F
100
AcDbEntity
  8
2
  6
HIDDEN
 62
     2
 48
0.75
100
AcDbCircle
 10
5.686329965997168
 20
4.399083945846395
 30
0.0
 40
0.0023833620272523
100
AcDbArc
 50
21.67779679634189
 51
158.322203203658
  0
LINE
  5
D75
330
1F
100
AcDbEntity
  8
2
  6
HIDDEN
 62
     2
 48
0.75
100
AcDbLine
 10
5.684210568170956
 20
4.400174160232286
 30
0.0
 11
5.67224351846416
 21
4.373853415836187
 31
0.0
  0
ARC
  5
D76
330
1F
100
AcDbEntity
  8
2
  6
HIDDEN
 62
     2
 48
0.75
100
AcDbCircle
 10
5.674413155860905
 20
4.372866963546621
 30
0.0
 40
0.0023833620272523
100
AcDbArc
 50
155.5504979363153
 51
204.4495020636847
  0
LINE
  5
D77
330
1F
100
AcDbEntity
  8
2
  6
HIDDEN
 62
     2
 48
0.75
100
AcDbLine
 10
5.688449363823377
 20
4.400174160232286
 30
0.0
 11
5.700416413530175
 21
4.373853415836187
 31
0.0
  0
ARC
  5
D78
330
1F
100
AcDbEntity
  8
2
  6
HIDDEN
 62
     2
 48
0.75
100
AcDbCircle
 10
5.686329965997168
 20
4.346649981246846
 30
0.0
 40
0.0023833620272523
100
AcDbArc
 50
201.6777967963417
 51
338.3222032036581
  0
LINE
  5
D79
330
1F
100
AcDbEntity
  8
2
  6
HIDDEN
 62
     2
 48
0.75
100
AcDbLine
 10
5.684210568170956
 20
4.345559766860955
 30
0.0
 11
5.67224351846416
 21
4.371880511257053
 31
0.0
  0
LINE
  5
D7A
330
1F
100
AcDbEntity
  8
2
  6
HIDDEN
 62
     2
 48
0.75
100
AcDbLine
 10
5.688449363823377
 20
4.345559766860955
 30
0.0
 11
5.700416413530175
 21
4.371880511257053
 31
0.0
  0
LINE
  5
D7B
330
1F
100
AcDbEntity
  8
2
  6
HIDDEN
 62
     2
 48
0.75
100
AcDbLine
 10
5.645548847332837
 20
4.400174160232286
 30
0.0
 11
5.657515897039634
 21
4.373853415836187
 31
0.0
  0
ARC
  5
D7C
330
1F
100
AcDbEntity
  8
2
  6
HIDDEN
 62
     2
 48
0.75
100
AcDbCircle
 10
5.652962897615635
 20
4.420534204091666
 30
0.0
 40
0.0023833620272523
100
AcDbArc
 50
155.5504979363153
 51
204.4495020636847
  0
ARC
  5
D7D
330
1F
100
AcDbEntity
  8
4
100
AcDbCircle
 10
5.632993587850724
 20
4.506285186470172
 30
0.0
 40
0.0250253012861486
100
AcDbArc
 50
270.0
 51
356.4236656250017
  0
ARC
  5
D7E
330
1F
100
AcDbEntity
  8
2
  6
HIDDEN
 62
     2
 48
0.75
100
AcDbCircle
 10
5.719697034378699
 20
4.420534204091666
 30
0.0
 40
0.0023833620272523
100
AcDbArc
 50
335.5504979363153
 51
24.44950206368468
  0
ARC
  5
D7F
330
1F
100
AcDbEntity
  8
2
  6
HIDDEN
 62
     2
 48
0.75
100
AcDbCircle
 10
5.707780224242438
 20
4.44675118639144
 30
0.0
 40
0.0023833620272523
100
AcDbArc
 50
21.67779679634189
 51
158.322203203658
  0
LINE
  5
D80
330
1F
100
AcDbEntity
  8
2
  6
HIDDEN
 62
     2
 48
0.75
100
AcDbLine
 10
5.709899622068649
 20
4.447841400777331
 30
0.0
 11
5.721866671775445
 21
4.421520656381232
 31
0.0
  0
LINE
  5
D81
330
1F
100
AcDbEntity
  8
2
  6
HIDDEN
 62
     2
 48
0.75
100
AcDbLine
 10
5.705660826416227
 20
4.447841400777331
 30
0.0
 11
5.69369377670943
 21
4.421520656381232
 31
0.0
  0
LINE
  5
D82
330
1F
100
AcDbEntity
  8
2
  6
HIDDEN
 62
     2
 48
0.75
100
AcDbLine
 10
5.662760309925688
 20
4.447841400777331
 30
0.0
 11
5.650793260218889
 21
4.421520656381232
 31
0.0
  0
LINE
  5
D83
330
1F
100
AcDbEntity
  8
2
  6
HIDDEN
 62
     2
 48
0.75
100
AcDbLine
 10
5.666999105578107
 20
4.447841400777331
 30
0.0
 11
5.678966155284904
 21
4.421520656381232
 31
0.0
  0
ARC
  5
D84
330
1F
100
AcDbEntity
  8
2
  6
HIDDEN
 62
     2
 48
0.75
100
AcDbCircle
 10
5.664879707751897
 20
4.44675118639144
 30
0.0
 40
0.0023833620272523
100
AcDbArc
 50
21.67779679634189
 51
158.322203203658
  0
ARC
  5
D85
330
1F
100
AcDbEntity
  8
2
  6
HIDDEN
 62
     2
 48
0.75
100
AcDbCircle
 10
5.676796517888158
 20
4.420534204091666
 30
0.0
 40
0.0023833620272523
100
AcDbArc
 50
335.5504979363153
 51
24.44950206368468
  0
ARC
  5
D86
330
1F
100
AcDbEntity
  8
2
  6
HIDDEN
 62
     2
 48
0.75
100
AcDbCircle
 10
5.695863414106176
 20
4.420534204091666
 30
0.0
 40
0.0023833620272523
100
AcDbArc
 50
155.5504979363153
 51
204.4495020636847
  0
ARC
  5
D87
330
1F
100
AcDbEntity
  8
2
  6
HIDDEN
 62
     2
 48
0.75
100
AcDbCircle
 10
5.633896001397618
 20
4.420534204091666
 30
0.0
 40
0.0023833620272523
100
AcDbArc
 50
335.5504979363153
 51
24.44950206368468
  0
LINE
  5
D88
330
1F
100
AcDbEntity
  8
4
100
AcDbLine
 10
5.929139817659287
 20
4.423167847525925
 30
0.0
 11
5.929139817659285
 21
4.346304422147039
 31
0.0
  0
LINE
  5
D89
330
1F
100
AcDbEntity
  8
4
100
AcDbLine
 10
5.929139817659285
 20
4.346304422147039
 30
0.0
 11
5.935694063234228
 21
4.346304422147039
 31
0.0
  0
LINE
  5
D8A
330
1F
100
AcDbEntity
  8
4
100
AcDbLine
 10
5.94118025632662
 20
4.383249393603879
 30
0.0
 11
5.921171696902161
 21
4.383249393603879
 31
0.0
  0
LINE
  5
D8B
330
1F
100
AcDbEntity
  8
4
100
AcDbLine
 10
5.935694063234229
 20
4.423167847525925
 30
0.0
 11
5.929139817659287
 21
4.423167847525925
 31
0.0
  0
LINE
  5
D8C
330
1F
100
AcDbEntity
  8
4
100
AcDbLine
 10
5.911175941387477
 20
4.894752251720602
 30
0.0
 11
5.789748590446511
 21
4.89475187941496
 31
0.0
  0
LINE
  5
D8D
330
1F
100
AcDbEntity
  8
2
  6
HIDDEN
 62
     2
 48
0.75
100
AcDbLine
 10
5.684210568170955
 20
4.772012003552021
 30
0.0
 11
5.672243518464159
 21
4.745691259155923
 31
0.0
  0
ARC
  5
D8E
330
1F
100
AcDbEntity
  8
2
  6
HIDDEN
 62
     2
 48
0.75
100
AcDbCircle
 10
5.664879707751897
 20
4.766155065111626
 30
0.0
 40
0.0023833620272523
100
AcDbArc
 50
201.6777967963417
 51
338.3222032036581
  0
LINE
  5
D8F
330
1F
100
AcDbEntity
  8
2
  6
HIDDEN
 62
     2
 48
0.75
100
AcDbLine
 10
5.688449363823377
 20
4.772012003552021
 30
0.0
 11
5.700416413530174
 21
4.745691259155923
 31
0.0
  0
LINE
  5
D90
330
1F
100
AcDbEntity
  8
2
  6
HIDDEN
 62
     2
 48
0.75
100
AcDbLine
 10
5.645548847332836
 20
4.772012003552021
 30
0.0
 11
5.657515897039634
 21
4.745691259155923
 31
0.0
  0
LINE
  5
D91
330
1F
100
AcDbEntity
  8
2
  6
HIDDEN
 62
     2
 48
0.75
100
AcDbLine
 10
5.641310051680416
 20
4.772012003552021
 30
0.0
 11
5.629343001973619
 21
4.745691259155923
 31
0.0
  0
ARC
  5
D92
330
1F
100
AcDbEntity
  8
2
  6
HIDDEN
 62
     2
 48
0.75
100
AcDbCircle
 10
5.707780224242437
 20
4.766155065111626
 30
0.0
 40
0.0023833620272523
100
AcDbArc
 50
201.6777967963417
 51
338.3222032036581
  0
LINE
  5
D93
330
1F
100
AcDbEntity
  8
2
  6
HIDDEN
 62
     2
 48
0.75
100
AcDbLine
 10
5.731349880313918
 20
4.772012003552021
 30
0.0
 11
5.743316930020714
 21
4.745691259155923
 31
0.0
  0
LINE
  5
D94
330
1F
100
AcDbEntity
  8
2
  6
HIDDEN
 62
     2
 48
0.75
100
AcDbLine
 10
5.727111084661497
 20
4.772012003552021
 30
0.0
 11
5.7151440349547
 21
4.745691259155923
 31
0.0
  0
ARC
  5
D95
330
1F
100
AcDbEntity
  8
2
  6
HIDDEN
 62
     2
 48
0.75
100
AcDbCircle
 10
5.698246776133427
 20
4.744704806866356
 30
0.0
 40
0.0023833620272523
100
AcDbArc
 50
335.5504979363153
 51
24.44950206368468
  0
ARC
  5
D96
330
1F
100
AcDbEntity
  8
2
  6
HIDDEN
 62
     2
 48
0.75
100
AcDbCircle
 10
5.674413155860905
 20
4.744704806866356
 30
0.0
 40
0.0023833620272523
100
AcDbArc
 50
155.5504979363153
 51
204.4495020636847
  0
ARC
  5
D97
330
1F
100
AcDbEntity
  8
2
  6
HIDDEN
 62
     2
 48
0.75
100
AcDbCircle
 10
5.686329965997167
 20
4.718487824566581
 30
0.0
 40
0.0023833620272523
100
AcDbArc
 50
201.6777967963417
 51
338.3222032036581
  0
LINE
  5
D98
330
1F
100
AcDbEntity
  8
2
  6
HIDDEN
 62
     2
 48
0.75
100
AcDbLine
 10
5.684210568170955
 20
4.71739761018069
 30
0.0
 11
5.672243518464159
 21
4.743718354576789
 31
0.0
  0
LINE
  5
D99
330
1F
100
AcDbEntity
  8
2
  6
HIDDEN
 62
     2
 48
0.75
100
AcDbLine
 10
5.688449363823377
 20
4.71739761018069
 30
0.0
 11
5.700416413530174
 21
4.743718354576789
 31
0.0
  0
LINE
  5
D9A
330
1F
100
AcDbEntity
  8
2
  6
HIDDEN
 62
     2
 48
0.75
100
AcDbLine
 10
5.645548847332836
 20
4.71739761018069
 30
0.0
 11
5.657515897039634
 21
4.743718354576789
 31
0.0
  0
ARC
  5
D9B
330
1F
100
AcDbEntity
  8
2
  6
HIDDEN
 62
     2
 48
0.75
100
AcDbCircle
 10
5.631512639370366
 20
4.744704806866356
 30
0.0
 40
0.0023833620272523
100
AcDbArc
 50
155.5504979363153
 51
204.4495020636847
  0
ARC
  5
D9C
330
1F
100
AcDbEntity
  8
2
  6
HIDDEN
 62
     2
 48
0.75
100
AcDbCircle
 10
5.643429449506626
 20
4.718487824566581
 30
0.0
 40
0.0023833620272523
100
AcDbArc
 50
201.6777967963417
 51
338.3222032036581
  0
LINE
  5
D9D
330
1F
100
AcDbEntity
  8
2
  6
HIDDEN
 62
     2
 48
0.75
100
AcDbLine
 10
5.641310051680416
 20
4.71739761018069
 30
0.0
 11
5.629343001973619
 21
4.743718354576789
 31
0.0
  0
ARC
  5
D9E
330
1F
100
AcDbEntity
  8
2
  6
HIDDEN
 62
     2
 48
0.75
100
AcDbCircle
 10
5.655346259642888
 20
4.744704806866356
 30
0.0
 40
0.0023833620272523
100
AcDbArc
 50
335.5504979363153
 51
24.44950206368468
  0
ARC
  5
D9F
330
1F
100
AcDbEntity
  8
2
  6
HIDDEN
 62
     2
 48
0.75
100
AcDbCircle
 10
5.717313672351446
 20
4.744704806866356
 30
0.0
 40
0.0023833620272523
100
AcDbArc
 50
155.5504979363153
 51
204.4495020636847
  0
ARC
  5
DA0
330
1F
100
AcDbEntity
  8
2
  6
HIDDEN
 62
     2
 48
0.75
100
AcDbCircle
 10
5.741147292623969
 20
4.744704806866356
 30
0.0
 40
0.0023833620272523
100
AcDbArc
 50
335.5504979363153
 51
24.44950206368468
  0
ARC
  5
DA1
330
1F
100
AcDbEntity
  8
2
  6
HIDDEN
 62
     2
 48
0.75
100
AcDbCircle
 10
5.729230482487708
 20
4.718487824566581
 30
0.0
 40
0.0023833620272523
100
AcDbArc
 50
201.6777967963417
 51
338.3222032036581
  0
LINE
  5
DA2
330
1F
100
AcDbEntity
  8
2
  6
HIDDEN
 62
     2
 48
0.75
100
AcDbLine
 10
5.731349880313918
 20
4.71739761018069
 30
0.0
 11
5.743316930020714
 21
4.743718354576789
 31
0.0
  0
LINE
  5
DA3
330
1F
100
AcDbEntity
  8
2
  6
HIDDEN
 62
     2
 48
0.75
100
AcDbLine
 10
5.727111084661497
 20
4.71739761018069
 30
0.0
 11
5.7151440349547
 21
4.743718354576789
 31
0.0
  0
ARC
  5
DA4
330
1F
100
AcDbEntity
  8
4
100
AcDbCircle
 10
5.639317417535242
 20
4.664778761282448
 30
0.0
 40
0.028600344327027
100
AcDbArc
 50
356.4236656250017
 51
90.0
  0
ARC
  5
DA5
330
1F
100
AcDbEntity
  8
4
100
AcDbCircle
 10
5.633945552040096
 20
4.655245313173439
 30
0.0
 40
0.019066896218018
100
AcDbArc
 50
356.4236656250017
 51
90.0
  0
LINE
  5
DA6
330
1F
100
AcDbEntity
  8
2
  6
HIDDEN
 62
     2
 48
0.75
100
AcDbLine
 10
5.705660826416226
 20
4.819679244097066
 30
0.0
 11
5.693693776709429
 21
4.793358499700968
 31
0.0
  0
LINE
  5
DA7
330
1F
100
AcDbEntity
  8
2
  6
HIDDEN
 62
     2
 48
0.75
100
AcDbLine
 10
5.705660826416226
 20
4.765064850725735
 30
0.0
 11
5.693693776709429
 21
4.791385595121834
 31
0.0
  0
LINE
  5
DA8
330
1F
100
AcDbEntity
  8
2
  6
HIDDEN
 62
     2
 48
0.75
100
AcDbLine
 10
5.662760309925686
 20
4.765064850725735
 30
0.0
 11
5.650793260218889
 21
4.791385595121834
 31
0.0
  0
LINE
  5
DA9
330
1F
100
AcDbEntity
  8
2
  6
HIDDEN
 62
     2
 48
0.75
100
AcDbLine
 10
5.666999105578107
 20
4.819679244097066
 30
0.0
 11
5.678966155284904
 21
4.793358499700968
 31
0.0
  0
LINE
  5
DAA
330
1F
100
AcDbEntity
  8
2
  6
HIDDEN
 62
     2
 48
0.75
100
AcDbLine
 10
5.662760309925687
 20
4.819679244097066
 30
0.0
 11
5.650793260218889
 21
4.793358499700968
 31
0.0
  0
ARC
  5
DAB
330
1F
100
AcDbEntity
  8
2
  6
HIDDEN
 62
     2
 48
0.75
100
AcDbCircle
 10
5.664879707751897
 20
4.818589029711175
 30
0.0
 40
0.0023833620272523
100
AcDbArc
 50
21.67779679634189
 51
158.322203203658
  0
CIRCLE
  5
DAC
330
1F
100
AcDbEntity
  8
4
100
AcDbCircle
 10
5.650070449459363
 20
4.855745643716034
 30
0.0
 40
0.0025930978856505
  0
ARC
  5
DAD
330
1F
100
AcDbEntity
  8
4
100
AcDbCircle
 10
5.72157131027693
 20
4.855745643716034
 30
0.0
 40
0.0774592658856982
100
AcDbArc
 50
167.5762104955835
 51
192.4237895044163
  0
LINE
  5
DAE
330
1F
100
AcDbEntity
  8
2
  6
HIDDEN
 62
     2
 48
0.75
100
AcDbLine
 10
5.666999105578107
 20
4.765064850725735
 30
0.0
 11
5.678966155284904
 21
4.791385595121834
 31
0.0
  0
ARC
  5
DAF
330
1F
100
AcDbEntity
  8
2
  6
HIDDEN
 62
     2
 48
0.75
100
AcDbCircle
 10
5.676796517888158
 20
4.792372047411401
 30
0.0
 40
0.0023833620272523
100
AcDbArc
 50
335.5504979363153
 51
24.44950206368468
  0
ARC
  5
DB0
330
1F
100
AcDbEntity
  8
2
  6
HIDDEN
 62
     2
 48
0.75
100
AcDbCircle
 10
5.695863414106175
 20
4.792372047411401
 30
0.0
 40
0.0023833620272523
100
AcDbArc
 50
155.5504979363153
 51
204.4495020636847
  0
ARC
  5
DB1
330
1F
100
AcDbEntity
  8
2
  6
HIDDEN
 62
     2
 48
0.75
100
AcDbCircle
 10
5.686329965997167
 20
4.770921789166131
 30
0.0
 40
0.0023833620272523
100
AcDbArc
 50
21.67779679634189
 51
158.322203203658
  0
ARC
  5
DB2
330
1F
100
AcDbEntity
  8
2
  6
HIDDEN
 62
     2
 48
0.75
100
AcDbCircle
 10
5.633896001397618
 20
4.792372047411401
 30
0.0
 40
0.0023833620272523
100
AcDbArc
 50
335.5504979363153
 51
24.44950206368468
  0
ARC
  5
DB3
330
1F
100
AcDbEntity
  8
2
  6
HIDDEN
 62
     2
 48
0.75
100
AcDbCircle
 10
5.643429449506626
 20
4.770921789166131
 30
0.0
 40
0.0023833620272523
100
AcDbArc
 50
21.67779679634189
 51
158.322203203658
  0
ARC
  5
DB4
330
1F
100
AcDbEntity
  8
2
  6
HIDDEN
 62
     2
 48
0.75
100
AcDbCircle
 10
5.652962897615635
 20
4.792372047411401
 30
0.0
 40
0.0023833620272523
100
AcDbArc
 50
155.5504979363153
 51
204.4495020636847
  0
ARC
  5
DB5
330
1F
100
AcDbEntity
  8
2
  6
HIDDEN
 62
     2
 48
0.75
100
AcDbCircle
 10
5.719697034378699
 20
4.792372047411401
 30
0.0
 40
0.0023833620272523
100
AcDbArc
 50
335.5504979363153
 51
24.44950206368468
  0
LINE
  5
DB6
330
1F
100
AcDbEntity
  8
2
  6
HIDDEN
 62
     2
 48
0.75
100
AcDbLine
 10
5.709899622068648
 20
4.765064850725735
 30
0.0
 11
5.721866671775444
 21
4.791385595121834
 31
0.0
  0
LINE
  5
DB7
330
1F
100
AcDbEntity
  8
2
  6
HIDDEN
 62
     2
 48
0.75
100
AcDbLine
 10
5.709899622068648
 20
4.819679244097066
 30
0.0
 11
5.721866671775444
 21
4.793358499700968
 31
0.0
  0
ARC
  5
DB8
330
1F
100
AcDbEntity
  8
2
  6
HIDDEN
 62
     2
 48
0.75
100
AcDbCircle
 10
5.707780224242437
 20
4.818589029711175
 30
0.0
 40
0.0023833620272523
100
AcDbArc
 50
21.67779679634189
 51
158.322203203658
  0
ARC
  5
DB9
330
1F
100
AcDbEntity
  8
4
100
AcDbCircle
 10
5.650070449459363
 20
4.855745643716034
 30
0.0
 40
0.0774592658856982
100
AcDbArc
 50
347.5762104955836
 51
12.42378950441639
  0
ARC
  5
DBA
330
1F
100
AcDbEntity
  8
2
  6
HIDDEN
 62
     2
 48
0.75
100
AcDbCircle
 10
5.729230482487708
 20
4.770921789166131
 30
0.0
 40
0.0023833620272523
100
AcDbArc
 50
21.67779679634189
 51
158.322203203658
  0
ARC
  5
DBB
330
1F
100
AcDbEntity
  8
4
100
AcDbCircle
 10
5.685820879868146
 20
5.103019454043455
 30
0.0
 40
0.266936547052252
100
AcDbArc
 50
261.40466153832
 51
278.5953384616799
  0
ARC
  5
DBC
330
1F
100
AcDbEntity
  8
4
100
AcDbCircle
 10
5.685820879868146
 20
4.608471833388612
 30
0.0
 40
0.266936547052252
100
AcDbArc
 50
81.40466153832001
 51
98.59533846167998
  0
CIRCLE
  5
DBD
330
1F
100
AcDbEntity
  8
4
100
AcDbCircle
 10
5.72157131027693
 20
4.855745643716034
 30
0.0
 40
0.0025930978856505
  0
LINE
  5
DBE
330
1F
100
AcDbEntity
  8
4
100
AcDbLine
 10
5.929139817659287
 20
4.821189306077055
 30
0.0
 11
5.929139817659285
 21
4.744325880698169
 31
0.0
  0
LINE
  5
DBF
330
1F
100
AcDbEntity
  8
4
100
AcDbLine
 10
5.929139817659285
 20
4.744325880698169
 30
0.0
 11
5.935694063234228
 21
4.744325880698169
 31
0.0
  0
LINE
  5
DC0
330
1F
100
AcDbEntity
  8
4
100
AcDbLine
 10
5.935694063234229
 20
4.821189306077055
 30
0.0
 11
5.929139817659287
 21
4.821189306077055
 31
0.0
  0
LINE
  5
DC1
330
1F
100
AcDbEntity
  8
4
100
AcDbLine
 10
5.94118025632662
 20
4.781270852155008
 30
0.0
 11
5.921171696902161
 21
4.781270852155008
 31
0.0
  0
LINE
  5
DC2
330
1F
100
AcDbEntity
  8
4
100
AcDbLine
 10
6.716726960728845
 20
4.930651431997183
 30
0.0
 11
6.904726960728844
 21
4.930651431997183
 31
0.0
  0
LINE
  5
DC3
330
1F
100
AcDbEntity
  8
4
100
AcDbLine
 10
7.029726960728844
 20
4.930651431997183
 30
0.0
 11
7.217726960728843
 21
4.930651431997183
 31
0.0
  0
LINE
  5
DC4
330
1F
100
AcDbEntity
  8
4
100
AcDbLine
 10
6.091726960728844
 20
4.992651431997184
 30
0.0
 11
6.592726960728843
 21
4.992651431997184
 31
0.0
  0
LINE
  5
DC5
330
1F
100
AcDbEntity
  8
4
100
AcDbLine
 10
6.091726960728844
 20
5.728145553440055
 30
0.0
 11
6.592726960728843
 21
5.728145553440055
 31
0.0
  0
LINE
  5
DC6
330
1F
100
AcDbEntity
  8
4
100
AcDbLine
 10
6.091726960728844
 20
5.666145553440054
 30
0.0
 11
6.592726960728843
 21
5.666145553440054
 31
0.0
  0
LINE
  5
DC7
330
1F
100
AcDbEntity
  8
4
100
AcDbLine
 10
5.935694063234228
 20
5.024612549897148
 30
0.0
 11
5.498726960728844
 21
5.02460727810654
 31
0.0
  0
LINE
  5
DC8
330
1F
100
AcDbEntity
  8
4
100
AcDbLine
 10
5.935694063234228
 20
5.633113156663669
 30
0.0
 11
5.498726960728844
 21
5.63310788487306
 31
0.0
  0
LINE
  5
DC9
330
1F
100
AcDbEntity
  8
4
100
AcDbLine
 10
5.466726960728844
 20
4.992651431997184
 30
0.0
 11
5.967726960728843
 21
4.992651431997184
 31
0.0
  0
LINE
  5
DCA
330
1F
100
AcDbEntity
  8
2
  6
HIDDEN
 62
     2
 48
0.75
100
AcDbLine
 10
5.624098589087566
 20
5.499526575392221
 30
0.0
 11
5.636065638794364
 21
5.52584731978832
 31
0.0
  0
LINE
  5
DCB
330
1F
100
AcDbEntity
  8
2
  6
HIDDEN
 62
     2
 48
0.75
100
AcDbLine
 10
5.624098589087566
 20
5.554140968763552
 30
0.0
 11
5.636065638794364
 21
5.527820224367453
 31
0.0
  0
LINE
  5
DCC
330
1F
100
AcDbEntity
  8
4
100
AcDbLine
 10
5.588103036750803
 20
5.215721609850509
 30
0.0
 11
5.632993587850724
 21
5.215721609850509
 31
0.0
  0
LINE
  5
DCD
330
1F
100
AcDbEntity
  8
4
100
AcDbLine
 10
5.588103036750803
 20
5.408773934057942
 30
0.0
 11
5.633945552040096
 21
5.408773934057942
 31
0.0
  0
LINE
  5
DCE
330
1F
100
AcDbEntity
  8
4
100
AcDbLine
 10
5.588103036750803
 20
5.427840830275959
 30
0.0
 11
5.639317417535242
 21
5.427840830275959
 31
0.0
  0
LINE
  5
DCF
330
1F
100
AcDbEntity
  8
2
  6
HIDDEN
 62
     2
 48
0.75
100
AcDbLine
 10
5.624098589087567
 20
5.182303125443817
 30
0.0
 11
5.636065638794365
 21
5.155982381047717
 31
0.0
  0
LINE
  5
DD0
330
1F
100
AcDbEntity
  8
2
  6
HIDDEN
 62
     2
 48
0.75
100
AcDbLine
 10
5.624098589087567
 20
5.127688732072486
 30
0.0
 11
5.636065638794365
 21
5.154009476468584
 31
0.0
  0
ARC
  5
DD1
330
1F
100
AcDbEntity
  8
4
100
AcDbCircle
 10
5.625891049622363
 20
5.260852953198561
 30
0.0
 40
0.019066896218018
100
AcDbArc
 50
270.0
 51
356.4236656250017
  0
LINE
  5
DD2
330
1F
100
AcDbEntity
  8
4
100
AcDbLine
 10
5.498726960728844
 20
5.63310788487306
 30
0.0
 11
5.498726960728844
 21
5.02460727810654
 31
0.0
  0
LINE
  5
DD3
330
1F
100
AcDbEntity
  8
4
100
AcDbLine
 10
5.508344008565277
 20
5.397456445486366
 30
0.0
 11
5.518235919174932
 21
5.239185875731915
 31
0.0
  0
LINE
  5
DD4
330
1F
100
AcDbEntity
  8
4
100
AcDbLine
 10
5.523230756527453
 20
5.388517677531547
 30
0.0
 11
5.531285258945186
 21
5.259645638847829
 31
0.0
  0
LINE
  5
DD5
330
1F
100
AcDbEntity
  8
2
  6
HIDDEN
 62
     2
 48
0.75
100
AcDbLine
 10
5.598409535189876
 20
5.134635884898772
 30
0.0
 11
5.586442485483079
 21
5.108315140502672
 31
0.0
  0
LINE
  5
DD6
330
1F
100
AcDbEntity
  8
2
  6
HIDDEN
 62
     2
 48
0.75
100
AcDbLine
 10
5.602648330842296
 20
5.134635884898772
 30
0.0
 11
5.614615380549095
 21
5.108315140502672
 31
0.0
  0
LINE
  5
DD7
330
1F
100
AcDbEntity
  8
2
  6
HIDDEN
 62
     2
 48
0.75
100
AcDbLine
 10
5.602648330842296
 20
5.080021491527441
 30
0.0
 11
5.614615380549095
 21
5.106342235923539
 31
0.0
  0
LINE
  5
DD8
330
1F
100
AcDbEntity
  8
2
  6
HIDDEN
 62
     2
 48
0.75
100
AcDbLine
 10
5.598409535189876
 20
5.080021491527441
 30
0.0
 11
5.586442485483079
 21
5.106342235923539
 31
0.0
  0
ARC
  5
DD9
330
1F
100
AcDbEntity
  8
2
  6
HIDDEN
 62
     2
 48
0.75
100
AcDbCircle
 10
5.600528933016088
 20
5.081111705913332
 30
0.0
 40
0.0023833620272523
100
AcDbArc
 50
201.6777967963417
 51
338.3222032036581
  0
ARC
  5
DDA
330
1F
100
AcDbEntity
  8
2
  6
HIDDEN
 62
     2
 48
0.75
100
AcDbCircle
 10
5.612445743152346
 20
5.107328688213106
 30
0.0
 40
0.0023833620272523
100
AcDbArc
 50
335.5504979363153
 51
24.44950206368468
  0
ARC
  5
DDB
330
1F
100
AcDbEntity
  8
2
  6
HIDDEN
 62
     2
 48
0.75
100
AcDbCircle
 10
5.588612122879824
 20
5.107328688213106
 30
0.0
 40
0.0023833620272523
100
AcDbArc
 50
155.5504979363153
 51
204.4495020636847
  0
ARC
  5
DDC
330
1F
100
AcDbEntity
  8
2
  6
HIDDEN
 62
     2
 48
0.75
100
AcDbCircle
 10
5.579078674770817
 20
5.128778946458377
 30
0.0
 40
0.0023833620272523
100
AcDbArc
 50
201.6777967963417
 51
338.3222032036581
  0
ARC
  5
DDD
330
1F
100
AcDbEntity
  8
2
  6
HIDDEN
 62
     2
 48
0.75
100
AcDbCircle
 10
5.579078674770817
 20
5.181212911057926
 30
0.0
 40
0.0023833620272523
100
AcDbArc
 50
21.67779679634189
 51
158.322203203658
  0
LINE
  5
DDE
330
1F
100
AcDbEntity
  8
4
100
AcDbLine
 10
5.588103036750803
 20
5.215721609850509
 30
0.0
 11
5.543212485650883
 21
5.215721609850509
 31
0.0
  0
LINE
  5
DDF
330
1F
100
AcDbEntity
  8
4
100
AcDbLine
 10
5.588103036750803
 20
5.241786056980539
 30
0.0
 11
5.550315023879244
 21
5.241786056980545
 31
0.0
  0
LINE
  5
DE0
330
1F
100
AcDbEntity
  8
2
  6
HIDDEN
 62
     2
 48
0.75
100
AcDbLine
 10
5.576959276944606
 20
5.182303125443817
 30
0.0
 11
5.564992227237809
 21
5.155982381047717
 31
0.0
  0
LINE
  5
DE1
330
1F
100
AcDbEntity
  8
2
  6
HIDDEN
 62
     2
 48
0.75
100
AcDbLine
 10
5.576959276944606
 20
5.127688732072486
 30
0.0
 11
5.564992227237809
 21
5.154009476468584
 31
0.0
  0
ARC
  5
DE2
330
1F
100
AcDbEntity
  8
2
  6
HIDDEN
 62
     2
 48
0.75
100
AcDbCircle
 10
5.567161864634554
 20
5.154995928758151
 30
0.0
 40
0.0023833620272523
100
AcDbArc
 50
155.5504979363153
 51
204.4495020636847
  0
ARC
  5
DE3
330
1F
100
AcDbEntity
  8
4
100
AcDbCircle
 10
5.543212485650883
 20
5.240746911136658
 30
0.0
 40
0.0250253012861486
100
AcDbArc
 50
183.5763343749981
 51
270.0
  0
ARC
  5
DE4
330
1F
100
AcDbEntity
  8
4
100
AcDbCircle
 10
5.550315023879244
 20
5.260852953198561
 30
0.0
 40
0.019066896218018
100
AcDbArc
 50
183.5763343749981
 51
270.0
  0
CIRCLE
  5
DE5
330
1F
100
AcDbEntity
  8
4
100
AcDbCircle
 10
5.588103036750803
 20
5.226446738973149
 30
0.0
 40
0.0068602692592429
  0
CIRCLE
  5
DE6
330
1F
100
AcDbEntity
  8
4
100
AcDbCircle
 10
5.588103036750803
 20
5.274738420369332
 30
0.0
 40
0.0041565833755279
  0
LINE
  5
DE7
330
1F
100
AcDbEntity
  8
4
100
AcDbLine
 10
5.588103036750803
 20
5.241786056980539
 30
0.0
 11
5.625891049622363
 21
5.241786056980545
 31
0.0
  0
ARC
  5
DE8
330
1F
100
AcDbEntity
  8
2
  6
HIDDEN
 62
     2
 48
0.75
100
AcDbCircle
 10
5.600528933016088
 20
5.133545670512881
 30
0.0
 40
0.0023833620272523
100
AcDbArc
 50
21.67779679634189
 51
158.322203203658
  0
ARC
  5
DE9
330
1F
100
AcDbEntity
  8
2
  6
HIDDEN
 62
     2
 48
0.75
100
AcDbCircle
 10
5.621979191261357
 20
5.128778946458377
 30
0.0
 40
0.0023833620272523
100
AcDbArc
 50
201.6777967963417
 51
338.3222032036581
  0
ARC
  5
DEA
330
1F
100
AcDbEntity
  8
2
  6
HIDDEN
 62
     2
 48
0.75
100
AcDbCircle
 10
5.610062381125096
 20
5.154995928758151
 30
0.0
 40
0.0023833620272523
100
AcDbArc
 50
155.5504979363153
 51
204.4495020636847
  0
ARC
  5
DEB
330
1F
100
AcDbEntity
  8
2
  6
HIDDEN
 62
     2
 48
0.75
100
AcDbCircle
 10
5.590995484907076
 20
5.154995928758151
 30
0.0
 40
0.0023833620272523
100
AcDbArc
 50
335.5504979363153
 51
24.44950206368468
  0
LINE
  5
DEC
330
1F
100
AcDbEntity
  8
2
  6
HIDDEN
 62
     2
 48
0.75
100
AcDbLine
 10
5.619859793435146
 20
5.182303125443817
 30
0.0
 11
5.607892743728349
 21
5.155982381047717
 31
0.0
  0
ARC
  5
DED
330
1F
100
AcDbEntity
  8
2
  6
HIDDEN
 62
     2
 48
0.75
100
AcDbCircle
 10
5.621979191261357
 20
5.181212911057926
 30
0.0
 40
0.0023833620272523
100
AcDbArc
 50
21.67779679634189
 51
158.322203203658
  0
LINE
  5
DEE
330
1F
100
AcDbEntity
  8
2
  6
HIDDEN
 62
     2
 48
0.75
100
AcDbLine
 10
5.619859793435146
 20
5.127688732072486
 30
0.0
 11
5.607892743728349
 21
5.154009476468584
 31
0.0
  0
LINE
  5
DEF
330
1F
100
AcDbEntity
  8
2
  6
HIDDEN
 62
     2
 48
0.75
100
AcDbLine
 10
5.581198072597026
 20
5.127688732072486
 30
0.0
 11
5.593165122303824
 21
5.154009476468584
 31
0.0
  0
LINE
  5
DF0
330
1F
100
AcDbEntity
  8
2
  6
HIDDEN
 62
     2
 48
0.75
100
AcDbLine
 10
5.581198072597027
 20
5.182303125443817
 30
0.0
 11
5.593165122303824
 21
5.155982381047717
 31
0.0
  0
LINE
  5
DF1
330
1F
100
AcDbEntity
  8
2
  6
HIDDEN
 62
     2
 48
0.75
100
AcDbLine
 10
5.602648330842296
 20
5.451859334847176
 30
0.0
 11
5.614615380549094
 21
5.478180079243275
 31
0.0
  0
LINE
  5
DF2
330
1F
100
AcDbEntity
  8
2
  6
HIDDEN
 62
     2
 48
0.75
100
AcDbLine
 10
5.598409535189875
 20
5.451859334847176
 30
0.0
 11
5.586442485483078
 21
5.478180079243275
 31
0.0
  0
CIRCLE
  5
DF3
330
1F
100
AcDbEntity
  8
4
100
AcDbCircle
 10
5.588103036750803
 20
5.316418655501918
 30
0.0
 40
0.0125126506430743
  0
LINE
  5
DF4
330
1F
100
AcDbEntity
  8
4
100
AcDbLine
 10
5.588103036750803
 20
5.427840830275959
 30
0.0
 11
5.536888655966366
 21
5.427840830275959
 31
0.0
  0
LINE
  5
DF5
330
1F
100
AcDbEntity
  8
4
100
AcDbLine
 10
5.588103036750803
 20
5.408773934057942
 30
0.0
 11
5.542260521461511
 21
5.408773934057942
 31
0.0
  0
ARC
  5
DF6
330
1F
100
AcDbEntity
  8
4
 62
   130
100
AcDbCircle
 10
5.563539785911851
 20
5.369924277546582
 30
0.0
 40
0.0059488716200216
100
AcDbArc
 50
225.0
 51
44.99999999999996
  0
LINE
  5
DF7
330
1F
100
AcDbEntity
  8
4
100
AcDbLine
 10
5.562691788534443
 20
5.367430017414918
 30
0.0
 11
5.566062371437428
 21
5.370800600317905
 31
0.0
  0
ARC
  5
DF8
330
1F
100
AcDbEntity
  8
4
 62
   130
100
AcDbCircle
 10
5.543290742128315
 20
5.390173321330115
 30
0.0
 40
0.0059488716200216
100
AcDbArc
 50
44.99999999999996
 51
225.0
  0
LINE
  5
DF9
330
1F
100
AcDbEntity
  8
4
100
AcDbLine
 10
5.544167064899637
 20
5.392695906855695
 30
0.0
 11
5.540796481996652
 21
5.38932532395271
 31
0.0
  0
ARC
  5
DFA
330
1F
100
AcDbEntity
  8
4
100
AcDbCircle
 10
5.542260521461511
 20
5.389707037839924
 30
0.0
 40
0.019066896218018
100
AcDbArc
 50
90.0
 51
183.5763343749981
  0
LINE
  5
DFB
330
1F
100
AcDbEntity
  8
4
100
AcDbLine
 10
5.549236421585727
 20
5.387626550169609
 30
0.0
 11
5.545865838682741
 21
5.384255967266624
 31
0.0
  0
ARC
  5
DFC
330
1F
100
AcDbEntity
  8
4
100
AcDbCircle
 10
5.536888655966366
 20
5.399240485948934
 30
0.0
 40
0.028600344327027
100
AcDbArc
 50
90.0
 51
183.5763343749981
  0
LINE
  5
DFD
330
1F
100
AcDbEntity
  8
4
 62
   130
100
AcDbLine
 10
5.54749722959124
 20
5.394379808793039
 30
0.0
 11
5.567746273374775
 21
5.374130765009506
 31
0.0
  0
LINE
  5
DFE
330
1F
100
AcDbEntity
  8
4
 62
   130
100
AcDbLine
 10
5.539084254665389
 20
5.385966833867191
 30
0.0
 11
5.559333298448924
 21
5.365717790083654
 31
0.0
  0
LINE
  5
DFF
330
1F
100
AcDbEntity
  8
4
100
AcDbLine
 10
5.540796481996652
 20
5.38932532395271
 30
0.0
 11
5.562691788534443
 21
5.367430017414918
 31
0.0
  0
LINE
  5
E00
330
1F
100
AcDbEntity
  8
4
100
AcDbLine
 10
5.560993014751338
 20
5.375869957003995
 30
0.0
 11
5.557622431848354
 21
5.37249937410101
 31
0.0
  0
LINE
  5
E01
330
1F
100
AcDbEntity
  8
4
100
AcDbLine
 10
5.544167064899637
 20
5.392695906855695
 30
0.0
 11
5.566062371437428
 21
5.370800600317905
 31
0.0
  0
ARC
  5
E02
330
1F
100
AcDbEntity
  8
2
  6
HIDDEN
 62
     2
 48
0.75
100
AcDbCircle
 10
5.600528933016087
 20
5.452949549233067
 30
0.0
 40
0.0023833620272523
100
AcDbArc
 50
201.6777967963417
 51
338.3222032036581
  0
CIRCLE
  5
E03
330
1F
100
AcDbEntity
  8
4
100
AcDbCircle
 10
5.588103036750803
 20
5.358098890634507
 30
0.0
 40
0.0041565833755279
  0
ARC
  5
E04
330
1F
100
AcDbEntity
  8
2
  6
HIDDEN
 62
     2
 48
0.75
100
AcDbCircle
 10
5.579078674770816
 20
5.553050754377661
 30
0.0
 40
0.0023833620272523
100
AcDbArc
 50
21.67779679634189
 51
158.322203203658
  0
ARC
  5
E05
330
1F
100
AcDbEntity
  8
2
  6
HIDDEN
 62
     2
 48
0.75
100
AcDbCircle
 10
5.579078674770816
 20
5.500616789778112
 30
0.0
 40
0.0023833620272523
100
AcDbArc
 50
201.6777967963417
 51
338.3222032036581
  0
LINE
  5
E06
330
1F
100
AcDbEntity
  8
2
  6
HIDDEN
 62
     2
 48
0.75
100
AcDbLine
 10
5.576959276944606
 20
5.554140968763552
 30
0.0
 11
5.564992227237808
 21
5.527820224367453
 31
0.0
  0
LINE
  5
E07
330
1F
100
AcDbEntity
  8
2
  6
HIDDEN
 62
     2
 48
0.75
100
AcDbLine
 10
5.576959276944605
 20
5.499526575392221
 30
0.0
 11
5.564992227237808
 21
5.52584731978832
 31
0.0
  0
ARC
  5
E08
330
1F
100
AcDbEntity
  8
2
  6
HIDDEN
 62
     2
 48
0.75
100
AcDbCircle
 10
5.567161864634553
 20
5.526833772077886
 30
0.0
 40
0.0023833620272523
100
AcDbArc
 50
155.5504979363153
 51
204.4495020636847
  0
ARC
  5
E09
330
1F
100
AcDbEntity
  8
2
  6
HIDDEN
 62
     2
 48
0.75
100
AcDbCircle
 10
5.600528933016087
 20
5.505383513832617
 30
0.0
 40
0.0023833620272523
100
AcDbArc
 50
21.67779679634189
 51
158.322203203658
  0
ARC
  5
E0A
330
1F
100
AcDbEntity
  8
2
  6
HIDDEN
 62
     2
 48
0.75
100
AcDbCircle
 10
5.621979191261357
 20
5.500616789778112
 30
0.0
 40
0.0023833620272523
100
AcDbArc
 50
201.6777967963417
 51
338.3222032036581
  0
ARC
  5
E0B
330
1F
100
AcDbEntity
  8
2
  6
HIDDEN
 62
     2
 48
0.75
100
AcDbCircle
 10
5.610062381125095
 20
5.526833772077886
 30
0.0
 40
0.0023833620272523
100
AcDbArc
 50
155.5504979363153
 51
204.4495020636847
  0
ARC
  5
E0C
330
1F
100
AcDbEntity
  8
2
  6
HIDDEN
 62
     2
 48
0.75
100
AcDbCircle
 10
5.590995484907076
 20
5.526833772077886
 30
0.0
 40
0.0023833620272523
100
AcDbArc
 50
335.5504979363153
 51
24.44950206368468
  0
LINE
  5
E0D
330
1F
100
AcDbEntity
  8
2
  6
HIDDEN
 62
     2
 48
0.75
100
AcDbLine
 10
5.619859793435146
 20
5.499526575392221
 30
0.0
 11
5.607892743728348
 21
5.52584731978832
 31
0.0
  0
LINE
  5
E0E
330
1F
100
AcDbEntity
  8
2
  6
HIDDEN
 62
     2
 48
0.75
100
AcDbLine
 10
5.581198072597025
 20
5.499526575392221
 30
0.0
 11
5.593165122303823
 21
5.52584731978832
 31
0.0
  0
ARC
  5
E0F
330
1F
100
AcDbEntity
  8
2
  6
HIDDEN
 62
     2
 48
0.75
100
AcDbCircle
 10
5.612445743152346
 20
5.479166531532841
 30
0.0
 40
0.0023833620272523
100
AcDbArc
 50
335.5504979363153
 51
24.44950206368468
  0
ARC
  5
E10
330
1F
100
AcDbEntity
  8
2
  6
HIDDEN
 62
     2
 48
0.75
100
AcDbCircle
 10
5.588612122879824
 20
5.479166531532841
 30
0.0
 40
0.0023833620272523
100
AcDbArc
 50
155.5504979363153
 51
204.4495020636847
  0
LINE
  5
E11
330
1F
100
AcDbEntity
  8
2
  6
HIDDEN
 62
     2
 48
0.75
100
AcDbLine
 10
5.598409535189875
 20
5.506473728218507
 30
0.0
 11
5.586442485483078
 21
5.480152983822408
 31
0.0
  0
LINE
  5
E12
330
1F
100
AcDbEntity
  8
2
  6
HIDDEN
 62
     2
 48
0.75
100
AcDbLine
 10
5.602648330842296
 20
5.506473728218507
 30
0.0
 11
5.614615380549094
 21
5.480152983822408
 31
0.0
  0
ARC
  5
E13
330
1F
100
AcDbEntity
  8
2
  6
HIDDEN
 62
     2
 48
0.75
100
AcDbCircle
 10
5.621979191261357
 20
5.553050754377661
 30
0.0
 40
0.0023833620272523
100
AcDbArc
 50
21.67779679634189
 51
158.322203203658
  0
LINE
  5
E14
330
1F
100
AcDbEntity
  8
2
  6
HIDDEN
 62
     2
 48
0.75
100
AcDbLine
 10
5.619859793435146
 20
5.554140968763552
 30
0.0
 11
5.607892743728348
 21
5.527820224367453
 31
0.0
  0
LINE
  5
E15
330
1F
100
AcDbEntity
  8
2
  6
HIDDEN
 62
     2
 48
0.75
100
AcDbLine
 10
5.581198072597026
 20
5.554140968763552
 30
0.0
 11
5.593165122303823
 21
5.527820224367453
 31
0.0
  0
LINE
  5
E16
330
1F
100
AcDbEntity
  8
4
  6
HIDDEN2
100
AcDbLine
 10
5.890011686585479
 20
5.026827320881269
 30
0.0
 11
5.890011686585479
 21
5.629213976387091
 31
0.0
  0
LINE
  5
E17
330
1F
100
AcDbEntity
  8
4
  6
HIDDEN2
100
AcDbLine
 10
5.911175941387479
 20
5.02682738577251
 30
0.0
 11
5.911175941387477
 21
5.629213976387087
 31
0.0
  0
LINE
  5
E18
330
1F
100
AcDbEntity
  8
4
  6
HIDDEN2
100
AcDbLine
 10
5.789748590446512
 20
5.026827013466871
 30
0.0
 11
5.789748590446511
 21
5.629213604081446
 31
0.0
  0
LINE
  5
E19
330
1F
100
AcDbEntity
  8
4
  6
HIDDEN2
100
AcDbLine
 10
5.810912845248511
 20
5.026827078358112
 30
0.0
 11
5.810912845248509
 21
5.629213604081446
 31
0.0
  0
LINE
  5
E1A
330
1F
100
AcDbEntity
  8
4
100
AcDbLine
 10
5.935694063234228
 20
5.024612549897148
 30
0.0
 11
5.935694063234228
 21
5.633113156663669
 31
0.0
  0
LINE
  5
E1B
330
1F
100
AcDbEntity
  8
4
100
AcDbLine
 10
5.652975316974154
 20
5.388517677531547
 30
0.0
 11
5.644920814556421
 21
5.259663592890181
 31
0.0
  0
LINE
  5
E1C
330
1F
100
AcDbEntity
  8
4
100
AcDbLine
 10
5.667862064936329
 20
5.397456445486366
 30
0.0
 11
5.657970154326676
 21
5.239185875731915
 31
0.0
  0
LINE
  5
E1D
330
1F
100
AcDbEntity
  8
4
100
AcDbLine
 10
5.911175941387479
 20
5.02682738577251
 30
0.0
 11
5.789748590446511
 21
5.026827013466872
 31
0.0
  0
LINE
  5
E1E
330
1F
100
AcDbEntity
  8
2
  6
HIDDEN
 62
     2
 48
0.75
100
AcDbLine
 10
5.731349880313919
 20
5.134635884898772
 30
0.0
 11
5.743316930020715
 21
5.108315140502672
 31
0.0
  0
LINE
  5
E1F
330
1F
100
AcDbEntity
  8
2
  6
HIDDEN
 62
     2
 48
0.75
100
AcDbLine
 10
5.727111084661498
 20
5.134635884898772
 30
0.0
 11
5.7151440349547
 21
5.108315140502672
 31
0.0
  0
LINE
  5
E20
330
1F
100
AcDbEntity
  8
2
  6
HIDDEN
 62
     2
 48
0.75
100
AcDbLine
 10
5.641310051680417
 20
5.134635884898772
 30
0.0
 11
5.629343001973619
 21
5.108315140502672
 31
0.0
  0
LINE
  5
E21
330
1F
100
AcDbEntity
  8
2
  6
HIDDEN
 62
     2
 48
0.75
100
AcDbLine
 10
5.645548847332837
 20
5.134635884898772
 30
0.0
 11
5.657515897039634
 21
5.108315140502672
 31
0.0
  0
LINE
  5
E22
330
1F
100
AcDbEntity
  8
2
  6
HIDDEN
 62
     2
 48
0.75
100
AcDbLine
 10
5.688449363823377
 20
5.134635884898772
 30
0.0
 11
5.700416413530175
 21
5.108315140502672
 31
0.0
  0
LINE
  5
E23
330
1F
100
AcDbEntity
  8
2
  6
HIDDEN
 62
     2
 48
0.75
100
AcDbLine
 10
5.684210568170956
 20
5.134635884898772
 30
0.0
 11
5.67224351846416
 21
5.108315140502672
 31
0.0
  0
LINE
  5
E24
330
1F
100
AcDbEntity
  8
2
  6
HIDDEN
 62
     2
 48
0.75
100
AcDbLine
 10
5.731349880313919
 20
5.080021491527441
 30
0.0
 11
5.743316930020715
 21
5.106342235923539
 31
0.0
  0
ARC
  5
E25
330
1F
100
AcDbEntity
  8
2
  6
HIDDEN
 62
     2
 48
0.75
100
AcDbCircle
 10
5.729230482487708
 20
5.081111705913332
 30
0.0
 40
0.0023833620272523
100
AcDbArc
 50
201.6777967963417
 51
338.3222032036581
  0
ARC
  5
E26
330
1F
100
AcDbEntity
  8
2
  6
HIDDEN
 62
     2
 48
0.75
100
AcDbCircle
 10
5.74114729262397
 20
5.107328688213106
 30
0.0
 40
0.0023833620272523
100
AcDbArc
 50
335.5504979363153
 51
24.44950206368468
  0
LINE
  5
E27
330
1F
100
AcDbEntity
  8
2
  6
HIDDEN
 62
     2
 48
0.75
100
AcDbLine
 10
5.727111084661498
 20
5.080021491527441
 30
0.0
 11
5.7151440349547
 21
5.106342235923539
 31
0.0
  0
ARC
  5
E28
330
1F
100
AcDbEntity
  8
2
  6
HIDDEN
 62
     2
 48
0.75
100
AcDbCircle
 10
5.717313672351447
 20
5.107328688213106
 30
0.0
 40
0.0023833620272523
100
AcDbArc
 50
155.5504979363153
 51
204.4495020636847
  0
LINE
  5
E29
330
1F
100
AcDbEntity
  8
2
  6
HIDDEN
 62
     2
 48
0.75
100
AcDbLine
 10
5.641310051680417
 20
5.080021491527441
 30
0.0
 11
5.629343001973619
 21
5.106342235923539
 31
0.0
  0
LINE
  5
E2A
330
1F
100
AcDbEntity
  8
2
  6
HIDDEN
 62
     2
 48
0.75
100
AcDbLine
 10
5.645548847332837
 20
5.080021491527441
 30
0.0
 11
5.657515897039634
 21
5.106342235923539
 31
0.0
  0
ARC
  5
E2B
330
1F
100
AcDbEntity
  8
2
  6
HIDDEN
 62
     2
 48
0.75
100
AcDbCircle
 10
5.643429449506627
 20
5.081111705913332
 30
0.0
 40
0.0023833620272523
100
AcDbArc
 50
201.6777967963417
 51
338.3222032036581
  0
ARC
  5
E2C
330
1F
100
AcDbEntity
  8
2
  6
HIDDEN
 62
     2
 48
0.75
100
AcDbCircle
 10
5.655346259642889
 20
5.107328688213106
 30
0.0
 40
0.0023833620272523
100
AcDbArc
 50
335.5504979363153
 51
24.44950206368468
  0
ARC
  5
E2D
330
1F
100
AcDbEntity
  8
2
  6
HIDDEN
 62
     2
 48
0.75
100
AcDbCircle
 10
5.631512639370366
 20
5.107328688213106
 30
0.0
 40
0.0023833620272523
100
AcDbArc
 50
155.5504979363153
 51
204.4495020636847
  0
LINE
  5
E2E
330
1F
100
AcDbEntity
  8
2
  6
HIDDEN
 62
     2
 48
0.75
100
AcDbLine
 10
5.688449363823377
 20
5.080021491527441
 30
0.0
 11
5.700416413530175
 21
5.106342235923539
 31
0.0
  0
LINE
  5
E2F
330
1F
100
AcDbEntity
  8
2
  6
HIDDEN
 62
     2
 48
0.75
100
AcDbLine
 10
5.684210568170956
 20
5.080021491527441
 30
0.0
 11
5.67224351846416
 21
5.106342235923539
 31
0.0
  0
ARC
  5
E30
330
1F
100
AcDbEntity
  8
2
  6
HIDDEN
 62
     2
 48
0.75
100
AcDbCircle
 10
5.686329965997168
 20
5.081111705913332
 30
0.0
 40
0.0023833620272523
100
AcDbArc
 50
201.6777967963417
 51
338.3222032036581
  0
ARC
  5
E31
330
1F
100
AcDbEntity
  8
2
  6
HIDDEN
 62
     2
 48
0.75
100
AcDbCircle
 10
5.674413155860905
 20
5.107328688213106
 30
0.0
 40
0.0023833620272523
100
AcDbArc
 50
155.5504979363153
 51
204.4495020636847
  0
ARC
  5
E32
330
1F
100
AcDbEntity
  8
2
  6
HIDDEN
 62
     2
 48
0.75
100
AcDbCircle
 10
5.698246776133428
 20
5.107328688213106
 30
0.0
 40
0.0023833620272523
100
AcDbArc
 50
335.5504979363153
 51
24.44950206368468
  0
ARC
  5
E33
330
1F
100
AcDbEntity
  8
2
  6
HIDDEN
 62
     2
 48
0.75
100
AcDbCircle
 10
5.729230482487708
 20
5.133545670512881
 30
0.0
 40
0.0023833620272523
100
AcDbArc
 50
21.67779679634189
 51
158.322203203658
  0
LINE
  5
E34
330
1F
100
AcDbEntity
  8
2
  6
HIDDEN
 62
     2
 48
0.75
100
AcDbLine
 10
5.709899622068649
 20
5.182303125443817
 30
0.0
 11
5.721866671775445
 21
5.155982381047717
 31
0.0
  0
LINE
  5
E35
330
1F
100
AcDbEntity
  8
2
  6
HIDDEN
 62
     2
 48
0.75
100
AcDbLine
 10
5.709899622068649
 20
5.127688732072486
 30
0.0
 11
5.721866671775445
 21
5.154009476468584
 31
0.0
  0
ARC
  5
E36
330
1F
100
AcDbEntity
  8
2
  6
HIDDEN
 62
     2
 48
0.75
100
AcDbCircle
 10
5.707780224242438
 20
5.128778946458377
 30
0.0
 40
0.0023833620272523
100
AcDbArc
 50
201.6777967963417
 51
338.3222032036581
  0
ARC
  5
E37
330
1F
100
AcDbEntity
  8
2
  6
HIDDEN
 62
     2
 48
0.75
100
AcDbCircle
 10
5.707780224242438
 20
5.181212911057926
 30
0.0
 40
0.0023833620272523
100
AcDbArc
 50
21.67779679634189
 51
158.322203203658
  0
ARC
  5
E38
330
1F
100
AcDbEntity
  8
2
  6
HIDDEN
 62
     2
 48
0.75
100
AcDbCircle
 10
5.719697034378699
 20
5.154995928758151
 30
0.0
 40
0.0023833620272523
100
AcDbArc
 50
335.5504979363153
 51
24.44950206368468
  0
ARC
  5
E39
330
1F
100
AcDbEntity
  8
4
100
AcDbCircle
 10
5.632993587850724
 20
5.240746911136658
 30
0.0
 40
0.0250253012861486
100
AcDbArc
 50
270.0
 51
356.4236656250017
  0
ARC
  5
E3A
330
1F
100
AcDbEntity
  8
2
  6
HIDDEN
 62
     2
 48
0.75
100
AcDbCircle
 10
5.652962897615635
 20
5.154995928758151
 30
0.0
 40
0.0023833620272523
100
AcDbArc
 50
155.5504979363153
 51
204.4495020636847
  0
ARC
  5
E3B
330
1F
100
AcDbEntity
  8
2
  6
HIDDEN
 62
     2
 48
0.75
100
AcDbCircle
 10
5.643429449506627
 20
5.133545670512881
 30
0.0
 40
0.0023833620272523
100
AcDbArc
 50
21.67779679634189
 51
158.322203203658
  0
ARC
  5
E3C
330
1F
100
AcDbEntity
  8
2
  6
HIDDEN
 62
     2
 48
0.75
100
AcDbCircle
 10
5.633896001397618
 20
5.154995928758151
 30
0.0
 40
0.0023833620272523
100
AcDbArc
 50
335.5504979363153
 51
24.44950206368468
  0
ARC
  5
E3D
330
1F
100
AcDbEntity
  8
2
  6
HIDDEN
 62
     2
 48
0.75
100
AcDbCircle
 10
5.686329965997168
 20
5.133545670512881
 30
0.0
 40
0.0023833620272523
100
AcDbArc
 50
21.67779679634189
 51
158.322203203658
  0
ARC
  5
E3E
330
1F
100
AcDbEntity
  8
2
  6
HIDDEN
 62
     2
 48
0.75
100
AcDbCircle
 10
5.695863414106176
 20
5.154995928758151
 30
0.0
 40
0.0023833620272523
100
AcDbArc
 50
155.5504979363153
 51
204.4495020636847
  0
ARC
  5
E3F
330
1F
100
AcDbEntity
  8
2
  6
HIDDEN
 62
     2
 48
0.75
100
AcDbCircle
 10
5.676796517888158
 20
5.154995928758151
 30
0.0
 40
0.0023833620272523
100
AcDbArc
 50
335.5504979363153
 51
24.44950206368468
  0
ARC
  5
E40
330
1F
100
AcDbEntity
  8
2
  6
HIDDEN
 62
     2
 48
0.75
100
AcDbCircle
 10
5.664879707751897
 20
5.128778946458377
 30
0.0
 40
0.0023833620272523
100
AcDbArc
 50
201.6777967963417
 51
338.3222032036581
  0
ARC
  5
E41
330
1F
100
AcDbEntity
  8
2
  6
HIDDEN
 62
     2
 48
0.75
100
AcDbCircle
 10
5.664879707751897
 20
5.181212911057926
 30
0.0
 40
0.0023833620272523
100
AcDbArc
 50
21.67779679634189
 51
158.322203203658
  0
LINE
  5
E42
330
1F
100
AcDbEntity
  8
2
  6
HIDDEN
 62
     2
 48
0.75
100
AcDbLine
 10
5.666999105578107
 20
5.127688732072486
 30
0.0
 11
5.678966155284904
 21
5.154009476468584
 31
0.0
  0
LINE
  5
E43
330
1F
100
AcDbEntity
  8
2
  6
HIDDEN
 62
     2
 48
0.75
100
AcDbLine
 10
5.666999105578107
 20
5.182303125443817
 30
0.0
 11
5.678966155284904
 21
5.155982381047717
 31
0.0
  0
LINE
  5
E44
330
1F
100
AcDbEntity
  8
2
  6
HIDDEN
 62
     2
 48
0.75
100
AcDbLine
 10
5.662760309925688
 20
5.182303125443817
 30
0.0
 11
5.650793260218889
 21
5.155982381047717
 31
0.0
  0
LINE
  5
E45
330
1F
100
AcDbEntity
  8
2
  6
HIDDEN
 62
     2
 48
0.75
100
AcDbLine
 10
5.662760309925686
 20
5.127688732072486
 30
0.0
 11
5.650793260218889
 21
5.154009476468584
 31
0.0
  0
LINE
  5
E46
330
1F
100
AcDbEntity
  8
2
  6
HIDDEN
 62
     2
 48
0.75
100
AcDbLine
 10
5.705660826416227
 20
5.182303125443817
 30
0.0
 11
5.69369377670943
 21
5.155982381047717
 31
0.0
  0
LINE
  5
E47
330
1F
100
AcDbEntity
  8
2
  6
HIDDEN
 62
     2
 48
0.75
100
AcDbLine
 10
5.705660826416227
 20
5.127688732072486
 30
0.0
 11
5.69369377670943
 21
5.154009476468584
 31
0.0
  0
LINE
  5
E48
330
1F
100
AcDbEntity
  8
4
100
AcDbLine
 10
5.929139817659287
 20
5.15762957219241
 30
0.0
 11
5.929139817659285
 21
5.080766146813525
 31
0.0
  0
LINE
  5
E49
330
1F
100
AcDbEntity
  8
4
100
AcDbLine
 10
5.929139817659285
 20
5.080766146813525
 30
0.0
 11
5.935694063234228
 21
5.080766146813525
 31
0.0
  0
LINE
  5
E4A
330
1F
100
AcDbEntity
  8
4
100
AcDbLine
 10
5.935694063234229
 20
5.15762957219241
 30
0.0
 11
5.929139817659287
 21
5.15762957219241
 31
0.0
  0
LINE
  5
E4B
330
1F
100
AcDbEntity
  8
4
100
AcDbLine
 10
5.94118025632662
 20
5.117711118270364
 30
0.0
 11
5.921171696902161
 21
5.117711118270364
 31
0.0
  0
LINE
  5
E4C
330
1F
100
AcDbEntity
  8
4
100
AcDbLine
 10
5.911175941387477
 20
5.629213976387087
 30
0.0
 11
5.789748590446511
 21
5.629213604081446
 31
0.0
  0
LINE
  5
E4D
330
1F
100
AcDbEntity
  8
2
  6
HIDDEN
 62
     2
 48
0.75
100
AcDbLine
 10
5.731349880313918
 20
5.451859334847176
 30
0.0
 11
5.743316930020714
 21
5.478180079243275
 31
0.0
  0
LINE
  5
E4E
330
1F
100
AcDbEntity
  8
2
  6
HIDDEN
 62
     2
 48
0.75
100
AcDbLine
 10
5.727111084661497
 20
5.451859334847176
 30
0.0
 11
5.7151440349547
 21
5.478180079243275
 31
0.0
  0
LINE
  5
E4F
330
1F
100
AcDbEntity
  8
2
  6
HIDDEN
 62
     2
 48
0.75
100
AcDbLine
 10
5.641310051680416
 20
5.451859334847176
 30
0.0
 11
5.629343001973619
 21
5.478180079243275
 31
0.0
  0
LINE
  5
E50
330
1F
100
AcDbEntity
  8
2
  6
HIDDEN
 62
     2
 48
0.75
100
AcDbLine
 10
5.645548847332836
 20
5.451859334847176
 30
0.0
 11
5.657515897039634
 21
5.478180079243275
 31
0.0
  0
LINE
  5
E51
330
1F
100
AcDbEntity
  8
2
  6
HIDDEN
 62
     2
 48
0.75
100
AcDbLine
 10
5.688449363823377
 20
5.451859334847176
 30
0.0
 11
5.700416413530174
 21
5.478180079243275
 31
0.0
  0
LINE
  5
E52
330
1F
100
AcDbEntity
  8
2
  6
HIDDEN
 62
     2
 48
0.75
100
AcDbLine
 10
5.684210568170955
 20
5.451859334847176
 30
0.0
 11
5.672243518464159
 21
5.478180079243275
 31
0.0
  0
ARC
  5
E53
330
1F
100
AcDbEntity
  8
2
  6
HIDDEN
 62
     2
 48
0.75
100
AcDbCircle
 10
5.729230482487708
 20
5.452949549233067
 30
0.0
 40
0.0023833620272523
100
AcDbArc
 50
201.6777967963417
 51
338.3222032036581
  0
ARC
  5
E54
330
1F
100
AcDbEntity
  8
2
  6
HIDDEN
 62
     2
 48
0.75
100
AcDbCircle
 10
5.643429449506626
 20
5.452949549233067
 30
0.0
 40
0.0023833620272523
100
AcDbArc
 50
201.6777967963417
 51
338.3222032036581
  0
ARC
  5
E55
330
1F
100
AcDbEntity
  8
2
  6
HIDDEN
 62
     2
 48
0.75
100
AcDbCircle
 10
5.686329965997167
 20
5.452949549233067
 30
0.0
 40
0.0023833620272523
100
AcDbArc
 50
201.6777967963417
 51
338.3222032036581
  0
ARC
  5
E56
330
1F
100
AcDbEntity
  8
4
100
AcDbCircle
 10
5.633945552040096
 20
5.389707037839924
 30
0.0
 40
0.019066896218018
100
AcDbArc
 50
356.4236656250017
 51
90.0
  0
ARC
  5
E57
330
1F
100
AcDbEntity
  8
4
100
AcDbCircle
 10
5.639317417535242
 20
5.399240485948934
 30
0.0
 40
0.028600344327027
100
AcDbArc
 50
356.4236656250017
 51
90.0
  0
CIRCLE
  5
E58
330
1F
100
AcDbEntity
  8
4
100
AcDbCircle
 10
5.650070449459363
 20
5.590207368382519
 30
0.0
 40
0.0025930978856505
  0
ARC
  5
E59
330
1F
100
AcDbEntity
  8
4
100
AcDbCircle
 10
5.650070449459363
 20
5.590207368382519
 30
0.0
 40
0.0774592658856982
100
AcDbArc
 50
347.5762104955836
 51
12.42378950441639
  0
ARC
  5
E5A
330
1F
100
AcDbEntity
  8
2
  6
HIDDEN
 62
     2
 48
0.75
100
AcDbCircle
 10
5.729230482487708
 20
5.505383513832617
 30
0.0
 40
0.0023833620272523
100
AcDbArc
 50
21.67779679634189
 51
158.322203203658
  0
ARC
  5
E5B
330
1F
100
AcDbEntity
  8
2
  6
HIDDEN
 62
     2
 48
0.75
100
AcDbCircle
 10
5.741147292623969
 20
5.479166531532841
 30
0.0
 40
0.0023833620272523
100
AcDbArc
 50
335.5504979363153
 51
24.44950206368468
  0
LINE
  5
E5C
330
1F
100
AcDbEntity
  8
2
  6
HIDDEN
 62
     2
 48
0.75
100
AcDbLine
 10
5.731349880313918
 20
5.506473728218507
 30
0.0
 11
5.743316930020714
 21
5.480152983822408
 31
0.0
  0
CIRCLE
  5
E5D
330
1F
100
AcDbEntity
  8
4
100
AcDbCircle
 10
5.72157131027693
 20
5.590207368382519
 30
0.0
 40
0.0025930978856505
  0
LINE
  5
E5E
330
1F
100
AcDbEntity
  8
2
  6
HIDDEN
 62
     2
 48
0.75
100
AcDbLine
 10
5.727111084661497
 20
5.506473728218507
 30
0.0
 11
5.7151440349547
 21
5.480152983822408
 31
0.0
  0
ARC
  5
E5F
330
1F
100
AcDbEntity
  8
4
100
AcDbCircle
 10
5.685820879868146
 20
5.342933558055098
 30
0.0
 40
0.266936547052252
100
AcDbArc
 50
81.40466153832001
 51
98.59533846167998
  0
ARC
  5
E60
330
1F
100
AcDbEntity
  8
4
100
AcDbCircle
 10
5.685820879868146
 20
5.837481178709941
 30
0.0
 40
0.266936547052252
100
AcDbArc
 50
261.40466153832
 51
278.5953384616799
  0
ARC
  5
E61
330
1F
100
AcDbEntity
  8
4
100
AcDbCircle
 10
5.72157131027693
 20
5.590207368382519
 30
0.0
 40
0.0774592658856982
100
AcDbArc
 50
167.5762104955835
 51
192.4237895044163
  0
ARC
  5
E62
330
1F
100
AcDbEntity
  8
2
  6
HIDDEN
 62
     2
 48
0.75
100
AcDbCircle
 10
5.707780224242437
 20
5.553050754377661
 30
0.0
 40
0.0023833620272523
100
AcDbArc
 50
21.67779679634189
 51
158.322203203658
  0
LINE
  5
E63
330
1F
100
AcDbEntity
  8
2
  6
HIDDEN
 62
     2
 48
0.75
100
AcDbLine
 10
5.709899622068648
 20
5.554140968763552
 30
0.0
 11
5.721866671775444
 21
5.527820224367453
 31
0.0
  0
LINE
  5
E64
330
1F
100
AcDbEntity
  8
2
  6
HIDDEN
 62
     2
 48
0.75
100
AcDbLine
 10
5.709899622068648
 20
5.499526575392221
 30
0.0
 11
5.721866671775444
 21
5.52584731978832
 31
0.0
  0
ARC
  5
E65
330
1F
100
AcDbEntity
  8
2
  6
HIDDEN
 62
     2
 48
0.75
100
AcDbCircle
 10
5.707780224242437
 20
5.500616789778112
 30
0.0
 40
0.0023833620272523
100
AcDbArc
 50
201.6777967963417
 51
338.3222032036581
  0
ARC
  5
E66
330
1F
100
AcDbEntity
  8
2
  6
HIDDEN
 62
     2
 48
0.75
100
AcDbCircle
 10
5.719697034378699
 20
5.526833772077886
 30
0.0
 40
0.0023833620272523
100
AcDbArc
 50
335.5504979363153
 51
24.44950206368468
  0
ARC
  5
E67
330
1F
100
AcDbEntity
  8
2
  6
HIDDEN
 62
     2
 48
0.75
100
AcDbCircle
 10
5.717313672351446
 20
5.479166531532841
 30
0.0
 40
0.0023833620272523
100
AcDbArc
 50
155.5504979363153
 51
204.4495020636847
  0
ARC
  5
E68
330
1F
100
AcDbEntity
  8
2
  6
HIDDEN
 62
     2
 48
0.75
100
AcDbCircle
 10
5.652962897615635
 20
5.526833772077886
 30
0.0
 40
0.0023833620272523
100
AcDbArc
 50
155.5504979363153
 51
204.4495020636847
  0
ARC
  5
E69
330
1F
100
AcDbEntity
  8
2
  6
HIDDEN
 62
     2
 48
0.75
100
AcDbCircle
 10
5.655346259642888
 20
5.479166531532841
 30
0.0
 40
0.0023833620272523
100
AcDbArc
 50
335.5504979363153
 51
24.44950206368468
  0
ARC
  5
E6A
330
1F
100
AcDbEntity
  8
2
  6
HIDDEN
 62
     2
 48
0.75
100
AcDbCircle
 10
5.643429449506626
 20
5.505383513832617
 30
0.0
 40
0.0023833620272523
100
AcDbArc
 50
21.67779679634189
 51
158.322203203658
  0
ARC
  5
E6B
330
1F
100
AcDbEntity
  8
2
  6
HIDDEN
 62
     2
 48
0.75
100
AcDbCircle
 10
5.633896001397618
 20
5.526833772077886
 30
0.0
 40
0.0023833620272523
100
AcDbArc
 50
335.5504979363153
 51
24.44950206368468
  0
ARC
  5
E6C
330
1F
100
AcDbEntity
  8
2
  6
HIDDEN
 62
     2
 48
0.75
100
AcDbCircle
 10
5.631512639370366
 20
5.479166531532841
 30
0.0
 40
0.0023833620272523
100
AcDbArc
 50
155.5504979363153
 51
204.4495020636847
  0
LINE
  5
E6D
330
1F
100
AcDbEntity
  8
2
  6
HIDDEN
 62
     2
 48
0.75
100
AcDbLine
 10
5.641310051680416
 20
5.506473728218507
 30
0.0
 11
5.629343001973619
 21
5.480152983822408
 31
0.0
  0
LINE
  5
E6E
330
1F
100
AcDbEntity
  8
2
  6
HIDDEN
 62
     2
 48
0.75
100
AcDbLine
 10
5.645548847332836
 20
5.506473728218507
 30
0.0
 11
5.657515897039634
 21
5.480152983822408
 31
0.0
  0
LINE
  5
E6F
330
1F
100
AcDbEntity
  8
2
  6
HIDDEN
 62
     2
 48
0.75
100
AcDbLine
 10
5.688449363823377
 20
5.506473728218507
 30
0.0
 11
5.700416413530174
 21
5.480152983822408
 31
0.0
  0
ARC
  5
E70
330
1F
100
AcDbEntity
  8
2
  6
HIDDEN
 62
     2
 48
0.75
100
AcDbCircle
 10
5.686329965997167
 20
5.505383513832617
 30
0.0
 40
0.0023833620272523
100
AcDbArc
 50
21.67779679634189
 51
158.322203203658
  0
ARC
  5
E71
330
1F
100
AcDbEntity
  8
2
  6
HIDDEN
 62
     2
 48
0.75
100
AcDbCircle
 10
5.695863414106175
 20
5.526833772077886
 30
0.0
 40
0.0023833620272523
100
AcDbArc
 50
155.5504979363153
 51
204.4495020636847
  0
ARC
  5
E72
330
1F
100
AcDbEntity
  8
2
  6
HIDDEN
 62
     2
 48
0.75
100
AcDbCircle
 10
5.676796517888158
 20
5.526833772077886
 30
0.0
 40
0.0023833620272523
100
AcDbArc
 50
335.5504979363153
 51
24.44950206368468
  0
ARC
  5
E73
330
1F
100
AcDbEntity
  8
2
  6
HIDDEN
 62
     2
 48
0.75
100
AcDbCircle
 10
5.664879707751897
 20
5.500616789778112
 30
0.0
 40
0.0023833620272523
100
AcDbArc
 50
201.6777967963417
 51
338.3222032036581
  0
LINE
  5
E74
330
1F
100
AcDbEntity
  8
2
  6
HIDDEN
 62
     2
 48
0.75
100
AcDbLine
 10
5.666999105578107
 20
5.499526575392221
 30
0.0
 11
5.678966155284904
 21
5.52584731978832
 31
0.0
  0
ARC
  5
E75
330
1F
100
AcDbEntity
  8
2
  6
HIDDEN
 62
     2
 48
0.75
100
AcDbCircle
 10
5.674413155860905
 20
5.479166531532841
 30
0.0
 40
0.0023833620272523
100
AcDbArc
 50
155.5504979363153
 51
204.4495020636847
  0
LINE
  5
E76
330
1F
100
AcDbEntity
  8
2
  6
HIDDEN
 62
     2
 48
0.75
100
AcDbLine
 10
5.684210568170955
 20
5.506473728218507
 30
0.0
 11
5.672243518464159
 21
5.480152983822408
 31
0.0
  0
ARC
  5
E77
330
1F
100
AcDbEntity
  8
2
  6
HIDDEN
 62
     2
 48
0.75
100
AcDbCircle
 10
5.698246776133427
 20
5.479166531532841
 30
0.0
 40
0.0023833620272523
100
AcDbArc
 50
335.5504979363153
 51
24.44950206368468
  0
ARC
  5
E78
330
1F
100
AcDbEntity
  8
2
  6
HIDDEN
 62
     2
 48
0.75
100
AcDbCircle
 10
5.664879707751897
 20
5.553050754377661
 30
0.0
 40
0.0023833620272523
100
AcDbArc
 50
21.67779679634189
 51
158.322203203658
  0
LINE
  5
E79
330
1F
100
AcDbEntity
  8
2
  6
HIDDEN
 62
     2
 48
0.75
100
AcDbLine
 10
5.662760309925687
 20
5.554140968763552
 30
0.0
 11
5.650793260218889
 21
5.527820224367453
 31
0.0
  0
LINE
  5
E7A
330
1F
100
AcDbEntity
  8
2
  6
HIDDEN
 62
     2
 48
0.75
100
AcDbLine
 10
5.666999105578107
 20
5.554140968763552
 30
0.0
 11
5.678966155284904
 21
5.527820224367453
 31
0.0
  0
LINE
  5
E7B
330
1F
100
AcDbEntity
  8
2
  6
HIDDEN
 62
     2
 48
0.75
100
AcDbLine
 10
5.662760309925686
 20
5.499526575392221
 30
0.0
 11
5.650793260218889
 21
5.52584731978832
 31
0.0
  0
LINE
  5
E7C
330
1F
100
AcDbEntity
  8
2
  6
HIDDEN
 62
     2
 48
0.75
100
AcDbLine
 10
5.705660826416226
 20
5.499526575392221
 30
0.0
 11
5.693693776709429
 21
5.52584731978832
 31
0.0
  0
LINE
  5
E7D
330
1F
100
AcDbEntity
  8
2
  6
HIDDEN
 62
     2
 48
0.75
100
AcDbLine
 10
5.705660826416226
 20
5.554140968763552
 30
0.0
 11
5.693693776709429
 21
5.527820224367453
 31
0.0
  0
LINE
  5
E7E
330
1F
100
AcDbEntity
  8
4
100
AcDbLine
 10
5.929139817659285
 20
5.478787605364654
 30
0.0
 11
5.935694063234228
 21
5.478787605364654
 31
0.0
  0
LINE
  5
E7F
330
1F
100
AcDbEntity
  8
4
100
AcDbLine
 10
5.94118025632662
 20
5.515732576821494
 30
0.0
 11
5.921171696902161
 21
5.515732576821494
 31
0.0
  0
LINE
  5
E80
330
1F
100
AcDbEntity
  8
4
100
AcDbLine
 10
5.935694063234229
 20
5.555651030743541
 30
0.0
 11
5.929139817659287
 21
5.555651030743541
 31
0.0
  0
LINE
  5
E81
330
1F
100
AcDbEntity
  8
4
100
AcDbLine
 10
5.929139817659287
 20
5.555651030743541
 30
0.0
 11
5.929139817659285
 21
5.478787605364654
 31
0.0
  0
LINE
  5
E82
330
1F
100
AcDbEntity
  8
2
  6
HIDDEN
 62
     2
 48
0.75
100
AcDbLine
 10
5.624098589087566
 20
6.235020696835092
 30
0.0
 11
5.636065638794364
 21
6.26134144123119
 31
0.0
  0
LINE
  5
E83
330
1F
100
AcDbEntity
  8
2
  6
HIDDEN
 62
     2
 48
0.75
100
AcDbLine
 10
5.624098589087566
 20
6.289635090206423
 30
0.0
 11
5.636065638794364
 21
6.263314345810324
 31
0.0
  0
LINE
  5
E84
330
1F
100
AcDbEntity
  8
4
100
AcDbLine
 10
5.588103036750803
 20
5.95121573129338
 30
0.0
 11
5.632993587850724
 21
5.95121573129338
 31
0.0
  0
LINE
  5
E85
330
1F
100
AcDbEntity
  8
4
100
AcDbLine
 10
5.588103036750803
 20
6.144268055500813
 30
0.0
 11
5.633945552040096
 21
6.144268055500813
 31
0.0
  0
LINE
  5
E86
330
1F
100
AcDbEntity
  8
4
100
AcDbLine
 10
5.588103036750803
 20
6.16333495171883
 30
0.0
 11
5.639317417535242
 21
6.16333495171883
 31
0.0
  0
LINE
  5
E87
330
1F
100
AcDbEntity
  8
2
  6
HIDDEN
 62
     2
 48
0.75
100
AcDbLine
 10
5.624098589087567
 20
5.917797246886688
 30
0.0
 11
5.636065638794365
 21
5.891476502490588
 31
0.0
  0
LINE
  5
E88
330
1F
100
AcDbEntity
  8
2
  6
HIDDEN
 62
     2
 48
0.75
100
AcDbLine
 10
5.624098589087567
 20
5.863182853515357
 30
0.0
 11
5.636065638794365
 21
5.889503597911455
 31
0.0
  0
ARC
  5
E89
330
1F
100
AcDbEntity
  8
4
100
AcDbCircle
 10
5.625891049622363
 20
5.996347074641432
 30
0.0
 40
0.019066896218018
100
AcDbArc
 50
270.0
 51
356.4236656250017
  0
LINE
  5
E8A
330
1F
100
AcDbEntity
  8
4
100
AcDbLine
 10
5.935694063234228
 20
5.760106671340019
 30
0.0
 11
5.498726960728844
 21
5.760101399549411
 31
0.0
  0
LINE
  5
E8B
330
1F
100
AcDbEntity
  8
4
100
AcDbLine
 10
5.466726960728844
 20
5.728145553440055
 30
0.0
 11
5.967726960728843
 21
5.728145553440055
 31
0.0
  0
LINE
  5
E8C
330
1F
100
AcDbEntity
  8
4
100
AcDbLine
 10
5.466726960728844
 20
5.666145553440054
 30
0.0
 11
5.967726960728843
 21
5.666145553440054
 31
0.0
  0
LINE
  5
E8D
330
1F
100
AcDbEntity
  8
4
100
AcDbLine
 10
5.498726960728844
 20
5.712145553440054
 30
0.0
 11
5.935726960728844
 21
5.712145553440054
 31
0.0
  0
LINE
  5
E8E
330
1F
100
AcDbEntity
  8
4
100
AcDbLine
 10
5.508344008565277
 20
6.132950566929237
 30
0.0
 11
5.518235919174932
 21
5.974679997174786
 31
0.0
  0
ARC
  5
E8F
330
1F
100
AcDbEntity
  8
4
100
AcDbCircle
 10
5.550315023879244
 20
5.996347074641432
 30
0.0
 40
0.019066896218018
100
AcDbArc
 50
183.5763343749981
 51
270.0
  0
LINE
  5
E90
330
1F
100
AcDbEntity
  8
2
  6
HIDDEN
 62
     2
 48
0.75
100
AcDbLine
 10
5.602648330842296
 20
5.815515612970312
 30
0.0
 11
5.614615380549095
 21
5.84183635736641
 31
0.0
  0
LINE
  5
E91
330
1F
100
AcDbEntity
  8
2
  6
HIDDEN
 62
     2
 48
0.75
100
AcDbLine
 10
5.598409535189876
 20
5.815515612970312
 30
0.0
 11
5.586442485483079
 21
5.84183635736641
 31
0.0
  0
ARC
  5
E92
330
1F
100
AcDbEntity
  8
2
  6
HIDDEN
 62
     2
 48
0.75
100
AcDbCircle
 10
5.600528933016088
 20
5.816605827356203
 30
0.0
 40
0.0023833620272523
100
AcDbArc
 50
201.6777967963417
 51
338.3222032036581
  0
ARC
  5
E93
330
1F
100
AcDbEntity
  8
2
  6
HIDDEN
 62
     2
 48
0.75
100
AcDbCircle
 10
5.579078674770817
 20
5.864273067901248
 30
0.0
 40
0.0023833620272523
100
AcDbArc
 50
201.6777967963417
 51
338.3222032036581
  0
ARC
  5
E94
330
1F
100
AcDbEntity
  8
2
  6
HIDDEN
 62
     2
 48
0.75
100
AcDbCircle
 10
5.579078674770817
 20
5.916707032500797
 30
0.0
 40
0.0023833620272523
100
AcDbArc
 50
21.67779679634189
 51
158.322203203658
  0
LINE
  5
E95
330
1F
100
AcDbEntity
  8
4
100
AcDbLine
 10
5.588103036750803
 20
5.95121573129338
 30
0.0
 11
5.543212485650883
 21
5.95121573129338
 31
0.0
  0
LINE
  5
E96
330
1F
100
AcDbEntity
  8
4
100
AcDbLine
 10
5.588103036750803
 20
5.97728017842341
 30
0.0
 11
5.550315023879244
 21
5.977280178423415
 31
0.0
  0
LINE
  5
E97
330
1F
100
AcDbEntity
  8
2
  6
HIDDEN
 62
     2
 48
0.75
100
AcDbLine
 10
5.576959276944606
 20
5.917797246886688
 30
0.0
 11
5.564992227237809
 21
5.891476502490588
 31
0.0
  0
LINE
  5
E98
330
1F
100
AcDbEntity
  8
2
  6
HIDDEN
 62
     2
 48
0.75
100
AcDbLine
 10
5.576959276944606
 20
5.863182853515357
 30
0.0
 11
5.564992227237809
 21
5.889503597911455
 31
0.0
  0
ARC
  5
E99
330
1F
100
AcDbEntity
  8
2
  6
HIDDEN
 62
     2
 48
0.75
100
AcDbCircle
 10
5.567161864634554
 20
5.890490050201022
 30
0.0
 40
0.0023833620272523
100
AcDbArc
 50
155.5504979363153
 51
204.4495020636847
  0
ARC
  5
E9A
330
1F
100
AcDbEntity
  8
4
100
AcDbCircle
 10
5.543212485650883
 20
5.976241032579529
 30
0.0
 40
0.0250253012861486
100
AcDbArc
 50
183.5763343749981
 51
270.0
  0
CIRCLE
  5
E9B
330
1F
100
AcDbEntity
  8
4
100
AcDbCircle
 10
5.588103036750803
 20
5.96194086041602
 30
0.0
 40
0.0068602692592429
  0
LINE
  5
E9C
330
1F
100
AcDbEntity
  8
4
100
AcDbLine
 10
5.588103036750803
 20
5.97728017842341
 30
0.0
 11
5.625891049622363
 21
5.977280178423415
 31
0.0
  0
ARC
  5
E9D
330
1F
100
AcDbEntity
  8
2
  6
HIDDEN
 62
     2
 48
0.75
100
AcDbCircle
 10
5.612445743152346
 20
5.842822809655977
 30
0.0
 40
0.0023833620272523
100
AcDbArc
 50
335.5504979363153
 51
24.44950206368468
  0
ARC
  5
E9E
330
1F
100
AcDbEntity
  8
2
  6
HIDDEN
 62
     2
 48
0.75
100
AcDbCircle
 10
5.588612122879824
 20
5.842822809655977
 30
0.0
 40
0.0023833620272523
100
AcDbArc
 50
155.5504979363153
 51
204.4495020636847
  0
LINE
  5
E9F
330
1F
100
AcDbEntity
  8
2
  6
HIDDEN
 62
     2
 48
0.75
100
AcDbLine
 10
5.598409535189876
 20
5.870130006341643
 30
0.0
 11
5.586442485483079
 21
5.843809261945543
 31
0.0
  0
LINE
  5
EA0
330
1F
100
AcDbEntity
  8
2
  6
HIDDEN
 62
     2
 48
0.75
100
AcDbLine
 10
5.602648330842296
 20
5.870130006341643
 30
0.0
 11
5.614615380549095
 21
5.843809261945543
 31
0.0
  0
ARC
  5
EA1
330
1F
100
AcDbEntity
  8
2
  6
HIDDEN
 62
     2
 48
0.75
100
AcDbCircle
 10
5.600528933016088
 20
5.869039791955752
 30
0.0
 40
0.0023833620272523
100
AcDbArc
 50
21.67779679634189
 51
158.322203203658
  0
ARC
  5
EA2
330
1F
100
AcDbEntity
  8
2
  6
HIDDEN
 62
     2
 48
0.75
100
AcDbCircle
 10
5.621979191261357
 20
5.864273067901248
 30
0.0
 40
0.0023833620272523
100
AcDbArc
 50
201.6777967963417
 51
338.3222032036581
  0
ARC
  5
EA3
330
1F
100
AcDbEntity
  8
2
  6
HIDDEN
 62
     2
 48
0.75
100
AcDbCircle
 10
5.610062381125096
 20
5.890490050201022
 30
0.0
 40
0.0023833620272523
100
AcDbArc
 50
155.5504979363153
 51
204.4495020636847
  0
ARC
  5
EA4
330
1F
100
AcDbEntity
  8
2
  6
HIDDEN
 62
     2
 48
0.75
100
AcDbCircle
 10
5.590995484907076
 20
5.890490050201022
 30
0.0
 40
0.0023833620272523
100
AcDbArc
 50
335.5504979363153
 51
24.44950206368468
  0
LINE
  5
EA5
330
1F
100
AcDbEntity
  8
2
  6
HIDDEN
 62
     2
 48
0.75
100
AcDbLine
 10
5.619859793435146
 20
5.917797246886688
 30
0.0
 11
5.607892743728349
 21
5.891476502490588
 31
0.0
  0
ARC
  5
EA6
330
1F
100
AcDbEntity
  8
2
  6
HIDDEN
 62
     2
 48
0.75
100
AcDbCircle
 10
5.621979191261357
 20
5.916707032500797
 30
0.0
 40
0.0023833620272523
100
AcDbArc
 50
21.67779679634189
 51
158.322203203658
  0
LINE
  5
EA7
330
1F
100
AcDbEntity
  8
2
  6
HIDDEN
 62
     2
 48
0.75
100
AcDbLine
 10
5.619859793435146
 20
5.863182853515357
 30
0.0
 11
5.607892743728349
 21
5.889503597911455
 31
0.0
  0
LINE
  5
EA8
330
1F
100
AcDbEntity
  8
2
  6
HIDDEN
 62
     2
 48
0.75
100
AcDbLine
 10
5.581198072597026
 20
5.863182853515357
 30
0.0
 11
5.593165122303824
 21
5.889503597911455
 31
0.0
  0
LINE
  5
EA9
330
1F
100
AcDbEntity
  8
2
  6
HIDDEN
 62
     2
 48
0.75
100
AcDbLine
 10
5.581198072597027
 20
5.917797246886688
 30
0.0
 11
5.593165122303824
 21
5.891476502490588
 31
0.0
  0
CIRCLE
  5
EAA
330
1F
100
AcDbEntity
  8
4
100
AcDbCircle
 10
5.588103036750803
 20
6.051912776944789
 30
0.0
 40
0.0125126506430743
  0
LINE
  5
EAB
330
1F
100
AcDbEntity
  8
4
100
AcDbLine
 10
5.588103036750803
 20
6.16333495171883
 30
0.0
 11
5.536888655966366
 21
6.16333495171883
 31
0.0
  0
LINE
  5
EAC
330
1F
100
AcDbEntity
  8
4
100
AcDbLine
 10
5.588103036750803
 20
6.144268055500813
 30
0.0
 11
5.542260521461511
 21
6.144268055500813
 31
0.0
  0
ARC
  5
EAD
330
1F
100
AcDbEntity
  8
4
 62
   130
100
AcDbCircle
 10
5.563539785911851
 20
6.105418398989453
 30
0.0
 40
0.0059488716200216
100
AcDbArc
 50
225.0
 51
44.99999999999996
  0
LINE
  5
EAE
330
1F
100
AcDbEntity
  8
4
100
AcDbLine
 10
5.562691788534443
 20
6.102924138857789
 30
0.0
 11
5.566062371437428
 21
6.106294721760776
 31
0.0
  0
ARC
  5
EAF
330
1F
100
AcDbEntity
  8
4
 62
   130
100
AcDbCircle
 10
5.543290742128315
 20
6.125667442772986
 30
0.0
 40
0.0059488716200216
100
AcDbArc
 50
44.99999999999996
 51
225.0
  0
LINE
  5
EB0
330
1F
100
AcDbEntity
  8
4
100
AcDbLine
 10
5.544167064899637
 20
6.128190028298566
 30
0.0
 11
5.540796481996652
 21
6.124819445395581
 31
0.0
  0
ARC
  5
EB1
330
1F
100
AcDbEntity
  8
4
100
AcDbCircle
 10
5.542260521461511
 20
6.125201159282795
 30
0.0
 40
0.019066896218018
100
AcDbArc
 50
90.0
 51
183.5763343749981
  0
LINE
  5
EB2
330
1F
100
AcDbEntity
  8
4
100
AcDbLine
 10
5.523230756527453
 20
6.124011798974418
 30
0.0
 11
5.531285258945186
 21
5.9951397602907
 31
0.0
  0
LINE
  5
EB3
330
1F
100
AcDbEntity
  8
4
100
AcDbLine
 10
5.549236421585727
 20
6.12312067161248
 30
0.0
 11
5.545865838682741
 21
6.119750088709495
 31
0.0
  0
ARC
  5
EB4
330
1F
100
AcDbEntity
  8
4
100
AcDbCircle
 10
5.536888655966366
 20
6.134734607391805
 30
0.0
 40
0.028600344327027
100
AcDbArc
 50
90.0
 51
183.5763343749981
  0
LINE
  5
EB5
330
1F
100
AcDbEntity
  8
4
 62
   130
100
AcDbLine
 10
5.54749722959124
 20
6.12987393023591
 30
0.0
 11
5.567746273374775
 21
6.109624886452377
 31
0.0
  0
LINE
  5
EB6
330
1F
100
AcDbEntity
  8
4
 62
   130
100
AcDbLine
 10
5.539084254665389
 20
6.121460955310062
 30
0.0
 11
5.559333298448924
 21
6.101211911526525
 31
0.0
  0
LINE
  5
EB7
330
1F
100
AcDbEntity
  8
4
100
AcDbLine
 10
5.540796481996652
 20
6.124819445395581
 30
0.0
 11
5.562691788534443
 21
6.102924138857789
 31
0.0
  0
LINE
  5
EB8
330
1F
100
AcDbEntity
  8
4
100
AcDbLine
 10
5.560993014751338
 20
6.111364078446866
 30
0.0
 11
5.557622431848354
 21
6.107993495543881
 31
0.0
  0
LINE
  5
EB9
330
1F
100
AcDbEntity
  8
4
100
AcDbLine
 10
5.544167064899637
 20
6.128190028298566
 30
0.0
 11
5.566062371437428
 21
6.106294721760776
 31
0.0
  0
CIRCLE
  5
EBA
330
1F
100
AcDbEntity
  8
4
100
AcDbCircle
 10
5.588103036750803
 20
6.093593012077378
 30
0.0
 40
0.0041565833755279
  0
CIRCLE
  5
EBB
330
1F
100
AcDbEntity
  8
4
100
AcDbCircle
 10
5.588103036750803
 20
6.010232541812203
 30
0.0
 40
0.0041565833755279
  0
ARC
  5
EBC
330
1F
100
AcDbEntity
  8
2
  6
HIDDEN
 62
     2
 48
0.75
100
AcDbCircle
 10
5.579078674770816
 20
6.288544875820532
 30
0.0
 40
0.0023833620272523
100
AcDbArc
 50
21.67779679634189
 51
158.322203203658
  0
ARC
  5
EBD
330
1F
100
AcDbEntity
  8
2
  6
HIDDEN
 62
     2
 48
0.75
100
AcDbCircle
 10
5.579078674770816
 20
6.236110911220983
 30
0.0
 40
0.0023833620272523
100
AcDbArc
 50
201.6777967963417
 51
338.3222032036581
  0
LINE
  5
EBE
330
1F
100
AcDbEntity
  8
2
  6
HIDDEN
 62
     2
 48
0.75
100
AcDbLine
 10
5.576959276944606
 20
6.289635090206423
 30
0.0
 11
5.564992227237808
 21
6.263314345810324
 31
0.0
  0
LINE
  5
EBF
330
1F
100
AcDbEntity
  8
2
  6
HIDDEN
 62
     2
 48
0.75
100
AcDbLine
 10
5.576959276944605
 20
6.235020696835092
 30
0.0
 11
5.564992227237808
 21
6.26134144123119
 31
0.0
  0
ARC
  5
EC0
330
1F
100
AcDbEntity
  8
2
  6
HIDDEN
 62
     2
 48
0.75
100
AcDbCircle
 10
5.567161864634553
 20
6.262327893520757
 30
0.0
 40
0.0023833620272523
100
AcDbArc
 50
155.5504979363153
 51
204.4495020636847
  0
ARC
  5
EC1
330
1F
100
AcDbEntity
  8
2
  6
HIDDEN
 62
     2
 48
0.75
100
AcDbCircle
 10
5.600528933016087
 20
6.240877635275488
 30
0.0
 40
0.0023833620272523
100
AcDbArc
 50
21.67779679634189
 51
158.322203203658
  0
ARC
  5
EC2
330
1F
100
AcDbEntity
  8
2
  6
HIDDEN
 62
     2
 48
0.75
100
AcDbCircle
 10
5.621979191261357
 20
6.236110911220983
 30
0.0
 40
0.0023833620272523
100
AcDbArc
 50
201.6777967963417
 51
338.3222032036581
  0
ARC
  5
EC3
330
1F
100
AcDbEntity
  8
2
  6
HIDDEN
 62
     2
 48
0.75
100
AcDbCircle
 10
5.610062381125095
 20
6.262327893520757
 30
0.0
 40
0.0023833620272523
100
AcDbArc
 50
155.5504979363153
 51
204.4495020636847
  0
ARC
  5
EC4
330
1F
100
AcDbEntity
  8
2
  6
HIDDEN
 62
     2
 48
0.75
100
AcDbCircle
 10
5.590995484907076
 20
6.262327893520757
 30
0.0
 40
0.0023833620272523
100
AcDbArc
 50
335.5504979363153
 51
24.44950206368468
  0
LINE
  5
EC5
330
1F
100
AcDbEntity
  8
2
  6
HIDDEN
 62
     2
 48
0.75
100
AcDbLine
 10
5.619859793435146
 20
6.235020696835092
 30
0.0
 11
5.607892743728348
 21
6.26134144123119
 31
0.0
  0
LINE
  5
EC6
330
1F
100
AcDbEntity
  8
2
  6
HIDDEN
 62
     2
 48
0.75
100
AcDbLine
 10
5.581198072597025
 20
6.235020696835092
 30
0.0
 11
5.593165122303823
 21
6.26134144123119
 31
0.0
  0
LINE
  5
EC7
330
1F
100
AcDbEntity
  8
2
  6
HIDDEN
 62
     2
 48
0.75
100
AcDbLine
 10
5.602648330842296
 20
6.187353456290047
 30
0.0
 11
5.614615380549094
 21
6.213674200686146
 31
0.0
  0
LINE
  5
EC8
330
1F
100
AcDbEntity
  8
2
  6
HIDDEN
 62
     2
 48
0.75
100
AcDbLine
 10
5.598409535189875
 20
6.187353456290047
 30
0.0
 11
5.586442485483078
 21
6.213674200686146
 31
0.0
  0
ARC
  5
EC9
330
1F
100
AcDbEntity
  8
2
  6
HIDDEN
 62
     2
 48
0.75
100
AcDbCircle
 10
5.600528933016087
 20
6.188443670675938
 30
0.0
 40
0.0023833620272523
100
AcDbArc
 50
201.6777967963417
 51
338.3222032036581
  0
ARC
  5
ECA
330
1F
100
AcDbEntity
  8
2
  6
HIDDEN
 62
     2
 48
0.75
100
AcDbCircle
 10
5.612445743152346
 20
6.214660652975712
 30
0.0
 40
0.0023833620272523
100
AcDbArc
 50
335.5504979363153
 51
24.44950206368468
  0
ARC
  5
ECB
330
1F
100
AcDbEntity
  8
2
  6
HIDDEN
 62
     2
 48
0.75
100
AcDbCircle
 10
5.588612122879824
 20
6.214660652975712
 30
0.0
 40
0.0023833620272523
100
AcDbArc
 50
155.5504979363153
 51
204.4495020636847
  0
LINE
  5
ECC
330
1F
100
AcDbEntity
  8
2
  6
HIDDEN
 62
     2
 48
0.75
100
AcDbLine
 10
5.598409535189875
 20
6.241967849661378
 30
0.0
 11
5.586442485483078
 21
6.215647105265279
 31
0.0
  0
LINE
  5
ECD
330
1F
100
AcDbEntity
  8
2
  6
HIDDEN
 62
     2
 48
0.75
100
AcDbLine
 10
5.602648330842296
 20
6.241967849661378
 30
0.0
 11
5.614615380549094
 21
6.215647105265279
 31
0.0
  0
ARC
  5
ECE
330
1F
100
AcDbEntity
  8
2
  6
HIDDEN
 62
     2
 48
0.75
100
AcDbCircle
 10
5.621979191261357
 20
6.288544875820532
 30
0.0
 40
0.0023833620272523
100
AcDbArc
 50
21.67779679634189
 51
158.322203203658
  0
LINE
  5
ECF
330
1F
100
AcDbEntity
  8
2
  6
HIDDEN
 62
     2
 48
0.75
100
AcDbLine
 10
5.619859793435146
 20
6.289635090206423
 30
0.0
 11
5.607892743728348
 21
6.263314345810324
 31
0.0
  0
LINE
  5
ED0
330
1F
100
AcDbEntity
  8
2
  6
HIDDEN
 62
     2
 48
0.75
100
AcDbLine
 10
5.581198072597026
 20
6.289635090206423
 30
0.0
 11
5.593165122303823
 21
6.263314345810324
 31
0.0
  0
LINE
  5
ED1
330
1F
100
AcDbEntity
  8
4
100
AcDbLine
 10
5.667862064936329
 20
6.132950566929237
 30
0.0
 11
5.657970154326676
 21
5.974679997174786
 31
0.0
  0
LINE
  5
ED2
330
1F
100
AcDbEntity
  8
4
100
AcDbLine
 10
5.911175941387479
 20
5.762321507215381
 30
0.0
 11
5.789748590446511
 21
5.762321134909743
 31
0.0
  0
LINE
  5
ED3
330
1F
100
AcDbEntity
  8
2
  6
HIDDEN
 62
     2
 48
0.75
100
AcDbLine
 10
5.641310051680417
 20
5.815515612970312
 30
0.0
 11
5.629343001973619
 21
5.84183635736641
 31
0.0
  0
LINE
  5
ED4
330
1F
100
AcDbEntity
  8
2
  6
HIDDEN
 62
     2
 48
0.75
100
AcDbLine
 10
5.645548847332837
 20
5.815515612970312
 30
0.0
 11
5.657515897039634
 21
5.84183635736641
 31
0.0
  0
LINE
  5
ED5
330
1F
100
AcDbEntity
  8
2
  6
HIDDEN
 62
     2
 48
0.75
100
AcDbLine
 10
5.688449363823377
 20
5.815515612970312
 30
0.0
 11
5.700416413530175
 21
5.84183635736641
 31
0.0
  0
LINE
  5
ED6
330
1F
100
AcDbEntity
  8
2
  6
HIDDEN
 62
     2
 48
0.75
100
AcDbLine
 10
5.684210568170956
 20
5.815515612970312
 30
0.0
 11
5.67224351846416
 21
5.84183635736641
 31
0.0
  0
LINE
  5
ED7
330
1F
100
AcDbEntity
  8
2
  6
HIDDEN
 62
     2
 48
0.75
100
AcDbLine
 10
5.731349880313919
 20
5.815515612970312
 30
0.0
 11
5.743316930020715
 21
5.84183635736641
 31
0.0
  0
LINE
  5
ED8
330
1F
100
AcDbEntity
  8
2
  6
HIDDEN
 62
     2
 48
0.75
100
AcDbLine
 10
5.727111084661498
 20
5.815515612970312
 30
0.0
 11
5.7151440349547
 21
5.84183635736641
 31
0.0
  0
ARC
  5
ED9
330
1F
100
AcDbEntity
  8
2
  6
HIDDEN
 62
     2
 48
0.75
100
AcDbCircle
 10
5.643429449506627
 20
5.816605827356203
 30
0.0
 40
0.0023833620272523
100
AcDbArc
 50
201.6777967963417
 51
338.3222032036581
  0
ARC
  5
EDA
330
1F
100
AcDbEntity
  8
2
  6
HIDDEN
 62
     2
 48
0.75
100
AcDbCircle
 10
5.686329965997168
 20
5.816605827356203
 30
0.0
 40
0.0023833620272523
100
AcDbArc
 50
201.6777967963417
 51
338.3222032036581
  0
ARC
  5
EDB
330
1F
100
AcDbEntity
  8
2
  6
HIDDEN
 62
     2
 48
0.75
100
AcDbCircle
 10
5.729230482487708
 20
5.816605827356203
 30
0.0
 40
0.0023833620272523
100
AcDbArc
 50
201.6777967963417
 51
338.3222032036581
  0
ARC
  5
EDC
330
1F
100
AcDbEntity
  8
2
  6
HIDDEN
 62
     2
 48
0.75
100
AcDbCircle
 10
5.717313672351447
 20
5.842822809655977
 30
0.0
 40
0.0023833620272523
100
AcDbArc
 50
155.5504979363153
 51
204.4495020636847
  0
LINE
  5
EDD
330
1F
100
AcDbEntity
  8
2
  6
HIDDEN
 62
     2
 48
0.75
100
AcDbLine
 10
5.709899622068649
 20
5.917797246886688
 30
0.0
 11
5.721866671775445
 21
5.891476502490588
 31
0.0
  0
LINE
  5
EDE
330
1F
100
AcDbEntity
  8
2
  6
HIDDEN
 62
     2
 48
0.75
100
AcDbLine
 10
5.709899622068649
 20
5.863182853515357
 30
0.0
 11
5.721866671775445
 21
5.889503597911455
 31
0.0
  0
ARC
  5
EDF
330
1F
100
AcDbEntity
  8
2
  6
HIDDEN
 62
     2
 48
0.75
100
AcDbCircle
 10
5.707780224242438
 20
5.864273067901248
 30
0.0
 40
0.0023833620272523
100
AcDbArc
 50
201.6777967963417
 51
338.3222032036581
  0
ARC
  5
EE0
330
1F
100
AcDbEntity
  8
2
  6
HIDDEN
 62
     2
 48
0.75
100
AcDbCircle
 10
5.707780224242438
 20
5.916707032500797
 30
0.0
 40
0.0023833620272523
100
AcDbArc
 50
21.67779679634189
 51
158.322203203658
  0
ARC
  5
EE1
330
1F
100
AcDbEntity
  8
2
  6
HIDDEN
 62
     2
 48
0.75
100
AcDbCircle
 10
5.719697034378699
 20
5.890490050201022
 30
0.0
 40
0.0023833620272523
100
AcDbArc
 50
335.5504979363153
 51
24.44950206368468
  0
ARC
  5
EE2
330
1F
100
AcDbEntity
  8
4
100
AcDbCircle
 10
5.632993587850724
 20
5.976241032579529
 30
0.0
 40
0.0250253012861486
100
AcDbArc
 50
270.0
 51
356.4236656250017
  0
ARC
  5
EE3
330
1F
100
AcDbEntity
  8
2
  6
HIDDEN
 62
     2
 48
0.75
100
AcDbCircle
 10
5.655346259642889
 20
5.842822809655977
 30
0.0
 40
0.0023833620272523
100
AcDbArc
 50
335.5504979363153
 51
24.44950206368468
  0
ARC
  5
EE4
330
1F
100
AcDbEntity
  8
2
  6
HIDDEN
 62
     2
 48
0.75
100
AcDbCircle
 10
5.652962897615635
 20
5.890490050201022
 30
0.0
 40
0.0023833620272523
100
AcDbArc
 50
155.5504979363153
 51
204.4495020636847
  0
LINE
  5
EE5
330
1F
100
AcDbEntity
  8
2
  6
HIDDEN
 62
     2
 48
0.75
100
AcDbLine
 10
5.641310051680417
 20
5.870130006341643
 30
0.0
 11
5.629343001973619
 21
5.843809261945543
 31
0.0
  0
ARC
  5
EE6
330
1F
100
AcDbEntity
  8
2
  6
HIDDEN
 62
     2
 48
0.75
100
AcDbCircle
 10
5.631512639370366
 20
5.842822809655977
 30
0.0
 40
0.0023833620272523
100
AcDbArc
 50
155.5504979363153
 51
204.4495020636847
  0
ARC
  5
EE7
330
1F
100
AcDbEntity
  8
2
  6
HIDDEN
 62
     2
 48
0.75
100
AcDbCircle
 10
5.643429449506627
 20
5.869039791955752
 30
0.0
 40
0.0023833620272523
100
AcDbArc
 50
21.67779679634189
 51
158.322203203658
  0
ARC
  5
EE8
330
1F
100
AcDbEntity
  8
2
  6
HIDDEN
 62
     2
 48
0.75
100
AcDbCircle
 10
5.633896001397618
 20
5.890490050201022
 30
0.0
 40
0.0023833620272523
100
AcDbArc
 50
335.5504979363153
 51
24.44950206368468
  0
LINE
  5
EE9
330
1F
100
AcDbEntity
  8
2
  6
HIDDEN
 62
     2
 48
0.75
100
AcDbLine
 10
5.645548847332837
 20
5.870130006341643
 30
0.0
 11
5.657515897039634
 21
5.843809261945543
 31
0.0
  0
LINE
  5
EEA
330
1F
100
AcDbEntity
  8
2
  6
HIDDEN
 62
     2
 48
0.75
100
AcDbLine
 10
5.688449363823377
 20
5.870130006341643
 30
0.0
 11
5.700416413530175
 21
5.843809261945543
 31
0.0
  0
ARC
  5
EEB
330
1F
100
AcDbEntity
  8
2
  6
HIDDEN
 62
     2
 48
0.75
100
AcDbCircle
 10
5.674413155860905
 20
5.842822809655977
 30
0.0
 40
0.0023833620272523
100
AcDbArc
 50
155.5504979363153
 51
204.4495020636847
  0
LINE
  5
EEC
330
1F
100
AcDbEntity
  8
2
  6
HIDDEN
 62
     2
 48
0.75
100
AcDbLine
 10
5.684210568170956
 20
5.870130006341643
 30
0.0
 11
5.67224351846416
 21
5.843809261945543
 31
0.0
  0
ARC
  5
EED
330
1F
100
AcDbEntity
  8
2
  6
HIDDEN
 62
     2
 48
0.75
100
AcDbCircle
 10
5.686329965997168
 20
5.869039791955752
 30
0.0
 40
0.0023833620272523
100
AcDbArc
 50
21.67779679634189
 51
158.322203203658
  0
ARC
  5
EEE
330
1F
100
AcDbEntity
  8
2
  6
HIDDEN
 62
     2
 48
0.75
100
AcDbCircle
 10
5.695863414106176
 20
5.890490050201022
 30
0.0
 40
0.0023833620272523
100
AcDbArc
 50
155.5504979363153
 51
204.4495020636847
  0
ARC
  5
EEF
330
1F
100
AcDbEntity
  8
2
  6
HIDDEN
 62
     2
 48
0.75
100
AcDbCircle
 10
5.676796517888158
 20
5.890490050201022
 30
0.0
 40
0.0023833620272523
100
AcDbArc
 50
335.5504979363153
 51
24.44950206368468
  0
ARC
  5
EF0
330
1F
100
AcDbEntity
  8
2
  6
HIDDEN
 62
     2
 48
0.75
100
AcDbCircle
 10
5.664879707751897
 20
5.864273067901248
 30
0.0
 40
0.0023833620272523
100
AcDbArc
 50
201.6777967963417
 51
338.3222032036581
  0
ARC
  5
EF1
330
1F
100
AcDbEntity
  8
2
  6
HIDDEN
 62
     2
 48
0.75
100
AcDbCircle
 10
5.664879707751897
 20
5.916707032500797
 30
0.0
 40
0.0023833620272523
100
AcDbArc
 50
21.67779679634189
 51
158.322203203658
  0
LINE
  5
EF2
330
1F
100
AcDbEntity
  8
2
  6
HIDDEN
 62
     2
 48
0.75
100
AcDbLine
 10
5.666999105578107
 20
5.863182853515357
 30
0.0
 11
5.678966155284904
 21
5.889503597911455
 31
0.0
  0
LINE
  5
EF3
330
1F
100
AcDbEntity
  8
2
  6
HIDDEN
 62
     2
 48
0.75
100
AcDbLine
 10
5.666999105578107
 20
5.917797246886688
 30
0.0
 11
5.678966155284904
 21
5.891476502490588
 31
0.0
  0
ARC
  5
EF4
330
1F
100
AcDbEntity
  8
2
  6
HIDDEN
 62
     2
 48
0.75
100
AcDbCircle
 10
5.698246776133428
 20
5.842822809655977
 30
0.0
 40
0.0023833620272523
100
AcDbArc
 50
335.5504979363153
 51
24.44950206368468
  0
LINE
  5
EF5
330
1F
100
AcDbEntity
  8
2
  6
HIDDEN
 62
     2
 48
0.75
100
AcDbLine
 10
5.662760309925688
 20
5.917797246886688
 30
0.0
 11
5.650793260218889
 21
5.891476502490588
 31
0.0
  0
LINE
  5
EF6
330
1F
100
AcDbEntity
  8
2
  6
HIDDEN
 62
     2
 48
0.75
100
AcDbLine
 10
5.662760309925686
 20
5.863182853515357
 30
0.0
 11
5.650793260218889
 21
5.889503597911455
 31
0.0
  0
LINE
  5
EF7
330
1F
100
AcDbEntity
  8
2
  6
HIDDEN
 62
     2
 48
0.75
100
AcDbLine
 10
5.705660826416227
 20
5.917797246886688
 30
0.0
 11
5.69369377670943
 21
5.891476502490588
 31
0.0
  0
LINE
  5
EF8
330
1F
100
AcDbEntity
  8
2
  6
HIDDEN
 62
     2
 48
0.75
100
AcDbLine
 10
5.705660826416227
 20
5.863182853515357
 30
0.0
 11
5.69369377670943
 21
5.889503597911455
 31
0.0
  0
ARC
  5
EF9
330
1F
100
AcDbEntity
  8
2
  6
HIDDEN
 62
     2
 48
0.75
100
AcDbCircle
 10
5.74114729262397
 20
5.842822809655977
 30
0.0
 40
0.0023833620272523
100
AcDbArc
 50
335.5504979363153
 51
24.44950206368468
  0
LINE
  5
EFA
330
1F
100
AcDbEntity
  8
2
  6
HIDDEN
 62
     2
 48
0.75
100
AcDbLine
 10
5.731349880313919
 20
5.870130006341643
 30
0.0
 11
5.743316930020715
 21
5.843809261945543
 31
0.0
  0
ARC
  5
EFB
330
1F
100
AcDbEntity
  8
2
  6
HIDDEN
 62
     2
 48
0.75
100
AcDbCircle
 10
5.729230482487708
 20
5.869039791955752
 30
0.0
 40
0.0023833620272523
100
AcDbArc
 50
21.67779679634189
 51
158.322203203658
  0
LINE
  5
EFC
330
1F
100
AcDbEntity
  8
2
  6
HIDDEN
 62
     2
 48
0.75
100
AcDbLine
 10
5.727111084661498
 20
5.870130006341643
 30
0.0
 11
5.7151440349547
 21
5.843809261945543
 31
0.0
  0
LINE
  5
EFD
330
1F
100
AcDbEntity
  8
4
100
AcDbLine
 10
5.929139817659287
 20
5.893123693635281
 30
0.0
 11
5.929139817659285
 21
5.816260268256396
 31
0.0
  0
LINE
  5
EFE
330
1F
100
AcDbEntity
  8
4
100
AcDbLine
 10
5.929139817659285
 20
5.816260268256396
 30
0.0
 11
5.935694063234228
 21
5.816260268256396
 31
0.0
  0
LINE
  5
EFF
330
1F
100
AcDbEntity
  8
4
100
AcDbLine
 10
5.935694063234229
 20
5.893123693635281
 30
0.0
 11
5.929139817659287
 21
5.893123693635281
 31
0.0
  0
LINE
  5
F00
330
1F
100
AcDbEntity
  8
4
100
AcDbLine
 10
5.94118025632662
 20
5.853205239713235
 30
0.0
 11
5.921171696902161
 21
5.853205239713235
 31
0.0
  0
LINE
  5
F01
330
1F
100
AcDbEntity
  8
4
100
AcDbLine
 10
5.652975316974154
 20
6.124011798974418
 30
0.0
 11
5.644920814556421
 21
5.995157714333052
 31
0.0
  0
ARC
  5
F02
330
1F
100
AcDbEntity
  8
4
100
AcDbCircle
 10
5.633945552040096
 20
6.125201159282795
 30
0.0
 40
0.019066896218018
100
AcDbArc
 50
356.4236656250017
 51
90.0
  0
ARC
  5
F03
330
1F
100
AcDbEntity
  8
4
100
AcDbCircle
 10
5.639317417535242
 20
6.134734607391805
 30
0.0
 40
0.028600344327027
100
AcDbArc
 50
356.4236656250017
 51
90.0
  0
ARC
  5
F04
330
1F
100
AcDbEntity
  8
2
  6
HIDDEN
 62
     2
 48
0.75
100
AcDbCircle
 10
5.707780224242437
 20
6.288544875820532
 30
0.0
 40
0.0023833620272523
100
AcDbArc
 50
21.67779679634189
 51
158.322203203658
  0
LINE
  5
F05
330
1F
100
AcDbEntity
  8
2
  6
HIDDEN
 62
     2
 48
0.75
100
AcDbLine
 10
5.709899622068648
 20
6.289635090206423
 30
0.0
 11
5.721866671775444
 21
6.263314345810324
 31
0.0
  0
LINE
  5
F06
330
1F
100
AcDbEntity
  8
2
  6
HIDDEN
 62
     2
 48
0.75
100
AcDbLine
 10
5.709899622068648
 20
6.235020696835092
 30
0.0
 11
5.721866671775444
 21
6.26134144123119
 31
0.0
  0
ARC
  5
F07
330
1F
100
AcDbEntity
  8
2
  6
HIDDEN
 62
     2
 48
0.75
100
AcDbCircle
 10
5.707780224242437
 20
6.236110911220983
 30
0.0
 40
0.0023833620272523
100
AcDbArc
 50
201.6777967963417
 51
338.3222032036581
  0
ARC
  5
F08
330
1F
100
AcDbEntity
  8
2
  6
HIDDEN
 62
     2
 48
0.75
100
AcDbCircle
 10
5.719697034378699
 20
6.262327893520757
 30
0.0
 40
0.0023833620272523
100
AcDbArc
 50
335.5504979363153
 51
24.44950206368468
  0
ARC
  5
F09
330
1F
100
AcDbEntity
  8
2
  6
HIDDEN
 62
     2
 48
0.75
100
AcDbCircle
 10
5.717313672351446
 20
6.214660652975712
 30
0.0
 40
0.0023833620272523
100
AcDbArc
 50
155.5504979363153
 51
204.4495020636847
  0
ARC
  5
F0A
330
1F
100
AcDbEntity
  8
2
  6
HIDDEN
 62
     2
 48
0.75
100
AcDbCircle
 10
5.652962897615635
 20
6.262327893520757
 30
0.0
 40
0.0023833620272523
100
AcDbArc
 50
155.5504979363153
 51
204.4495020636847
  0
ARC
  5
F0B
330
1F
100
AcDbEntity
  8
2
  6
HIDDEN
 62
     2
 48
0.75
100
AcDbCircle
 10
5.655346259642888
 20
6.214660652975712
 30
0.0
 40
0.0023833620272523
100
AcDbArc
 50
335.5504979363153
 51
24.44950206368468
  0
ARC
  5
F0C
330
1F
100
AcDbEntity
  8
2
  6
HIDDEN
 62
     2
 48
0.75
100
AcDbCircle
 10
5.643429449506626
 20
6.240877635275488
 30
0.0
 40
0.0023833620272523
100
AcDbArc
 50
21.67779679634189
 51
158.322203203658
  0
ARC
  5
F0D
330
1F
100
AcDbEntity
  8
2
  6
HIDDEN
 62
     2
 48
0.75
100
AcDbCircle
 10
5.633896001397618
 20
6.262327893520757
 30
0.0
 40
0.0023833620272523
100
AcDbArc
 50
335.5504979363153
 51
24.44950206368468
  0
LINE
  5
F0E
330
1F
100
AcDbEntity
  8
2
  6
HIDDEN
 62
     2
 48
0.75
100
AcDbLine
 10
5.641310051680416
 20
6.187353456290047
 30
0.0
 11
5.629343001973619
 21
6.213674200686146
 31
0.0
  0
ARC
  5
F0F
330
1F
100
AcDbEntity
  8
2
  6
HIDDEN
 62
     2
 48
0.75
100
AcDbCircle
 10
5.643429449506626
 20
6.188443670675938
 30
0.0
 40
0.0023833620272523
100
AcDbArc
 50
201.6777967963417
 51
338.3222032036581
  0
ARC
  5
F10
330
1F
100
AcDbEntity
  8
2
  6
HIDDEN
 62
     2
 48
0.75
100
AcDbCircle
 10
5.631512639370366
 20
6.214660652975712
 30
0.0
 40
0.0023833620272523
100
AcDbArc
 50
155.5504979363153
 51
204.4495020636847
  0
LINE
  5
F11
330
1F
100
AcDbEntity
  8
2
  6
HIDDEN
 62
     2
 48
0.75
100
AcDbLine
 10
5.641310051680416
 20
6.241967849661378
 30
0.0
 11
5.629343001973619
 21
6.215647105265279
 31
0.0
  0
LINE
  5
F12
330
1F
100
AcDbEntity
  8
2
  6
HIDDEN
 62
     2
 48
0.75
100
AcDbLine
 10
5.645548847332836
 20
6.187353456290047
 30
0.0
 11
5.657515897039634
 21
6.213674200686146
 31
0.0
  0
LINE
  5
F13
330
1F
100
AcDbEntity
  8
2
  6
HIDDEN
 62
     2
 48
0.75
100
AcDbLine
 10
5.645548847332836
 20
6.241967849661378
 30
0.0
 11
5.657515897039634
 21
6.215647105265279
 31
0.0
  0
LINE
  5
F14
330
1F
100
AcDbEntity
  8
2
  6
HIDDEN
 62
     2
 48
0.75
100
AcDbLine
 10
5.688449363823377
 20
6.187353456290047
 30
0.0
 11
5.700416413530174
 21
6.213674200686146
 31
0.0
  0
LINE
  5
F15
330
1F
100
AcDbEntity
  8
2
  6
HIDDEN
 62
     2
 48
0.75
100
AcDbLine
 10
5.688449363823377
 20
6.241967849661378
 30
0.0
 11
5.700416413530174
 21
6.215647105265279
 31
0.0
  0
ARC
  5
F16
330
1F
100
AcDbEntity
  8
2
  6
HIDDEN
 62
     2
 48
0.75
100
AcDbCircle
 10
5.686329965997167
 20
6.240877635275488
 30
0.0
 40
0.0023833620272523
100
AcDbArc
 50
21.67779679634189
 51
158.322203203658
  0
ARC
  5
F17
330
1F
100
AcDbEntity
  8
2
  6
HIDDEN
 62
     2
 48
0.75
100
AcDbCircle
 10
5.695863414106175
 20
6.262327893520757
 30
0.0
 40
0.0023833620272523
100
AcDbArc
 50
155.5504979363153
 51
204.4495020636847
  0
ARC
  5
F18
330
1F
100
AcDbEntity
  8
2
  6
HIDDEN
 62
     2
 48
0.75
100
AcDbCircle
 10
5.676796517888158
 20
6.262327893520757
 30
0.0
 40
0.0023833620272523
100
AcDbArc
 50
335.5504979363153
 51
24.44950206368468
  0
ARC
  5
F19
330
1F
100
AcDbEntity
  8
2
  6
HIDDEN
 62
     2
 48
0.75
100
AcDbCircle
 10
5.664879707751897
 20
6.236110911220983
 30
0.0
 40
0.0023833620272523
100
AcDbArc
 50
201.6777967963417
 51
338.3222032036581
  0
LINE
  5
F1A
330
1F
100
AcDbEntity
  8
2
  6
HIDDEN
 62
     2
 48
0.75
100
AcDbLine
 10
5.666999105578107
 20
6.235020696835092
 30
0.0
 11
5.678966155284904
 21
6.26134144123119
 31
0.0
  0
LINE
  5
F1B
330
1F
100
AcDbEntity
  8
2
  6
HIDDEN
 62
     2
 48
0.75
100
AcDbLine
 10
5.684210568170955
 20
6.187353456290047
 30
0.0
 11
5.672243518464159
 21
6.213674200686146
 31
0.0
  0
ARC
  5
F1C
330
1F
100
AcDbEntity
  8
2
  6
HIDDEN
 62
     2
 48
0.75
100
AcDbCircle
 10
5.686329965997167
 20
6.188443670675938
 30
0.0
 40
0.0023833620272523
100
AcDbArc
 50
201.6777967963417
 51
338.3222032036581
  0
ARC
  5
F1D
330
1F
100
AcDbEntity
  8
2
  6
HIDDEN
 62
     2
 48
0.75
100
AcDbCircle
 10
5.674413155860905
 20
6.214660652975712
 30
0.0
 40
0.0023833620272523
100
AcDbArc
 50
155.5504979363153
 51
204.4495020636847
  0
LINE
  5
F1E
330
1F
100
AcDbEntity
  8
2
  6
HIDDEN
 62
     2
 48
0.75
100
AcDbLine
 10
5.684210568170955
 20
6.241967849661378
 30
0.0
 11
5.672243518464159
 21
6.215647105265279
 31
0.0
  0
ARC
  5
F1F
330
1F
100
AcDbEntity
  8
2
  6
HIDDEN
 62
     2
 48
0.75
100
AcDbCircle
 10
5.698246776133427
 20
6.214660652975712
 30
0.0
 40
0.0023833620272523
100
AcDbArc
 50
335.5504979363153
 51
24.44950206368468
  0
ARC
  5
F20
330
1F
100
AcDbEntity
  8
4
100
AcDbCircle
 10
5.72157131027693
 20
6.32570148982539
 30
0.0
 40
0.0774592658856982
100
AcDbArc
 50
167.5762104955835
 51
192.4237895044163
  0
CIRCLE
  5
F21
330
1F
100
AcDbEntity
  8
4
100
AcDbCircle
 10
5.650070449459363
 20
6.32570148982539
 30
0.0
 40
0.0025930978856505
  0
ARC
  5
F22
330
1F
100
AcDbEntity
  8
2
  6
HIDDEN
 62
     2
 48
0.75
100
AcDbCircle
 10
5.664879707751897
 20
6.288544875820532
 30
0.0
 40
0.0023833620272523
100
AcDbArc
 50
21.67779679634189
 51
158.322203203658
  0
LINE
  5
F23
330
1F
100
AcDbEntity
  8
2
  6
HIDDEN
 62
     2
 48
0.75
100
AcDbLine
 10
5.662760309925687
 20
6.289635090206423
 30
0.0
 11
5.650793260218889
 21
6.263314345810324
 31
0.0
  0
LINE
  5
F24
330
1F
100
AcDbEntity
  8
2
  6
HIDDEN
 62
     2
 48
0.75
100
AcDbLine
 10
5.666999105578107
 20
6.289635090206423
 30
0.0
 11
5.678966155284904
 21
6.263314345810324
 31
0.0
  0
LINE
  5
F25
330
1F
100
AcDbEntity
  8
2
  6
HIDDEN
 62
     2
 48
0.75
100
AcDbLine
 10
5.662760309925686
 20
6.235020696835092
 30
0.0
 11
5.650793260218889
 21
6.26134144123119
 31
0.0
  0
LINE
  5
F26
330
1F
100
AcDbEntity
  8
2
  6
HIDDEN
 62
     2
 48
0.75
100
AcDbLine
 10
5.705660826416226
 20
6.235020696835092
 30
0.0
 11
5.693693776709429
 21
6.26134144123119
 31
0.0
  0
LINE
  5
F27
330
1F
100
AcDbEntity
  8
2
  6
HIDDEN
 62
     2
 48
0.75
100
AcDbLine
 10
5.705660826416226
 20
6.289635090206423
 30
0.0
 11
5.693693776709429
 21
6.263314345810324
 31
0.0
  0
ARC
  5
F28
330
1F
100
AcDbEntity
  8
2
  6
HIDDEN
 62
     2
 48
0.75
100
AcDbCircle
 10
5.729230482487708
 20
6.240877635275488
 30
0.0
 40
0.0023833620272523
100
AcDbArc
 50
21.67779679634189
 51
158.322203203658
  0
LINE
  5
F29
330
1F
100
AcDbEntity
  8
2
  6
HIDDEN
 62
     2
 48
0.75
100
AcDbLine
 10
5.731349880313918
 20
6.187353456290047
 30
0.0
 11
5.743316930020714
 21
6.213674200686146
 31
0.0
  0
ARC
  5
F2A
330
1F
100
AcDbEntity
  8
2
  6
HIDDEN
 62
     2
 48
0.75
100
AcDbCircle
 10
5.729230482487708
 20
6.188443670675938
 30
0.0
 40
0.0023833620272523
100
AcDbArc
 50
201.6777967963417
 51
338.3222032036581
  0
ARC
  5
F2B
330
1F
100
AcDbEntity
  8
2
  6
HIDDEN
 62
     2
 48
0.75
100
AcDbCircle
 10
5.741147292623969
 20
6.214660652975712
 30
0.0
 40
0.0023833620272523
100
AcDbArc
 50
335.5504979363153
 51
24.44950206368468
  0
LINE
  5
F2C
330
1F
100
AcDbEntity
  8
2
  6
HIDDEN
 62
     2
 48
0.75
100
AcDbLine
 10
5.731349880313918
 20
6.241967849661378
 30
0.0
 11
5.743316930020714
 21
6.215647105265279
 31
0.0
  0
ARC
  5
F2D
330
1F
100
AcDbEntity
  8
4
100
AcDbCircle
 10
5.650070449459363
 20
6.32570148982539
 30
0.0
 40
0.0774592658856982
100
AcDbArc
 50
347.5762104955836
 51
12.42378950441639
  0
CIRCLE
  5
F2E
330
1F
100
AcDbEntity
  8
4
100
AcDbCircle
 10
5.72157131027693
 20
6.32570148982539
 30
0.0
 40
0.0025930978856505
  0
LINE
  5
F2F
330
1F
100
AcDbEntity
  8
2
  6
HIDDEN
 62
     2
 48
0.75
100
AcDbLine
 10
5.727111084661497
 20
6.187353456290047
 30
0.0
 11
5.7151440349547
 21
6.213674200686146
 31
0.0
  0
LINE
  5
F30
330
1F
100
AcDbEntity
  8
2
  6
HIDDEN
 62
     2
 48
0.75
100
AcDbLine
 10
5.727111084661497
 20
6.241967849661378
 30
0.0
 11
5.7151440349547
 21
6.215647105265279
 31
0.0
  0
ARC
  5
F31
330
1F
100
AcDbEntity
  8
4
100
AcDbCircle
 10
5.685820879868146
 20
6.078427679497969
 30
0.0
 40
0.266936547052252
100
AcDbArc
 50
81.40466153832001
 51
98.59533846167998
  0
ARC
  5
F32
330
1F
100
AcDbEntity
  8
4
100
AcDbCircle
 10
5.685820879868146
 20
6.572975300152812
 30
0.0
 40
0.266936547052252
100
AcDbArc
 50
261.40466153832
 51
278.5953384616799
  0
LINE
  5
F33
330
1F
100
AcDbEntity
  8
4
100
AcDbLine
 10
5.929139817659285
 20
6.214281726807525
 30
0.0
 11
5.935694063234228
 21
6.214281726807525
 31
0.0
  0
LINE
  5
F34
330
1F
100
AcDbEntity
  8
4
100
AcDbLine
 10
5.94118025632662
 20
6.251226698264365
 30
0.0
 11
5.921171696902161
 21
6.251226698264365
 31
0.0
  0
LINE
  5
F35
330
1F
100
AcDbEntity
  8
4
100
AcDbLine
 10
5.935694063234229
 20
6.291145152186412
 30
0.0
 11
5.929139817659287
 21
6.291145152186412
 31
0.0
  0
LINE
  5
F36
330
1F
100
AcDbEntity
  8
4
100
AcDbLine
 10
5.929139817659287
 20
6.291145152186412
 30
0.0
 11
5.929139817659285
 21
6.214281726807525
 31
0.0
  0
LINE
  5
F37
330
1F
100
AcDbEntity
  8
4
100
AcDbLine
 10
6.716726960728845
 20
4.992651431997184
 30
0.0
 11
6.904726960728844
 21
4.992651431997184
 31
0.0
  0
LINE
  5
F38
330
1F
100
AcDbEntity
  8
4
100
AcDbLine
 10
7.029726960728844
 20
4.992651431997184
 30
0.0
 11
7.217726960728843
 21
4.992651431997184
 31
0.0
  0
LINE
  5
F39
330
1F
100
AcDbEntity
  8
4
100
AcDbLine
 10
6.716726960728845
 20
5.728145553440055
 30
0.0
 11
6.877701140040421
 21
5.728145553440055
 31
0.0
  0
LINE
  5
F3A
330
1F
100
AcDbEntity
  8
4
100
AcDbLine
 10
6.716726960728845
 20
5.666145553440054
 30
0.0
 11
6.904726960728844
 21
5.666145553440054
 31
0.0
  0
LINE
  5
F3B
330
1F
100
AcDbEntity
  8
4
100
AcDbLine
 10
7.029726960728844
 20
5.728145553440055
 30
0.0
 11
7.217726960728843
 21
5.728145553440055
 31
0.0
  0
LINE
  5
F3C
330
1F
100
AcDbEntity
  8
4
100
AcDbLine
 10
7.029726960728844
 20
5.666145553440054
 30
0.0
 11
7.217726960728843
 21
5.666145553440054
 31
0.0
  0
INSERT
  5
F3D
330
1F
100
AcDbEntity
  8
4
100
AcDbBlockReference
  2
ARRO2
 10
9.217226960728844
 20
4.992651431997184
 30
0.0
 50
90.0
  0
LINE
  5
F3E
330
1F
100
AcDbEntity
  8
4
100
AcDbLine
 10
7.341726960728845
 20
4.930651431997183
 30
0.0
 11
7.842726960728843
 21
4.930651431997183
 31
0.0
  0
TEXT
  5
F3F
330
1F
100
AcDbEntity
  8
8
100
AcDbText
 10
9.155226960728843
 20
4.025438226452433
 30
0.0
 40
0.07
  1
1
 50
90.0
 72
     1
 11
9.155226960728843
 21
4.037104893119099
 31
0.0
100
AcDbText
  0
LINE
  5
F40
330
1F
100
AcDbEntity
  8
4
100
AcDbLine
 10
9.217226960728844
 20
4.196145553440053
 30
0.0
 11
9.217226960728844
 21
4.071145553440053
 31
0.0
  0
INSERT
  5
F41
330
1F
100
AcDbEntity
  8
4
100
AcDbBlockReference
  2
ARRO
 10
9.217226960728844
 20
4.196145553440053
 30
0.0
 50
270.0
  0
LINE
  5
F42
330
1F
100
AcDbEntity
  8
4
100
AcDbLine
 10
9.407226960728845
 20
4.258145553440053
 30
0.0
 11
9.217226960728844
 21
4.258145553440053
 31
0.0
  0
LINE
  5
F43
330
1F
100
AcDbEntity
  8
4
100
AcDbLine
 10
9.217226960728844
 20
4.258145553440053
 30
0.0
 11
9.155226960728843
 21
4.258145553440053
 31
0.0
  0
INSERT
  5
F44
330
1F
100
AcDbEntity
  8
4
100
AcDbBlockReference
  2
ARRO
 10
9.217226960728844
 20
4.258145553440053
 30
0.0
 50
90.0
  0
LINE
  5
F45
330
1F
100
AcDbEntity
  8
4
100
AcDbLine
 10
7.341726960728845
 20
4.992651431997184
 30
0.0
 11
7.842726960728843
 21
4.992651431997184
 31
0.0
  0
LINE
  5
F46
330
1F
100
AcDbEntity
  8
4
100
AcDbLine
 10
7.341726960728845
 20
5.728145553440055
 30
0.0
 11
7.842726960728843
 21
5.728145553440055
 31
0.0
  0
LINE
  5
F47
330
1F
100
AcDbEntity
  8
4
100
AcDbLine
 10
7.341726960728845
 20
5.666145553440054
 30
0.0
 11
7.842726960728843
 21
5.666145553440054
 31
0.0
  0
INSERT
  5
F48
330
1F
100
AcDbEntity
  8
4
100
AcDbBlockReference
  2
ARRO2
 10
9.217226960728844
 20
5.727151431997183
 30
0.0
 50
90.0
  0
LINE
  5
F49
330
1F
100
AcDbEntity
  8
4
100
AcDbLine
 10
9.407226960728845
 20
4.992651431997184
 30
0.0
 11
9.217226960728844
 21
4.992651431997184
 31
0.0
  0
LINE
  5
F4A
330
1F
100
AcDbEntity
  8
4
100
AcDbLine
 10
9.217226960728844
 20
4.992651431997184
 30
0.0
 11
9.155226960728846
 21
4.992651431997184
 31
0.0
  0
LINE
  5
F4B
330
1F
100
AcDbEntity
  8
4
100
AcDbLine
 10
9.407226960728845
 20
5.727151431997183
 30
0.0
 11
9.217226960728844
 21
5.727151431997183
 31
0.0
  0
LINE
  5
F4C
330
1F
100
AcDbEntity
  8
4
100
AcDbLine
 10
9.217226960728844
 20
5.727151431997183
 30
0.0
 11
9.155226960728846
 21
5.727151431997183
 31
0.0
  0
LINE
  5
F4D
330
1F
100
AcDbEntity
  8
4
100
AcDbLine
 10
11.49622696072884
 20
5.665151431997183
 30
0.0
 11
11.86122696072884
 21
5.665151431997183
 31
0.0
  0
LINE
  5
F4E
330
1F
100
AcDbEntity
  8
4
100
AcDbLine
 10
11.92322696072884
 20
5.727151431997183
 30
0.0
 11
11.45622696072884
 21
5.727151431997183
 31
0.0
  0
LINE
  5
F4F
330
1F
100
AcDbEntity
  8
4
100
AcDbLine
 10
11.92322696072884
 20
4.992651431997184
 30
0.0
 11
11.45622696072884
 21
4.992651431997184
 31
0.0
  0
LINE
  5
F50
330
1F
100
AcDbEntity
  8
4
100
AcDbLine
 10
11.49622696072884
 20
4.930651431997183
 30
0.0
 11
11.86122696072884
 21
4.930651431997183
 31
0.0
  0
LINE
  5
F55
330
1F
100
AcDbEntity
  8
2
  6
HIDDEN
 62
     2
 48
0.75
100
AcDbLine
 10
11.59391246389971
 20
4.378011994477312
 30
0.0
 11
11.84391246389971
 21
4.378011994477312
 31
0.0
  0
LINE
  5
F57
330
1F
100
AcDbEntity
  8
4
100
AcDbLine
 10
9.470226960728844
 20
4.930651431997183
 30
0.0
 11
9.470226960728844
 21
4.992651431997184
 31
0.0
  0
LINE
  5
F58
330
1F
100
AcDbEntity
  8
4
100
AcDbLine
 10
9.670226960728847
 20
4.930651431997183
 30
0.0
 11
9.608226960728845
 21
4.992651431997184
 31
0.0
  0
LINE
  5
F59
330
1F
100
AcDbEntity
  8
4
100
AcDbLine
 10
10.07522696072884
 20
4.992651431997184
 30
0.0
 11
10.07522696072884
 21
4.930651431997183
 31
0.0
  0
LINE
  5
F5A
330
1F
100
AcDbEntity
  8
4
100
AcDbLine
 10
10.03522696072884
 20
4.992651431997184
 30
0.0
 11
10.03522696072884
 21
4.930651431997183
 31
0.0
  0
LINE
  5
F5B
330
1F
100
AcDbEntity
  8
4
100
AcDbLine
 10
10.78022696072884
 20
4.930651431997183
 30
0.0
 11
10.78022696072884
 21
4.992651431997184
 31
0.0
  0
LINE
  5
F5C
330
1F
100
AcDbEntity
  8
4
100
AcDbLine
 10
10.98022696072884
 20
4.930651431997183
 30
0.0
 11
10.91822696072884
 21
4.992651431997184
 31
0.0
  0
LINE
  5
F5D
330
1F
100
AcDbEntity
  8
4
100
AcDbLine
 10
11.45622696072884
 20
4.992651431997184
 30
0.0
 11
11.45622696072884
 21
4.930651431997183
 31
0.0
  0
LINE
  5
F5E
330
1F
100
AcDbEntity
  8
4
100
AcDbLine
 10
11.38522696072884
 20
4.992651431997184
 30
0.0
 11
11.38522696072884
 21
4.930651431997183
 31
0.0
  0
LINE
  5
F5F
330
1F
100
AcDbEntity
  8
4
100
AcDbLine
 10
11.34522696072884
 20
4.992651431997184
 30
0.0
 11
11.34522696072884
 21
4.930651431997183
 31
0.0
  0
LINE
  5
F60
330
1F
100
AcDbEntity
  8
4
100
AcDbLine
 10
11.49622696072884
 20
4.992651431997184
 30
0.0
 11
11.49622696072884
 21
4.930651431997183
 31
0.0
  0
LINE
  5
F61
330
1F
100
AcDbEntity
  8
4
100
AcDbLine
 10
10.03522696072884
 20
4.930651431997183
 30
0.0
 11
9.670226960728847
 21
4.930651431997183
 31
0.0
  0
LINE
  5
F62
330
1F
100
AcDbEntity
  8
4
100
AcDbLine
 10
9.962912463899716
 20
4.378011994477312
 30
0.0
 11
9.981662463899716
 21
4.415511994477312
 31
0.0
  0
LINE
  5
F63
330
1F
100
AcDbEntity
  8
4
100
AcDbLine
 10
9.962912463899716
 20
4.453011994477312
 30
0.0
 11
9.981662463899716
 21
4.415511994477312
 31
0.0
  0
LINE
  5
F66
330
1F
100
AcDbEntity
  8
4
100
AcDbLine
 10
9.470226960728844
 20
4.898651431997183
 30
0.0
 11
9.470226960728844
 21
4.290145553440054
 31
0.0
  0
LINE
  5
F68
330
1F
100
AcDbEntity
  8
4
100
AcDbLine
 10
9.694162463899715
 20
4.415511994477312
 30
0.0
 11
9.712912463899716
 21
4.453011994477312
 31
0.0
  0
LINE
  5
F69
330
1F
100
AcDbEntity
  8
4
100
AcDbLine
 10
9.694162463899715
 20
4.415511994477312
 30
0.0
 11
9.712912463899716
 21
4.378011994477312
 31
0.0
  0
LINE
  5
F6A
330
1F
100
AcDbEntity
  8
4
100
AcDbLine
 10
9.687912463899715
 20
4.436011994477312
 30
0.0
 11
9.706662463899714
 21
4.473511994477312
 31
0.0
  0
LINE
  5
F6B
330
1F
100
AcDbEntity
  8
4
100
AcDbLine
 10
9.687912463899715
 20
4.511011994477311
 30
0.0
 11
9.706662463899714
 21
4.473511994477312
 31
0.0
  0
LINE
  5
F6C
330
1F
100
AcDbEntity
  8
4
100
AcDbLine
 10
9.470226960728844
 20
4.290145553440054
 30
0.0
 11
9.532226960728845
 21
4.290145553440054
 31
0.0
  0
LINE
  5
F6D
330
1F
100
AcDbEntity
  8
4
100
AcDbLine
 10
9.669162463899716
 20
4.473511994477312
 30
0.0
 11
9.687912463899715
 21
4.436011994477312
 31
0.0
  0
LINE
  5
F6E
330
1F
100
AcDbEntity
  8
4
100
AcDbLine
 10
9.669162463899716
 20
4.473511994477312
 30
0.0
 11
9.687912463899715
 21
4.511011994477311
 31
0.0
  0
LINE
  5
F6F
330
1F
100
AcDbEntity
  8
4
100
AcDbLine
 10
9.712912463899716
 20
4.378011994477312
 30
0.0
 11
9.731662463899716
 21
4.415511994477312
 31
0.0
  0
LINE
  5
F70
330
1F
100
AcDbEntity
  8
4
100
AcDbLine
 10
9.944162463899715
 20
4.415511994477312
 30
0.0
 11
9.962912463899716
 21
4.378011994477312
 31
0.0
  0
LINE
  5
F71
330
1F
100
AcDbEntity
  8
2
  6
HIDDEN
 62
     2
 48
0.75
100
AcDbLine
 10
9.712912463899716
 20
4.378011994477312
 30
0.0
 11
9.962912463899716
 21
4.378011994477312
 31
0.0
  0
LINE
  5
F72
330
1F
100
AcDbEntity
  8
4
100
AcDbLine
 10
9.712912463899716
 20
4.453011994477312
 30
0.0
 11
9.731662463899716
 21
4.415511994477312
 31
0.0
  0
LINE
  5
F73
330
1F
100
AcDbEntity
  8
4
100
AcDbLine
 10
9.919162463899716
 20
4.473511994477312
 30
0.0
 11
9.937912463899715
 21
4.511011994477311
 31
0.0
  0
LINE
  5
F74
330
1F
100
AcDbEntity
  8
4
100
AcDbLine
 10
9.937912463899715
 20
4.511011994477311
 30
0.0
 11
9.956662463899714
 21
4.473511994477312
 31
0.0
  0
LINE
  5
F75
330
1F
100
AcDbEntity
  8
4
100
AcDbLine
 10
9.919162463899716
 20
4.473511994477312
 30
0.0
 11
9.937912463899715
 21
4.436011994477312
 31
0.0
  0
LINE
  5
F76
330
1F
100
AcDbEntity
  8
4
100
AcDbLine
 10
9.937912463899715
 20
4.436011994477312
 30
0.0
 11
9.956662463899714
 21
4.473511994477312
 31
0.0
  0
LINE
  5
F77
330
1F
100
AcDbEntity
  8
4
100
AcDbLine
 10
9.944162463899715
 20
4.415511994477312
 30
0.0
 11
9.962912463899716
 21
4.453011994477312
 31
0.0
  0
LINE
  5
F7F
330
1F
100
AcDbEntity
  8
4
100
AcDbLine
 10
9.532226960728845
 20
4.930651431997183
 30
0.0
 11
9.470226960728844
 21
4.930651431997183
 31
0.0
  0
LINE
  5
F80
330
1F
100
AcDbEntity
  8
4
100
AcDbLine
 10
9.470226960728844
 20
4.898651431997183
 30
0.0
 11
9.532226960728845
 21
4.898651431997183
 31
0.0
  0
LINE
  5
F8C
330
1F
100
AcDbEntity
  8
4
100
AcDbLine
 10
11.34522696072884
 20
4.930651431997183
 30
0.0
 11
10.98022696072884
 21
4.930651431997183
 31
0.0
  0
LINE
  5
F8E
330
1F
100
AcDbEntity
  8
4
100
AcDbLine
 10
10.78022696072884
 20
4.898651431997183
 30
0.0
 11
10.78022696072884
 21
4.290145553440054
 31
0.0
  0
LINE
  5
F8F
330
1F
100
AcDbEntity
  8
4
100
AcDbLine
 10
10.78022696072884
 20
4.290145553440054
 30
0.0
 11
10.84222696072884
 21
4.290145553440054
 31
0.0
  0
LINE
  5
F98
330
1F
100
AcDbEntity
  8
4
100
AcDbLine
 10
10.84222696072884
 20
4.930651431997183
 30
0.0
 11
10.78022696072884
 21
4.930651431997183
 31
0.0
  0
LINE
  5
F99
330
1F
100
AcDbEntity
  8
4
100
AcDbLine
 10
10.78022696072884
 20
4.898651431997183
 30
0.0
 11
10.84222696072884
 21
4.898651431997183
 31
0.0
  0
LINE
  5
FAC
330
1F
100
AcDbEntity
  8
4
100
AcDbLine
 10
11.57516246389971
 20
4.415511994477312
 30
0.0
 11
11.59391246389971
 21
4.378011994477312
 31
0.0
  0
LINE
  5
FAD
330
1F
100
AcDbEntity
  8
4
100
AcDbLine
 10
11.59391246389971
 20
4.378011994477312
 30
0.0
 11
11.61266246389971
 21
4.415511994477312
 31
0.0
  0
LINE
  5
FAE
330
1F
100
AcDbEntity
  8
4
100
AcDbLine
 10
11.57516246389971
 20
4.415511994477312
 30
0.0
 11
11.59391246389971
 21
4.453011994477312
 31
0.0
  0
LINE
  5
FAF
330
1F
100
AcDbEntity
  8
4
100
AcDbLine
 10
11.59391246389971
 20
4.453011994477312
 30
0.0
 11
11.61266246389971
 21
4.415511994477312
 31
0.0
  0
LINE
  5
FB0
330
1F
100
AcDbEntity
  8
4
100
AcDbLine
 10
11.56891246389971
 20
4.436011994477312
 30
0.0
 11
11.58766246389971
 21
4.473511994477312
 31
0.0
  0
LINE
  5
FB1
330
1F
100
AcDbEntity
  8
4
100
AcDbLine
 10
11.55016246389972
 20
4.473511994477312
 30
0.0
 11
11.56891246389971
 21
4.436011994477312
 31
0.0
  0
LINE
  5
FB2
330
1F
100
AcDbEntity
  8
4
100
AcDbLine
 10
11.56891246389971
 20
4.511011994477311
 30
0.0
 11
11.58766246389971
 21
4.473511994477312
 31
0.0
  0
LINE
  5
FB3
330
1F
100
AcDbEntity
  8
4
100
AcDbLine
 10
11.55016246389972
 20
4.473511994477312
 30
0.0
 11
11.56891246389971
 21
4.511011994477311
 31
0.0
  0
LINE
  5
FC4
330
1F
100
AcDbEntity
  8
4
100
AcDbLine
 10
9.608226960728845
 20
4.992651431997184
 30
0.0
 11
10.07522696072884
 21
4.992651431997184
 31
0.0
  0
LINE
  5
FC9
330
1F
100
AcDbEntity
  8
4
100
AcDbLine
 10
9.470226960728844
 20
5.633151431997183
 30
0.0
 11
9.470226960728844
 21
5.02460727810654
 31
0.0
  0
LINE
  5
FCF
330
1F
100
AcDbEntity
  8
4
100
AcDbLine
 10
9.470226960728844
 20
4.992651431997184
 30
0.0
 11
9.578226960728844
 21
4.992651431997184
 31
0.0
  0
LINE
  5
FD0
330
1F
100
AcDbEntity
  8
4
100
AcDbLine
 10
9.593226960728845
 20
4.977651431997183
 30
0.0
 11
9.495226960728846
 21
4.977651431997183
 31
0.0
  0
LINE
  5
FD1
330
1F
100
AcDbEntity
  8
4
100
AcDbLine
 10
9.495226960728846
 20
4.977651431997183
 30
0.0
 11
9.495226960728846
 21
4.949405289559623
 31
0.0
  0
LINE
  5
FD2
330
1F
100
AcDbEntity
  8
4
100
AcDbLine
 10
9.470226960728844
 20
5.02460727810654
 30
0.0
 11
9.532226960728845
 21
5.02460727810654
 31
0.0
  0
LINE
  5
FD3
330
1F
100
AcDbEntity
  8
4
100
AcDbLine
 10
9.608226960728845
 20
4.992651431997184
 30
0.0
 11
9.593226960728845
 21
4.977651431997183
 31
0.0
  0
LINE
  5
FE4
330
1F
100
AcDbEntity
  8
4
100
AcDbLine
 10
9.470226960728844
 20
5.633151431997183
 30
0.0
 11
9.532226960728845
 21
5.633151431997183
 31
0.0
  0
LINE
  5
FF0
330
1F
100
AcDbEntity
  8
4
100
AcDbLine
 10
10.03522696072884
 20
5.665151431997183
 30
0.0
 11
9.670226960728847
 21
5.665151431997183
 31
0.0
  0
LINE
  5
FF1
330
1F
100
AcDbEntity
  8
4
100
AcDbLine
 10
9.608226960728845
 20
5.727151431997183
 30
0.0
 11
10.07522696072884
 21
5.727151431997183
 31
0.0
  0
LINE
  5
FFB
330
1F
100
AcDbEntity
  8
4
100
AcDbLine
 10
9.593226960728845
 20
5.712151431997183
 30
0.0
 11
9.495226960728846
 21
5.712151431997183
 31
0.0
  0
LINE
  5
FFC
330
1F
100
AcDbEntity
  8
4
100
AcDbLine
 10
9.470226960728844
 20
5.727151431997183
 30
0.0
 11
9.578226960728844
 21
5.727151431997183
 31
0.0
  0
LINE
  5
FFD
330
1F
100
AcDbEntity
  8
4
100
AcDbLine
 10
9.495226960728846
 20
5.712151431997183
 30
0.0
 11
9.495226960728846
 21
5.683905289559623
 31
0.0
  0
LINE
  5
FFE
330
1F
100
AcDbEntity
  8
4
100
AcDbLine
 10
9.470226960728844
 20
5.665151431997183
 30
0.0
 11
9.470226960728844
 21
5.727151431997183
 31
0.0
  0
LINE
  5
FFF
330
1F
100
AcDbEntity
  8
4
100
AcDbLine
 10
9.532226960728845
 20
5.665151431997183
 30
0.0
 11
9.470226960728844
 21
5.665151431997183
 31
0.0
  0
LINE
  5
1000
330
1F
100
AcDbEntity
  8
4
100
AcDbLine
 10
9.470226960728844
 20
5.75910727810654
 30
0.0
 11
9.532226960728845
 21
5.75910727810654
 31
0.0
  0
LINE
  5
1001
330
1F
100
AcDbEntity
  8
4
100
AcDbLine
 10
9.608226960728845
 20
5.727151431997183
 30
0.0
 11
9.593226960728845
 21
5.712151431997183
 31
0.0
  0
LINE
  5
1002
330
1F
100
AcDbEntity
  8
4
100
AcDbLine
 10
9.670226960728847
 20
5.665151431997183
 30
0.0
 11
9.608226960728845
 21
5.727151431997183
 31
0.0
  0
LINE
  5
101E
330
1F
100
AcDbEntity
  8
4
100
AcDbLine
 10
10.03522696072884
 20
5.727151431997183
 30
0.0
 11
10.03522696072884
 21
5.665151431997183
 31
0.0
  0
LINE
  5
101F
330
1F
100
AcDbEntity
  8
4
100
AcDbLine
 10
10.07522696072884
 20
5.727151431997183
 30
0.0
 11
10.07522696072884
 21
5.665151431997183
 31
0.0
  0
LINE
  5
1020
330
1F
100
AcDbEntity
  8
4
100
AcDbLine
 10
10.91822696072884
 20
4.992651431997184
 30
0.0
 11
11.38522696072884
 21
4.992651431997184
 31
0.0
  0
LINE
  5
1023
330
1F
100
AcDbEntity
  8
4
100
AcDbLine
 10
10.78022696072884
 20
5.633151431997183
 30
0.0
 11
10.78022696072884
 21
5.02460727810654
 31
0.0
  0
LINE
  5
1025
330
1F
100
AcDbEntity
  8
4
100
AcDbLine
 10
10.78022696072884
 20
4.992651431997184
 30
0.0
 11
10.88822696072884
 21
4.992651431997184
 31
0.0
  0
LINE
  5
1026
330
1F
100
AcDbEntity
  8
4
100
AcDbLine
 10
10.78022696072884
 20
5.02460727810654
 30
0.0
 11
10.84222696072884
 21
5.02460727810654
 31
0.0
  0
LINE
  5
1029
330
1F
100
AcDbEntity
  8
4
100
AcDbLine
 10
10.91822696072884
 20
4.992651431997184
 30
0.0
 11
10.90322696072884
 21
4.977651431997183
 31
0.0
  0
LINE
  5
102A
330
1F
100
AcDbEntity
  8
4
100
AcDbLine
 10
10.90322696072884
 20
4.977651431997183
 30
0.0
 11
10.80522696072884
 21
4.977651431997183
 31
0.0
  0
LINE
  5
102B
330
1F
100
AcDbEntity
  8
4
100
AcDbLine
 10
10.80522696072884
 20
4.977651431997183
 30
0.0
 11
10.80522696072884
 21
4.949405289559623
 31
0.0
  0
LINE
  5
1032
330
1F
100
AcDbEntity
  8
4
100
AcDbLine
 10
10.78022696072884
 20
5.633151431997183
 30
0.0
 11
10.84222696072884
 21
5.633151431997183
 31
0.0
  0
LINE
  5
105D
330
1F
100
AcDbEntity
  8
4
100
AcDbLine
 10
11.34522696072884
 20
5.665151431997183
 30
0.0
 11
10.98022696072884
 21
5.665151431997183
 31
0.0
  0
LINE
  5
105E
330
1F
100
AcDbEntity
  8
4
100
AcDbLine
 10
10.91822696072884
 20
5.727151431997183
 30
0.0
 11
11.38522696072884
 21
5.727151431997183
 31
0.0
  0
LINE
  5
1062
330
1F
100
AcDbEntity
  8
4
100
AcDbLine
 10
10.78022696072884
 20
5.727151431997183
 30
0.0
 11
10.88822696072884
 21
5.727151431997183
 31
0.0
  0
LINE
  5
1063
330
1F
100
AcDbEntity
  8
4
100
AcDbLine
 10
10.78022696072884
 20
5.75910727810654
 30
0.0
 11
10.84222696072884
 21
5.75910727810654
 31
0.0
  0
LINE
  5
1064
330
1F
100
AcDbEntity
  8
4
100
AcDbLine
 10
10.84222696072884
 20
5.665151431997183
 30
0.0
 11
10.78022696072884
 21
5.665151431997183
 31
0.0
  0
LINE
  5
1065
330
1F
100
AcDbEntity
  8
4
100
AcDbLine
 10
10.78022696072884
 20
5.665151431997183
 30
0.0
 11
10.78022696072884
 21
5.727151431997183
 31
0.0
  0
LINE
  5
1068
330
1F
100
AcDbEntity
  8
4
100
AcDbLine
 10
10.91822696072884
 20
5.727151431997183
 30
0.0
 11
10.90322696072884
 21
5.712151431997183
 31
0.0
  0
LINE
  5
1069
330
1F
100
AcDbEntity
  8
4
100
AcDbLine
 10
10.90322696072884
 20
5.712151431997183
 30
0.0
 11
10.80522696072884
 21
5.712151431997183
 31
0.0
  0
LINE
  5
106A
330
1F
100
AcDbEntity
  8
4
100
AcDbLine
 10
10.80522696072884
 20
5.712151431997183
 30
0.0
 11
10.80522696072884
 21
5.683905289559623
 31
0.0
  0
LINE
  5
106B
330
1F
100
AcDbEntity
  8
4
100
AcDbLine
 10
10.98022696072884
 20
5.665151431997183
 30
0.0
 11
10.91822696072884
 21
5.727151431997183
 31
0.0
  0
LINE
  5
1086
330
1F
100
AcDbEntity
  8
4
100
AcDbLine
 10
11.38522696072884
 20
5.727151431997183
 30
0.0
 11
11.38522696072884
 21
5.665151431997183
 31
0.0
  0
LINE
  5
1087
330
1F
100
AcDbEntity
  8
4
100
AcDbLine
 10
11.45622696072884
 20
5.727151431997183
 30
0.0
 11
11.45622696072884
 21
5.665151431997183
 31
0.0
  0
LINE
  5
1088
330
1F
100
AcDbEntity
  8
4
100
AcDbLine
 10
11.34522696072884
 20
5.727151431997183
 30
0.0
 11
11.34522696072884
 21
5.665151431997183
 31
0.0
  0
LINE
  5
1089
330
1F
100
AcDbEntity
  8
4
100
AcDbLine
 10
11.49622696072884
 20
5.727151431997183
 30
0.0
 11
11.49622696072884
 21
5.665151431997183
 31
0.0
  0
LINE
  5
10A0
330
1F
100
AcDbEntity
  8
4
100
AcDbLine
 10
11.86122696072884
 20
4.930651431997183
 30
0.0
 11
11.92322696072884
 21
4.992651431997184
 31
0.0
  0
LINE
  5
10A1
330
1F
100
AcDbEntity
  8
4
100
AcDbLine
 10
12.06122696072884
 20
4.930651431997183
 30
0.0
 11
12.06122696072884
 21
4.992651431997184
 31
0.0
  0
LINE
  5
10A2
330
1F
100
AcDbEntity
  8
4
100
AcDbLine
 10
12.06122696072884
 20
4.898651431997183
 30
0.0
 11
12.06122696072884
 21
4.290145553440054
 31
0.0
  0
LINE
  5
10A4
330
1F
100
AcDbEntity
  8
4
100
AcDbLine
 10
11.84391246389971
 20
4.378011994477312
 30
0.0
 11
11.86266246389972
 21
4.415511994477312
 31
0.0
  0
LINE
  5
10A5
330
1F
100
AcDbEntity
  8
4
100
AcDbLine
 10
11.82516246389971
 20
4.415511994477312
 30
0.0
 11
11.84391246389971
 21
4.378011994477312
 31
0.0
  0
LINE
  5
10A6
330
1F
100
AcDbEntity
  8
4
100
AcDbLine
 10
11.80016246389971
 20
4.473511994477312
 30
0.0
 11
11.81891246389971
 21
4.511011994477311
 31
0.0
  0
LINE
  5
10A7
330
1F
100
AcDbEntity
  8
4
100
AcDbLine
 10
11.81891246389971
 20
4.511011994477311
 30
0.0
 11
11.83766246389971
 21
4.473511994477312
 31
0.0
  0
LINE
  5
10A8
330
1F
100
AcDbEntity
  8
4
100
AcDbLine
 10
11.80016246389971
 20
4.473511994477312
 30
0.0
 11
11.81891246389971
 21
4.436011994477312
 31
0.0
  0
LINE
  5
10A9
330
1F
100
AcDbEntity
  8
4
100
AcDbLine
 10
11.81891246389971
 20
4.436011994477312
 30
0.0
 11
11.83766246389971
 21
4.473511994477312
 31
0.0
  0
LINE
  5
10AA
330
1F
100
AcDbEntity
  8
4
100
AcDbLine
 10
11.84391246389971
 20
4.453011994477312
 30
0.0
 11
11.86266246389972
 21
4.415511994477312
 31
0.0
  0
LINE
  5
10AB
330
1F
100
AcDbEntity
  8
4
100
AcDbLine
 10
11.82516246389971
 20
4.415511994477312
 30
0.0
 11
11.84391246389971
 21
4.453011994477312
 31
0.0
  0
LINE
  5
10AC
330
1F
100
AcDbEntity
  8
4
100
AcDbLine
 10
12.06122696072884
 20
4.290145553440054
 30
0.0
 11
11.99922696072884
 21
4.290145553440054
 31
0.0
  0
LINE
  5
10B5
330
1F
100
AcDbEntity
  8
4
100
AcDbLine
 10
11.99922696072884
 20
4.930651431997183
 30
0.0
 11
12.06122696072884
 21
4.930651431997183
 31
0.0
  0
LINE
  5
10B6
330
1F
100
AcDbEntity
  8
4
100
AcDbLine
 10
12.06122696072884
 20
4.898651431997183
 30
0.0
 11
11.99922696072884
 21
4.898651431997183
 31
0.0
  0
LINE
  5
10B7
330
1F
100
AcDbEntity
  8
4
100
AcDbLine
 10
12.06122696072884
 20
5.633151431997183
 30
0.0
 11
12.06122696072884
 21
5.02460727810654
 31
0.0
  0
LINE
  5
10C1
330
1F
100
AcDbEntity
  8
4
100
AcDbLine
 10
12.06122696072884
 20
5.02460727810654
 30
0.0
 11
11.99922696072884
 21
5.02460727810654
 31
0.0
  0
LINE
  5
10C2
330
1F
100
AcDbEntity
  8
4
100
AcDbLine
 10
12.06122696072884
 20
4.992651431997184
 30
0.0
 11
11.95322696072884
 21
4.992651431997184
 31
0.0
  0
LINE
  5
10C3
330
1F
100
AcDbEntity
  8
4
100
AcDbLine
 10
11.93822696072884
 20
4.977651431997183
 30
0.0
 11
12.03622696072884
 21
4.977651431997183
 31
0.0
  0
LINE
  5
10C4
330
1F
100
AcDbEntity
  8
4
100
AcDbLine
 10
11.92322696072884
 20
4.992651431997184
 30
0.0
 11
11.93822696072884
 21
4.977651431997183
 31
0.0
  0
LINE
  5
10C5
330
1F
100
AcDbEntity
  8
4
100
AcDbLine
 10
12.03622696072884
 20
4.977651431997183
 30
0.0
 11
12.03622696072884
 21
4.949405289559623
 31
0.0
  0
LINE
  5
10CE
330
1F
100
AcDbEntity
  8
4
100
AcDbLine
 10
12.06122696072884
 20
5.633151431997183
 30
0.0
 11
11.99922696072884
 21
5.633151431997183
 31
0.0
  0
LINE
  5
10D0
330
1F
100
AcDbEntity
  8
4
100
AcDbLine
 10
11.86122696072884
 20
5.665151431997183
 30
0.0
 11
11.92322696072884
 21
5.727151431997183
 31
0.0
  0
LINE
  5
10D9
330
1F
100
AcDbEntity
  8
4
100
AcDbLine
 10
11.99922696072884
 20
5.665151431997183
 30
0.0
 11
12.06122696072884
 21
5.665151431997183
 31
0.0
  0
LINE
  5
10DA
330
1F
100
AcDbEntity
  8
4
100
AcDbLine
 10
12.06122696072884
 20
5.75910727810654
 30
0.0
 11
11.99922696072884
 21
5.75910727810654
 31
0.0
  0
LINE
  5
10DB
330
1F
100
AcDbEntity
  8
4
100
AcDbLine
 10
11.93822696072884
 20
5.712151431997183
 30
0.0
 11
12.03622696072884
 21
5.712151431997183
 31
0.0
  0
LINE
  5
10DC
330
1F
100
AcDbEntity
  8
4
100
AcDbLine
 10
12.06122696072884
 20
5.727151431997183
 30
0.0
 11
11.95322696072884
 21
5.727151431997183
 31
0.0
  0
LINE
  5
10DD
330
1F
100
AcDbEntity
  8
4
100
AcDbLine
 10
11.92322696072884
 20
5.727151431997183
 30
0.0
 11
11.93822696072884
 21
5.712151431997183
 31
0.0
  0
LINE
  5
10DE
330
1F
100
AcDbEntity
  8
4
100
AcDbLine
 10
12.03622696072884
 20
5.712151431997183
 30
0.0
 11
12.03622696072884
 21
5.683905289559623
 31
0.0
  0
LINE
  5
10DF
330
1F
100
AcDbEntity
  8
4
100
AcDbLine
 10
12.06122696072884
 20
5.665151431997183
 30
0.0
 11
12.06122696072884
 21
5.727151431997183
 31
0.0
  0
LINE
  5
10E8
330
1F
100
AcDbEntity
  8
4
100
AcDbLine
 10
6.091726960728844
 20
6.461651431997184
 30
0.0
 11
6.592726960728843
 21
6.461651431997184
 31
0.0
  0
LINE
  5
10E9
330
1F
100
AcDbEntity
  8
4
100
AcDbLine
 10
6.091726960728844
 20
6.399651431997184
 30
0.0
 11
6.592726960728843
 21
6.399651431997184
 31
0.0
  0
LINE
  5
10EA
330
1F
100
AcDbEntity
  8
4
  6
HIDDEN2
100
AcDbLine
 10
5.89001168658548
 20
6.495827320881271
 30
0.0
 11
5.89001168658548
 21
7.098213976387092
 31
0.0
  0
LINE
  5
10EB
330
1F
100
AcDbEntity
  8
4
  6
HIDDEN2
100
AcDbLine
 10
5.91117594138748
 20
6.495827385772511
 30
0.0
 11
5.911175941387478
 21
7.098213976387088
 31
0.0
  0
LINE
  5
10EC
330
1F
100
AcDbEntity
  8
4
  6
HIDDEN2
100
AcDbLine
 10
5.789748590446513
 20
6.495827013466873
 30
0.0
 11
5.789748590446512
 21
7.098213604081447
 31
0.0
  0
LINE
  5
10ED
330
1F
100
AcDbEntity
  8
4
  6
HIDDEN2
100
AcDbLine
 10
5.810912845248512
 20
6.495827078358114
 30
0.0
 11
5.81091284524851
 21
7.098213604081447
 31
0.0
  0
ARC
  5
10EE
330
1F
100
AcDbEntity
  8
4
100
AcDbCircle
 10
5.721571310276931
 20
7.05920736838252
 30
0.0
 40
0.0774592658856982
100
AcDbArc
 50
167.5762104955835
 51
192.4237895044162
  0
ARC
  5
10EF
330
1F
100
AcDbEntity
  8
4
100
AcDbCircle
 10
5.650070449459364
 20
7.05920736838252
 30
0.0
 40
0.0774592658856982
100
AcDbArc
 50
347.5762104955836
 51
12.42378950441639
  0
LINE
  5
10F0
330
1F
100
AcDbEntity
  8
4
100
AcDbLine
 10
5.935694063234229
 20
6.493612549897149
 30
0.0
 11
5.935694063234229
 21
7.10211315666367
 31
0.0
  0
LINE
  5
10F1
330
1F
100
AcDbEntity
  8
4
100
AcDbLine
 10
5.498726960728845
 20
7.102107884873062
 30
0.0
 11
5.498726960728845
 21
6.493607278106541
 31
0.0
  0
LINE
  5
10F2
330
1F
100
AcDbEntity
  8
2
  6
HIDDEN
 62
     2
 48
0.75
100
AcDbLine
 10
5.624098589087567
 20
6.968526575392222
 30
0.0
 11
5.636065638794365
 21
6.994847319788321
 31
0.0
  0
LINE
  5
10F3
330
1F
100
AcDbEntity
  8
4
100
AcDbLine
 10
5.588103036750804
 20
6.684721609850511
 30
0.0
 11
5.632993587850725
 21
6.684721609850511
 31
0.0
  0
LINE
  5
10F4
330
1F
100
AcDbEntity
  8
4
100
AcDbLine
 10
5.588103036750804
 20
6.877773934057943
 30
0.0
 11
5.633945552040096
 21
6.877773934057943
 31
0.0
  0
LINE
  5
10F5
330
1F
100
AcDbEntity
  8
4
100
AcDbLine
 10
5.588103036750804
 20
6.89684083027596
 30
0.0
 11
5.639317417535242
 21
6.89684083027596
 31
0.0
  0
LINE
  5
10F6
330
1F
100
AcDbEntity
  8
2
  6
HIDDEN
 62
     2
 48
0.75
100
AcDbLine
 10
5.624098589087568
 20
6.651303125443818
 30
0.0
 11
5.636065638794366
 21
6.624982381047718
 31
0.0
  0
LINE
  5
10F7
330
1F
100
AcDbEntity
  8
2
  6
HIDDEN
 62
     2
 48
0.75
100
AcDbLine
 10
5.624098589087568
 20
6.596688732072487
 30
0.0
 11
5.636065638794366
 21
6.623009476468586
 31
0.0
  0
ARC
  5
10F8
330
1F
100
AcDbEntity
  8
4
100
AcDbCircle
 10
5.625891049622364
 20
6.729852953198562
 30
0.0
 40
0.019066896218018
100
AcDbArc
 50
270.0
 51
356.4236656250016
  0
LINE
  5
10F9
330
1F
100
AcDbEntity
  8
2
  6
HIDDEN
 62
     2
 48
0.75
100
AcDbLine
 10
5.624098589087567
 20
7.023140968763553
 30
0.0
 11
5.636065638794365
 21
6.996820224367454
 31
0.0
  0
LINE
  5
10FA
330
1F
100
AcDbEntity
  8
4
100
AcDbLine
 10
5.935694063234229
 20
6.493612549897149
 30
0.0
 11
5.498726960728845
 21
6.493607278106541
 31
0.0
  0
LINE
  5
10FB
330
1F
100
AcDbEntity
  8
4
100
AcDbLine
 10
5.935694063234228
 20
6.36860727810654
 30
0.0
 11
5.498726960728844
 21
6.368602006315931
 31
0.0
  0
LINE
  5
10FC
330
1F
100
AcDbEntity
  8
4
100
AcDbLine
 10
5.466726960728844
 20
6.461651431997184
 30
0.0
 11
5.967726960728843
 21
6.461651431997184
 31
0.0
  0
LINE
  5
10FD
330
1F
100
AcDbEntity
  8
4
100
AcDbLine
 10
5.466726960728844
 20
6.399651431997184
 30
0.0
 11
5.967726960728843
 21
6.399651431997184
 31
0.0
  0
ARC
  5
10FE
330
1F
100
AcDbEntity
  8
4
100
AcDbCircle
 10
5.543212485650884
 20
6.709746911136659
 30
0.0
 40
0.0250253012861486
100
AcDbArc
 50
183.5763343749981
 51
270.0
  0
CIRCLE
  5
10FF
330
1F
100
AcDbEntity
  8
4
100
AcDbCircle
 10
5.588103036750804
 20
6.69544673897315
 30
0.0
 40
0.0068602692592429
  0
ARC
  5
1100
330
1F
100
AcDbEntity
  8
2
  6
HIDDEN
 62
     2
 48
0.75
100
AcDbCircle
 10
5.579078674770818
 20
6.597778946458378
 30
0.0
 40
0.0023833620272523
100
AcDbArc
 50
201.6777967963417
 51
338.3222032036581
  0
ARC
  5
1101
330
1F
100
AcDbEntity
  8
2
  6
HIDDEN
 62
     2
 48
0.75
100
AcDbCircle
 10
5.579078674770818
 20
6.650212911057927
 30
0.0
 40
0.0023833620272523
100
AcDbArc
 50
21.6777967963418
 51
158.322203203658
  0
LINE
  5
1102
330
1F
100
AcDbEntity
  8
4
100
AcDbLine
 10
5.588103036750804
 20
6.684721609850511
 30
0.0
 11
5.543212485650884
 21
6.684721609850511
 31
0.0
  0
LINE
  5
1103
330
1F
100
AcDbEntity
  8
2
  6
HIDDEN
 62
     2
 48
0.75
100
AcDbLine
 10
5.576959276944607
 20
6.651303125443818
 30
0.0
 11
5.56499222723781
 21
6.624982381047718
 31
0.0
  0
LINE
  5
1104
330
1F
100
AcDbEntity
  8
2
  6
HIDDEN
 62
     2
 48
0.75
100
AcDbLine
 10
5.576959276944607
 20
6.596688732072487
 30
0.0
 11
5.56499222723781
 21
6.623009476468586
 31
0.0
  0
ARC
  5
1105
330
1F
100
AcDbEntity
  8
2
  6
HIDDEN
 62
     2
 48
0.75
100
AcDbCircle
 10
5.567161864634555
 20
6.623995928758152
 30
0.0
 40
0.0023833620272523
100
AcDbArc
 50
155.5504979363153
 51
204.4495020636847
  0
LINE
  5
1106
330
1F
100
AcDbEntity
  8
2
  6
HIDDEN
 62
     2
 48
0.75
100
AcDbLine
 10
5.602648330842296
 20
6.549021491527442
 30
0.0
 11
5.614615380549095
 21
6.57534223592354
 31
0.0
  0
LINE
  5
1107
330
1F
100
AcDbEntity
  8
2
  6
HIDDEN
 62
     2
 48
0.75
100
AcDbLine
 10
5.598409535189877
 20
6.549021491527442
 30
0.0
 11
5.58644248548308
 21
6.57534223592354
 31
0.0
  0
ARC
  5
1108
330
1F
100
AcDbEntity
  8
2
  6
HIDDEN
 62
     2
 48
0.75
100
AcDbCircle
 10
5.600528933016089
 20
6.550111705913333
 30
0.0
 40
0.0023833620272523
100
AcDbArc
 50
201.6777967963417
 51
338.3222032036581
  0
ARC
  5
1109
330
1F
100
AcDbEntity
  8
2
  6
HIDDEN
 62
     2
 48
0.75
100
AcDbCircle
 10
5.612445743152347
 20
6.576328688213108
 30
0.0
 40
0.0023833620272523
100
AcDbArc
 50
335.5504979363153
 51
24.44950206368468
  0
ARC
  5
110A
330
1F
100
AcDbEntity
  8
2
  6
HIDDEN
 62
     2
 48
0.75
100
AcDbCircle
 10
5.588612122879825
 20
6.576328688213108
 30
0.0
 40
0.0023833620272523
100
AcDbArc
 50
155.5504979363153
 51
204.4495020636847
  0
LINE
  5
110B
330
1F
100
AcDbEntity
  8
2
  6
HIDDEN
 62
     2
 48
0.75
100
AcDbLine
 10
5.598409535189877
 20
6.603635884898773
 30
0.0
 11
5.58644248548308
 21
6.577315140502673
 31
0.0
  0
LINE
  5
110C
330
1F
100
AcDbEntity
  8
2
  6
HIDDEN
 62
     2
 48
0.75
100
AcDbLine
 10
5.602648330842296
 20
6.603635884898773
 30
0.0
 11
5.614615380549095
 21
6.577315140502673
 31
0.0
  0
ARC
  5
110D
330
1F
100
AcDbEntity
  8
2
  6
HIDDEN
 62
     2
 48
0.75
100
AcDbCircle
 10
5.600528933016089
 20
6.602545670512882
 30
0.0
 40
0.0023833620272523
100
AcDbArc
 50
21.6777967963418
 51
158.322203203658
  0
ARC
  5
110E
330
1F
100
AcDbEntity
  8
2
  6
HIDDEN
 62
     2
 48
0.75
100
AcDbCircle
 10
5.621979191261358
 20
6.597778946458378
 30
0.0
 40
0.0023833620272523
100
AcDbArc
 50
201.6777967963417
 51
338.3222032036581
  0
ARC
  5
110F
330
1F
100
AcDbEntity
  8
2
  6
HIDDEN
 62
     2
 48
0.75
100
AcDbCircle
 10
5.610062381125096
 20
6.623995928758152
 30
0.0
 40
0.0023833620272523
100
AcDbArc
 50
155.5504979363153
 51
204.4495020636847
  0
ARC
  5
1110
330
1F
100
AcDbEntity
  8
2
  6
HIDDEN
 62
     2
 48
0.75
100
AcDbCircle
 10
5.590995484907077
 20
6.623995928758152
 30
0.0
 40
0.0023833620272523
100
AcDbArc
 50
335.5504979363153
 51
24.44950206368468
  0
LINE
  5
1111
330
1F
100
AcDbEntity
  8
2
  6
HIDDEN
 62
     2
 48
0.75
100
AcDbLine
 10
5.619859793435147
 20
6.651303125443818
 30
0.0
 11
5.60789274372835
 21
6.624982381047718
 31
0.0
  0
ARC
  5
1112
330
1F
100
AcDbEntity
  8
2
  6
HIDDEN
 62
     2
 48
0.75
100
AcDbCircle
 10
5.621979191261358
 20
6.650212911057927
 30
0.0
 40
0.0023833620272523
100
AcDbArc
 50
21.6777967963418
 51
158.322203203658
  0
LINE
  5
1113
330
1F
100
AcDbEntity
  8
2
  6
HIDDEN
 62
     2
 48
0.75
100
AcDbLine
 10
5.619859793435147
 20
6.596688732072487
 30
0.0
 11
5.60789274372835
 21
6.623009476468586
 31
0.0
  0
LINE
  5
1114
330
1F
100
AcDbEntity
  8
2
  6
HIDDEN
 62
     2
 48
0.75
100
AcDbLine
 10
5.581198072597027
 20
6.596688732072487
 30
0.0
 11
5.593165122303825
 21
6.623009476468586
 31
0.0
  0
LINE
  5
1115
330
1F
100
AcDbEntity
  8
2
  6
HIDDEN
 62
     2
 48
0.75
100
AcDbLine
 10
5.581198072597028
 20
6.651303125443818
 30
0.0
 11
5.593165122303825
 21
6.624982381047718
 31
0.0
  0
ARC
  5
1116
330
1F
100
AcDbEntity
  8
4
100
AcDbCircle
 10
5.542260521461512
 20
6.858707037839925
 30
0.0
 40
0.019066896218018
100
AcDbArc
 50
90.0
 51
183.5763343749981
  0
ARC
  5
1117
330
1F
100
AcDbEntity
  8
4
100
AcDbCircle
 10
5.536888655966367
 20
6.868240485948935
 30
0.0
 40
0.028600344327027
100
AcDbArc
 50
90.0
 51
183.5763343749981
  0
CIRCLE
  5
1118
330
1F
100
AcDbEntity
  8
4
100
AcDbCircle
 10
5.588103036750804
 20
6.785418655501919
 30
0.0
 40
0.0125126506430743
  0
LINE
  5
1119
330
1F
100
AcDbEntity
  8
4
100
AcDbLine
 10
5.588103036750804
 20
6.71078605698054
 30
0.0
 11
5.550315023879245
 21
6.710786056980546
 31
0.0
  0
ARC
  5
111A
330
1F
100
AcDbEntity
  8
4
 62
   130
100
AcDbCircle
 10
5.563539785911852
 20
6.838924277546583
 30
0.0
 40
0.0059488716200216
100
AcDbArc
 50
225.0
 51
44.99999999999996
  0
LINE
  5
111B
330
1F
100
AcDbEntity
  8
4
100
AcDbLine
 10
5.562691788534444
 20
6.83643001741492
 30
0.0
 11
5.566062371437429
 21
6.839800600317906
 31
0.0
  0
LINE
  5
111C
330
1F
100
AcDbEntity
  8
4
100
AcDbLine
 10
5.508344008565278
 20
6.866456445486367
 30
0.0
 11
5.518235919174933
 21
6.708185875731916
 31
0.0
  0
ARC
  5
111D
330
1F
100
AcDbEntity
  8
4
100
AcDbCircle
 10
5.550315023879245
 20
6.729852953198562
 30
0.0
 40
0.019066896218018
100
AcDbArc
 50
183.5763343749981
 51
270.0
  0
ARC
  5
111E
330
1F
100
AcDbEntity
  8
4
 62
   130
100
AcDbCircle
 10
5.543290742128316
 20
6.859173321330116
 30
0.0
 40
0.0059488716200216
100
AcDbArc
 50
44.99999999999996
 51
225.0
  0
LINE
  5
111F
330
1F
100
AcDbEntity
  8
4
100
AcDbLine
 10
5.544167064899638
 20
6.861695906855696
 30
0.0
 11
5.540796481996653
 21
6.858325323952711
 31
0.0
  0
LINE
  5
1120
330
1F
100
AcDbEntity
  8
4
100
AcDbLine
 10
5.523230756527454
 20
6.857517677531548
 30
0.0
 11
5.531285258945187
 21
6.72864563884783
 31
0.0
  0
LINE
  5
1121
330
1F
100
AcDbEntity
  8
4
100
AcDbLine
 10
5.549236421585728
 20
6.85662655016961
 30
0.0
 11
5.545865838682741
 21
6.853255967266625
 31
0.0
  0
LINE
  5
1122
330
1F
100
AcDbEntity
  8
4
 62
   130
100
AcDbLine
 10
5.547497229591241
 20
6.86337980879304
 30
0.0
 11
5.567746273374776
 21
6.843130765009507
 31
0.0
  0
LINE
  5
1123
330
1F
100
AcDbEntity
  8
4
 62
   130
100
AcDbLine
 10
5.53908425466539
 20
6.854966833867192
 30
0.0
 11
5.559333298448925
 21
6.834717790083655
 31
0.0
  0
LINE
  5
1124
330
1F
100
AcDbEntity
  8
4
100
AcDbLine
 10
5.540796481996653
 20
6.858325323952711
 30
0.0
 11
5.562691788534444
 21
6.83643001741492
 31
0.0
  0
LINE
  5
1125
330
1F
100
AcDbEntity
  8
4
100
AcDbLine
 10
5.560993014751339
 20
6.844869957003997
 30
0.0
 11
5.557622431848355
 21
6.841499374101012
 31
0.0
  0
LINE
  5
1126
330
1F
100
AcDbEntity
  8
4
100
AcDbLine
 10
5.544167064899638
 20
6.861695906855696
 30
0.0
 11
5.566062371437429
 21
6.839800600317906
 31
0.0
  0
CIRCLE
  5
1127
330
1F
100
AcDbEntity
  8
4
100
AcDbCircle
 10
5.588103036750804
 20
6.827098890634508
 30
0.0
 40
0.0041565833755279
  0
CIRCLE
  5
1128
330
1F
100
AcDbEntity
  8
4
100
AcDbCircle
 10
5.588103036750804
 20
6.743738420369333
 30
0.0
 40
0.0041565833755279
  0
LINE
  5
1129
330
1F
100
AcDbEntity
  8
4
100
AcDbLine
 10
5.588103036750804
 20
6.71078605698054
 30
0.0
 11
5.625891049622364
 21
6.710786056980546
 31
0.0
  0
ARC
  5
112A
330
1F
100
AcDbEntity
  8
2
  6
HIDDEN
 62
     2
 48
0.75
100
AcDbCircle
 10
5.579078674770817
 20
6.969616789778113
 30
0.0
 40
0.0023833620272523
100
AcDbArc
 50
201.6777967963417
 51
338.3222032036581
  0
LINE
  5
112B
330
1F
100
AcDbEntity
  8
4
100
AcDbLine
 10
5.588103036750804
 20
6.89684083027596
 30
0.0
 11
5.536888655966367
 21
6.89684083027596
 31
0.0
  0
LINE
  5
112C
330
1F
100
AcDbEntity
  8
4
100
AcDbLine
 10
5.588103036750804
 20
6.877773934057943
 30
0.0
 11
5.542260521461512
 21
6.877773934057943
 31
0.0
  0
LINE
  5
112D
330
1F
100
AcDbEntity
  8
2
  6
HIDDEN
 62
     2
 48
0.75
100
AcDbLine
 10
5.576959276944606
 20
6.968526575392222
 30
0.0
 11
5.564992227237809
 21
6.994847319788321
 31
0.0
  0
ARC
  5
112E
330
1F
100
AcDbEntity
  8
2
  6
HIDDEN
 62
     2
 48
0.75
100
AcDbCircle
 10
5.567161864634554
 20
6.995833772077888
 30
0.0
 40
0.0023833620272523
100
AcDbArc
 50
155.5504979363153
 51
204.4495020636847
  0
ARC
  5
112F
330
1F
100
AcDbEntity
  8
2
  6
HIDDEN
 62
     2
 48
0.75
100
AcDbCircle
 10
5.600528933016088
 20
6.974383513832618
 30
0.0
 40
0.0023833620272523
100
AcDbArc
 50
21.6777967963418
 51
158.322203203658
  0
ARC
  5
1130
330
1F
100
AcDbEntity
  8
2
  6
HIDDEN
 62
     2
 48
0.75
100
AcDbCircle
 10
5.621979191261358
 20
6.969616789778113
 30
0.0
 40
0.0023833620272523
100
AcDbArc
 50
201.6777967963417
 51
338.3222032036581
  0
ARC
  5
1131
330
1F
100
AcDbEntity
  8
2
  6
HIDDEN
 62
     2
 48
0.75
100
AcDbCircle
 10
5.610062381125096
 20
6.995833772077888
 30
0.0
 40
0.0023833620272523
100
AcDbArc
 50
155.5504979363153
 51
204.4495020636847
  0
ARC
  5
1132
330
1F
100
AcDbEntity
  8
2
  6
HIDDEN
 62
     2
 48
0.75
100
AcDbCircle
 10
5.590995484907077
 20
6.995833772077888
 30
0.0
 40
0.0023833620272523
100
AcDbArc
 50
335.5504979363153
 51
24.44950206368468
  0
LINE
  5
1133
330
1F
100
AcDbEntity
  8
2
  6
HIDDEN
 62
     2
 48
0.75
100
AcDbLine
 10
5.619859793435147
 20
6.968526575392222
 30
0.0
 11
5.607892743728349
 21
6.994847319788321
 31
0.0
  0
LINE
  5
1134
330
1F
100
AcDbEntity
  8
2
  6
HIDDEN
 62
     2
 48
0.75
100
AcDbLine
 10
5.581198072597026
 20
6.968526575392222
 30
0.0
 11
5.593165122303824
 21
6.994847319788321
 31
0.0
  0
LINE
  5
1135
330
1F
100
AcDbEntity
  8
2
  6
HIDDEN
 62
     2
 48
0.75
100
AcDbLine
 10
5.602648330842296
 20
6.920859334847177
 30
0.0
 11
5.614615380549095
 21
6.947180079243276
 31
0.0
  0
LINE
  5
1136
330
1F
100
AcDbEntity
  8
2
  6
HIDDEN
 62
     2
 48
0.75
100
AcDbLine
 10
5.598409535189876
 20
6.920859334847177
 30
0.0
 11
5.586442485483079
 21
6.947180079243276
 31
0.0
  0
ARC
  5
1137
330
1F
100
AcDbEntity
  8
2
  6
HIDDEN
 62
     2
 48
0.75
100
AcDbCircle
 10
5.600528933016088
 20
6.921949549233068
 30
0.0
 40
0.0023833620272523
100
AcDbArc
 50
201.6777967963417
 51
338.3222032036581
  0
ARC
  5
1138
330
1F
100
AcDbEntity
  8
2
  6
HIDDEN
 62
     2
 48
0.75
100
AcDbCircle
 10
5.612445743152347
 20
6.948166531532843
 30
0.0
 40
0.0023833620272523
100
AcDbArc
 50
335.5504979363153
 51
24.44950206368468
  0
ARC
  5
1139
330
1F
100
AcDbEntity
  8
2
  6
HIDDEN
 62
     2
 48
0.75
100
AcDbCircle
 10
5.588612122879824
 20
6.948166531532843
 30
0.0
 40
0.0023833620272523
100
AcDbArc
 50
155.5504979363153
 51
204.4495020636847
  0
LINE
  5
113A
330
1F
100
AcDbEntity
  8
2
  6
HIDDEN
 62
     2
 48
0.75
100
AcDbLine
 10
5.598409535189876
 20
6.975473728218508
 30
0.0
 11
5.586442485483079
 21
6.949152983822409
 31
0.0
  0
LINE
  5
113B
330
1F
100
AcDbEntity
  8
2
  6
HIDDEN
 62
     2
 48
0.75
100
AcDbLine
 10
5.602648330842296
 20
6.975473728218508
 30
0.0
 11
5.614615380549095
 21
6.949152983822409
 31
0.0
  0
ARC
  5
113C
330
1F
100
AcDbEntity
  8
2
  6
HIDDEN
 62
     2
 48
0.75
100
AcDbCircle
 10
5.579078674770817
 20
7.022050754377662
 30
0.0
 40
0.0023833620272523
100
AcDbArc
 50
21.6777967963418
 51
158.322203203658
  0
ARC
  5
113D
330
1F
100
AcDbEntity
  8
2
  6
HIDDEN
 62
     2
 48
0.75
100
AcDbCircle
 10
5.621979191261358
 20
7.022050754377662
 30
0.0
 40
0.0023833620272523
100
AcDbArc
 50
21.6777967963418
 51
158.322203203658
  0
LINE
  5
113E
330
1F
100
AcDbEntity
  8
2
  6
HIDDEN
 62
     2
 48
0.75
100
AcDbLine
 10
5.619859793435147
 20
7.023140968763553
 30
0.0
 11
5.607892743728349
 21
6.996820224367454
 31
0.0
  0
LINE
  5
113F
330
1F
100
AcDbEntity
  8
2
  6
HIDDEN
 62
     2
 48
0.75
100
AcDbLine
 10
5.581198072597027
 20
7.023140968763553
 30
0.0
 11
5.593165122303824
 21
6.996820224367454
 31
0.0
  0
LINE
  5
1140
330
1F
100
AcDbEntity
  8
2
  6
HIDDEN
 62
     2
 48
0.75
100
AcDbLine
 10
5.576959276944607
 20
7.023140968763553
 30
0.0
 11
5.564992227237809
 21
6.996820224367454
 31
0.0
  0
ARC
  5
1141
330
1F
100
AcDbEntity
  8
4
100
AcDbCircle
 10
5.632993587850725
 20
6.709746911136659
 30
0.0
 40
0.0250253012861486
100
AcDbArc
 50
270.0
 51
356.4236656250016
  0
LINE
  5
1142
330
1F
100
AcDbEntity
  8
4
100
AcDbLine
 10
5.91117594138748
 20
6.495827385772511
 30
0.0
 11
5.789748590446512
 21
6.495827013466873
 31
0.0
  0
LINE
  5
1143
330
1F
100
AcDbEntity
  8
4
100
AcDbLine
 10
5.911175941387477
 20
6.364708097829958
 30
0.0
 11
5.789748590446511
 21
6.364707725524317
 31
0.0
  0
ARC
  5
1144
330
1F
100
AcDbEntity
  8
2
  6
HIDDEN
 62
     2
 48
0.75
100
AcDbCircle
 10
5.717313672351448
 20
6.576328688213108
 30
0.0
 40
0.0023833620272523
100
AcDbArc
 50
155.5504979363153
 51
204.4495020636847
  0
LINE
  5
1145
330
1F
100
AcDbEntity
  8
2
  6
HIDDEN
 62
     2
 48
0.75
100
AcDbLine
 10
5.709899622068649
 20
6.651303125443818
 30
0.0
 11
5.721866671775446
 21
6.624982381047718
 31
0.0
  0
LINE
  5
1146
330
1F
100
AcDbEntity
  8
2
  6
HIDDEN
 62
     2
 48
0.75
100
AcDbLine
 10
5.709899622068649
 20
6.596688732072487
 30
0.0
 11
5.721866671775446
 21
6.623009476468586
 31
0.0
  0
ARC
  5
1147
330
1F
100
AcDbEntity
  8
2
  6
HIDDEN
 62
     2
 48
0.75
100
AcDbCircle
 10
5.707780224242439
 20
6.597778946458378
 30
0.0
 40
0.0023833620272523
100
AcDbArc
 50
201.6777967963417
 51
338.3222032036581
  0
ARC
  5
1148
330
1F
100
AcDbEntity
  8
2
  6
HIDDEN
 62
     2
 48
0.75
100
AcDbCircle
 10
5.707780224242439
 20
6.650212911057927
 30
0.0
 40
0.0023833620272523
100
AcDbArc
 50
21.6777967963418
 51
158.322203203658
  0
ARC
  5
1149
330
1F
100
AcDbEntity
  8
2
  6
HIDDEN
 62
     2
 48
0.75
100
AcDbCircle
 10
5.7196970343787
 20
6.623995928758152
 30
0.0
 40
0.0023833620272523
100
AcDbArc
 50
335.5504979363153
 51
24.44950206368468
  0
LINE
  5
114A
330
1F
100
AcDbEntity
  8
2
  6
HIDDEN
 62
     2
 48
0.75
100
AcDbLine
 10
5.641310051680417
 20
6.549021491527442
 30
0.0
 11
5.62934300197362
 21
6.57534223592354
 31
0.0
  0
LINE
  5
114B
330
1F
100
AcDbEntity
  8
2
  6
HIDDEN
 62
     2
 48
0.75
100
AcDbLine
 10
5.645548847332838
 20
6.549021491527442
 30
0.0
 11
5.657515897039635
 21
6.57534223592354
 31
0.0
  0
ARC
  5
114C
330
1F
100
AcDbEntity
  8
2
  6
HIDDEN
 62
     2
 48
0.75
100
AcDbCircle
 10
5.643429449506628
 20
6.550111705913333
 30
0.0
 40
0.0023833620272523
100
AcDbArc
 50
201.6777967963417
 51
338.3222032036581
  0
ARC
  5
114D
330
1F
100
AcDbEntity
  8
2
  6
HIDDEN
 62
     2
 48
0.75
100
AcDbCircle
 10
5.65534625964289
 20
6.576328688213108
 30
0.0
 40
0.0023833620272523
100
AcDbArc
 50
335.5504979363153
 51
24.44950206368468
  0
ARC
  5
114E
330
1F
100
AcDbEntity
  8
2
  6
HIDDEN
 62
     2
 48
0.75
100
AcDbCircle
 10
5.652962897615636
 20
6.623995928758152
 30
0.0
 40
0.0023833620272523
100
AcDbArc
 50
155.5504979363153
 51
204.4495020636847
  0
LINE
  5
114F
330
1F
100
AcDbEntity
  8
2
  6
HIDDEN
 62
     2
 48
0.75
100
AcDbLine
 10
5.641310051680417
 20
6.603635884898773
 30
0.0
 11
5.62934300197362
 21
6.577315140502673
 31
0.0
  0
ARC
  5
1150
330
1F
100
AcDbEntity
  8
2
  6
HIDDEN
 62
     2
 48
0.75
100
AcDbCircle
 10
5.631512639370367
 20
6.576328688213108
 30
0.0
 40
0.0023833620272523
100
AcDbArc
 50
155.5504979363153
 51
204.4495020636847
  0
ARC
  5
1151
330
1F
100
AcDbEntity
  8
2
  6
HIDDEN
 62
     2
 48
0.75
100
AcDbCircle
 10
5.643429449506628
 20
6.602545670512882
 30
0.0
 40
0.0023833620272523
100
AcDbArc
 50
21.6777967963418
 51
158.322203203658
  0
ARC
  5
1152
330
1F
100
AcDbEntity
  8
2
  6
HIDDEN
 62
     2
 48
0.75
100
AcDbCircle
 10
5.633896001397619
 20
6.623995928758152
 30
0.0
 40
0.0023833620272523
100
AcDbArc
 50
335.5504979363153
 51
24.44950206368468
  0
LINE
  5
1153
330
1F
100
AcDbEntity
  8
2
  6
HIDDEN
 62
     2
 48
0.75
100
AcDbLine
 10
5.645548847332838
 20
6.603635884898773
 30
0.0
 11
5.657515897039635
 21
6.577315140502673
 31
0.0
  0
LINE
  5
1154
330
1F
100
AcDbEntity
  8
2
  6
HIDDEN
 62
     2
 48
0.75
100
AcDbLine
 10
5.688449363823378
 20
6.549021491527442
 30
0.0
 11
5.700416413530176
 21
6.57534223592354
 31
0.0
  0
LINE
  5
1155
330
1F
100
AcDbEntity
  8
2
  6
HIDDEN
 62
     2
 48
0.75
100
AcDbLine
 10
5.684210568170957
 20
6.549021491527442
 30
0.0
 11
5.672243518464161
 21
6.57534223592354
 31
0.0
  0
ARC
  5
1156
330
1F
100
AcDbEntity
  8
2
  6
HIDDEN
 62
     2
 48
0.75
100
AcDbCircle
 10
5.686329965997169
 20
6.550111705913333
 30
0.0
 40
0.0023833620272523
100
AcDbArc
 50
201.6777967963417
 51
338.3222032036581
  0
LINE
  5
1157
330
1F
100
AcDbEntity
  8
2
  6
HIDDEN
 62
     2
 48
0.75
100
AcDbLine
 10
5.688449363823378
 20
6.603635884898773
 30
0.0
 11
5.700416413530176
 21
6.577315140502673
 31
0.0
  0
ARC
  5
1158
330
1F
100
AcDbEntity
  8
2
  6
HIDDEN
 62
     2
 48
0.75
100
AcDbCircle
 10
5.674413155860906
 20
6.576328688213108
 30
0.0
 40
0.0023833620272523
100
AcDbArc
 50
155.5504979363153
 51
204.4495020636847
  0
LINE
  5
1159
330
1F
100
AcDbEntity
  8
2
  6
HIDDEN
 62
     2
 48
0.75
100
AcDbLine
 10
5.684210568170957
 20
6.603635884898773
 30
0.0
 11
5.672243518464161
 21
6.577315140502673
 31
0.0
  0
ARC
  5
115A
330
1F
100
AcDbEntity
  8
2
  6
HIDDEN
 62
     2
 48
0.75
100
AcDbCircle
 10
5.686329965997169
 20
6.602545670512882
 30
0.0
 40
0.0023833620272523
100
AcDbArc
 50
21.6777967963418
 51
158.322203203658
  0
ARC
  5
115B
330
1F
100
AcDbEntity
  8
2
  6
HIDDEN
 62
     2
 48
0.75
100
AcDbCircle
 10
5.695863414106177
 20
6.623995928758152
 30
0.0
 40
0.0023833620272523
100
AcDbArc
 50
155.5504979363153
 51
204.4495020636847
  0
ARC
  5
115C
330
1F
100
AcDbEntity
  8
2
  6
HIDDEN
 62
     2
 48
0.75
100
AcDbCircle
 10
5.676796517888159
 20
6.623995928758152
 30
0.0
 40
0.0023833620272523
100
AcDbArc
 50
335.5504979363153
 51
24.44950206368468
  0
ARC
  5
115D
330
1F
100
AcDbEntity
  8
2
  6
HIDDEN
 62
     2
 48
0.75
100
AcDbCircle
 10
5.664879707751898
 20
6.597778946458378
 30
0.0
 40
0.0023833620272523
100
AcDbArc
 50
201.6777967963417
 51
338.3222032036581
  0
ARC
  5
115E
330
1F
100
AcDbEntity
  8
2
  6
HIDDEN
 62
     2
 48
0.75
100
AcDbCircle
 10
5.664879707751898
 20
6.650212911057927
 30
0.0
 40
0.0023833620272523
100
AcDbArc
 50
21.6777967963418
 51
158.322203203658
  0
LINE
  5
115F
330
1F
100
AcDbEntity
  8
2
  6
HIDDEN
 62
     2
 48
0.75
100
AcDbLine
 10
5.666999105578108
 20
6.596688732072487
 30
0.0
 11
5.678966155284905
 21
6.623009476468586
 31
0.0
  0
LINE
  5
1160
330
1F
100
AcDbEntity
  8
2
  6
HIDDEN
 62
     2
 48
0.75
100
AcDbLine
 10
5.666999105578108
 20
6.651303125443818
 30
0.0
 11
5.678966155284905
 21
6.624982381047718
 31
0.0
  0
ARC
  5
1161
330
1F
100
AcDbEntity
  8
2
  6
HIDDEN
 62
     2
 48
0.75
100
AcDbCircle
 10
5.698246776133429
 20
6.576328688213108
 30
0.0
 40
0.0023833620272523
100
AcDbArc
 50
335.5504979363153
 51
24.44950206368468
  0
LINE
  5
1162
330
1F
100
AcDbEntity
  8
2
  6
HIDDEN
 62
     2
 48
0.75
100
AcDbLine
 10
5.662760309925689
 20
6.651303125443818
 30
0.0
 11
5.65079326021889
 21
6.624982381047718
 31
0.0
  0
LINE
  5
1163
330
1F
100
AcDbEntity
  8
2
  6
HIDDEN
 62
     2
 48
0.75
100
AcDbLine
 10
5.662760309925687
 20
6.596688732072487
 30
0.0
 11
5.65079326021889
 21
6.623009476468586
 31
0.0
  0
LINE
  5
1164
330
1F
100
AcDbEntity
  8
2
  6
HIDDEN
 62
     2
 48
0.75
100
AcDbLine
 10
5.705660826416228
 20
6.651303125443818
 30
0.0
 11
5.693693776709431
 21
6.624982381047718
 31
0.0
  0
LINE
  5
1165
330
1F
100
AcDbEntity
  8
2
  6
HIDDEN
 62
     2
 48
0.75
100
AcDbLine
 10
5.705660826416228
 20
6.596688732072487
 30
0.0
 11
5.693693776709431
 21
6.623009476468586
 31
0.0
  0
LINE
  5
1166
330
1F
100
AcDbEntity
  8
2
  6
HIDDEN
 62
     2
 48
0.75
100
AcDbLine
 10
5.73134988031392
 20
6.549021491527442
 30
0.0
 11
5.743316930020716
 21
6.57534223592354
 31
0.0
  0
ARC
  5
1167
330
1F
100
AcDbEntity
  8
2
  6
HIDDEN
 62
     2
 48
0.75
100
AcDbCircle
 10
5.729230482487709
 20
6.550111705913333
 30
0.0
 40
0.0023833620272523
100
AcDbArc
 50
201.6777967963417
 51
338.3222032036581
  0
ARC
  5
1168
330
1F
100
AcDbEntity
  8
2
  6
HIDDEN
 62
     2
 48
0.75
100
AcDbCircle
 10
5.741147292623971
 20
6.576328688213108
 30
0.0
 40
0.0023833620272523
100
AcDbArc
 50
335.5504979363153
 51
24.44950206368468
  0
LINE
  5
1169
330
1F
100
AcDbEntity
  8
2
  6
HIDDEN
 62
     2
 48
0.75
100
AcDbLine
 10
5.73134988031392
 20
6.603635884898773
 30
0.0
 11
5.743316930020716
 21
6.577315140502673
 31
0.0
  0
ARC
  5
116A
330
1F
100
AcDbEntity
  8
2
  6
HIDDEN
 62
     2
 48
0.75
100
AcDbCircle
 10
5.729230482487709
 20
6.602545670512882
 30
0.0
 40
0.0023833620272523
100
AcDbArc
 50
21.6777967963418
 51
158.322203203658
  0
LINE
  5
116B
330
1F
100
AcDbEntity
  8
2
  6
HIDDEN
 62
     2
 48
0.75
100
AcDbLine
 10
5.727111084661498
 20
6.549021491527442
 30
0.0
 11
5.715144034954701
 21
6.57534223592354
 31
0.0
  0
LINE
  5
116C
330
1F
100
AcDbEntity
  8
2
  6
HIDDEN
 62
     2
 48
0.75
100
AcDbLine
 10
5.727111084661498
 20
6.603635884898773
 30
0.0
 11
5.715144034954701
 21
6.577315140502673
 31
0.0
  0
LINE
  5
116D
330
1F
100
AcDbEntity
  8
4
100
AcDbLine
 10
5.93569406323423
 20
6.626629572192411
 30
0.0
 11
5.929139817659287
 21
6.626629572192411
 31
0.0
  0
LINE
  5
116E
330
1F
100
AcDbEntity
  8
4
100
AcDbLine
 10
5.941180256326621
 20
6.586711118270366
 30
0.0
 11
5.921171696902162
 21
6.586711118270366
 31
0.0
  0
LINE
  5
116F
330
1F
100
AcDbEntity
  8
4
100
AcDbLine
 10
5.929139817659286
 20
6.549766146813526
 30
0.0
 11
5.935694063234229
 21
6.549766146813526
 31
0.0
  0
LINE
  5
1170
330
1F
100
AcDbEntity
  8
4
100
AcDbLine
 10
5.929139817659287
 20
6.626629572192411
 30
0.0
 11
5.929139817659286
 21
6.549766146813526
 31
0.0
  0
ARC
  5
1171
330
1F
100
AcDbEntity
  8
4
100
AcDbCircle
 10
5.633945552040096
 20
6.858707037839925
 30
0.0
 40
0.019066896218018
100
AcDbArc
 50
356.4236656250016
 51
90.0
  0
ARC
  5
1172
330
1F
100
AcDbEntity
  8
4
100
AcDbCircle
 10
5.639317417535242
 20
6.868240485948935
 30
0.0
 40
0.028600344327027
100
AcDbArc
 50
356.4236656250016
 51
90.0
  0
LINE
  5
1173
330
1F
100
AcDbEntity
  8
4
100
AcDbLine
 10
5.652975316974155
 20
6.857517677531548
 30
0.0
 11
5.644920814556422
 21
6.728663592890182
 31
0.0
  0
LINE
  5
1174
330
1F
100
AcDbEntity
  8
4
100
AcDbLine
 10
5.66786206493633
 20
6.866456445486367
 30
0.0
 11
5.657970154326677
 21
6.708185875731916
 31
0.0
  0
LINE
  5
1175
330
1F
100
AcDbEntity
  8
2
  6
HIDDEN
 62
     2
 48
0.75
100
AcDbLine
 10
5.709899622068649
 20
6.968526575392222
 30
0.0
 11
5.721866671775445
 21
6.994847319788321
 31
0.0
  0
ARC
  5
1176
330
1F
100
AcDbEntity
  8
2
  6
HIDDEN
 62
     2
 48
0.75
100
AcDbCircle
 10
5.707780224242438
 20
6.969616789778113
 30
0.0
 40
0.0023833620272523
100
AcDbArc
 50
201.6777967963417
 51
338.3222032036581
  0
ARC
  5
1177
330
1F
100
AcDbEntity
  8
2
  6
HIDDEN
 62
     2
 48
0.75
100
AcDbCircle
 10
5.719697034378699
 20
6.995833772077888
 30
0.0
 40
0.0023833620272523
100
AcDbArc
 50
335.5504979363153
 51
24.44950206368468
  0
ARC
  5
1178
330
1F
100
AcDbEntity
  8
2
  6
HIDDEN
 62
     2
 48
0.75
100
AcDbCircle
 10
5.717313672351447
 20
6.948166531532843
 30
0.0
 40
0.0023833620272523
100
AcDbArc
 50
155.5504979363153
 51
204.4495020636847
  0
ARC
  5
1179
330
1F
100
AcDbEntity
  8
2
  6
HIDDEN
 62
     2
 48
0.75
100
AcDbCircle
 10
5.652962897615636
 20
6.995833772077888
 30
0.0
 40
0.0023833620272523
100
AcDbArc
 50
155.5504979363153
 51
204.4495020636847
  0
ARC
  5
117A
330
1F
100
AcDbEntity
  8
2
  6
HIDDEN
 62
     2
 48
0.75
100
AcDbCircle
 10
5.655346259642889
 20
6.948166531532843
 30
0.0
 40
0.0023833620272523
100
AcDbArc
 50
335.5504979363153
 51
24.44950206368468
  0
ARC
  5
117B
330
1F
100
AcDbEntity
  8
2
  6
HIDDEN
 62
     2
 48
0.75
100
AcDbCircle
 10
5.643429449506627
 20
6.974383513832618
 30
0.0
 40
0.0023833620272523
100
AcDbArc
 50
21.6777967963418
 51
158.322203203658
  0
ARC
  5
117C
330
1F
100
AcDbEntity
  8
2
  6
HIDDEN
 62
     2
 48
0.75
100
AcDbCircle
 10
5.633896001397618
 20
6.995833772077888
 30
0.0
 40
0.0023833620272523
100
AcDbArc
 50
335.5504979363153
 51
24.44950206368468
  0
LINE
  5
117D
330
1F
100
AcDbEntity
  8
2
  6
HIDDEN
 62
     2
 48
0.75
100
AcDbLine
 10
5.641310051680417
 20
6.920859334847177
 30
0.0
 11
5.629343001973619
 21
6.947180079243276
 31
0.0
  0
ARC
  5
117E
330
1F
100
AcDbEntity
  8
2
  6
HIDDEN
 62
     2
 48
0.75
100
AcDbCircle
 10
5.643429449506627
 20
6.921949549233068
 30
0.0
 40
0.0023833620272523
100
AcDbArc
 50
201.6777967963417
 51
338.3222032036581
  0
ARC
  5
117F
330
1F
100
AcDbEntity
  8
2
  6
HIDDEN
 62
     2
 48
0.75
100
AcDbCircle
 10
5.631512639370367
 20
6.948166531532843
 30
0.0
 40
0.0023833620272523
100
AcDbArc
 50
155.5504979363153
 51
204.4495020636847
  0
LINE
  5
1180
330
1F
100
AcDbEntity
  8
2
  6
HIDDEN
 62
     2
 48
0.75
100
AcDbLine
 10
5.641310051680417
 20
6.975473728218508
 30
0.0
 11
5.629343001973619
 21
6.949152983822409
 31
0.0
  0
LINE
  5
1181
330
1F
100
AcDbEntity
  8
2
  6
HIDDEN
 62
     2
 48
0.75
100
AcDbLine
 10
5.645548847332837
 20
6.920859334847177
 30
0.0
 11
5.657515897039635
 21
6.947180079243276
 31
0.0
  0
LINE
  5
1182
330
1F
100
AcDbEntity
  8
2
  6
HIDDEN
 62
     2
 48
0.75
100
AcDbLine
 10
5.645548847332837
 20
6.975473728218508
 30
0.0
 11
5.657515897039635
 21
6.949152983822409
 31
0.0
  0
LINE
  5
1183
330
1F
100
AcDbEntity
  8
2
  6
HIDDEN
 62
     2
 48
0.75
100
AcDbLine
 10
5.688449363823378
 20
6.920859334847177
 30
0.0
 11
5.700416413530175
 21
6.947180079243276
 31
0.0
  0
LINE
  5
1184
330
1F
100
AcDbEntity
  8
2
  6
HIDDEN
 62
     2
 48
0.75
100
AcDbLine
 10
5.688449363823378
 20
6.975473728218508
 30
0.0
 11
5.700416413530175
 21
6.949152983822409
 31
0.0
  0
ARC
  5
1185
330
1F
100
AcDbEntity
  8
2
  6
HIDDEN
 62
     2
 48
0.75
100
AcDbCircle
 10
5.686329965997168
 20
6.974383513832618
 30
0.0
 40
0.0023833620272523
100
AcDbArc
 50
21.6777967963418
 51
158.322203203658
  0
ARC
  5
1186
330
1F
100
AcDbEntity
  8
2
  6
HIDDEN
 62
     2
 48
0.75
100
AcDbCircle
 10
5.695863414106176
 20
6.995833772077888
 30
0.0
 40
0.0023833620272523
100
AcDbArc
 50
155.5504979363153
 51
204.4495020636847
  0
ARC
  5
1187
330
1F
100
AcDbEntity
  8
2
  6
HIDDEN
 62
     2
 48
0.75
100
AcDbCircle
 10
5.676796517888159
 20
6.995833772077888
 30
0.0
 40
0.0023833620272523
100
AcDbArc
 50
335.5504979363153
 51
24.44950206368468
  0
ARC
  5
1188
330
1F
100
AcDbEntity
  8
2
  6
HIDDEN
 62
     2
 48
0.75
100
AcDbCircle
 10
5.664879707751897
 20
6.969616789778113
 30
0.0
 40
0.0023833620272523
100
AcDbArc
 50
201.6777967963417
 51
338.3222032036581
  0
LINE
  5
1189
330
1F
100
AcDbEntity
  8
2
  6
HIDDEN
 62
     2
 48
0.75
100
AcDbLine
 10
5.666999105578108
 20
6.968526575392222
 30
0.0
 11
5.678966155284905
 21
6.994847319788321
 31
0.0
  0
LINE
  5
118A
330
1F
100
AcDbEntity
  8
2
  6
HIDDEN
 62
     2
 48
0.75
100
AcDbLine
 10
5.684210568170956
 20
6.920859334847177
 30
0.0
 11
5.67224351846416
 21
6.947180079243276
 31
0.0
  0
ARC
  5
118B
330
1F
100
AcDbEntity
  8
2
  6
HIDDEN
 62
     2
 48
0.75
100
AcDbCircle
 10
5.686329965997168
 20
6.921949549233068
 30
0.0
 40
0.0023833620272523
100
AcDbArc
 50
201.6777967963417
 51
338.3222032036581
  0
ARC
  5
118C
330
1F
100
AcDbEntity
  8
2
  6
HIDDEN
 62
     2
 48
0.75
100
AcDbCircle
 10
5.674413155860906
 20
6.948166531532843
 30
0.0
 40
0.0023833620272523
100
AcDbArc
 50
155.5504979363153
 51
204.4495020636847
  0
LINE
  5
118D
330
1F
100
AcDbEntity
  8
2
  6
HIDDEN
 62
     2
 48
0.75
100
AcDbLine
 10
5.684210568170956
 20
6.975473728218508
 30
0.0
 11
5.67224351846416
 21
6.949152983822409
 31
0.0
  0
ARC
  5
118E
330
1F
100
AcDbEntity
  8
2
  6
HIDDEN
 62
     2
 48
0.75
100
AcDbCircle
 10
5.698246776133428
 20
6.948166531532843
 30
0.0
 40
0.0023833620272523
100
AcDbArc
 50
335.5504979363153
 51
24.44950206368468
  0
LINE
  5
118F
330
1F
100
AcDbEntity
  8
2
  6
HIDDEN
 62
     2
 48
0.75
100
AcDbLine
 10
5.662760309925687
 20
6.968526575392222
 30
0.0
 11
5.65079326021889
 21
6.994847319788321
 31
0.0
  0
LINE
  5
1190
330
1F
100
AcDbEntity
  8
2
  6
HIDDEN
 62
     2
 48
0.75
100
AcDbLine
 10
5.705660826416227
 20
6.968526575392222
 30
0.0
 11
5.69369377670943
 21
6.994847319788321
 31
0.0
  0
ARC
  5
1191
330
1F
100
AcDbEntity
  8
2
  6
HIDDEN
 62
     2
 48
0.75
100
AcDbCircle
 10
5.729230482487709
 20
6.974383513832618
 30
0.0
 40
0.0023833620272523
100
AcDbArc
 50
21.6777967963418
 51
158.322203203658
  0
LINE
  5
1192
330
1F
100
AcDbEntity
  8
2
  6
HIDDEN
 62
     2
 48
0.75
100
AcDbLine
 10
5.731349880313919
 20
6.920859334847177
 30
0.0
 11
5.743316930020715
 21
6.947180079243276
 31
0.0
  0
ARC
  5
1193
330
1F
100
AcDbEntity
  8
2
  6
HIDDEN
 62
     2
 48
0.75
100
AcDbCircle
 10
5.729230482487709
 20
6.921949549233068
 30
0.0
 40
0.0023833620272523
100
AcDbArc
 50
201.6777967963417
 51
338.3222032036581
  0
ARC
  5
1194
330
1F
100
AcDbEntity
  8
2
  6
HIDDEN
 62
     2
 48
0.75
100
AcDbCircle
 10
5.74114729262397
 20
6.948166531532843
 30
0.0
 40
0.0023833620272523
100
AcDbArc
 50
335.5504979363153
 51
24.44950206368468
  0
LINE
  5
1195
330
1F
100
AcDbEntity
  8
2
  6
HIDDEN
 62
     2
 48
0.75
100
AcDbLine
 10
5.731349880313919
 20
6.975473728218508
 30
0.0
 11
5.743316930020715
 21
6.949152983822409
 31
0.0
  0
ARC
  5
1196
330
1F
100
AcDbEntity
  8
4
100
AcDbCircle
 10
5.685820879868147
 20
7.306481178709942
 30
0.0
 40
0.266936547052252
100
AcDbArc
 50
261.40466153832
 51
278.5953384616799
  0
ARC
  5
1197
330
1F
100
AcDbEntity
  8
2
  6
HIDDEN
 62
     2
 48
0.75
100
AcDbCircle
 10
5.707780224242438
 20
7.022050754377662
 30
0.0
 40
0.0023833620272523
100
AcDbArc
 50
21.6777967963418
 51
158.322203203658
  0
ARC
  5
1198
330
1F
100
AcDbEntity
  8
2
  6
HIDDEN
 62
     2
 48
0.75
100
AcDbCircle
 10
5.664879707751897
 20
7.022050754377662
 30
0.0
 40
0.0023833620272523
100
AcDbArc
 50
21.6777967963418
 51
158.322203203658
  0
LINE
  5
1199
330
1F
100
AcDbEntity
  8
2
  6
HIDDEN
 62
     2
 48
0.75
100
AcDbLine
 10
5.709899622068649
 20
7.023140968763553
 30
0.0
 11
5.721866671775445
 21
6.996820224367454
 31
0.0
  0
LINE
  5
119A
330
1F
100
AcDbEntity
  8
2
  6
HIDDEN
 62
     2
 48
0.75
100
AcDbLine
 10
5.662760309925688
 20
7.023140968763553
 30
0.0
 11
5.65079326021889
 21
6.996820224367454
 31
0.0
  0
LINE
  5
119B
330
1F
100
AcDbEntity
  8
2
  6
HIDDEN
 62
     2
 48
0.75
100
AcDbLine
 10
5.666999105578108
 20
7.023140968763553
 30
0.0
 11
5.678966155284905
 21
6.996820224367454
 31
0.0
  0
LINE
  5
119C
330
1F
100
AcDbEntity
  8
2
  6
HIDDEN
 62
     2
 48
0.75
100
AcDbLine
 10
5.705660826416227
 20
7.023140968763553
 30
0.0
 11
5.69369377670943
 21
6.996820224367454
 31
0.0
  0
LINE
  5
119D
330
1F
100
AcDbEntity
  8
2
  6
HIDDEN
 62
     2
 48
0.75
100
AcDbLine
 10
5.727111084661498
 20
6.920859334847177
 30
0.0
 11
5.715144034954701
 21
6.947180079243276
 31
0.0
  0
LINE
  5
119E
330
1F
100
AcDbEntity
  8
2
  6
HIDDEN
 62
     2
 48
0.75
100
AcDbLine
 10
5.727111084661498
 20
6.975473728218508
 30
0.0
 11
5.715144034954701
 21
6.949152983822409
 31
0.0
  0
LINE
  5
119F
330
1F
100
AcDbEntity
  8
4
100
AcDbLine
 10
5.929139817659286
 20
6.947787605364656
 30
0.0
 11
5.935694063234229
 21
6.947787605364656
 31
0.0
  0
LINE
  5
11A0
330
1F
100
AcDbEntity
  8
4
100
AcDbLine
 10
5.941180256326621
 20
6.984732576821495
 30
0.0
 11
5.921171696902162
 21
6.984732576821495
 31
0.0
  0
LINE
  5
11A1
330
1F
100
AcDbEntity
  8
4
100
AcDbLine
 10
5.93569406323423
 20
7.024651030743542
 30
0.0
 11
5.929139817659287
 21
7.024651030743542
 31
0.0
  0
LINE
  5
11A2
330
1F
100
AcDbEntity
  8
4
100
AcDbLine
 10
5.929139817659287
 20
7.024651030743542
 30
0.0
 11
5.929139817659286
 21
6.947787605364656
 31
0.0
  0
LINE
  5
11A3
330
1F
100
AcDbEntity
  8
4
100
AcDbLine
 10
5.935694063234229
 20
7.10211315666367
 30
0.0
 11
5.498726960728845
 21
7.102107884873062
 31
0.0
  0
LINE
  5
11A4
330
1F
100
AcDbEntity
  8
4
100
AcDbLine
 10
5.911175941387478
 20
7.098213976387088
 30
0.0
 11
5.789748590446512
 21
7.098213604081447
 31
0.0
  0
CIRCLE
  5
11A5
330
1F
100
AcDbEntity
  8
4
100
AcDbCircle
 10
5.721571310276931
 20
7.05920736838252
 30
0.0
 40
0.0025930978856505
  0
ARC
  5
11A6
330
1F
100
AcDbEntity
  8
4
100
AcDbCircle
 10
5.685820879868147
 20
6.811933558055099
 30
0.0
 40
0.266936547052252
100
AcDbArc
 50
81.40466153832001
 51
98.59533846167998
  0
CIRCLE
  5
11A7
330
1F
100
AcDbEntity
  8
4
100
AcDbCircle
 10
5.650070449459364
 20
7.05920736838252
 30
0.0
 40
0.0025930978856505
  0
LINE
  5
11A8
330
1F
100
AcDbEntity
  8
4
100
AcDbLine
 10
6.716726960728845
 20
6.461651431997184
 30
0.0
 11
6.904726960728844
 21
6.461651431997184
 31
0.0
  0
LINE
  5
11A9
330
1F
100
AcDbEntity
  8
4
100
AcDbLine
 10
6.716726960728845
 20
6.399651431997184
 30
0.0
 11
6.904726960728844
 21
6.399651431997184
 31
0.0
  0
LINE
  5
11AA
330
1F
100
AcDbEntity
  8
4
100
AcDbLine
 10
7.058701140040422
 20
6.399651431997184
 30
0.0
 11
7.217726960728843
 21
6.399651431997184
 31
0.0
  0
LINE
  5
11AB
330
1F
100
AcDbEntity
  8
4
100
AcDbLine
 10
7.029726960728844
 20
6.461651431997184
 30
0.0
 11
7.217726960728843
 21
6.461651431997184
 31
0.0
  0
LINE
  5
11AC
330
1F
100
AcDbEntity
  8
4
100
AcDbLine
 10
7.341726960728845
 20
6.461651431997184
 30
0.0
 11
7.842726960728843
 21
6.461651431997184
 31
0.0
  0
LINE
  5
11AD
330
1F
100
AcDbEntity
  8
4
100
AcDbLine
 10
7.341726960728845
 20
6.399651431997184
 30
0.0
 11
7.842726960728843
 21
6.399651431997184
 31
0.0
  0
LINE
  5
11AE
330
1F
100
AcDbEntity
  8
4
100
AcDbLine
 10
9.407226960728845
 20
6.461651431997184
 30
0.0
 11
9.217226960728844
 21
6.461651431997184
 31
0.0
  0
LINE
  5
11AF
330
1F
100
AcDbEntity
  8
4
100
AcDbLine
 10
9.217226960728844
 20
6.461651431997184
 30
0.0
 11
9.155226960728846
 21
6.461651431997184
 31
0.0
  0
INSERT
  5
11B0
330
1F
100
AcDbEntity
  8
4
100
AcDbBlockReference
  2
ARRO
 10
9.217226960728844
 20
7.196145553440053
 30
0.0
 50
270.0
  0
LINE
  5
11B1
330
1F
100
AcDbEntity
  8
4
100
AcDbLine
 10
11.92322696072884
 20
6.461651431997184
 30
0.0
 11
11.45622696072884
 21
6.461651431997184
 31
0.0
  0
LINE
  5
11B2
330
1F
100
AcDbEntity
  8
4
100
AcDbLine
 10
11.49622696072884
 20
6.399651431997184
 30
0.0
 11
11.86122696072884
 21
6.399651431997184
 31
0.0
  0
LINE
  5
11B4
330
1F
100
AcDbEntity
  8
2
  6
HIDDEN
 62
     2
 48
0.75
100
AcDbLine
 10
11.56891246389972
 20
7.010672881057906
 30
0.0
 11
11.81891246389971
 21
7.010672881057906
 31
0.0
  0
LINE
  5
11B5
330
1F
100
AcDbEntity
  8
4
100
AcDbLine
 10
9.470226960728844
 20
7.102145553440053
 30
0.0
 11
9.470226960728844
 21
6.49360727810654
 31
0.0
  0
LINE
  5
11B6
330
1F
100
AcDbEntity
  8
4
100
AcDbLine
 10
10.03522696072884
 20
6.399651431997184
 30
0.0
 11
9.670226960728843
 21
6.399651431997184
 31
0.0
  0
LINE
  5
11B7
330
1F
100
AcDbEntity
  8
4
100
AcDbLine
 10
9.608226960728842
 20
6.461651431997184
 30
0.0
 11
10.07522696072884
 21
6.461651431997184
 31
0.0
  0
LINE
  5
11BA
330
1F
100
AcDbEntity
  8
4
100
AcDbLine
 10
9.962912463899716
 20
6.952672881057906
 30
0.0
 11
9.981662463899716
 21
6.915172881057906
 31
0.0
  0
LINE
  5
11BB
330
1F
100
AcDbEntity
  8
4
100
AcDbLine
 10
9.962912463899716
 20
6.877672881057907
 30
0.0
 11
9.981662463899716
 21
6.915172881057906
 31
0.0
  0
LINE
  5
11C4
330
1F
100
AcDbEntity
  8
4
100
AcDbLine
 10
9.470226960728844
 20
6.461651431997184
 30
0.0
 11
9.578226960728844
 21
6.461651431997184
 31
0.0
  0
LINE
  5
11C5
330
1F
100
AcDbEntity
  8
4
100
AcDbLine
 10
9.593226960728845
 20
6.446651431997183
 30
0.0
 11
9.495226960728842
 21
6.446651431997183
 31
0.0
  0
LINE
  5
11C6
330
1F
100
AcDbEntity
  8
4
100
AcDbLine
 10
9.470226960728844
 20
6.399651431997184
 30
0.0
 11
9.470226960728844
 21
6.461651431997184
 31
0.0
  0
LINE
  5
11C7
330
1F
100
AcDbEntity
  8
4
100
AcDbLine
 10
9.495226960728842
 20
6.446651431997183
 30
0.0
 11
9.495226960728842
 21
6.418405289559624
 31
0.0
  0
LINE
  5
11C8
330
1F
100
AcDbEntity
  8
4
100
AcDbLine
 10
9.470226960728844
 20
6.367651431997184
 30
0.0
 11
9.532226960728845
 21
6.367651431997184
 31
0.0
  0
LINE
  5
11C9
330
1F
100
AcDbEntity
  8
4
100
AcDbLine
 10
9.470226960728844
 20
6.493607278106541
 30
0.0
 11
9.532226960728845
 21
6.493607278106541
 31
0.0
  0
LINE
  5
11CA
330
1F
100
AcDbEntity
  8
4
100
AcDbLine
 10
9.532226960728845
 20
6.399651431997184
 30
0.0
 11
9.470226960728844
 21
6.399651431997184
 31
0.0
  0
LINE
  5
11CB
330
1F
100
AcDbEntity
  8
4
100
AcDbLine
 10
9.608226960728842
 20
6.461651431997184
 30
0.0
 11
9.593226960728845
 21
6.446651431997183
 31
0.0
  0
LINE
  5
11CC
330
1F
100
AcDbEntity
  8
4
100
AcDbLine
 10
9.670226960728843
 20
6.399651431997184
 30
0.0
 11
9.608226960728842
 21
6.461651431997184
 31
0.0
  0
LINE
  5
11D0
330
1F
100
AcDbEntity
  8
4
100
AcDbLine
 10
9.687912463899715
 20
7.010672881057906
 30
0.0
 11
9.706662463899714
 21
6.973172881057906
 31
0.0
  0
LINE
  5
11D1
330
1F
100
AcDbEntity
  8
4
100
AcDbLine
 10
9.687912463899715
 20
6.935672881057906
 30
0.0
 11
9.706662463899714
 21
6.973172881057906
 31
0.0
  0
LINE
  5
11D2
330
1F
100
AcDbEntity
  8
4
100
AcDbLine
 10
9.694162463899715
 20
6.915172881057906
 30
0.0
 11
9.712912463899716
 21
6.877672881057907
 31
0.0
  0
LINE
  5
11D3
330
1F
100
AcDbEntity
  8
4
100
AcDbLine
 10
9.694162463899715
 20
6.915172881057906
 30
0.0
 11
9.712912463899716
 21
6.952672881057906
 31
0.0
  0
LINE
  5
11D5
330
1F
100
AcDbEntity
  8
2
  6
HIDDEN
 62
     2
 48
0.75
100
AcDbLine
 10
9.687912463899717
 20
7.010672881057906
 30
0.0
 11
9.937912463899715
 21
7.010672881057906
 31
0.0
  0
LINE
  5
11D6
330
1F
100
AcDbEntity
  8
2
  6
HIDDEN
 62
     2
 48
0.75
100
AcDbLine
 10
9.669162463899716
 20
6.973172881057906
 30
0.0
 11
9.669162463899716
 21
4.473511994477312
 31
0.0
  0
LINE
  5
11D8
330
1F
100
AcDbEntity
  8
4
100
AcDbLine
 10
9.669162463899716
 20
6.973172881057906
 30
0.0
 11
9.687912463899715
 21
7.010672881057906
 31
0.0
  0
LINE
  5
11D9
330
1F
100
AcDbEntity
  8
4
100
AcDbLine
 10
9.669162463899716
 20
6.973172881057906
 30
0.0
 11
9.687912463899715
 21
6.935672881057906
 31
0.0
  0
LINE
  5
11DC
330
1F
100
AcDbEntity
  8
4
100
AcDbLine
 10
9.712912463899716
 20
6.877672881057907
 30
0.0
 11
9.731662463899716
 21
6.915172881057906
 31
0.0
  0
LINE
  5
11DD
330
1F
100
AcDbEntity
  8
4
100
AcDbLine
 10
9.712912463899716
 20
6.952672881057906
 30
0.0
 11
9.731662463899716
 21
6.915172881057906
 31
0.0
  0
LINE
  5
11DE
330
1F
100
AcDbEntity
  8
4
100
AcDbLine
 10
9.944162463899715
 20
6.915172881057906
 30
0.0
 11
9.962912463899716
 21
6.952672881057906
 31
0.0
  0
LINE
  5
11DF
330
1F
100
AcDbEntity
  8
4
100
AcDbLine
 10
9.944162463899715
 20
6.915172881057906
 30
0.0
 11
9.962912463899716
 21
6.877672881057907
 31
0.0
  0
LINE
  5
11E0
330
1F
100
AcDbEntity
  8
4
100
AcDbLine
 10
9.937912463899715
 20
6.935672881057906
 30
0.0
 11
9.956662463899714
 21
6.973172881057906
 31
0.0
  0
LINE
  5
11E1
330
1F
100
AcDbEntity
  8
4
100
AcDbLine
 10
9.919162463899716
 20
6.973172881057906
 30
0.0
 11
9.937912463899715
 21
6.935672881057906
 31
0.0
  0
LINE
  5
11E2
330
1F
100
AcDbEntity
  8
4
100
AcDbLine
 10
9.937912463899715
 20
7.010672881057906
 30
0.0
 11
9.956662463899714
 21
6.973172881057906
 31
0.0
  0
LINE
  5
11E3
330
1F
100
AcDbEntity
  8
4
100
AcDbLine
 10
9.919162463899716
 20
6.973172881057906
 30
0.0
 11
9.937912463899715
 21
7.010672881057906
 31
0.0
  0
LINE
  5
11E4
330
1F
100
AcDbEntity
  8
2
  6
HIDDEN
 62
     2
 48
0.75
100
AcDbLine
 10
9.981662463899716
 20
6.915172881057906
 30
0.0
 11
9.981662463899716
 21
4.415511994477312
 31
0.0
  0
LINE
  5
11E5
330
1F
100
AcDbEntity
  8
4
100
AcDbLine
 10
10.07522696072884
 20
6.461651431997184
 30
0.0
 11
10.07522696072884
 21
6.399651431997184
 31
0.0
  0
LINE
  5
11E6
330
1F
100
AcDbEntity
  8
4
100
AcDbLine
 10
10.03522696072884
 20
6.461651431997184
 30
0.0
 11
10.03522696072884
 21
6.399651431997184
 31
0.0
  0
LINE
  5
11E7
330
1F
100
AcDbEntity
  8
4
100
AcDbLine
 10
9.470226960728844
 20
7.102145553440053
 30
0.0
 11
9.532226960728841
 21
7.102145553440053
 31
0.0
  0
LINE
  5
11E8
330
1F
100
AcDbEntity
  8
4
100
AcDbLine
 10
10.78022696072884
 20
7.102145553440053
 30
0.0
 11
10.78022696072884
 21
6.49360727810654
 31
0.0
  0
LINE
  5
11E9
330
1F
100
AcDbEntity
  8
4
100
AcDbLine
 10
11.34522696072884
 20
6.399651431997184
 30
0.0
 11
10.98022696072884
 21
6.399651431997184
 31
0.0
  0
LINE
  5
11EA
330
1F
100
AcDbEntity
  8
4
100
AcDbLine
 10
10.91822696072884
 20
6.461651431997184
 30
0.0
 11
11.38522696072884
 21
6.461651431997184
 31
0.0
  0
LINE
  5
11EC
330
1F
100
AcDbEntity
  8
2
  6
HIDDEN
 62
     2
 48
0.75
100
AcDbLine
 10
10.99791246389971
 20
7.010672881057906
 30
0.0
 11
11.24791246389971
 21
7.010672881057906
 31
0.0
  0
LINE
  5
11F1
330
1F
100
AcDbEntity
  8
4
100
AcDbLine
 10
10.78022696072884
 20
6.461651431997184
 30
0.0
 11
10.88822696072884
 21
6.461651431997184
 31
0.0
  0
LINE
  5
11F2
330
1F
100
AcDbEntity
  8
4
100
AcDbLine
 10
10.78022696072884
 20
6.367651431997184
 30
0.0
 11
10.84222696072884
 21
6.367651431997184
 31
0.0
  0
LINE
  5
11F3
330
1F
100
AcDbEntity
  8
4
100
AcDbLine
 10
10.78022696072884
 20
6.49360727810654
 30
0.0
 11
10.84222696072884
 21
6.49360727810654
 31
0.0
  0
LINE
  5
11F4
330
1F
100
AcDbEntity
  8
4
100
AcDbLine
 10
10.84222696072884
 20
6.399651431997184
 30
0.0
 11
10.78022696072884
 21
6.399651431997184
 31
0.0
  0
LINE
  5
11F5
330
1F
100
AcDbEntity
  8
4
100
AcDbLine
 10
10.78022696072884
 20
6.399651431997184
 30
0.0
 11
10.78022696072884
 21
6.461651431997184
 31
0.0
  0
LINE
  5
11F6
330
1F
100
AcDbEntity
  8
4
100
AcDbLine
 10
10.91822696072884
 20
6.461651431997184
 30
0.0
 11
10.90322696072884
 21
6.446651431997183
 31
0.0
  0
LINE
  5
11F7
330
1F
100
AcDbEntity
  8
4
100
AcDbLine
 10
10.90322696072884
 20
6.446651431997183
 30
0.0
 11
10.80522696072884
 21
6.446651431997183
 31
0.0
  0
LINE
  5
11F8
330
1F
100
AcDbEntity
  8
4
100
AcDbLine
 10
10.80522696072884
 20
6.446651431997183
 30
0.0
 11
10.80522696072884
 21
6.418405289559624
 31
0.0
  0
LINE
  5
11F9
330
1F
100
AcDbEntity
  8
4
100
AcDbLine
 10
10.98022696072884
 20
6.399651431997184
 30
0.0
 11
10.91822696072884
 21
6.461651431997184
 31
0.0
  0
LINE
  5
11FC
330
1F
100
AcDbEntity
  8
2
  6
HIDDEN
 62
     2
 48
0.75
100
AcDbLine
 10
10.97916246389971
 20
6.973172881057906
 30
0.0
 11
10.97916246389971
 21
4.473844533309726
 31
0.0
  0
LINE
  5
11FF
330
1F
100
AcDbEntity
  8
4
100
AcDbLine
 10
10.97916246389971
 20
6.973172881057906
 30
0.0
 11
10.99791246389971
 21
7.010672881057906
 31
0.0
  0
LINE
  5
1200
330
1F
100
AcDbEntity
  8
4
100
AcDbLine
 10
10.99791246389971
 20
7.010672881057906
 30
0.0
 11
11.01666246389971
 21
6.973172881057906
 31
0.0
  0
LINE
  5
1201
330
1F
100
AcDbEntity
  8
4
100
AcDbLine
 10
10.97916246389971
 20
6.973172881057906
 30
0.0
 11
10.99791246389971
 21
6.935672881057906
 31
0.0
  0
LINE
  5
1202
330
1F
100
AcDbEntity
  8
4
100
AcDbLine
 10
10.99791246389971
 20
6.935672881057906
 30
0.0
 11
11.01666246389971
 21
6.973172881057906
 31
0.0
  0
LINE
  5
1203
330
1F
100
AcDbEntity
  8
4
100
AcDbLine
 10
11.02291246389971
 20
6.877672881057907
 30
0.0
 11
11.04166246389971
 21
6.915172881057906
 31
0.0
  0
LINE
  5
1204
330
1F
100
AcDbEntity
  8
4
100
AcDbLine
 10
11.00416246389971
 20
6.915172881057906
 30
0.0
 11
11.02291246389971
 21
6.877672881057907
 31
0.0
  0
LINE
  5
1205
330
1F
100
AcDbEntity
  8
4
100
AcDbLine
 10
11.02291246389971
 20
6.952672881057906
 30
0.0
 11
11.04166246389971
 21
6.915172881057906
 31
0.0
  0
LINE
  5
1206
330
1F
100
AcDbEntity
  8
4
100
AcDbLine
 10
11.00416246389971
 20
6.915172881057906
 30
0.0
 11
11.02291246389971
 21
6.952672881057906
 31
0.0
  0
LINE
  5
120F
330
1F
100
AcDbEntity
  8
2
  6
HIDDEN
 62
     2
 48
0.75
100
AcDbLine
 10
11.29166246389971
 20
6.915172881057906
 30
0.0
 11
11.29166246389971
 21
4.415844533309726
 31
0.0
  0
LINE
  5
1212
330
1F
100
AcDbEntity
  8
4
100
AcDbLine
 10
11.45622696072884
 20
6.461651431997184
 30
0.0
 11
11.45622696072884
 21
6.399651431997184
 31
0.0
  0
LINE
  5
1213
330
1F
100
AcDbEntity
  8
4
100
AcDbLine
 10
11.38522696072884
 20
6.461651431997184
 30
0.0
 11
11.38522696072884
 21
6.399651431997184
 31
0.0
  0
LINE
  5
1214
330
1F
100
AcDbEntity
  8
4
100
AcDbLine
 10
11.34522696072884
 20
6.461651431997184
 30
0.0
 11
11.34522696072884
 21
6.399651431997184
 31
0.0
  0
LINE
  5
1215
330
1F
100
AcDbEntity
  8
4
100
AcDbLine
 10
11.49622696072884
 20
6.461651431997184
 30
0.0
 11
11.49622696072884
 21
6.399651431997184
 31
0.0
  0
LINE
  5
121A
330
1F
100
AcDbEntity
  8
4
100
AcDbLine
 10
11.25416246389971
 20
6.915172881057906
 30
0.0
 11
11.27291246389971
 21
6.952672881057906
 31
0.0
  0
LINE
  5
121B
330
1F
100
AcDbEntity
  8
4
100
AcDbLine
 10
11.27291246389971
 20
6.952672881057906
 30
0.0
 11
11.29166246389971
 21
6.915172881057906
 31
0.0
  0
LINE
  5
121C
330
1F
100
AcDbEntity
  8
4
100
AcDbLine
 10
11.25416246389971
 20
6.915172881057906
 30
0.0
 11
11.27291246389971
 21
6.877672881057907
 31
0.0
  0
LINE
  5
121D
330
1F
100
AcDbEntity
  8
4
100
AcDbLine
 10
11.27291246389971
 20
6.877672881057907
 30
0.0
 11
11.29166246389971
 21
6.915172881057906
 31
0.0
  0
LINE
  5
121E
330
1F
100
AcDbEntity
  8
4
100
AcDbLine
 10
11.24791246389971
 20
6.935672881057906
 30
0.0
 11
11.26666246389971
 21
6.973172881057906
 31
0.0
  0
LINE
  5
121F
330
1F
100
AcDbEntity
  8
4
100
AcDbLine
 10
11.22916246389971
 20
6.973172881057906
 30
0.0
 11
11.24791246389971
 21
6.935672881057906
 31
0.0
  0
LINE
  5
1220
330
1F
100
AcDbEntity
  8
4
100
AcDbLine
 10
11.24791246389971
 20
7.010672881057906
 30
0.0
 11
11.26666246389971
 21
6.973172881057906
 31
0.0
  0
LINE
  5
1221
330
1F
100
AcDbEntity
  8
4
100
AcDbLine
 10
11.22916246389971
 20
6.973172881057906
 30
0.0
 11
11.24791246389971
 21
7.010672881057906
 31
0.0
  0
LINE
  5
1222
330
1F
100
AcDbEntity
  8
2
  6
HIDDEN
 62
     2
 48
0.75
100
AcDbLine
 10
11.55016246389972
 20
6.973172881057906
 30
0.0
 11
11.55016246389972
 21
4.473511994477312
 31
0.0
  0
LINE
  5
1225
330
1F
100
AcDbEntity
  8
4
100
AcDbLine
 10
11.55016246389972
 20
6.973172881057906
 30
0.0
 11
11.56891246389971
 21
7.010672881057906
 31
0.0
  0
LINE
  5
1226
330
1F
100
AcDbEntity
  8
4
100
AcDbLine
 10
11.56891246389971
 20
7.010672881057906
 30
0.0
 11
11.58766246389971
 21
6.973172881057906
 31
0.0
  0
LINE
  5
1227
330
1F
100
AcDbEntity
  8
4
100
AcDbLine
 10
11.55016246389972
 20
6.973172881057906
 30
0.0
 11
11.56891246389971
 21
6.935672881057906
 31
0.0
  0
LINE
  5
1228
330
1F
100
AcDbEntity
  8
4
100
AcDbLine
 10
11.56891246389971
 20
6.935672881057906
 30
0.0
 11
11.58766246389971
 21
6.973172881057906
 31
0.0
  0
LINE
  5
1229
330
1F
100
AcDbEntity
  8
4
100
AcDbLine
 10
11.59391246389971
 20
6.877672881057907
 30
0.0
 11
11.61266246389971
 21
6.915172881057906
 31
0.0
  0
LINE
  5
122A
330
1F
100
AcDbEntity
  8
4
100
AcDbLine
 10
11.57516246389971
 20
6.915172881057906
 30
0.0
 11
11.59391246389971
 21
6.877672881057907
 31
0.0
  0
LINE
  5
122B
330
1F
100
AcDbEntity
  8
2
  6
HIDDEN
 62
     2
 48
0.75
100
AcDbLine
 10
11.59391246389971
 20
6.952672881057906
 30
0.0
 11
11.61266246389971
 21
6.915172881057906
 31
0.0
  0
LINE
  5
122C
330
1F
100
AcDbEntity
  8
4
100
AcDbLine
 10
11.57516246389971
 20
6.915172881057906
 30
0.0
 11
11.59391246389971
 21
6.952672881057906
 31
0.0
  0
LINE
  5
122D
330
1F
100
AcDbEntity
  8
4
100
AcDbLine
 10
10.78022696072884
 20
7.102145553440053
 30
0.0
 11
10.84222696072884
 21
7.102145553440053
 31
0.0
  0
LINE
  5
122E
330
1F
100
AcDbEntity
  8
4
100
AcDbLine
 10
12.06122696072884
 20
7.102145553440053
 30
0.0
 11
12.06122696072884
 21
6.49360727810654
 31
0.0
  0
LINE
  5
1233
330
1F
100
AcDbEntity
  8
2
  6
HIDDEN
 62
     2
 48
0.75
100
AcDbLine
 10
11.86266246389972
 20
6.915172881057906
 30
0.0
 11
11.86266246389972
 21
4.415511994477312
 31
0.0
  0
LINE
  5
1234
330
1F
100
AcDbEntity
  8
4
100
AcDbLine
 10
11.86122696072884
 20
6.399651431997184
 30
0.0
 11
11.92322696072884
 21
6.461651431997184
 31
0.0
  0
LINE
  5
1237
330
1F
100
AcDbEntity
  8
4
100
AcDbLine
 10
11.99922696072884
 20
6.367651431997184
 30
0.0
 11
12.06122696072884
 21
6.367651431997184
 31
0.0
  0
LINE
  5
1238
330
1F
100
AcDbEntity
  8
4
100
AcDbLine
 10
11.99922696072884
 20
6.49360727810654
 30
0.0
 11
12.06122696072884
 21
6.49360727810654
 31
0.0
  0
LINE
  5
1239
330
1F
100
AcDbEntity
  8
4
100
AcDbLine
 10
11.99922696072884
 20
6.399651431997184
 30
0.0
 11
12.06122696072884
 21
6.399651431997184
 31
0.0
  0
LINE
  5
123A
330
1F
100
AcDbEntity
  8
4
100
AcDbLine
 10
12.06122696072884
 20
6.461651431997184
 30
0.0
 11
11.95322696072884
 21
6.461651431997184
 31
0.0
  0
LINE
  5
123B
330
1F
100
AcDbEntity
  8
4
100
AcDbLine
 10
11.93822696072884
 20
6.446651431997183
 30
0.0
 11
12.03622696072884
 21
6.446651431997183
 31
0.0
  0
LINE
  5
123C
330
1F
100
AcDbEntity
  8
4
100
AcDbLine
 10
11.92322696072884
 20
6.461651431997184
 30
0.0
 11
11.93822696072884
 21
6.446651431997183
 31
0.0
  0
LINE
  5
123D
330
1F
100
AcDbEntity
  8
4
100
AcDbLine
 10
12.06122696072884
 20
6.399651431997184
 30
0.0
 11
12.06122696072884
 21
6.461651431997184
 31
0.0
  0
LINE
  5
123E
330
1F
100
AcDbEntity
  8
4
100
AcDbLine
 10
12.03622696072884
 20
6.446651431997183
 30
0.0
 11
12.03622696072884
 21
6.418405289559624
 31
0.0
  0
LINE
  5
1241
330
1F
100
AcDbEntity
  8
4
100
AcDbLine
 10
11.82516246389971
 20
6.915172881057906
 30
0.0
 11
11.84391246389971
 21
6.952672881057906
 31
0.0
  0
LINE
  5
1242
330
1F
100
AcDbEntity
  8
4
100
AcDbLine
 10
11.84391246389971
 20
6.952672881057906
 30
0.0
 11
11.86266246389972
 21
6.915172881057906
 31
0.0
  0
LINE
  5
1243
330
1F
100
AcDbEntity
  8
4
100
AcDbLine
 10
11.82516246389971
 20
6.915172881057906
 30
0.0
 11
11.84391246389971
 21
6.877672881057907
 31
0.0
  0
LINE
  5
1244
330
1F
100
AcDbEntity
  8
4
100
AcDbLine
 10
11.84391246389971
 20
6.877672881057907
 30
0.0
 11
11.86266246389972
 21
6.915172881057906
 31
0.0
  0
LINE
  5
1245
330
1F
100
AcDbEntity
  8
4
100
AcDbLine
 10
11.81891246389971
 20
6.935672881057906
 30
0.0
 11
11.83766246389971
 21
6.973172881057906
 31
0.0
  0
LINE
  5
1246
330
1F
100
AcDbEntity
  8
4
100
AcDbLine
 10
11.80016246389971
 20
6.973172881057906
 30
0.0
 11
11.81891246389971
 21
6.935672881057906
 31
0.0
  0
LINE
  5
1247
330
1F
100
AcDbEntity
  8
4
100
AcDbLine
 10
11.81891246389971
 20
7.010672881057906
 30
0.0
 11
11.83766246389971
 21
6.973172881057906
 31
0.0
  0
LINE
  5
1248
330
1F
100
AcDbEntity
  8
4
100
AcDbLine
 10
11.80016246389971
 20
6.973172881057906
 30
0.0
 11
11.81891246389971
 21
7.010672881057906
 31
0.0
  0
LINE
  5
1249
330
1F
100
AcDbEntity
  8
4
100
AcDbLine
 10
12.06122696072884
 20
7.102145553440053
 30
0.0
 11
11.99922696072884
 21
7.102145553440053
 31
0.0
  0
LINE
  5
1253
330
1F
100
AcDbEntity
  8
4
100
AcDbLine
 10
11.25416246389971
 20
4.415844533309726
 30
0.0
 11
11.27291246389971
 21
4.453344533309726
 31
0.0
  0
LINE
  5
1254
330
1F
100
AcDbEntity
  8
4
100
AcDbLine
 10
11.27291246389971
 20
4.453344533309726
 30
0.0
 11
11.29166246389971
 21
4.415844533309726
 31
0.0
  0
LINE
  5
1255
330
1F
100
AcDbEntity
  8
4
100
AcDbLine
 10
11.24791246389971
 20
4.436344533309727
 30
0.0
 11
11.26666246389971
 21
4.473844533309726
 31
0.0
  0
LINE
  5
1256
330
1F
100
AcDbEntity
  8
4
100
AcDbLine
 10
11.22916246389971
 20
4.473844533309726
 30
0.0
 11
11.24791246389971
 21
4.436344533309727
 31
0.0
  0
LINE
  5
1257
330
1F
100
AcDbEntity
  8
4
100
AcDbLine
 10
11.24791246389971
 20
4.511344533309726
 30
0.0
 11
11.26666246389971
 21
4.473844533309726
 31
0.0
  0
LINE
  5
1258
330
1F
100
AcDbEntity
  8
4
100
AcDbLine
 10
11.22916246389971
 20
4.473844533309726
 30
0.0
 11
11.24791246389971
 21
4.511344533309726
 31
0.0
  0
LINE
  5
1259
330
1F
100
AcDbEntity
  8
4
100
AcDbLine
 10
11.25416246389971
 20
4.415844533309726
 30
0.0
 11
11.27291246389971
 21
4.378344533309727
 31
0.0
  0
LINE
  5
125A
330
1F
100
AcDbEntity
  8
4
100
AcDbLine
 10
11.27291246389971
 20
4.378344533309727
 30
0.0
 11
11.29166246389971
 21
4.415844533309726
 31
0.0
  0
LINE
  5
125B
330
1F
100
AcDbEntity
  8
4
100
AcDbLine
 10
10.97916246389971
 20
4.473844533309726
 30
0.0
 11
10.99791246389971
 21
4.511344533309726
 31
0.0
  0
LINE
  5
125C
330
1F
100
AcDbEntity
  8
4
100
AcDbLine
 10
10.99791246389971
 20
4.511344533309726
 30
0.0
 11
11.01666246389971
 21
4.473844533309726
 31
0.0
  0
LINE
  5
125D
330
1F
100
AcDbEntity
  8
4
100
AcDbLine
 10
10.97916246389971
 20
4.473844533309726
 30
0.0
 11
10.99791246389971
 21
4.436344533309727
 31
0.0
  0
LINE
  5
125E
330
1F
100
AcDbEntity
  8
4
100
AcDbLine
 10
10.99791246389971
 20
4.436344533309727
 30
0.0
 11
11.01666246389971
 21
4.473844533309726
 31
0.0
  0
LINE
  5
125F
330
1F
100
AcDbEntity
  8
4
100
AcDbLine
 10
11.02291246389971
 20
4.453344533309726
 30
0.0
 11
11.04166246389971
 21
4.415844533309726
 31
0.0
  0
LINE
  5
1260
330
1F
100
AcDbEntity
  8
4
100
AcDbLine
 10
11.00416246389971
 20
4.415844533309726
 30
0.0
 11
11.02291246389971
 21
4.453344533309726
 31
0.0
  0
LINE
  5
1261
330
1F
100
AcDbEntity
  8
4
100
AcDbLine
 10
11.02291246389971
 20
4.378344533309727
 30
0.0
 11
11.04166246389971
 21
4.415844533309726
 31
0.0
  0
LINE
  5
1262
330
1F
100
AcDbEntity
  8
4
100
AcDbLine
 10
11.00416246389971
 20
4.415844533309726
 30
0.0
 11
11.02291246389971
 21
4.378344533309727
 31
0.0
  0
LINE
  5
1263
330
1F
100
AcDbEntity
  8
2
  6
HIDDEN
 62
     2
 48
0.75
100
AcDbLine
 10
11.02291246389971
 20
4.378344533309727
 30
0.0
 11
11.27291246389971
 21
4.378344533309727
 31
0.0
  0
TEXT
  5
1264
330
1F
100
AcDbEntity
  8
8
100
AcDbText
 10
9.617226960728846
 20
3.599993791385738
 30
0.0
 40
0.07
  1
DEPTH
  7
ROMANS
 72
     1
 11
9.782226960728845
 21
3.599993791385738
 31
0.0
100
AcDbText
  0
TEXT
  5
1265
330
1F
100
AcDbEntity
  8
8
100
AcDbText
 10
11.23972696072884
 20
3.599993791385738
 30
0.0
 40
0.07
  1
DEPTH
  7
ROMANS
 72
     1
 11
11.40472696072884
 21
3.599993791385738
 31
0.0
100
AcDbText
  0
TEXT
  5
1266
330
1F
100
AcDbEntity
  8
8
100
AcDbText
 10
10.68256544780239
 20
3.442746560265363
 30
0.0
 40
0.1
  1
SR BACK TO BACK
  7
ROMANS
 72
     1
 11
11.40637497161191
 21
3.442746560265363
 31
0.0
100
AcDbText
  0
TEXT
  5
1267
330
1F
100
AcDbEntity
  8
8
100
AcDbText
 10
10.19911628528722
 20
3.258145553440054
 30
0.0
 40
0.1
  1
SECTIONS
  7
ROMANS
 72
     1
 11
10.55149723766817
 21
3.258145553440054
 31
0.0
100
AcDbText
  0
TEXT
  5
1268
330
1F
100
AcDbEntity
  8
8
100
AcDbText
 10
9.7067801238558
 20
3.442746560265363
 30
0.0
 40
0.1
  1
SR
  7
ROMANS
 72
     1
 11
9.804399171474848
 21
3.442746560265363
 31
0.0
100
AcDbText
  0
LINE
  5
1269
330
1F
100
AcDbEntity
  8
4
100
AcDbLine
 10
10.03272696072884
 20
6.946145553440054
 30
0.0
 11
10.29645856339425
 21
6.946145553440054
 31
0.0
  0
LINE
  5
126A
330
1F
100
AcDbEntity
  8
4
100
AcDbLine
 10
10.33688577306667
 20
6.946145553440054
 30
0.0
 11
10.51734956989061
 21
6.946145553440054
 31
0.0
  0
INSERT
  5
126B
330
1F
100
AcDbEntity
  8
4
100
AcDbBlockReference
  2
ARRO
 10
10.33688577306667
 20
6.946145553440054
 30
0.0
  0
LINE
  5
126C
330
1F
100
AcDbEntity
  8
4
100
AcDbLine
 10
10.51734956989061
 20
6.946145553440054
 30
0.0
 11
10.51734956989061
 21
6.743157883649542
 31
0.0
  0
TEXT
  5
126D
330
1F
100
AcDbEntity
  8
8
100
AcDbText
 10
10.55234956989062
 20
5.367824550316208
 30
0.0
 40
0.07
  1
ANCHORING BY ERECTOR
 50
90.0
  7
ROMANS
 72
     2
 11
10.55234956989062
 21
6.681157883649541
 31
0.0
100
AcDbText
  0
TEXT
  5
126E
330
1F
100
AcDbEntity
  8
8
100
AcDbText
 10
8.905226960728843
 20
5.274478886773387
 30
0.0
 40
0.07
  1
LOCKER HEIGHT
 50
90.0
  7
ROMANS
 72
     1
 11
8.905226960728843
 21
5.696145553440054
 31
0.0
100
AcDbText
  0
TEXT
  5
126F
330
1F
100
AcDbEntity
  8
8
100
AcDbText
 10
5.749726960728843
 20
3.758145553440054
 30
0.0
 40
0.07
  1
LOCKER WIDTH - SEE SCHEDULE
  7
ROMANS
 72
     1
 11
6.654726960728844
 21
3.758145553440054
 31
0.0
100
AcDbText
  0
TEXT
  5
1270
330
1F
100
AcDbEntity
  8
8
100
AcDbText
 10
5.99044124644313
 20
3.258145553440054
 30
0.0
 40
0.1
  1
FRONT ELEVATION
  7
ROMANS
 72
     1
 11
6.654726960728844
 21
3.258145553440054
 31
0.0
100
AcDbText
  0
LINE
  5
1271
330
1F
100
AcDbEntity
  8
1
100
AcDbLine
 10
4.404726960728844
 20
2.696145553440054
 30
0.0
 11
12.65472696072884
 21
2.696145553440054
 31
0.0
  0
LINE
  5
1272
330
1F
100
AcDbEntity
  8
1
100
AcDbLine
 10
12.65472696072884
 20
2.696145553440054
 30
0.0
 11
12.65472696072884
 21
7.946145553440054
 31
0.0
  0
LINE
  5
1273
330
1F
100
AcDbEntity
  8
1
100
AcDbLine
 10
12.65472696072884
 20
7.946145553440054
 30
0.0
 11
4.404726960728844
 21
7.946145553440054
 31
0.0
  0
LINE
  5
1274
330
1F
100
AcDbEntity
  8
1
100
AcDbLine
 10
4.404726960728844
 20
7.946145553440054
 30
0.0
 11
4.404726960728844
 21
2.696145553440054
 31
0.0
  0
LINE
  5
1275
330
1F
100
AcDbEntity
  8
1
100
AcDbLine
 10
5.404726960728844
 20
4.196145553440054
 30
0.0
 11
6.904726960728844
 21
4.196145553440054
 31
0.0
  0
LINE
  5
1276
330
1F
100
AcDbEntity
  8
1
100
AcDbLine
 10
5.404726960728844
 20
4.196145553440054
 30
0.0
 11
5.404726960728844
 21
7.196145553440054
 31
0.0
  0
LINE
  5
1277
330
1F
100
AcDbEntity
  8
1
100
AcDbLine
 10
5.404726960728844
 20
7.196145553440054
 30
0.0
 11
6.904726960728844
 21
7.196145553440054
 31
0.0
  0
LINE
  5
1278
330
1F
100
AcDbEntity
  8
1
100
AcDbLine
 10
7.029726960728844
 20
7.196145553440054
 30
0.0
 11
7.904726960728844
 21
7.196145553440054
 31
0.0
  0
LINE
  5
1279
330
1F
100
AcDbEntity
  8
1
100
AcDbLine
 10
7.904726960728844
 20
7.196145553440054
 30
0.0
 11
7.904726960728844
 21
4.196145553440054
 31
0.0
  0
LINE
  5
127A
330
1F
100
AcDbEntity
  8
1
100
AcDbLine
 10
7.904726960728844
 20
4.196145553440054
 30
0.0
 11
7.029726960728844
 21
4.196145553440054
 31
0.0
  0
LINE
  5
127B
330
1F
100
AcDbEntity
  8
1
100
AcDbLine
 10
11.40472696072884
 20
4.196145553440054
 30
0.0
 11
11.40472696072884
 21
7.196145553440054
 31
0.0
  0
LINE
  5
127C
330
1F
100
AcDbEntity
  8
1
100
AcDbLine
 10
10.15472696072884
 20
4.196145553440054
 30
0.0
 11
10.15472696072884
 21
7.571145553440054
 31
0.0
  0
CIRCLE
  5
127D
330
1F
100
AcDbEntity
  8
1
100
AcDbCircle
 10
8.529726960728844
 20
3.196145553440054
 30
0.0
 40
0.1875
  0
LINE
  5
127E
330
1F
100
AcDbEntity
  8
1
100
AcDbLine
 10
7.029726960728844
 20
7.321145553440054
 30
0.0
 11
7.029726960728844
 21
6.406119732751633
 31
0.0
  0
LINE
  5
127F
330
1F
100
AcDbEntity
  8
1
100
AcDbLine
 10
6.904726960728844
 20
7.321145553440054
 30
0.0
 11
6.904726960728844
 21
7.041119732751633
 31
0.0
  0
LINE
  5
1280
330
1F
100
AcDbEntity
  8
1
100
AcDbLine
 10
6.859726960728844
 20
7.086119732751633
 30
0.0
 11
6.949726960728844
 21
6.996119732751633
 31
0.0
  0
LINE
  5
1281
330
1F
100
AcDbEntity
  8
1
100
AcDbLine
 10
6.949726960728844
 20
6.996119732751633
 30
0.0
 11
6.859726960728844
 21
6.996119732751633
 31
0.0
  0
LINE
  5
1282
330
1F
100
AcDbEntity
  8
1
100
AcDbLine
 10
6.859726960728844
 20
6.996119732751633
 30
0.0
 11
6.949726960728844
 21
6.906119732751633
 31
0.0
  0
LINE
  5
1283
330
1F
100
AcDbEntity
  8
1
100
AcDbLine
 10
6.916922991555826
 20
6.938923701924651
 30
0.0
 11
6.916922991555826
 21
5.771824082587723
 31
0.0
  0
LINE
  5
1284
330
1F
100
AcDbEntity
  8
1
100
AcDbLine
 10
6.859726960728844
 20
5.746119732751633
 30
0.0
 11
6.949726960728844
 21
5.656119732751633
 31
0.0
  0
LINE
  5
1285
330
1F
100
AcDbEntity
  8
1
100
AcDbLine
 10
6.949726960728844
 20
5.746119732751633
 30
0.0
 11
6.859726960728844
 21
5.746119732751633
 31
0.0
  0
LINE
  5
1286
330
1F
100
AcDbEntity
  8
1
100
AcDbLine
 10
6.859726960728844
 20
5.836119732751633
 30
0.0
 11
6.949726960728844
 21
5.746119732751633
 31
0.0
  0
LINE
  5
1287
330
1F
100
AcDbEntity
  8
1
100
AcDbLine
 10
6.859726960728844
 20
4.496119732751633
 30
0.0
 11
6.949726960728844
 21
4.406119732751633
 31
0.0
  0
LINE
  5
1288
330
1F
100
AcDbEntity
  8
1
100
AcDbLine
 10
6.949726960728844
 20
4.496119732751633
 30
0.0
 11
6.859726960728844
 21
4.496119732751633
 31
0.0
  0
LINE
  5
1289
330
1F
100
AcDbEntity
  8
1
100
AcDbLine
 10
6.859726960728844
 20
4.586119732751633
 30
0.0
 11
6.949726960728844
 21
4.496119732751633
 31
0.0
  0
LINE
  5
128A
330
1F
100
AcDbEntity
  8
1
100
AcDbLine
 10
6.904726960728844
 20
5.701119732751633
 30
0.0
 11
6.904726960728844
 21
5.166119732751633
 31
0.0
  0
LINE
  5
128B
330
1F
100
AcDbEntity
  8
1
100
AcDbLine
 10
6.904726960728844
 20
5.166119732751633
 30
0.0
 11
6.904726960728844
 21
4.541119732751633
 31
0.0
  0
LINE
  5
128C
330
1F
100
AcDbEntity
  8
1
100
AcDbLine
 10
6.904726960728844
 20
4.451119732751633
 30
0.0
 11
6.904726960728844
 21
4.071145553440054
 31
0.0
  0
LINE
  5
128D
330
1F
100
AcDbEntity
  8
1
100
AcDbLine
 10
6.984726960728844
 20
5.211119732751633
 30
0.0
 11
7.074726960728844
 21
5.121119732751633
 31
0.0
  0
LINE
  5
128E
330
1F
100
AcDbEntity
  8
1
100
AcDbLine
 10
7.074726960728844
 20
5.121119732751633
 30
0.0
 11
6.984726960728844
 21
5.121119732751633
 31
0.0
  0
LINE
  5
128F
330
1F
100
AcDbEntity
  8
1
100
AcDbLine
 10
6.984726960728844
 20
5.121119732751633
 30
0.0
 11
7.074726960728844
 21
5.031119732751633
 31
0.0
  0
LINE
  5
1290
330
1F
100
AcDbEntity
  8
1
100
AcDbLine
 10
6.984726960728844
 20
6.451119732751633
 30
0.0
 11
7.074726960728844
 21
6.361119732751634
 31
0.0
  0
LINE
  5
1291
330
1F
100
AcDbEntity
  8
1
100
AcDbLine
 10
7.074726960728844
 20
6.361119732751634
 30
0.0
 11
6.984726960728844
 21
6.361119732751634
 31
0.0
  0
LINE
  5
1292
330
1F
100
AcDbEntity
  8
1
100
AcDbLine
 10
6.984726960728844
 20
6.361119732751634
 30
0.0
 11
7.074726960728844
 21
6.271119732751634
 31
0.0
  0
LINE
  5
1293
330
1F
100
AcDbEntity
  8
1
100
AcDbLine
 10
7.029726960728844
 20
6.32211325759192
 30
0.0
 11
7.029726960728844
 21
5.478619732751633
 31
0.0
  0
LINE
  5
1294
330
1F
100
AcDbEntity
  8
1
100
AcDbLine
 10
7.029726960728844
 20
5.478619732751633
 30
0.0
 11
7.029726960728844
 21
5.166119732751633
 31
0.0
  0
LINE
  5
1295
330
1F
100
AcDbEntity
  8
1
100
AcDbLine
 10
7.029726960728844
 20
5.076119732751633
 30
0.0
 11
7.029726960728844
 21
4.071145553440054
 31
0.0
  0
LINE
  5
1296
330
1F
100
AcDbEntity
  8
1
100
AcDbLine
 10
10.15472696072884
 20
4.196145553440054
 30
0.0
 11
10.34272696072884
 21
4.384145553440053
 31
0.0
  0
LINE
  5
1297
330
1F
100
AcDbEntity
  8
1
100
AcDbLine
 10
10.15472696072884
 20
4.321145553440054
 30
0.0
 11
10.34272696072884
 21
4.509145553440053
 31
0.0
  0
LINE
  5
1298
330
1F
100
AcDbEntity
  8
1
100
AcDbLine
 10
10.15472696072884
 20
4.696145553440054
 30
0.0
 11
10.34272696072884
 21
4.884145553440053
 31
0.0
  0
LINE
  5
1299
330
1F
100
AcDbEntity
  8
1
100
AcDbLine
 10
10.15472696072884
 20
4.821145553440054
 30
0.0
 11
10.34272696072884
 21
5.009145553440053
 31
0.0
  0
LINE
  5
129A
330
1F
100
AcDbEntity
  8
1
100
AcDbLine
 10
10.15472696072884
 20
4.946145553440054
 30
0.0
 11
10.34272696072884
 21
5.134145553440053
 31
0.0
  0
LINE
  5
129B
330
1F
100
AcDbEntity
  8
1
100
AcDbLine
 10
10.15472696072884
 20
5.071145553440054
 30
0.0
 11
10.34272696072884
 21
5.259145553440053
 31
0.0
  0
LINE
  5
129C
330
1F
100
AcDbEntity
  8
1
100
AcDbLine
 10
10.15472696072884
 20
5.196145553440054
 30
0.0
 11
10.34272696072884
 21
5.384145553440053
 31
0.0
  0
LINE
  5
129D
330
1F
100
AcDbEntity
  8
1
100
AcDbLine
 10
10.15472696072884
 20
5.321145553440054
 30
0.0
 11
10.34272696072884
 21
5.509145553440053
 31
0.0
  0
LINE
  5
129E
330
1F
100
AcDbEntity
  8
1
100
AcDbLine
 10
10.15472696072884
 20
5.446145553440054
 30
0.0
 11
10.34272696072884
 21
5.634145553440053
 31
0.0
  0
LINE
  5
129F
330
1F
100
AcDbEntity
  8
1
100
AcDbLine
 10
10.15472696072884
 20
5.571145553440054
 30
0.0
 11
10.34272696072884
 21
5.759145553440053
 31
0.0
  0
LINE
  5
12A0
330
1F
100
AcDbEntity
  8
1
100
AcDbLine
 10
10.15472696072884
 20
5.696145553440054
 30
0.0
 11
10.34272696072884
 21
5.884145553440053
 31
0.0
  0
LINE
  5
12A1
330
1F
100
AcDbEntity
  8
1
100
AcDbLine
 10
10.15472696072884
 20
5.821145553440054
 30
0.0
 11
10.34272696072884
 21
6.009145553440053
 31
0.0
  0
LINE
  5
12A2
330
1F
100
AcDbEntity
  8
1
100
AcDbLine
 10
10.15472696072884
 20
5.946145553440054
 30
0.0
 11
10.34272696072884
 21
6.134145553440053
 31
0.0
  0
LINE
  5
12A3
330
1F
100
AcDbEntity
  8
1
100
AcDbLine
 10
10.15472696072884
 20
6.071145553440054
 30
0.0
 11
10.34272696072884
 21
6.259145553440053
 31
0.0
  0
LINE
  5
12A4
330
1F
100
AcDbEntity
  8
1
100
AcDbLine
 10
10.15472696072884
 20
6.196145553440054
 30
0.0
 11
10.34272696072884
 21
6.384145553440053
 31
0.0
  0
LINE
  5
12A5
330
1F
100
AcDbEntity
  8
1
100
AcDbLine
 10
10.15472696072884
 20
6.321145553440054
 30
0.0
 11
10.34272696072884
 21
6.509145553440053
 31
0.0
  0
LINE
  5
12A6
330
1F
100
AcDbEntity
  8
1
100
AcDbLine
 10
10.15472696072884
 20
6.446145553440054
 30
0.0
 11
10.34272696072884
 21
6.634145553440053
 31
0.0
  0
LINE
  5
12A7
330
1F
100
AcDbEntity
  8
1
100
AcDbLine
 10
10.15472696072884
 20
6.571145553440054
 30
0.0
 11
10.34272696072884
 21
6.759145553440053
 31
0.0
  0
LINE
  5
12A8
330
1F
100
AcDbEntity
  8
1
100
AcDbLine
 10
10.15472696072884
 20
6.696145553440054
 30
0.0
 11
10.34272696072884
 21
6.884145553440053
 31
0.0
  0
LINE
  5
12A9
330
1F
100
AcDbEntity
  8
1
100
AcDbLine
 10
10.15472696072884
 20
6.821145553440054
 30
0.0
 11
10.34272696072884
 21
7.009145553440053
 31
0.0
  0
LINE
  5
12AA
330
1F
100
AcDbEntity
  8
1
100
AcDbLine
 10
10.15472696072884
 20
6.946145553440054
 30
0.0
 11
10.34272696072884
 21
7.134145553440053
 31
0.0
  0
LINE
  5
12AB
330
1F
100
AcDbEntity
  8
1
100
AcDbLine
 10
10.15472696072884
 20
7.071145553440054
 30
0.0
 11
10.34272696072884
 21
7.259145553440053
 31
0.0
  0
LINE
  5
12AC
330
1F
100
AcDbEntity
  8
1
100
AcDbLine
 10
10.15472696072884
 20
7.196145553440054
 30
0.0
 11
10.34272696072884
 21
7.384145553440053
 31
0.0
  0
LINE
  5
12AD
330
1F
100
AcDbEntity
  8
1
100
AcDbLine
 10
10.15472696072884
 20
7.321145553440054
 30
0.0
 11
10.34272696072884
 21
7.509145553440053
 31
0.0
  0
LINE
  5
12AE
330
1F
100
AcDbEntity
  8
1
100
AcDbLine
 10
10.15472696072884
 20
7.446145553440054
 30
0.0
 11
10.27972696072884
 21
7.571145553440054
 31
0.0
  0
LINE
  5
12AF
330
1F
100
AcDbEntity
  8
1
100
AcDbLine
 10
10.09472696072884
 20
4.196145553440054
 30
0.0
 11
10.09472696072884
 21
7.196145553440054
 31
0.0
  0
LINE
  5
12B0
330
1F
100
AcDbEntity
  8
4
100
AcDbLine
 10
5.404726960728844
 20
4.134145553440053
 30
0.0
 11
5.404726960728844
 21
3.634145553440053
 31
0.0
  0
LINE
  5
12B1
330
1F
100
AcDbEntity
  8
4
100
AcDbLine
 10
7.904726960728844
 20
4.134145553440053
 30
0.0
 11
7.904726960728844
 21
3.634145553440053
 31
0.0
  0
LINE
  5
12B2
330
1F
100
AcDbEntity
  8
4
100
AcDbLine
 10
7.904726960728844
 20
3.696145553440054
 30
0.0
 11
5.404726960728844
 21
3.696145553440054
 31
0.0
  0
INSERT
  5
12B3
330
1F
100
AcDbEntity
  8
4
100
AcDbBlockReference
  2
ARRO
 10
5.404726960728844
 20
3.696145553440054
 30
0.0
  0
INSERT
  5
12B4
330
1F
100
AcDbEntity
  8
4
100
AcDbBlockReference
  2
ARRO
 10
7.904726960728844
 20
3.696145553440054
 30
0.0
 50
180.0
  0
LINE
  5
12B5
330
1F
100
AcDbEntity
  8
4
100
AcDbLine
 10
9.407226960728845
 20
4.196145553440054
 30
0.0
 11
8.907226960728845
 21
4.196145553440054
 31
0.0
  0
LINE
  5
12B6
330
1F
100
AcDbEntity
  8
4
100
AcDbLine
 10
8.967226960728844
 20
4.196145553440054
 30
0.0
 11
8.967226960728844
 21
7.196145553440054
 31
0.0
  0
LINE
  5
12B7
330
1F
100
AcDbEntity
  8
4
100
AcDbLine
 10
9.407226960728845
 20
7.196145553440054
 30
0.0
 11
8.907226960728845
 21
7.196145553440054
 31
0.0
  0
INSERT
  5
12B8
330
1F
100
AcDbEntity
  8
4
100
AcDbBlockReference
  2
ARRO
 10
8.967226960728844
 20
7.196145553440054
 30
0.0
 50
270.0
  0
INSERT
  5
12B9
330
1F
100
AcDbEntity
  8
4
100
AcDbBlockReference
  2
ARRO
 10
8.967226960728844
 20
4.196145553440054
 30
0.0
 50
90.0
  0
LINE
  5
12BA
330
1F
100
AcDbEntity
  8
4
100
AcDbLine
 10
10.09472696072884
 20
3.696145553440054
 30
0.0
 11
9.469726960728845
 21
3.696145553440054
 31
0.0
  0
LINE
  5
12BB
330
1F
100
AcDbEntity
  8
4
100
AcDbLine
 10
10.15472696072884
 20
3.696145553440054
 30
0.0
 11
10.40472696072884
 21
3.696145553440054
 31
0.0
  0
LINE
  5
12BC
330
1F
100
AcDbEntity
  8
4
100
AcDbLine
 10
10.77972696072884
 20
3.696145553440054
 30
0.0
 11
12.02972696072884
 21
3.696145553440054
 31
0.0
  0
INSERT
  5
12BD
330
1F
100
AcDbEntity
  8
4
100
AcDbBlockReference
  2
ARRO
 10
9.469726960728845
 20
3.696145553440054
 30
0.0
  0
INSERT
  5
12BE
330
1F
100
AcDbEntity
  8
4
100
AcDbBlockReference
  2
ARRO
 10
10.09472696072884
 20
3.696145553440054
 30
0.0
 50
180.0
  0
INSERT
  5
12BF
330
1F
100
AcDbEntity
  8
4
100
AcDbBlockReference
  2
ARRO
 10
10.15472696072884
 20
3.696145553440054
 30
0.0
  0
INSERT
  5
12C0
330
1F
100
AcDbEntity
  8
4
100
AcDbBlockReference
  2
ARRO
 10
10.77972696072884
 20
3.696145553440054
 30
0.0
  0
INSERT
  5
12C1
330
1F
100
AcDbEntity
  8
4
100
AcDbBlockReference
  2
ARRO
 10
12.02972696072884
 20
3.696145553440054
 30
0.0
 50
180.0
  0
LINE
  5
12C2
330
1F
100
AcDbEntity
  8
1
100
AcDbLine
 10
5.466726960728844
 20
4.258145553440054
 30
0.0
 11
5.466726960728844
 21
7.134145553440054
 31
0.0
  0
LINE
  5
12C3
330
1F
100
AcDbEntity
  8
1
100
AcDbLine
 10
5.466726960728844
 20
7.134145553440054
 30
0.0
 11
5.967726960728844
 21
7.134145553440054
 31
0.0
  0
LINE
  5
12C4
330
1F
100
AcDbEntity
  8
1
100
AcDbLine
 10
5.967726960728844
 20
7.134145553440054
 30
0.0
 11
5.967726960728843
 21
4.258145553440054
 31
0.0
  0
LINE
  5
12C5
330
1F
100
AcDbEntity
  8
1
100
AcDbLine
 10
6.091726960728844
 20
4.258145553440054
 30
0.0
 11
6.091726960728844
 21
7.134145553440054
 31
0.0
  0
LINE
  5
12C6
330
1F
100
AcDbEntity
  8
1
100
AcDbLine
 10
6.091726960728844
 20
7.134145553440054
 30
0.0
 11
6.592726960728844
 21
7.134145553440054
 31
0.0
  0
LINE
  5
12C7
330
1F
100
AcDbEntity
  8
1
100
AcDbLine
 10
6.592726960728844
 20
7.134145553440054
 30
0.0
 11
6.592726960728843
 21
4.258145553440054
 31
0.0
  0
LINE
  5
12C8
330
1F
100
AcDbEntity
  8
1
100
AcDbLine
 10
6.592726960728843
 20
4.258145553440054
 30
0.0
 11
6.091726960728844
 21
4.258145553440054
 31
0.0
  0
LINE
  5
12C9
330
1F
100
AcDbEntity
  8
1
100
AcDbLine
 10
6.716726960728844
 20
4.258145553440054
 30
0.0
 11
6.716726960728844
 21
7.134145553440054
 31
0.0
  0
LINE
  5
12CA
330
1F
100
AcDbEntity
  8
1
100
AcDbLine
 10
6.716726960728844
 20
7.134145553440054
 30
0.0
 11
6.904726960728844
 21
7.134145553440054
 31
0.0
  0
LINE
  5
12CB
330
1F
100
AcDbEntity
  8
1
100
AcDbLine
 10
7.217726960728844
 20
7.134145553440054
 30
0.0
 11
7.217726960728843
 21
4.258145553440054
 31
0.0
  0
LINE
  5
12CC
330
1F
100
AcDbEntity
  8
1
100
AcDbLine
 10
7.217726960728843
 20
4.258145553440054
 30
0.0
 11
7.029726960728844
 21
4.258145553440054
 31
0.0
  0
LINE
  5
12CD
330
1F
100
AcDbEntity
  8
1
100
AcDbLine
 10
7.341726960728844
 20
4.258145553440054
 30
0.0
 11
7.341726960728844
 21
7.134145553440054
 31
0.0
  0
LINE
  5
12CE
330
1F
100
AcDbEntity
  8
1
100
AcDbLine
 10
7.341726960728844
 20
7.134145553440054
 30
0.0
 11
7.842726960728844
 21
7.134145553440054
 31
0.0
  0
LINE
  5
12CF
330
1F
100
AcDbEntity
  8
1
100
AcDbLine
 10
7.842726960728844
 20
7.134145553440054
 30
0.0
 11
7.842726960728843
 21
4.258145553440054
 31
0.0
  0
LINE
  5
12D0
330
1F
100
AcDbEntity
  8
1
100
AcDbLine
 10
7.842726960728843
 20
4.258145553440054
 30
0.0
 11
7.341726960728844
 21
4.258145553440054
 31
0.0
  0
LINE
  5
12D1
330
1F
100
AcDbEntity
  8
1
100
AcDbLine
 10
6.029726960728844
 20
4.196145553440054
 30
0.0
 11
6.029726960728844
 21
7.196145553440054
 31
0.0
  0
LINE
  5
12D2
330
1F
100
AcDbEntity
  8
1
100
AcDbLine
 10
6.654726960728844
 20
4.196145553440054
 30
0.0
 11
6.654726960728844
 21
7.196145553440054
 31
0.0
  0
LINE
  5
12D3
330
1F
100
AcDbEntity
  8
1
100
AcDbLine
 10
7.279726960728844
 20
4.196145553440054
 30
0.0
 11
7.279726960728844
 21
7.196145553440054
 31
0.0
  0
LINE
  5
12D4
330
1F
100
AcDbEntity
  8
1
100
AcDbLine
 10
7.029726960728844
 20
7.134145553440054
 30
0.0
 11
7.217726960728844
 21
7.134145553440054
 31
0.0
  0
LINE
  5
12D5
330
1F
100
AcDbEntity
  8
1
100
AcDbLine
 10
6.904726960728843
 20
4.258145553440054
 30
0.0
 11
6.716726960728844
 21
4.258145553440054
 31
0.0
  0
LINE
  5
12D6
330
1F
100
AcDbEntity
  8
4
100
AcDbLine
 10
6.342226960728844
 20
7.102145553440054
 30
0.0
 11
6.342226960728844
 21
7.227145553440054
 31
0.0
  0
CIRCLE
  5
12D7
330
1F
100
AcDbEntity
  8
4
100
AcDbCircle
 10
6.342226960728844
 20
7.008145553440054
 30
0.0
 40
0.094
  0
CIRCLE
  5
12D8
330
1F
100
AcDbEntity
  8
4
100
AcDbCircle
 10
6.183593671036857
 20
4.070145553440053
 30
0.0
 40
0.094
  0
LINE
  5
12D9
330
1F
100
AcDbEntity
  8
4
100
AcDbLine
 10
6.183593671036857
 20
4.164145553440054
 30
0.0
 11
6.183593671036857
 21
4.289145553440054
 31
0.0
  0
CIRCLE
  5
12DA
330
1F
100
AcDbEntity
  8
4
100
AcDbCircle
 10
6.433593671036857
 20
4.070145553440053
 30
0.0
 40
0.094
  0
LINE
  5
12DB
330
1F
100
AcDbEntity
  8
4
100
AcDbLine
 10
6.277593671036857
 20
4.070145553440053
 30
0.0
 11
6.339593671036857
 21
4.070145553440053
 31
0.0
  0
LINE
  5
12DC
330
1F
100
AcDbEntity
  8
1
100
AcDbLine
 10
5.466726960728844
 20
4.258145553440054
 30
0.0
 11
5.967726960728843
 21
4.258145553440054
 31
0.0
  0
LINE
  5
12DD
330
1F
100
AcDbEntity
  8
1
100
AcDbLine
 10
9.608226960728842
 20
7.196145553440054
 30
0.0
 11
9.593226960728843
 21
7.181145553440053
 31
0.0
  0
LINE
  5
12DE
330
1F
100
AcDbEntity
  8
1
100
AcDbLine
 10
9.593226960728843
 20
7.181145553440053
 30
0.0
 11
9.495226960728842
 21
7.181145553440053
 31
0.0
  0
LINE
  5
12DF
330
1F
100
AcDbEntity
  8
1
100
AcDbLine
 10
9.495226960728842
 20
7.181145553440053
 30
0.0
 11
9.495226960728842
 21
7.152899411002493
 31
0.0
  0
LINE
  5
12E0
330
1F
100
AcDbEntity
  8
1
100
AcDbLine
 10
9.670226960728843
 20
7.134145553440053
 30
0.0
 11
9.608226960728842
 21
7.196145553440054
 31
0.0
  0
LINE
  5
12E1
330
1F
100
AcDbEntity
  8
1
100
AcDbLine
 10
10.03522696072884
 20
7.134145553440053
 30
0.0
 11
9.670226960728843
 21
7.134145553440053
 31
0.0
  0
LINE
  5
12E2
330
1F
100
AcDbEntity
  8
1
100
AcDbLine
 10
10.03522696072884
 20
7.196145553440054
 30
0.0
 11
10.03522696072884
 21
7.134145553440053
 31
0.0
  0
LINE
  5
12E3
330
1F
100
AcDbEntity
  8
1
100
AcDbLine
 10
10.07522696072884
 20
7.196145553440054
 30
0.0
 11
10.07522696072884
 21
7.134145553440053
 31
0.0
  0
LINE
  5
12E4
330
1F
100
AcDbEntity
  8
1
100
AcDbLine
 10
9.470226960728844
 20
7.196145553440054
 30
0.0
 11
9.578226960728843
 21
7.196145553440054
 31
0.0
  0
LINE
  5
12E5
330
1F
100
AcDbEntity
  8
1
100
AcDbLine
 10
9.470226960728844
 20
7.134145553440053
 30
0.0
 11
9.470226960728844
 21
7.196145553440054
 31
0.0
  0
LINE
  5
12E6
330
1F
100
AcDbEntity
  8
1
100
AcDbLine
 10
9.532226960728843
 20
7.134145553440053
 30
0.0
 11
9.470226960728844
 21
7.134145553440053
 31
0.0
  0
LINE
  5
12E7
330
1F
100
AcDbEntity
  8
1
100
AcDbLine
 10
9.608226960728842
 20
7.196145553440054
 30
0.0
 11
10.07522696072884
 21
7.196145553440054
 31
0.0
  0
LINE
  5
12E8
330
1F
100
AcDbEntity
  8
1
100
AcDbLine
 10
10.91822696072884
 20
7.196145553440054
 30
0.0
 11
11.38522696072884
 21
7.196145553440054
 31
0.0
  0
LINE
  5
12E9
330
1F
100
AcDbEntity
  8
1
100
AcDbLine
 10
10.84222696072884
 20
7.134145553440053
 30
0.0
 11
10.78022696072884
 21
7.134145553440053
 31
0.0
  0
LINE
  5
12EA
330
1F
100
AcDbEntity
  8
1
100
AcDbLine
 10
10.78022696072884
 20
7.134145553440053
 30
0.0
 11
10.78022696072884
 21
7.196145553440054
 31
0.0
  0
LINE
  5
12EB
330
1F
100
AcDbEntity
  8
1
100
AcDbLine
 10
10.78022696072884
 20
7.196145553440054
 30
0.0
 11
10.88822696072884
 21
7.196145553440054
 31
0.0
  0
LINE
  5
12EC
330
1F
100
AcDbEntity
  8
1
100
AcDbLine
 10
11.38522696072884
 20
7.196145553440054
 30
0.0
 11
11.38522696072884
 21
7.134145553440053
 31
0.0
  0
LINE
  5
12ED
330
1F
100
AcDbEntity
  8
1
100
AcDbLine
 10
11.34522696072884
 20
7.196145553440054
 30
0.0
 11
11.34522696072884
 21
7.134145553440053
 31
0.0
  0
LINE
  5
12EE
330
1F
100
AcDbEntity
  8
1
100
AcDbLine
 10
11.34522696072884
 20
7.134145553440053
 30
0.0
 11
10.98022696072884
 21
7.134145553440053
 31
0.0
  0
LINE
  5
12EF
330
1F
100
AcDbEntity
  8
1
100
AcDbLine
 10
10.98022696072884
 20
7.134145553440053
 30
0.0
 11
10.91822696072884
 21
7.196145553440054
 31
0.0
  0
LINE
  5
12F0
330
1F
100
AcDbEntity
  8
1
100
AcDbLine
 10
10.80522696072884
 20
7.181145553440053
 30
0.0
 11
10.80522696072884
 21
7.152899411002493
 31
0.0
  0
LINE
  5
12F1
330
1F
100
AcDbEntity
  8
1
100
AcDbLine
 10
10.90322696072884
 20
7.181145553440053
 30
0.0
 11
10.80522696072884
 21
7.181145553440053
 31
0.0
  0
LINE
  5
12F2
330
1F
100
AcDbEntity
  8
1
100
AcDbLine
 10
10.91822696072884
 20
7.196145553440054
 30
0.0
 11
10.90322696072884
 21
7.181145553440053
 31
0.0
  0
LINE
  5
12F3
330
1F
100
AcDbEntity
  8
1
100
AcDbLine
 10
11.92322696072884
 20
7.196145553440054
 30
0.0
 11
11.93822696072884
 21
7.181145553440053
 31
0.0
  0
LINE
  5
12F4
330
1F
100
AcDbEntity
  8
1
100
AcDbLine
 10
11.93822696072884
 20
7.181145553440053
 30
0.0
 11
12.03622696072884
 21
7.181145553440053
 31
0.0
  0
LINE
  5
12F5
330
1F
100
AcDbEntity
  8
1
100
AcDbLine
 10
12.03622696072884
 20
7.181145553440053
 30
0.0
 11
12.03622696072884
 21
7.152899411002493
 31
0.0
  0
LINE
  5
12F6
330
1F
100
AcDbEntity
  8
1
100
AcDbLine
 10
11.86122696072884
 20
7.134145553440053
 30
0.0
 11
11.92322696072884
 21
7.196145553440054
 31
0.0
  0
LINE
  5
12F7
330
1F
100
AcDbEntity
  8
1
100
AcDbLine
 10
11.49622696072884
 20
7.134145553440053
 30
0.0
 11
11.86122696072884
 21
7.134145553440053
 31
0.0
  0
LINE
  5
12F8
330
1F
100
AcDbEntity
  8
1
100
AcDbLine
 10
11.49622696072884
 20
7.196145553440054
 30
0.0
 11
11.49622696072884
 21
7.134145553440053
 31
0.0
  0
LINE
  5
12F9
330
1F
100
AcDbEntity
  8
1
100
AcDbLine
 10
11.45622696072884
 20
7.196145553440054
 30
0.0
 11
11.45622696072884
 21
7.134145553440053
 31
0.0
  0
LINE
  5
12FA
330
1F
100
AcDbEntity
  8
1
100
AcDbLine
 10
12.06122696072884
 20
7.196145553440054
 30
0.0
 11
11.95322696072884
 21
7.196145553440054
 31
0.0
  0
LINE
  5
12FB
330
1F
100
AcDbEntity
  8
1
100
AcDbLine
 10
12.06122696072884
 20
7.134145553440053
 30
0.0
 11
12.06122696072884
 21
7.196145553440054
 31
0.0
  0
LINE
  5
12FC
330
1F
100
AcDbEntity
  8
1
100
AcDbLine
 10
11.99922696072884
 20
7.134145553440053
 30
0.0
 11
12.06122696072884
 21
7.134145553440053
 31
0.0
  0
LINE
  5
12FD
330
1F
100
AcDbEntity
  8
1
100
AcDbLine
 10
11.92322696072884
 20
7.196145553440054
 30
0.0
 11
11.45622696072884
 21
7.196145553440054
 31
0.0
  0
LINE
  5
12FE
330
1F
100
AcDbEntity
  8
1
100
AcDbLine
 10
11.92322696072884
 20
4.258645553440054
 30
0.0
 11
11.45622696072884
 21
4.258645553440054
 31
0.0
  0
LINE
  5
12FF
330
1F
100
AcDbEntity
  8
1
100
AcDbLine
 10
11.99922696072884
 20
4.196645553440053
 30
0.0
 11
12.06122696072884
 21
4.196645553440053
 31
0.0
  0
LINE
  5
1300
330
1F
100
AcDbEntity
  8
1
100
AcDbLine
 10
12.06122696072884
 20
4.196645553440053
 30
0.0
 11
12.06122696072884
 21
4.258645553440054
 31
0.0
  0
LINE
  5
1301
330
1F
100
AcDbEntity
  8
1
100
AcDbLine
 10
12.06122696072884
 20
4.258645553440054
 30
0.0
 11
11.95322696072884
 21
4.258645553440054
 31
0.0
  0
LINE
  5
1302
330
1F
100
AcDbEntity
  8
1
100
AcDbLine
 10
11.45622696072884
 20
4.258645553440054
 30
0.0
 11
11.45622696072884
 21
4.196645553440053
 31
0.0
  0
LINE
  5
1303
330
1F
100
AcDbEntity
  8
1
100
AcDbLine
 10
11.49622696072884
 20
4.258645553440054
 30
0.0
 11
11.49622696072884
 21
4.196645553440053
 31
0.0
  0
LINE
  5
1304
330
1F
100
AcDbEntity
  8
1
100
AcDbLine
 10
11.49622696072884
 20
4.196645553440053
 30
0.0
 11
11.86122696072884
 21
4.196645553440053
 31
0.0
  0
LINE
  5
1305
330
1F
100
AcDbEntity
  8
1
100
AcDbLine
 10
11.86122696072884
 20
4.196645553440053
 30
0.0
 11
11.92322696072884
 21
4.258645553440054
 31
0.0
  0
LINE
  5
1306
330
1F
100
AcDbEntity
  8
1
100
AcDbLine
 10
12.03622696072884
 20
4.243645553440053
 30
0.0
 11
12.03622696072884
 21
4.215399411002493
 31
0.0
  0
LINE
  5
1307
330
1F
100
AcDbEntity
  8
1
100
AcDbLine
 10
11.93822696072884
 20
4.243645553440053
 30
0.0
 11
12.03622696072884
 21
4.243645553440053
 31
0.0
  0
LINE
  5
1308
330
1F
100
AcDbEntity
  8
1
100
AcDbLine
 10
11.92322696072884
 20
4.258645553440054
 30
0.0
 11
11.93822696072884
 21
4.243645553440053
 31
0.0
  0
LINE
  5
1309
330
1F
100
AcDbEntity
  8
1
100
AcDbLine
 10
10.91822696072884
 20
4.258645553440054
 30
0.0
 11
10.90322696072884
 21
4.243645553440053
 31
0.0
  0
LINE
  5
130A
330
1F
100
AcDbEntity
  8
1
100
AcDbLine
 10
10.90322696072884
 20
4.243645553440053
 30
0.0
 11
10.80522696072884
 21
4.243645553440053
 31
0.0
  0
LINE
  5
130B
330
1F
100
AcDbEntity
  8
1
100
AcDbLine
 10
10.80522696072884
 20
4.243645553440053
 30
0.0
 11
10.80522696072884
 21
4.215399411002493
 31
0.0
  0
LINE
  5
130C
330
1F
100
AcDbEntity
  8
1
100
AcDbLine
 10
10.98022696072884
 20
4.196645553440053
 30
0.0
 11
10.91822696072884
 21
4.258645553440054
 31
0.0
  0
LINE
  5
130D
330
1F
100
AcDbEntity
  8
1
100
AcDbLine
 10
11.34522696072884
 20
4.196645553440053
 30
0.0
 11
10.98022696072884
 21
4.196645553440053
 31
0.0
  0
LINE
  5
130E
330
1F
100
AcDbEntity
  8
1
100
AcDbLine
 10
11.34522696072884
 20
4.258645553440054
 30
0.0
 11
11.34522696072884
 21
4.196645553440053
 31
0.0
  0
LINE
  5
130F
330
1F
100
AcDbEntity
  8
1
100
AcDbLine
 10
11.38522696072884
 20
4.258645553440054
 30
0.0
 11
11.38522696072884
 21
4.196645553440053
 31
0.0
  0
LINE
  5
1310
330
1F
100
AcDbEntity
  8
1
100
AcDbLine
 10
10.78022696072884
 20
4.258645553440054
 30
0.0
 11
10.88822696072884
 21
4.258645553440054
 31
0.0
  0
LINE
  5
1311
330
1F
100
AcDbEntity
  8
1
100
AcDbLine
 10
10.78022696072884
 20
4.196645553440053
 30
0.0
 11
10.78022696072884
 21
4.258645553440054
 31
0.0
  0
LINE
  5
1312
330
1F
100
AcDbEntity
  8
1
100
AcDbLine
 10
10.84222696072884
 20
4.196645553440053
 30
0.0
 11
10.78022696072884
 21
4.196645553440053
 31
0.0
  0
LINE
  5
1313
330
1F
100
AcDbEntity
  8
1
100
AcDbLine
 10
10.91822696072884
 20
4.258645553440054
 30
0.0
 11
11.38522696072884
 21
4.258645553440054
 31
0.0
  0
LINE
  5
1314
330
1F
100
AcDbEntity
  8
1
100
AcDbLine
 10
9.608226960728842
 20
4.258645553440054
 30
0.0
 11
10.07522696072884
 21
4.258645553440054
 31
0.0
  0
LINE
  5
1315
330
1F
100
AcDbEntity
  8
1
100
AcDbLine
 10
9.532226960728843
 20
4.196645553440053
 30
0.0
 11
9.470226960728844
 21
4.196645553440053
 31
0.0
  0
LINE
  5
1316
330
1F
100
AcDbEntity
  8
1
100
AcDbLine
 10
9.470226960728844
 20
4.196645553440053
 30
0.0
 11
9.470226960728844
 21
4.258645553440054
 31
0.0
  0
LINE
  5
1317
330
1F
100
AcDbEntity
  8
1
100
AcDbLine
 10
9.470226960728844
 20
4.258645553440054
 30
0.0
 11
9.578226960728843
 21
4.258645553440054
 31
0.0
  0
LINE
  5
1318
330
1F
100
AcDbEntity
  8
1
100
AcDbLine
 10
10.07522696072884
 20
4.258645553440054
 30
0.0
 11
10.07522696072884
 21
4.196645553440053
 31
0.0
  0
LINE
  5
1319
330
1F
100
AcDbEntity
  8
1
100
AcDbLine
 10
10.03522696072884
 20
4.258645553440054
 30
0.0
 11
10.03522696072884
 21
4.196645553440053
 31
0.0
  0
LINE
  5
131A
330
1F
100
AcDbEntity
  8
1
100
AcDbLine
 10
10.03522696072884
 20
4.196645553440053
 30
0.0
 11
9.670226960728843
 21
4.196645553440053
 31
0.0
  0
LINE
  5
131B
330
1F
100
AcDbEntity
  8
1
100
AcDbLine
 10
9.670226960728843
 20
4.196645553440053
 30
0.0
 11
9.608226960728842
 21
4.258645553440054
 31
0.0
  0
LINE
  5
131C
330
1F
100
AcDbEntity
  8
1
100
AcDbLine
 10
9.495226960728842
 20
4.243645553440053
 30
0.0
 11
9.495226960728842
 21
4.215399411002493
 31
0.0
  0
LINE
  5
131D
330
1F
100
AcDbEntity
  8
1
100
AcDbLine
 10
9.593226960728843
 20
4.243645553440053
 30
0.0
 11
9.495226960728842
 21
4.243645553440053
 31
0.0
  0
LINE
  5
131E
330
1F
100
AcDbEntity
  8
1
100
AcDbLine
 10
9.608226960728842
 20
4.258645553440054
 30
0.0
 11
9.593226960728843
 21
4.243645553440053
 31
0.0
  0
LINE
  5
131F
330
1F
100
AcDbEntity
  8
1
100
AcDbLine
 10
10.15472696072884
 20
4.571145553440054
 30
0.0
 11
10.34272696072884
 21
4.759145553440053
 31
0.0
  0
LINE
  5
1320
330
1F
100
AcDbEntity
  8
1
100
AcDbLine
 10
10.15472696072884
 20
4.446145553440054
 30
0.0
 11
10.34272696072884
 21
4.634145553440053
 31
0.0
  0
LINE
  5
1321
330
1F
100
AcDbEntity
  8
4
100
AcDbLine
 10
9.469726960728845
 20
3.634145553440053
 30
0.0
 11
9.469726960728845
 21
3.822145553440054
 31
0.0
  0
LINE
  5
1322
330
1F
100
AcDbEntity
  8
4
100
AcDbLine
 10
10.09472696072884
 20
3.634145553440053
 30
0.0
 11
10.09472696072884
 21
3.822145553440054
 31
0.0
  0
LINE
  5
1323
330
1F
100
AcDbEntity
  8
4
100
AcDbLine
 10
10.15472696072884
 20
3.634145553440053
 30
0.0
 11
10.15472696072884
 21
3.822145553440054
 31
0.0
  0
LINE
  5
1324
330
1F
100
AcDbEntity
  8
4
100
AcDbLine
 10
10.77972696072884
 20
3.634145553440053
 30
0.0
 11
10.77972696072884
 21
3.822145553440054
 31
0.0
  0
LINE
  5
1325
330
1F
100
AcDbEntity
  8
4
100
AcDbLine
 10
12.02972696072884
 20
3.634145553440053
 30
0.0
 11
12.02972696072884
 21
3.822145553440054
 31
0.0
  0
LINE
  5
1326
330
1F
100
AcDbEntity
  8
1
100
AcDbLine
 10
11.43672696072884
 20
4.196145553440054
 30
0.0
 11
11.43672696072884
 21
7.196145553440054
 31
0.0
  0
VIEWPORT
  5
CE1
102
{ACAD_XDICTIONARY
360
13E6
102
}
330
58
100
AcDbEntity
 67
     1
  8
0
100
AcDbViewport
 10
5.333333052988126
 20
4.083333221946175
 30
0.0
 40
17.55328193054511
 41
8.992999745766947
 68
     1
 69
     1
 12
5.333333052988126
 22
4.083333221946175
 13
0.0
 23
0.0
 14
0.5
 24
0.5
 15
0.5
 25
0.5
 16
0.0
 26
0.0
 36
1.0
 17
0.0
 27
0.0
 37
0.0
 42
50.0
 43
0.0
 44
0.0
 45
8.992999745766947
 50
0.0
 51
0.0
 72
   100
 90
    32800
  1

281
     0
 71
     1
 74
     0
110
0.0
120
0.0
130
0.0
111
1.0
121
0.0
131
0.0
112
0.0
122
1.0
132
0.0
 79
     0
146
0.0
  0
VIEWPORT
  5
CE3
102
{ACAD_XDICTIONARY
360
13E8
102
}
330
58
100
AcDbEntity
 67
     1
  8
VP-1
100
AcDbViewport
 10
5.259396469703688
 20
3.999999893130732
 30
0.0
 40
9.960641786862737
 41
7.359615673646
 68
     2
 69
     2
 12
8.529726960728844
 22
5.321145553440054
 13
0.0
 23
0.0
 14
0.5
 24
0.5
 15
0.5
 25
0.5
 16
0.0
 26
0.0
 36
1.0
 17
0.0
 27
0.0
 37
0.0
 42
50.0
 43
0.0
 44
0.0
 45
7.359615673646
 50
0.0
 51
0.0
 72
   100
 90
    32864
  1

281
     0
 71
     1
 74
     0
110
0.0
120
0.0
130
0.0
111
1.0
121
0.0
131
0.0
112
0.0
122
1.0
132
0.0
 79
     0
146
0.0
  0
ENDSEC
  0
SECTION
  2
OBJECTS
  0
DICTIONARY
  5
C
330
0
100
AcDbDictionary
281
     1
  3
ACAD_COLOR
350
124F
  3
ACAD_GROUP
350
D
  3
ACAD_LAYOUT
350
1A
  3
ACAD_MATERIAL
350
124E
  3
ACAD_MLINESTYLE
350
17
  3
ACAD_PLOTSETTINGS
350
19
  3
ACAD_PLOTSTYLENAME
350
E
  3
ACDBHEADERROUNDTRIPXREC
350
13DD
  3
AcDbVariableDictionary
350
13CB
  3
DWGPROPS
350
13DC
  0
DICTIONARY
  5
13E6
330
CE1
100
AcDbDictionary
280
     1
281
     1
  3
ACAD_XREC_ROUNDTRIP
360
13E7
  0
DICTIONARY
  5
13E8
330
CE3
100
AcDbDictionary
280
     1
281
     1
  3
ACAD_XREC_ROUNDTRIP
360
13E9
  0
DICTIONARY
  5
124F
102
{ACAD_REACTORS
330
C
102
}
330
C
100
AcDbDictionary
281
     1
  0
DICTIONARY
  5
D
102
{ACAD_REACTORS
330
C
102
}
330
C
100
AcDbDictionary
281
     1
  0
DICTIONARY
  5
1A
102
{ACAD_REACTORS
330
C
102
}
330
C
100
AcDbDictionary
281
     1
  3
Layout1
350
59
  3
Layout2
350
5E
  3
Model
350
22
  0
DICTIONARY
  5
124E
102
{ACAD_REACTORS
330
C
102
}
330
C
100
AcDbDictionary
281
     1
  0
DICTIONARY
  5
17
102
{ACAD_REACTORS
330
C
102
}
330
C
100
AcDbDictionary
281
     1
  3
Standard
350
18
  0
DICTIONARY
  5
19
102
{ACAD_REACTORS
330
C
102
}
330
C
100
AcDbDictionary
281
     1
  0
ACDBDICTIONARYWDFLT
  5
E
102
{ACAD_REACTORS
330
C
102
}
330
C
100
AcDbDictionary
281
     1
  3
Normal
350
F
100
AcDbDictionaryWithDefault
340
F
  0
DICTIONARY
  5
13DD
102
{ACAD_REACTORS
330
C
102
}
330
C
100
AcDbDictionary
281
     1
  3
COLORDICT
350
13DF
  3
MATERIALDICT
350
13DE
  0
DICTIONARY
  5
13CB
102
{ACAD_REACTORS
330
C
102
}
330
C
100
AcDbDictionary
281
     1
  3
DIMASSOC
350
13CC
  3
PROJECTNAME
350
13CD
  0
XRECORD
  5
13DC
102
{ACAD_REACTORS
330
C
102
}
330
C
100
AcDbXrecord
280
     1
  1
DWGPROPS COOKIE
  2

  3

  4

  6

  7

  8
dbabbo
  9

300
=
301
=
302
=
303
=
304
=
305
=
306
=
307
=
308
=
309
=
 40
0.1773238888888889
 41
2452635.562723426
 42
2454728.615104167
  1

 90
        0
  0
XRECORD
  5
13E7
102
{ACAD_REACTORS
330
13E6
102
}
330
13E6
100
AcDbXrecord
280
     1
102
SHADEPLOT
 70
     0
  0
XRECORD
  5
13E9
102
{ACAD_REACTORS
330
13E8
102
}
330
13E8
100
AcDbXrecord
280
     1
102
SHADEPLOT
 70
     0
  0
LAYOUT
  5
59
102
{ACAD_XDICTIONARY
360
13E2
102
}
102
{ACAD_REACTORS
330
1A
102
}
330
1A
100
AcDbPlotSettings
  1

  2
\\EXCHANGE01\LaserJet 5000 (MEZZ)
  4
Letter
  6

 40
4.233333110809326
 41
4.233341693878173
 42
8.466659545898437
 43
4.23333740234375
 44
215.8999938964844
 45
279.3999938964844
 46
0.0
 47
0.0
 48
0.0
 49
0.0
140
0.0
141
0.0
142
1.0
143
1.0
 70
   688
 72
     0
 73
     1
 74
     5
  7
monochrome.ctb
 75
    16
147
1.0
148
0.0
149
0.0
100
AcDbLayout
  1
Layout1
 70
     1
 71
     1
 10
-0.1666668268639272
 20
-0.166666657905879
 11
10.83333293284018
 21
8.333333101798229
 12
0.0
 22
0.0
 32
0.0
 14
0.2783811220443155
 24
0.3197708210893317
 34
-0.0000000349181948
 15
10.24008134267454
 25
7.680228985705237
 35
0.0000000814935746
146
0.0
 13
0.0
 23
0.0
 33
0.0
 16
1.0
 26
0.0
 36
0.0
 17
0.0
 27
1.0
 37
0.0
 76
     0
330
58
331
CE1
  0
LAYOUT
  5
5E
102
{ACAD_XDICTIONARY
360
13E4
102
}
102
{ACAD_REACTORS
330
1A
102
}
330
1A
100
AcDbPlotSettings
  1

  2
None
  4

  6

 40
0.0
 41
0.0
 42
0.0
 43
0.0
 44
0.0
 45
0.0
 46
0.0
 47
0.0
 48
0.0
 49
0.0
140
0.0
141
0.0
142
1.0
143
1.0
 70
   688
 72
     0
 73
     0
 74
     5
  7
monochrome.ctb
 75
    16
147
1.0
148
0.0
149
0.0
100
AcDbLayout
  1
Layout2
 70
     1
 71
     2
 10
0.0
 20
0.0
 11
12.0
 21
9.0
 12
0.0
 22
0.0
 32
0.0
 14
0.0
 24
0.0
 34
0.0
 15
0.0
 25
0.0
 35
0.0
146
0.0
 13
0.0
 23
0.0
 33
0.0
 16
1.0
 26
0.0
 36
0.0
 17
0.0
 27
1.0
 37
0.0
 76
     0
330
5D
  0
LAYOUT
  5
22
102
{ACAD_XDICTIONARY
360
13E0
102
}
102
{ACAD_REACTORS
330
1A
102
}
330
1A
100
AcDbPlotSettings
  1

  2
\\EXCHANGE01\LaserJet 5000 (MEZZ)
  4
Letter
  6

 40
4.233333110809326
 41
4.233341693878173
 42
8.466659545898437
 43
4.23333740234375
 44
215.8999938964844
 45
279.3999938964844
 46
0.0
 47
0.0
 48
0.0
 49
0.0
140
0.0
141
0.0
142
1.0
143
1.432002990391058
 70
 11952
 72
     0
 73
     1
 74
     0
  7
monochrome.ctb
 75
     0
147
0.6983225640659558
148
-37.31697266393791
149
-25.53266539007001
100
AcDbLayout
  1
Model
 70
     1
 71
     0
 10
0.0
 20
0.0
 11
12.0
 21
9.0
 12
0.0
 22
0.0
 32
0.0
 14
0.0
 24
0.0
 34
0.0
 15
0.0
 25
0.0
 35
0.0
146
0.0
 13
0.0
 23
0.0
 33
0.0
 16
1.0
 26
0.0
 36
0.0
 17
0.0
 27
1.0
 37
0.0
 76
     0
330
1F
  0
MLINESTYLE
  5
18
102
{ACAD_REACTORS
330
17
102
}
330
17
100
AcDbMlineStyle
  2
STANDARD
 70
     0
  3

 62
   256
 51
90.0
 52
90.0
 71
     2
 49
0.5
 62
   256
  6
BYLAYER
 49
-0.5
 62
   256
  6
BYLAYER
  0
ACDBPLACEHOLDER
  5
F
102
{ACAD_REACTORS
330
E
102
}
330
E
  0
XRECORD
  5
13DF
102
{ACAD_REACTORS
330
13DD
102
}
330
13DD
100
AcDbXrecord
280
     1
340
124F
  0
XRECORD
  5
13DE
102
{ACAD_REACTORS
330
13DD
102
}
330
13DD
100
AcDbXrecord
280
     1
340
124E
  0
DICTIONARYVAR
  5
13CC
102
{ACAD_REACTORS
330
13CB
102
}
330
13CB
100
DictionaryVariables
280
     0
  1
1
  0
DICTIONARYVAR
  5
13CD
102
{ACAD_REACTORS
330
13CB
102
}
330
13CB
100
DictionaryVariables
280
     0
  1

  0
DICTIONARY
  5
13E2
330
59
100
AcDbDictionary
280
     1
281
     1
  3
ACAD_XREC_ROUNDTRIP
360
13E3
  0
DICTIONARY
  5
13E4
330
5E
100
AcDbDictionary
280
     1
281
     1
  3
ACAD_XREC_ROUNDTRIP
360
13E5
  0
DICTIONARY
  5
13E0
330
22
100
AcDbDictionary
280
     1
281
     1
  3
ACAD_XREC_ROUNDTRIP
360
13E1
  0
XRECORD
  5
13E3
102
{ACAD_REACTORS
330
13E2
102
}
330
13E2
100
AcDbXrecord
280
     1
102
SHADEPLOT
 70
     0
102
SHADEPLOTRESLEVEL
 70
     2
102
SHADEPLOTCUSTOMDPI
 70
   300
  0
XRECORD
  5
13E5
102
{ACAD_REACTORS
330
13E4
102
}
330
13E4
100
AcDbXrecord
280
     1
102
SHADEPLOT
 70
     0
102
SHADEPLOTRESLEVEL
 70
     2
102
SHADEPLOTCUSTOMDPI
 70
   300
  0
XRECORD
  5
13E1
102
{ACAD_REACTORS
330
13E0
102
}
330
13E0
100
AcDbXrecord
280
     1
102
SHADEPLOT
 70
     0
102
SHADEPLOTRESLEVEL
 70
     2
102
SHADEPLOTCUSTOMDPI
 70
   300
  0
ENDSEC
  0
EOF
