  0
SECTION
  2
HEADER
  9
$ACADVER
  1
AC1015
  9
$ACADMAINTVER
 70
    20
  9
$DWGCODEPAGE
  3
ANSI_1252
  9
$INSBASE
 10
0.0
 20
0.0
 30
0.0
  9
$EXTMIN
 10
3.631530793886085
 20
2.183258080137029
 30
-0.000000000000013
  9
$EXTMAX
 10
11.88226321139636
 20
7.433349628505936
 30
0.0000000000000023
  9
$LIMMIN
 10
0.0
 20
0.0
  9
$LIMMAX
 10
12.0
 20
9.0
  9
$ORTHOMODE
 70
     1
  9
$REGENMODE
 70
     1
  9
$FILLMODE
 70
     1
  9
$QTEXTMODE
 70
     0
  9
$MIRRTEXT
 70
     1
  9
$LTSCALE
 40
1.0
  9
$ATTMODE
 70
     1
  9
$TEXTSIZE
 40
0.2
  9
$TRACEWID
 40
0.05
  9
$TEXTSTYLE
  7
Standard
  9
$CLAYER
  8
2
  9
$CELTYPE
  6
ByLayer
  9
$CECOLOR
 62
   256
  9
$CELTSCALE
 40
1.0
  9
$DISPSILH
 70
     0
  9
$DIMSCALE
 40
1.0
  9
$DIMASZ
 40
0.18
  9
$DIMEXO
 40
0.0625
  9
$DIMDLI
 40
0.38
  9
$DIMRND
 40
0.0
  9
$DIMDLE
 40
0.0
  9
$DIMEXE
 40
0.18
  9
$DIMTP
 40
0.0
  9
$DIMTM
 40
0.0
  9
$DIMTXT
 40
0.18
  9
$DIMCEN
 40
0.09
  9
$DIMTSZ
 40
0.0
  9
$DIMTOL
 70
     0
  9
$DIMLIM
 70
     0
  9
$DIMTIH
 70
     1
  9
$DIMTOH
 70
     1
  9
$DIMSE1
 70
     0
  9
$DIMSE2
 70
     0
  9
$DIMTAD
 70
     0
  9
$DIMZIN
 70
     0
  9
$DIMBLK
  1

  9
$DIMASO
 70
     1
  9
$DIMSHO
 70
     1
  9
$DIMPOST
  1

  9
$DIMAPOST
  1

  9
$DIMALT
 70
     0
  9
$DIMALTD
 70
     2
  9
$DIMALTF
 40
25.4
  9
$DIMLFAC
 40
1.0
  9
$DIMTOFL
 70
     0
  9
$DIMTVP
 40
0.0
  9
$DIMTIX
 70
     0
  9
$DIMSOXD
 70
     0
  9
$DIMSAH
 70
     0
  9
$DIMBLK1
  1

  9
$DIMBLK2
  1

  9
$DIMSTYLE
  2
Standard
  9
$DIMCLRD
 70
     0
  9
$DIMCLRE
 70
     0
  9
$DIMCLRT
 70
     0
  9
$DIMTFAC
 40
1.0
  9
$DIMGAP
 40
0.09
  9
$DIMJUST
 70
     0
  9
$DIMSD1
 70
     0
  9
$DIMSD2
 70
     0
  9
$DIMTOLJ
 70
     1
  9
$DIMTZIN
 70
     0
  9
$DIMALTZ
 70
     0
  9
$DIMALTTZ
 70
     0
  9
$DIMUPT
 70
     0
  9
$DIMDEC
 70
     4
  9
$DIMTDEC
 70
     4
  9
$DIMALTU
 70
     2
  9
$DIMALTTD
 70
     2
  9
$DIMTXSTY
  7
Standard
  9
$DIMAUNIT
 70
     0
  9
$DIMADEC
 70
     0
  9
$DIMALTRND
 40
0.0
  9
$DIMAZIN
 70
     0
  9
$DIMDSEP
 70
    46
  9
$DIMATFIT
 70
     3
  9
$DIMFRAC
 70
     0
  9
$DIMLDRBLK
  1

  9
$DIMLUNIT
 70
     2
  9
$DIMLWD
 70
    -2
  9
$DIMLWE
 70
    -2
  9
$DIMTMOVE
 70
     0
  9
$LUNITS
 70
     2
  9
$LUPREC
 70
     4
  9
$SKETCHINC
 40
0.1
  9
$FILLETRAD
 40
0.5
  9
$AUNITS
 70
     0
  9
$AUPREC
 70
     0
  9
$MENU
  1
.
  9
$ELEVATION
 40
0.0
  9
$PELEVATION
 40
0.0
  9
$THICKNESS
 40
0.0
  9
$LIMCHECK
 70
     0
  9
$CHAMFERA
 40
0.5
  9
$CHAMFERB
 40
0.5
  9
$CHAMFERC
 40
1.0
  9
$CHAMFERD
 40
0.0
  9
$SKPOLY
 70
     0
  9
$TDCREATE
 40
2452635.553931968
  9
$TDUCREATE
 40
2452635.762265301
  9
$TDUPDATE
 40
2454728.614729271
  9
$TDUUPDATE
 40
2454728.823062604
  9
$TDINDWG
 40
0.1897764468
  9
$TDUSRTIMER
 40
0.1897764468
  9
$USRTIMER
 70
     1
  9
$ANGBASE
 50
0.0
  9
$ANGDIR
 70
     0
  9
$PDMODE
 70
     0
  9
$PDSIZE
 40
0.0
  9
$PLINEWID
 40
0.0
  9
$SPLFRAME
 70
     0
  9
$SPLINETYPE
 70
     6
  9
$SPLINESEGS
 70
     8
  9
$HANDSEED
  5
91F
  9
$SURFTAB1
 70
     6
  9
$SURFTAB2
 70
     6
  9
$SURFTYPE
 70
     6
  9
$SURFU
 70
     6
  9
$SURFV
 70
     6
  9
$UCSBASE
  2

  9
$UCSNAME
  2

  9
$UCSORG
 10
0.0
 20
0.0
 30
0.0
  9
$UCSXDIR
 10
1.0
 20
0.0
 30
0.0
  9
$UCSYDIR
 10
0.0
 20
1.0
 30
0.0
  9
$UCSORTHOREF
  2

  9
$UCSORTHOVIEW
 70
     0
  9
$UCSORGTOP
 10
0.0
 20
0.0
 30
0.0
  9
$UCSORGBOTTOM
 10
0.0
 20
0.0
 30
0.0
  9
$UCSORGLEFT
 10
0.0
 20
0.0
 30
0.0
  9
$UCSORGRIGHT
 10
0.0
 20
0.0
 30
0.0
  9
$UCSORGFRONT
 10
0.0
 20
0.0
 30
0.0
  9
$UCSORGBACK
 10
0.0
 20
0.0
 30
0.0
  9
$PUCSBASE
  2

  9
$PUCSNAME
  2

  9
$PUCSORG
 10
0.0
 20
0.0
 30
0.0
  9
$PUCSXDIR
 10
1.0
 20
0.0
 30
0.0
  9
$PUCSYDIR
 10
0.0
 20
1.0
 30
0.0
  9
$PUCSORTHOREF
  2

  9
$PUCSORTHOVIEW
 70
     0
  9
$PUCSORGTOP
 10
0.0
 20
0.0
 30
0.0
  9
$PUCSORGBOTTOM
 10
0.0
 20
0.0
 30
0.0
  9
$PUCSORGLEFT
 10
0.0
 20
0.0
 30
0.0
  9
$PUCSORGRIGHT
 10
0.0
 20
0.0
 30
0.0
  9
$PUCSORGFRONT
 10
0.0
 20
0.0
 30
0.0
  9
$PUCSORGBACK
 10
0.0
 20
0.0
 30
0.0
  9
$USERI1
 70
     0
  9
$USERI2
 70
     0
  9
$USERI3
 70
     0
  9
$USERI4
 70
     0
  9
$USERI5
 70
     0
  9
$USERR1
 40
0.0
  9
$USERR2
 40
0.0
  9
$USERR3
 40
0.0
  9
$USERR4
 40
0.0
  9
$USERR5
 40
0.0
  9
$WORLDVIEW
 70
     1
  9
$SHADEDGE
 70
     3
  9
$SHADEDIF
 70
    70
  9
$TILEMODE
 70
     1
  9
$MAXACTVP
 70
    64
  9
$PINSBASE
 10
0.0
 20
0.0
 30
0.0
  9
$PLIMCHECK
 70
     0
  9
$PEXTMIN
 10
0.0
 20
0.0
 30
0.0
  9
$PEXTMAX
 10
0.0
 20
0.0
 30
0.0
  9
$PLIMMIN
 10
0.0
 20
0.0
  9
$PLIMMAX
 10
12.0
 20
9.0
  9
$UNITMODE
 70
     0
  9
$VISRETAIN
 70
     1
  9
$PLINEGEN
 70
     0
  9
$PSLTSCALE
 70
     1
  9
$TREEDEPTH
 70
  3020
  9
$CMLSTYLE
  2
Standard
  9
$CMLJUST
 70
     0
  9
$CMLSCALE
 40
1.0
  9
$PROXYGRAPHICS
 70
     1
  9
$MEASUREMENT
 70
     0
  9
$CELWEIGHT
370
    -1
  9
$ENDCAPS
280
     0
  9
$JOINSTYLE
280
     0
  9
$LWDISPLAY
290
     0
  9
$INSUNITS
 70
     1
  9
$HYPERLINKBASE
  1

  9
$STYLESHEET
  1
monochrome.ctb
  9
$XEDIT
290
     1
  9
$CEPSNTYPE
380
     0
  9
$PSTYLEMODE
290
     1
  9
$FINGERPRINTGUID
  2
{FDEAD576-A652-11D2-9A35-0060089B3A3F}
  9
$VERSIONGUID
  2
{0F511714-CE0B-4BC1-93BA-D1C81C924727}
  9
$EXTNAMES
290
     1
  9
$PSVPSCALE
 40
0.0
  9
$OLESTARTUP
290
     0
  0
ENDSEC
  0
SECTION
  2
CLASSES
  0
CLASS
  1
ACDBDICTIONARYWDFLT
  2
AcDbDictionaryWithDefault
  3
ObjectDBX Classes
 90
        0
280
     0
281
     0
  0
CLASS
  1
ACDBPLACEHOLDER
  2
AcDbPlaceHolder
  3
ObjectDBX Classes
 90
        0
280
     0
281
     0
  0
CLASS
  1
LAYOUT
  2
AcDbLayout
  3
ObjectDBX Classes
 90
        0
280
     0
281
     0
  0
CLASS
  1
DICTIONARYVAR
  2
AcDbDictionaryVar
  3
ObjectDBX Classes
 90
        0
280
     0
281
     0
  0
ENDSEC
  0
SECTION
  2
TABLES
  0
TABLE
  2
VPORT
  5
8
330
0
100
AcDbSymbolTable
 70
     2
  0
VPORT
  5
914
330
8
100
AcDbSymbolTableRecord
100
AcDbViewportTableRecord
  2
*Active
 70
     0
 10
0.0
 20
0.0
 11
1.0
 21
1.0
 12
7.756897002641224
 22
4.808303854321483
 13
0.0
 23
0.0
 14
0.5
 24
0.5
 15
0.5
 25
0.5
 16
0.0
 26
0.0
 36
1.0
 17
0.0
 27
0.0
 37
0.0
 40
5.545189497268501
 41
1.495145631067961
 42
50.0
 43
0.0
 44
0.0
 50
0.0
 51
0.0
 71
     0
 72
   100
 73
     1
 74
     3
 75
     0
 76
     0
 77
     0
 78
     0
281
     0
 65
     1
110
0.0
120
0.0
130
0.0
111
1.0
121
0.0
131
0.0
112
0.0
122
1.0
132
0.0
 79
     0
146
0.0
  0
ENDTAB
  0
TABLE
  2
LTYPE
  5
5
330
0
100
AcDbSymbolTable
 70
     3
  0
LTYPE
  5
14
330
5
100
AcDbSymbolTableRecord
100
AcDbLinetypeTableRecord
  2
ByBlock
 70
     0
  3

 72
    65
 73
     0
 40
0.0
  0
LTYPE
  5
15
330
5
100
AcDbSymbolTableRecord
100
AcDbLinetypeTableRecord
  2
ByLayer
 70
     0
  3

 72
    65
 73
     0
 40
0.0
  0
LTYPE
  5
16
330
5
100
AcDbSymbolTableRecord
100
AcDbLinetypeTableRecord
  2
Continuous
 70
     0
  3
Solid line
 72
    65
 73
     0
 40
0.0
  0
LTYPE
  5
417
330
5
100
AcDbSymbolTableRecord
100
AcDbLinetypeTableRecord
  2
CENTER
 70
     0
  3
Center ____ _ ____ _ ____ _ ____ _ ____ _ ____
 72
    65
 73
     4
 40
2.0
 49
1.25
 74
     0
 49
-0.25
 74
     0
 49
0.25
 74
     0
 49
-0.25
 74
     0
  0
LTYPE
  5
8AA
330
5
100
AcDbSymbolTableRecord
100
AcDbLinetypeTableRecord
  2
HIDDEN
 70
     0
  3
Hidden __ __ __ __ __ __ __ __ __ __ __ __ __ _
 72
    65
 73
     2
 40
0.375
 49
0.25
 74
     0
 49
-0.125
 74
     0
  0
ENDTAB
  0
TABLE
  2
LAYER
  5
2
330
0
100
AcDbSymbolTable
 70
     5
  0
LAYER
  5
10
330
2
100
AcDbSymbolTableRecord
100
AcDbLayerTableRecord
  2
0
 70
     0
 62
     7
  6
Continuous
370
    -3
390
F
  0
LAYER
  5
6D
330
2
100
AcDbSymbolTableRecord
100
AcDbLayerTableRecord
  2
1
 70
     0
 62
     1
  6
Continuous
370
    -3
390
F
  0
LAYER
  5
6E
330
2
100
AcDbSymbolTableRecord
100
AcDbLayerTableRecord
  2
4
 70
     0
 62
     4
  6
Continuous
370
    -3
390
F
  0
LAYER
  5
6F
330
2
100
AcDbSymbolTableRecord
100
AcDbLayerTableRecord
  2
8
 70
     0
 62
     2
  6
Continuous
370
    -3
390
F
  0
LAYER
  5
418
330
2
100
AcDbSymbolTableRecord
100
AcDbLayerTableRecord
  2
2
 70
     0
 62
     2
  6
Continuous
370
    -3
390
F
  0
ENDTAB
  0
TABLE
  2
STYLE
  5
3
330
0
100
AcDbSymbolTable
 70
     3
  0
STYLE
  5
11
330
3
100
AcDbSymbolTableRecord
100
AcDbTextStyleTableRecord
  2
Standard
 70
     0
 40
0.0
 41
1.0
 50
0.0
 71
     0
 42
0.2
  3
txt
  4

  0
STYLE
  5
70
330
3
100
AcDbSymbolTableRecord
100
AcDbTextStyleTableRecord
  2
ROMANS
 70
     0
 40
0.0
 41
1.0
 50
0.0
 71
     0
 42
0.07
  3
ROMANS
  4

  0
STYLE
  5
8A9
330
3
100
AcDbSymbolTableRecord
100
AcDbTextStyleTableRecord
  2

 70
     1
 40
0.0
 41
1.0
 50
0.0
 71
     0
 42
0.2
  3
ltypeshp.shx
  4

  0
ENDTAB
  0
TABLE
  2
VIEW
  5
6
330
0
100
AcDbSymbolTable
 70
     0
  0
ENDTAB
  0
TABLE
  2
UCS
  5
7
330
0
100
AcDbSymbolTable
 70
     0
  0
ENDTAB
  0
TABLE
  2
APPID
  5
9
330
0
100
AcDbSymbolTable
 70
     1
  0
APPID
  5
12
330
9
100
AcDbSymbolTableRecord
100
AcDbRegAppTableRecord
  2
ACAD
 70
     0
  0
ENDTAB
  0
TABLE
  2
DIMSTYLE
  5
A
330
0
100
AcDbSymbolTable
 70
     1
100
AcDbDimStyleTable
 71
     0
  0
DIMSTYLE
105
27
330
A
100
AcDbSymbolTableRecord
100
AcDbDimStyleTableRecord
  2
Standard
 70
     0
340
11
  0
ENDTAB
  0
TABLE
  2
BLOCK_RECORD
  5
1
330
0
100
AcDbSymbolTable
 70
     8
  0
BLOCK_RECORD
  5
1F
330
1
100
AcDbSymbolTableRecord
100
AcDbBlockTableRecord
  2
*Model_Space
340
22
  0
BLOCK_RECORD
  5
58
330
1
100
AcDbSymbolTableRecord
100
AcDbBlockTableRecord
  2
*Paper_Space
340
59
  0
BLOCK_RECORD
  5
5D
330
1
100
AcDbSymbolTableRecord
100
AcDbBlockTableRecord
  2
*Paper_Space0
340
5E
  0
BLOCK_RECORD
  5
65
330
1
100
AcDbSymbolTableRecord
100
AcDbBlockTableRecord
  2
ARRO
340
0
102
{BLKREFS
331
79
331
C1
331
C2
331
C6
331
C7
331
CB
331
CC
331
CD
331
CE
331
CF
331
276
331
277
331
43F
331
487
331
488
331
48C
331
48D
331
491
331
492
331
493
331
494
331
495
331
5E4
331
5E5
102
}
  0
BLOCK_RECORD
  5
71
330
1
100
AcDbSymbolTableRecord
100
AcDbBlockTableRecord
  2
LE1005
340
0
  0
BLOCK_RECORD
  5
138
330
1
100
AcDbSymbolTableRecord
100
AcDbBlockTableRecord
  2
C1
340
0
102
{BLKREFS
331
3C3
331
3F6
331
3AF
331
3D2
331
3F2
331
3BF
102
}
  0
BLOCK_RECORD
  5
15F
330
1
100
AcDbSymbolTableRecord
100
AcDbBlockTableRecord
  2
C2
340
0
102
{BLKREFS
331
3AE
331
3FA
331
3D3
331
3AC
331
3F1
331
3AA
102
}
  0
BLOCK_RECORD
  5
186
330
1
100
AcDbSymbolTableRecord
100
AcDbBlockTableRecord
  2
TEMP3
340
0
102
{BLKREFS
331
191
331
4FF
102
}
  0
BLOCK_RECORD
  5
18B
330
1
100
AcDbSymbolTableRecord
100
AcDbBlockTableRecord
  2
SPL2ATHLETIC4H
340
0
310
2800000020000000200000000100080000000000000400000000000000000000000000000000000000000000000080000080000000808000800000008000800080800000C0C0C000C0DCC000F0CAA6000020400000206000002080000020A0000020C0000020E00000400000004020000040400000406000004080000040A0
310
000040C0000040E00000600000006020000060400000606000006080000060A0000060C0000060E00000800000008020000080400000806000008080000080A0000080C0000080E00000A0000000A0200000A0400000A0600000A0800000A0A00000A0C00000A0E00000C0000000C0200000C0400000C0600000C0800000C0
310
A00000C0C00000C0E00000E0000000E0200000E0400000E0600000E0800000E0A00000E0C00000E0E00040000000400020004000400040006000400080004000A0004000C0004000E00040200000402020004020400040206000402080004020A0004020C0004020E000404000004040200040404000404060004040800040
310
40A0004040C0004040E00040600000406020004060400040606000406080004060A0004060C0004060E00040800000408020004080400040806000408080004080A0004080C0004080E00040A0000040A0200040A0400040A0600040A0800040A0A00040A0C00040A0E00040C0000040C0200040C0400040C0600040C08000
310
40C0A00040C0C00040C0E00040E0000040E0200040E0400040E0600040E0800040E0A00040E0C00040E0E00080000000800020008000400080006000800080008000A0008000C0008000E00080200000802020008020400080206000802080008020A0008020C0008020E00080400000804020008040400080406000804080
310
008040A0008040C0008040E00080600000806020008060400080606000806080008060A0008060C0008060E00080800000808020008080400080806000808080008080A0008080C0008080E00080A0000080A0200080A0400080A0600080A0800080A0A00080A0C00080A0E00080C0000080C0200080C0400080C0600080C0
310
800080C0A00080C0C00080C0E00080E0000080E0200080E0400080E0600080E0800080E0A00080E0C00080E0E000C0000000C0002000C0004000C0006000C0008000C000A000C000C000C000E000C0200000C0202000C0204000C0206000C0208000C020A000C020C000C020E000C0400000C0402000C0404000C0406000C0
310
408000C040A000C040C000C040E000C0600000C0602000C0604000C0606000C0608000C060A000C060C000C060E000C0800000C0802000C0804000C0806000C0808000C080A000C080C000C080E000C0A00000C0A02000C0A04000C0A06000C0A08000C0A0A000C0A0C000C0A0E000C0C00000C0C02000C0C04000C0C06000
310
C0C08000C0C0A000F0FBFF00A4A0A000808080000000FF0000FF000000FFFF00FF000000FF00FF00FFFF0000FFFFFF0000000000000000000000000000000000000000000000000000000000000000000000000000000000000000000000000000000000000000000000000000000000000000000000000000000000000000
310
00000000000000000000000000000000000000000000000000000000000000000000000000000000000000000000000000000000000000000000000000000000000000000000000000000000000000000000000000000000000000000000000000000000000000000000000000000000000000000000000000000000000000
310
00000000000000000000000000000000000000FE00000000000000000000000000000000000000000000000000000000000000000000000000FBFBFBFBFBFBFBFBFBFBFBFBFBFBFBFBFBFBFBFB0000000000000000000000000000000000000000000000000000000000000000000000000000000000000000000000000000
310
00000000000000000000000000000000000000000000000000000000000000000000000000000000000000000000000000000000000000000000000000000000000000000000000000000000000000000000000000000000FEFEFE000000000000000000000000FE00000000FE000000FEFE000000000000FEFEFE00000000
310
0000000000000000FEFAFA0000FEFEFEFEFEFE0000000000FBFEFAFE000000000000000000000000FEFAFA0000FEFEFEFEFEFE0000000000FBFEFAFEFEFEFEFEFEFEFE0000000000FEFEFE0000FEFEFEFEFEFE0000000000FBFEFEFA000000000000000000000000FEFEFE0000FEFEFEFAFAFE0000000000FBFEFAFEFEFEFE
310
FEFEFEFE0000000000FEFEFE0000FEFEFEFAFEFE0000000000FEFEFEFEFEFEFEFEFEFEFE0000000000FEFEFE0000FEFEFEFEFEFE0000000000FEFEFEFE000000000000000000000000FEFEFE0000FEFEFEFEFEFE0000000000FBFEFAFAFEFEFEFEFEFEFE0000000000FEFEFE0000FEFEFEFEFEFE0000000000FBFEFEFE0000
310
00000000000000000000FEFEFE0000FEFEFEFEFEFE00000000FBFBFEFAFE000000000000000000000000FEFEFE0000FEFEFEFEFEFE000000000000FEFEFE000000000000000000000000FE00000000FE000000FEFE000000000000000000000000000000000000000000000000000000000000000000000000000000000000
310
00000000000000000000000000000000000000000000000000000000000000000000000000000000000000000000000000000000000000000000000000000000000000000000000000000000000000000000000000000000000000000000000000000000000000000000000000000000000000000000000000000000000000
310
0000000000000000000000000000000000000000000000000000000000000000000000000000000000000000000000000000000000000000
102
{BLKREFS
331
41A
102
}
1001
ACAD
1000
DesignCenter Data
1002
{
1070
     1
1070
     1
1002
}
  0
BLOCK_RECORD
  5
419
330
1
100
AcDbSymbolTableRecord
100
AcDbBlockTableRecord
  2
LE1209
340
0
1001
ACAD
1000
DesignCenter Data
1002
{
1070
     1
1070
     1
1002
}
  0
ENDTAB
  0
ENDSEC
  0
SECTION
  2
BLOCKS
  0
BLOCK
  5
20
330
1F
100
AcDbEntity
  8
0
100
AcDbBlockBegin
  2
*Model_Space
 70
     0
 10
0.0
 20
0.0
 30
0.0
  3
*Model_Space
  1

  0
ENDBLK
  5
21
330
1F
100
AcDbEntity
  8
0
100
AcDbBlockEnd
  0
BLOCK
  5
5A
330
58
100
AcDbEntity
 67
     1
  8
0
100
AcDbBlockBegin
  2
*Paper_Space
 70
     0
 10
0.0
 20
0.0
 30
0.0
  3
*Paper_Space
  1

  0
ENDBLK
  5
5B
330
58
100
AcDbEntity
 67
     1
  8
0
100
AcDbBlockEnd
  0
BLOCK
  5
5F
330
5D
100
AcDbEntity
  8
0
100
AcDbBlockBegin
  2
*Paper_Space0
 70
     0
 10
0.0
 20
0.0
 30
0.0
  3
*Paper_Space0
  1

  0
ENDBLK
  5
60
330
5D
100
AcDbEntity
  8
0
100
AcDbBlockEnd
  0
BLOCK
  5
6B
330
65
100
AcDbEntity
  8
8
100
AcDbBlockBegin
  2
ARRO
 70
     0
 10
0.0
 20
0.0
 30
0.0
  3
ARRO
  1

  0
LINE
  5
66
330
65
100
AcDbEntity
  8
4
100
AcDbLine
 10
0.1250000000000018
 20
0.0199999999999996
 30
0.0
 11
0.1250000000000018
 21
-0.0200000000000005
 31
0.0
  0
LINE
  5
67
330
65
100
AcDbEntity
  8
4
100
AcDbLine
 10
0.1250000000000018
 20
-0.0100000000000007
 30
0.0
 11
0.0000000000000009
 21
0.0
 31
0.0
  0
LINE
  5
68
330
65
100
AcDbEntity
  8
4
100
AcDbLine
 10
0.1250000000000018
 20
0.0099999999999989
 30
0.0
 11
0.0000000000000018
 21
0.0
 31
0.0
  0
LINE
  5
69
330
65
100
AcDbEntity
  8
4
100
AcDbLine
 10
0.0000000000000018
 20
0.0
 30
0.0
 11
0.1250000000000018
 21
-0.0200000000000005
 31
0.0
  0
LINE
  5
6A
330
65
100
AcDbEntity
  8
4
100
AcDbLine
 10
0.1250000000000018
 20
0.0199999999999996
 30
0.0
 11
0.0000000000000018
 21
0.0
 31
0.0
  0
ENDBLK
  5
6C
330
65
100
AcDbEntity
  8
8
100
AcDbBlockEnd
  0
BLOCK
  5
134
330
71
100
AcDbEntity
  8
0
100
AcDbBlockBegin
  2
LE1005
 70
     0
 10
0.0
 20
0.0
 30
0.0
  3
LE1005
  1

  0
TEXT
  5
72
330
71
100
AcDbEntity
  8
8
100
AcDbText
 10
5.2125
 20
0.9038482379456846
 30
0.0
 40
0.07
  1
DEPTH
  7
ROMANS
 72
     1
 11
5.3775
 21
0.9038482379456846
 31
0.0
100
AcDbText
  0
TEXT
  5
73
330
71
100
AcDbEntity
  8
8
100
AcDbText
 10
6.834999999999999
 20
0.9038482379456846
 30
0.0
 40
0.07
  1
DEPTH
  7
ROMANS
 72
     1
 11
7.0
 21
0.9038482379456846
 31
0.0
100
AcDbText
  0
TEXT
  5
74
330
71
100
AcDbEntity
  8
8
100
AcDbText
 10
6.899267058502116
 20
0.7466010068253098
 30
0.0
 40
0.1
  1
DR
  7
ROMANS
 72
     1
 11
7.001648010883068
 21
0.7466010068253098
 31
0.0
100
AcDbText
  0
TEXT
  5
75
330
71
100
AcDbEntity
  8
8
100
AcDbText
 10
5.794389324558379
 20
0.5620000000000003
 30
0.0
 40
0.1
  1
SECTIONS
  7
ROMANS
 72
     1
 11
6.146770276939331
 21
0.5620000000000003
 31
0.0
100
AcDbText
  0
TEXT
  5
76
330
71
100
AcDbEntity
  8
8
100
AcDbText
 10
5.302053163126957
 20
0.7466010068253098
 30
0.0
 40
0.1
  1
SR
  7
ROMANS
 72
     1
 11
5.399672210746004
 21
0.7466010068253098
 31
0.0
100
AcDbText
  0
LINE
  5
77
330
71
100
AcDbEntity
  8
4
100
AcDbLine
 10
5.628
 20
4.25
 30
0.0
 11
5.891731602665403
 21
4.25
 31
0.0
  0
LINE
  5
78
330
71
100
AcDbEntity
  8
4
100
AcDbLine
 10
5.93215881233783
 20
4.25
 30
0.0
 11
6.112622609161773
 21
4.25
 31
0.0
  0
INSERT
  5
79
330
71
100
AcDbEntity
  8
4
100
AcDbBlockReference
  2
ARRO
 10
5.93215881233783
 20
4.25
 30
0.0
  0
LINE
  5
7A
330
71
100
AcDbEntity
  8
4
100
AcDbLine
 10
6.112622609161773
 20
4.25
 30
0.0
 11
6.112622609161773
 21
4.047012330209487
 31
0.0
  0
TEXT
  5
7B
330
71
100
AcDbEntity
  8
8
100
AcDbText
 10
6.147622609161773
 20
2.671678996876154
 30
0.0
 40
0.07
  1
ANCHORING BY ERECTOR
 50
90.0
  7
ROMANS
 72
     2
 11
6.147622609161773
 21
3.985012330209487
 31
0.0
100
AcDbText
  0
TEXT
  5
7C
330
71
100
AcDbEntity
  8
8
100
AcDbText
 10
4.500499999999999
 20
2.578333333333333
 30
0.0
 40
0.07
  1
LOCKER HEIGHT
 50
90.0
  7
ROMANS
 72
     1
 11
4.500499999999999
 21
3.0
 31
0.0
100
AcDbText
  0
TEXT
  5
7D
330
71
100
AcDbEntity
  8
8
100
AcDbText
 10
1.344999999999998
 20
1.062
 30
0.0
 40
0.07
  1
LOCKER WIDTH - SEE SCHEDULE
  7
ROMANS
 72
     1
 11
2.249999999999999
 21
1.062
 31
0.0
100
AcDbText
  0
TEXT
  5
7E
330
71
100
AcDbEntity
  8
8
100
AcDbText
 10
1.585714285714285
 20
0.5620000000000003
 30
0.0
 40
0.1
  1
FRONT ELEVATION
  7
ROMANS
 72
     1
 11
2.249999999999999
 21
0.5620000000000003
 31
0.0
100
AcDbText
  0
LINE
  5
7F
330
71
100
AcDbEntity
  8
1
100
AcDbLine
 10
0.0
 20
0.0
 30
0.0
 11
8.25
 21
0.0
 31
0.0
  0
LINE
  5
80
330
71
100
AcDbEntity
  8
1
100
AcDbLine
 10
8.25
 20
0.0
 30
0.0
 11
8.25
 21
5.25
 31
0.0
  0
LINE
  5
81
330
71
100
AcDbEntity
  8
1
100
AcDbLine
 10
8.25
 20
5.25
 30
0.0
 11
0.0
 21
5.25
 31
0.0
  0
LINE
  5
82
330
71
100
AcDbEntity
  8
1
100
AcDbLine
 10
0.0
 20
5.25
 30
0.0
 11
0.0
 21
0.0
 31
0.0
  0
LINE
  5
83
330
71
100
AcDbEntity
  8
1
100
AcDbLine
 10
1.0
 20
1.5
 30
0.0
 11
2.5
 21
1.5
 31
0.0
  0
LINE
  5
84
330
71
100
AcDbEntity
  8
1
100
AcDbLine
 10
1.0
 20
1.5
 30
0.0
 11
1.0
 21
4.5
 31
0.0
  0
LINE
  5
85
330
71
100
AcDbEntity
  8
1
100
AcDbLine
 10
1.0
 20
4.5
 30
0.0
 11
2.5
 21
4.5
 31
0.0
  0
LINE
  5
86
330
71
100
AcDbEntity
  8
1
100
AcDbLine
 10
2.625
 20
4.5
 30
0.0
 11
3.5
 21
4.5
 31
0.0
  0
LINE
  5
87
330
71
100
AcDbEntity
  8
1
100
AcDbLine
 10
3.5
 20
4.5
 30
0.0
 11
3.499999999999999
 21
1.5
 31
0.0
  0
LINE
  5
88
330
71
100
AcDbEntity
  8
1
100
AcDbLine
 10
3.499999999999999
 20
1.5
 30
0.0
 11
2.624999999999999
 21
1.5
 31
0.0
  0
LINE
  5
89
330
71
100
AcDbEntity
  8
1
100
AcDbLine
 10
7.0
 20
1.5
 30
0.0
 11
7.0
 21
4.5
 31
0.0
  0
LINE
  5
8A
330
71
100
AcDbEntity
  8
1
100
AcDbLine
 10
5.75
 20
1.5
 30
0.0
 11
5.75
 21
4.875
 31
0.0
  0
CIRCLE
  5
8B
330
71
100
AcDbEntity
  8
1
100
AcDbCircle
 10
4.125
 20
0.5
 30
0.0
 40
0.1875
  0
LINE
  5
8C
330
71
100
AcDbEntity
  8
1
100
AcDbLine
 10
2.625
 20
4.625
 30
0.0
 11
2.625
 21
3.709974179311579
 31
0.0
  0
LINE
  5
8D
330
71
100
AcDbEntity
  8
1
100
AcDbLine
 10
2.5
 20
4.625
 30
0.0
 11
2.5
 21
4.344974179311579
 31
0.0
  0
LINE
  5
8E
330
71
100
AcDbEntity
  8
1
100
AcDbLine
 10
2.455
 20
4.389974179311579
 30
0.0
 11
2.544999999999999
 21
4.299974179311579
 31
0.0
  0
LINE
  5
8F
330
71
100
AcDbEntity
  8
1
100
AcDbLine
 10
2.544999999999999
 20
4.299974179311579
 30
0.0
 11
2.455
 21
4.299974179311579
 31
0.0
  0
LINE
  5
90
330
71
100
AcDbEntity
  8
1
100
AcDbLine
 10
2.455
 20
4.299974179311579
 30
0.0
 11
2.544999999999999
 21
4.209974179311579
 31
0.0
  0
LINE
  5
91
330
71
100
AcDbEntity
  8
1
100
AcDbLine
 10
2.512196030826982
 20
4.242778148484597
 30
0.0
 11
2.512196030826982
 21
3.07567852914767
 31
0.0
  0
LINE
  5
92
330
71
100
AcDbEntity
  8
1
100
AcDbLine
 10
2.454999999999999
 20
3.049974179311579
 30
0.0
 11
2.544999999999999
 21
2.959974179311579
 31
0.0
  0
LINE
  5
93
330
71
100
AcDbEntity
  8
1
100
AcDbLine
 10
2.544999999999999
 20
3.049974179311579
 30
0.0
 11
2.454999999999999
 21
3.049974179311579
 31
0.0
  0
LINE
  5
94
330
71
100
AcDbEntity
  8
1
100
AcDbLine
 10
2.454999999999999
 20
3.139974179311579
 30
0.0
 11
2.544999999999999
 21
3.049974179311579
 31
0.0
  0
LINE
  5
95
330
71
100
AcDbEntity
  8
1
100
AcDbLine
 10
2.454999999999999
 20
1.799974179311579
 30
0.0
 11
2.544999999999999
 21
1.709974179311579
 31
0.0
  0
LINE
  5
96
330
71
100
AcDbEntity
  8
1
100
AcDbLine
 10
2.544999999999999
 20
1.799974179311579
 30
0.0
 11
2.454999999999999
 21
1.799974179311579
 31
0.0
  0
LINE
  5
97
330
71
100
AcDbEntity
  8
1
100
AcDbLine
 10
2.454999999999999
 20
1.889974179311579
 30
0.0
 11
2.544999999999999
 21
1.799974179311579
 31
0.0
  0
LINE
  5
98
330
71
100
AcDbEntity
  8
1
100
AcDbLine
 10
2.5
 20
3.004974179311579
 30
0.0
 11
2.5
 21
2.469974179311579
 31
0.0
  0
LINE
  5
99
330
71
100
AcDbEntity
  8
1
100
AcDbLine
 10
2.5
 20
2.469974179311579
 30
0.0
 11
2.499999999999999
 21
1.844974179311579
 31
0.0
  0
LINE
  5
9A
330
71
100
AcDbEntity
  8
1
100
AcDbLine
 10
2.499999999999999
 20
1.754974179311579
 30
0.0
 11
2.499999999999999
 21
1.375
 31
0.0
  0
LINE
  5
9B
330
71
100
AcDbEntity
  8
1
100
AcDbLine
 10
2.579999999999999
 20
2.514974179311579
 30
0.0
 11
2.669999999999999
 21
2.424974179311579
 31
0.0
  0
LINE
  5
9C
330
71
100
AcDbEntity
  8
1
100
AcDbLine
 10
2.669999999999999
 20
2.424974179311579
 30
0.0
 11
2.579999999999999
 21
2.424974179311579
 31
0.0
  0
LINE
  5
9D
330
71
100
AcDbEntity
  8
1
100
AcDbLine
 10
2.579999999999999
 20
2.424974179311579
 30
0.0
 11
2.669999999999999
 21
2.334974179311579
 31
0.0
  0
LINE
  5
9E
330
71
100
AcDbEntity
  8
1
100
AcDbLine
 10
2.58
 20
3.754974179311579
 30
0.0
 11
2.669999999999999
 21
3.664974179311579
 31
0.0
  0
LINE
  5
9F
330
71
100
AcDbEntity
  8
1
100
AcDbLine
 10
2.669999999999999
 20
3.664974179311579
 30
0.0
 11
2.58
 21
3.664974179311579
 31
0.0
  0
LINE
  5
A0
330
71
100
AcDbEntity
  8
1
100
AcDbLine
 10
2.58
 20
3.664974179311579
 30
0.0
 11
2.669999999999999
 21
3.574974179311579
 31
0.0
  0
LINE
  5
A1
330
71
100
AcDbEntity
  8
1
100
AcDbLine
 10
2.625
 20
3.625967704151865
 30
0.0
 11
2.625
 21
2.782474179311579
 31
0.0
  0
LINE
  5
A2
330
71
100
AcDbEntity
  8
1
100
AcDbLine
 10
2.625
 20
2.782474179311579
 30
0.0
 11
2.625
 21
2.469974179311579
 31
0.0
  0
LINE
  5
A3
330
71
100
AcDbEntity
  8
1
100
AcDbLine
 10
2.625
 20
2.379974179311579
 30
0.0
 11
2.624999999999999
 21
1.375
 31
0.0
  0
LINE
  5
A4
330
71
100
AcDbEntity
  8
1
100
AcDbLine
 10
5.75
 20
1.5
 30
0.0
 11
5.937999999999999
 21
1.687999999999999
 31
0.0
  0
LINE
  5
A5
330
71
100
AcDbEntity
  8
1
100
AcDbLine
 10
5.75
 20
1.625
 30
0.0
 11
5.937999999999999
 21
1.812999999999999
 31
0.0
  0
LINE
  5
A6
330
71
100
AcDbEntity
  8
1
100
AcDbLine
 10
5.75
 20
2.0
 30
0.0
 11
5.937999999999999
 21
2.187999999999999
 31
0.0
  0
LINE
  5
A7
330
71
100
AcDbEntity
  8
1
100
AcDbLine
 10
5.75
 20
2.125
 30
0.0
 11
5.937999999999999
 21
2.312999999999999
 31
0.0
  0
LINE
  5
A8
330
71
100
AcDbEntity
  8
1
100
AcDbLine
 10
5.75
 20
2.25
 30
0.0
 11
5.937999999999999
 21
2.437999999999999
 31
0.0
  0
LINE
  5
A9
330
71
100
AcDbEntity
  8
1
100
AcDbLine
 10
5.75
 20
2.375
 30
0.0
 11
5.937999999999999
 21
2.562999999999999
 31
0.0
  0
LINE
  5
AA
330
71
100
AcDbEntity
  8
1
100
AcDbLine
 10
5.75
 20
2.5
 30
0.0
 11
5.937999999999999
 21
2.687999999999999
 31
0.0
  0
LINE
  5
AB
330
71
100
AcDbEntity
  8
1
100
AcDbLine
 10
5.75
 20
2.625
 30
0.0
 11
5.937999999999999
 21
2.812999999999999
 31
0.0
  0
LINE
  5
AC
330
71
100
AcDbEntity
  8
1
100
AcDbLine
 10
5.75
 20
2.75
 30
0.0
 11
5.937999999999999
 21
2.937999999999999
 31
0.0
  0
LINE
  5
AD
330
71
100
AcDbEntity
  8
1
100
AcDbLine
 10
5.75
 20
2.875
 30
0.0
 11
5.937999999999999
 21
3.062999999999999
 31
0.0
  0
LINE
  5
AE
330
71
100
AcDbEntity
  8
1
100
AcDbLine
 10
5.75
 20
3.0
 30
0.0
 11
5.937999999999999
 21
3.187999999999999
 31
0.0
  0
LINE
  5
AF
330
71
100
AcDbEntity
  8
1
100
AcDbLine
 10
5.75
 20
3.125
 30
0.0
 11
5.937999999999999
 21
3.312999999999999
 31
0.0
  0
LINE
  5
B0
330
71
100
AcDbEntity
  8
1
100
AcDbLine
 10
5.75
 20
3.25
 30
0.0
 11
5.937999999999999
 21
3.437999999999999
 31
0.0
  0
LINE
  5
B1
330
71
100
AcDbEntity
  8
1
100
AcDbLine
 10
5.75
 20
3.375
 30
0.0
 11
5.937999999999999
 21
3.562999999999999
 31
0.0
  0
LINE
  5
B2
330
71
100
AcDbEntity
  8
1
100
AcDbLine
 10
5.75
 20
3.5
 30
0.0
 11
5.937999999999999
 21
3.687999999999999
 31
0.0
  0
LINE
  5
B3
330
71
100
AcDbEntity
  8
1
100
AcDbLine
 10
5.75
 20
3.625
 30
0.0
 11
5.937999999999999
 21
3.812999999999999
 31
0.0
  0
LINE
  5
B4
330
71
100
AcDbEntity
  8
1
100
AcDbLine
 10
5.75
 20
3.75
 30
0.0
 11
5.937999999999999
 21
3.937999999999999
 31
0.0
  0
LINE
  5
B5
330
71
100
AcDbEntity
  8
1
100
AcDbLine
 10
5.75
 20
3.875
 30
0.0
 11
5.937999999999999
 21
4.062999999999999
 31
0.0
  0
LINE
  5
B6
330
71
100
AcDbEntity
  8
1
100
AcDbLine
 10
5.75
 20
4.0
 30
0.0
 11
5.937999999999999
 21
4.187999999999999
 31
0.0
  0
LINE
  5
B7
330
71
100
AcDbEntity
  8
1
100
AcDbLine
 10
5.75
 20
4.125
 30
0.0
 11
5.937999999999999
 21
4.312999999999999
 31
0.0
  0
LINE
  5
B8
330
71
100
AcDbEntity
  8
1
100
AcDbLine
 10
5.75
 20
4.25
 30
0.0
 11
5.937999999999999
 21
4.437999999999999
 31
0.0
  0
LINE
  5
B9
330
71
100
AcDbEntity
  8
1
100
AcDbLine
 10
5.75
 20
4.375
 30
0.0
 11
5.937999999999999
 21
4.562999999999999
 31
0.0
  0
LINE
  5
BA
330
71
100
AcDbEntity
  8
1
100
AcDbLine
 10
5.75
 20
4.5
 30
0.0
 11
5.937999999999999
 21
4.687999999999999
 31
0.0
  0
LINE
  5
BB
330
71
100
AcDbEntity
  8
1
100
AcDbLine
 10
5.75
 20
4.625
 30
0.0
 11
5.937999999999999
 21
4.812999999999999
 31
0.0
  0
LINE
  5
BC
330
71
100
AcDbEntity
  8
1
100
AcDbLine
 10
5.75
 20
4.75
 30
0.0
 11
5.875
 21
4.875
 31
0.0
  0
LINE
  5
BD
330
71
100
AcDbEntity
  8
1
100
AcDbLine
 10
5.69
 20
1.5
 30
0.0
 11
5.69
 21
4.5
 31
0.0
  0
LINE
  5
BE
330
71
100
AcDbEntity
  8
4
100
AcDbLine
 10
1.0
 20
1.437999999999999
 30
0.0
 11
0.9999999999999998
 21
0.9379999999999999
 31
0.0
  0
LINE
  5
BF
330
71
100
AcDbEntity
  8
4
100
AcDbLine
 10
3.499999999999999
 20
1.437999999999999
 30
0.0
 11
3.499999999999999
 21
0.9379999999999999
 31
0.0
  0
LINE
  5
C0
330
71
100
AcDbEntity
  8
4
100
AcDbLine
 10
3.499999999999999
 20
1.0
 30
0.0
 11
0.9999999999999998
 21
1.0
 31
0.0
  0
INSERT
  5
C1
330
71
100
AcDbEntity
  8
4
100
AcDbBlockReference
  2
ARRO
 10
0.9999999999999998
 20
1.0
 30
0.0
  0
INSERT
  5
C2
330
71
100
AcDbEntity
  8
4
100
AcDbBlockReference
  2
ARRO
 10
3.499999999999999
 20
0.9999999999999998
 30
0.0
 50
180.0
  0
LINE
  5
C3
330
71
100
AcDbEntity
  8
4
100
AcDbLine
 10
5.0025
 20
1.5
 30
0.0
 11
4.5025
 21
1.5
 31
0.0
  0
LINE
  5
C4
330
71
100
AcDbEntity
  8
4
100
AcDbLine
 10
4.5625
 20
1.5
 30
0.0
 11
4.5625
 21
4.5
 31
0.0
  0
LINE
  5
C5
330
71
100
AcDbEntity
  8
4
100
AcDbLine
 10
5.0025
 20
4.5
 30
0.0
 11
4.5025
 21
4.5
 31
0.0
  0
INSERT
  5
C6
330
71
100
AcDbEntity
  8
4
100
AcDbBlockReference
  2
ARRO
 10
4.5625
 20
4.5
 30
0.0
 50
270.0
  0
INSERT
  5
C7
330
71
100
AcDbEntity
  8
4
100
AcDbBlockReference
  2
ARRO
 10
4.5625
 20
1.5
 30
0.0
 50
90.0
  0
LINE
  5
C8
330
71
100
AcDbEntity
  8
4
100
AcDbLine
 10
5.69
 20
0.9999999999999998
 30
0.0
 11
5.065
 21
0.9999999999999998
 31
0.0
  0
LINE
  5
C9
330
71
100
AcDbEntity
  8
4
100
AcDbLine
 10
5.75
 20
0.9999999999999998
 30
0.0
 11
6.0
 21
0.9999999999999998
 31
0.0
  0
LINE
  5
CA
330
71
100
AcDbEntity
  8
4
100
AcDbLine
 10
6.375
 20
0.9999999999999998
 30
0.0
 11
7.625
 21
0.9999999999999998
 31
0.0
  0
INSERT
  5
CB
330
71
100
AcDbEntity
  8
4
100
AcDbBlockReference
  2
ARRO
 10
5.065
 20
0.9999999999999998
 30
0.0
  0
INSERT
  5
CC
330
71
100
AcDbEntity
  8
4
100
AcDbBlockReference
  2
ARRO
 10
5.69
 20
0.9999999999999998
 30
0.0
 50
180.0
  0
INSERT
  5
CD
330
71
100
AcDbEntity
  8
4
100
AcDbBlockReference
  2
ARRO
 10
5.75
 20
0.9999999999999998
 30
0.0
  0
INSERT
  5
CE
330
71
100
AcDbEntity
  8
4
100
AcDbBlockReference
  2
ARRO
 10
6.375
 20
0.9999999999999998
 30
0.0
  0
INSERT
  5
CF
330
71
100
AcDbEntity
  8
4
100
AcDbBlockReference
  2
ARRO
 10
7.625
 20
0.9999999999999998
 30
0.0
 50
180.0
  0
LINE
  5
D0
330
71
100
AcDbEntity
  8
1
100
AcDbLine
 10
1.062
 20
1.562
 30
0.0
 11
1.062
 21
4.438
 31
0.0
  0
LINE
  5
D1
330
71
100
AcDbEntity
  8
1
100
AcDbLine
 10
1.062
 20
4.438
 30
0.0
 11
1.563
 21
4.438
 31
0.0
  0
LINE
  5
D2
330
71
100
AcDbEntity
  8
1
100
AcDbLine
 10
1.563
 20
4.438
 30
0.0
 11
1.562999999999999
 21
1.562
 31
0.0
  0
LINE
  5
D3
330
71
100
AcDbEntity
  8
1
100
AcDbLine
 10
1.687
 20
1.562
 30
0.0
 11
1.687
 21
4.438
 31
0.0
  0
LINE
  5
D4
330
71
100
AcDbEntity
  8
1
100
AcDbLine
 10
1.687
 20
4.438
 30
0.0
 11
2.188
 21
4.438
 31
0.0
  0
LINE
  5
D5
330
71
100
AcDbEntity
  8
1
100
AcDbLine
 10
2.188
 20
4.438
 30
0.0
 11
2.187999999999999
 21
1.562
 31
0.0
  0
LINE
  5
D6
330
71
100
AcDbEntity
  8
1
100
AcDbLine
 10
2.187999999999999
 20
1.562
 30
0.0
 11
1.687
 21
1.562
 31
0.0
  0
LINE
  5
D7
330
71
100
AcDbEntity
  8
1
100
AcDbLine
 10
2.312
 20
1.562
 30
0.0
 11
2.312
 21
4.438
 31
0.0
  0
LINE
  5
D8
330
71
100
AcDbEntity
  8
1
100
AcDbLine
 10
2.312
 20
4.438
 30
0.0
 11
2.5
 21
4.438
 31
0.0
  0
LINE
  5
D9
330
71
100
AcDbEntity
  8
1
100
AcDbLine
 10
2.813
 20
4.438
 30
0.0
 11
2.812999999999999
 21
1.562
 31
0.0
  0
LINE
  5
DA
330
71
100
AcDbEntity
  8
1
100
AcDbLine
 10
2.812999999999999
 20
1.562
 30
0.0
 11
2.625
 21
1.562
 31
0.0
  0
LINE
  5
DB
330
71
100
AcDbEntity
  8
1
100
AcDbLine
 10
2.937
 20
1.562
 30
0.0
 11
2.937
 21
4.438
 31
0.0
  0
LINE
  5
DC
330
71
100
AcDbEntity
  8
1
100
AcDbLine
 10
2.937
 20
4.438
 30
0.0
 11
3.438
 21
4.438
 31
0.0
  0
LINE
  5
DD
330
71
100
AcDbEntity
  8
1
100
AcDbLine
 10
3.438
 20
4.438
 30
0.0
 11
3.437999999999999
 21
1.562
 31
0.0
  0
LINE
  5
DE
330
71
100
AcDbEntity
  8
1
100
AcDbLine
 10
3.437999999999999
 20
1.562
 30
0.0
 11
2.937
 21
1.562
 31
0.0
  0
LINE
  5
DF
330
71
100
AcDbEntity
  8
1
100
AcDbLine
 10
1.625
 20
1.5
 30
0.0
 11
1.625
 21
4.5
 31
0.0
  0
LINE
  5
E0
330
71
100
AcDbEntity
  8
1
100
AcDbLine
 10
2.25
 20
1.5
 30
0.0
 11
2.25
 21
4.5
 31
0.0
  0
LINE
  5
E1
330
71
100
AcDbEntity
  8
1
100
AcDbLine
 10
2.875
 20
1.5
 30
0.0
 11
2.875
 21
4.5
 31
0.0
  0
LINE
  5
E2
330
71
100
AcDbEntity
  8
1
100
AcDbLine
 10
2.625
 20
4.438
 30
0.0
 11
2.813
 21
4.438
 31
0.0
  0
LINE
  5
E3
330
71
100
AcDbEntity
  8
1
100
AcDbLine
 10
2.499999999999999
 20
1.562
 30
0.0
 11
2.312
 21
1.562
 31
0.0
  0
LINE
  5
E4
330
71
100
AcDbEntity
  8
4
100
AcDbLine
 10
1.9375
 20
4.406
 30
0.0
 11
1.9375
 21
4.531
 31
0.0
  0
CIRCLE
  5
E5
330
71
100
AcDbEntity
  8
4
100
AcDbCircle
 10
1.9375
 20
4.312
 30
0.0
 40
0.094
  0
CIRCLE
  5
E6
330
71
100
AcDbEntity
  8
4
100
AcDbCircle
 10
1.778866710308013
 20
1.373999999999999
 30
0.0
 40
0.094
  0
LINE
  5
E7
330
71
100
AcDbEntity
  8
4
100
AcDbLine
 10
1.778866710308013
 20
1.467999999999999
 30
0.0
 11
1.778866710308013
 21
1.592999999999999
 31
0.0
  0
CIRCLE
  5
E8
330
71
100
AcDbEntity
  8
4
100
AcDbCircle
 10
2.028866710308013
 20
1.373999999999999
 30
0.0
 40
0.094
  0
LINE
  5
E9
330
71
100
AcDbEntity
  8
4
100
AcDbLine
 10
1.872866710308013
 20
1.373999999999999
 30
0.0
 11
1.934866710308013
 21
1.373999999999999
 31
0.0
  0
LINE
  5
EA
330
71
100
AcDbEntity
  8
1
100
AcDbLine
 10
1.062
 20
1.562
 30
0.0
 11
1.562999999999999
 21
1.562
 31
0.0
  0
LINE
  5
EB
330
71
100
AcDbEntity
  8
1
100
AcDbLine
 10
5.203499999999999
 20
4.5
 30
0.0
 11
5.188499999999999
 21
4.484999999999999
 31
0.0
  0
LINE
  5
EC
330
71
100
AcDbEntity
  8
1
100
AcDbLine
 10
5.188499999999999
 20
4.484999999999999
 30
0.0
 11
5.090499999999999
 21
4.484999999999999
 31
0.0
  0
LINE
  5
ED
330
71
100
AcDbEntity
  8
1
100
AcDbLine
 10
5.090499999999999
 20
4.484999999999999
 30
0.0
 11
5.090499999999999
 21
4.456753857562439
 31
0.0
  0
LINE
  5
EE
330
71
100
AcDbEntity
  8
1
100
AcDbLine
 10
5.265499999999999
 20
4.437999999999999
 30
0.0
 11
5.203499999999999
 21
4.5
 31
0.0
  0
LINE
  5
EF
330
71
100
AcDbEntity
  8
1
100
AcDbLine
 10
5.630499999999999
 20
4.437999999999999
 30
0.0
 11
5.265499999999999
 21
4.437999999999999
 31
0.0
  0
LINE
  5
F0
330
71
100
AcDbEntity
  8
1
100
AcDbLine
 10
5.630499999999999
 20
4.5
 30
0.0
 11
5.630499999999999
 21
4.437999999999999
 31
0.0
  0
LINE
  5
F1
330
71
100
AcDbEntity
  8
1
100
AcDbLine
 10
5.670499999999999
 20
4.5
 30
0.0
 11
5.670499999999999
 21
4.437999999999999
 31
0.0
  0
LINE
  5
F2
330
71
100
AcDbEntity
  8
1
100
AcDbLine
 10
5.065499999999999
 20
4.5
 30
0.0
 11
5.173499999999998
 21
4.5
 31
0.0
  0
LINE
  5
F3
330
71
100
AcDbEntity
  8
1
100
AcDbLine
 10
5.065499999999999
 20
4.437999999999999
 30
0.0
 11
5.065499999999999
 21
4.5
 31
0.0
  0
LINE
  5
F4
330
71
100
AcDbEntity
  8
1
100
AcDbLine
 10
5.127499999999999
 20
4.437999999999999
 30
0.0
 11
5.065499999999999
 21
4.437999999999999
 31
0.0
  0
LINE
  5
F5
330
71
100
AcDbEntity
  8
1
100
AcDbLine
 10
5.203499999999999
 20
4.5
 30
0.0
 11
5.670499999999999
 21
4.5
 31
0.0
  0
LINE
  5
F6
330
71
100
AcDbEntity
  8
1
100
AcDbLine
 10
6.513499999999998
 20
4.5
 30
0.0
 11
6.980499999999999
 21
4.5
 31
0.0
  0
LINE
  5
F7
330
71
100
AcDbEntity
  8
1
100
AcDbLine
 10
6.437499999999999
 20
4.437999999999999
 30
0.0
 11
6.375499999999998
 21
4.437999999999999
 31
0.0
  0
LINE
  5
F8
330
71
100
AcDbEntity
  8
1
100
AcDbLine
 10
6.375499999999998
 20
4.437999999999999
 30
0.0
 11
6.375499999999998
 21
4.5
 31
0.0
  0
LINE
  5
F9
330
71
100
AcDbEntity
  8
1
100
AcDbLine
 10
6.375499999999998
 20
4.5
 30
0.0
 11
6.483499999999998
 21
4.5
 31
0.0
  0
LINE
  5
FA
330
71
100
AcDbEntity
  8
1
100
AcDbLine
 10
6.980499999999999
 20
4.5
 30
0.0
 11
6.980499999999999
 21
4.437999999999999
 31
0.0
  0
LINE
  5
FB
330
71
100
AcDbEntity
  8
1
100
AcDbLine
 10
6.940499999999999
 20
4.5
 30
0.0
 11
6.940499999999999
 21
4.437999999999999
 31
0.0
  0
LINE
  5
FC
330
71
100
AcDbEntity
  8
1
100
AcDbLine
 10
6.940499999999999
 20
4.437999999999999
 30
0.0
 11
6.575499999999999
 21
4.437999999999999
 31
0.0
  0
LINE
  5
FD
330
71
100
AcDbEntity
  8
1
100
AcDbLine
 10
6.575499999999999
 20
4.437999999999999
 30
0.0
 11
6.513499999999998
 21
4.5
 31
0.0
  0
LINE
  5
FE
330
71
100
AcDbEntity
  8
1
100
AcDbLine
 10
6.400499999999999
 20
4.484999999999999
 30
0.0
 11
6.400499999999999
 21
4.456753857562439
 31
0.0
  0
LINE
  5
FF
330
71
100
AcDbEntity
  8
1
100
AcDbLine
 10
6.498499999999999
 20
4.484999999999999
 30
0.0
 11
6.400499999999999
 21
4.484999999999999
 31
0.0
  0
LINE
  5
100
330
71
100
AcDbEntity
  8
1
100
AcDbLine
 10
6.513499999999998
 20
4.5
 30
0.0
 11
6.498499999999999
 21
4.484999999999999
 31
0.0
  0
LINE
  5
101
330
71
100
AcDbEntity
  8
1
100
AcDbLine
 10
7.486500000000001
 20
4.5
 30
0.0
 11
7.5015
 21
4.484999999999999
 31
0.0
  0
LINE
  5
102
330
71
100
AcDbEntity
  8
1
100
AcDbLine
 10
7.5015
 20
4.484999999999999
 30
0.0
 11
7.5995
 21
4.484999999999999
 31
0.0
  0
LINE
  5
103
330
71
100
AcDbEntity
  8
1
100
AcDbLine
 10
7.5995
 20
4.484999999999999
 30
0.0
 11
7.5995
 21
4.456753857562439
 31
0.0
  0
LINE
  5
104
330
71
100
AcDbEntity
  8
1
100
AcDbLine
 10
7.4245
 20
4.437999999999999
 30
0.0
 11
7.486500000000001
 21
4.5
 31
0.0
  0
LINE
  5
105
330
71
100
AcDbEntity
  8
1
100
AcDbLine
 10
7.0595
 20
4.437999999999999
 30
0.0
 11
7.4245
 21
4.437999999999999
 31
0.0
  0
LINE
  5
106
330
71
100
AcDbEntity
  8
1
100
AcDbLine
 10
7.0595
 20
4.5
 30
0.0
 11
7.0595
 21
4.437999999999999
 31
0.0
  0
LINE
  5
107
330
71
100
AcDbEntity
  8
1
100
AcDbLine
 10
7.0195
 20
4.5
 30
0.0
 11
7.0195
 21
4.437999999999999
 31
0.0
  0
LINE
  5
108
330
71
100
AcDbEntity
  8
1
100
AcDbLine
 10
7.624500000000001
 20
4.5
 30
0.0
 11
7.516500000000001
 21
4.5
 31
0.0
  0
LINE
  5
109
330
71
100
AcDbEntity
  8
1
100
AcDbLine
 10
7.624500000000001
 20
4.437999999999999
 30
0.0
 11
7.624500000000001
 21
4.5
 31
0.0
  0
LINE
  5
10A
330
71
100
AcDbEntity
  8
1
100
AcDbLine
 10
7.5625
 20
4.437999999999999
 30
0.0
 11
7.624500000000001
 21
4.437999999999999
 31
0.0
  0
LINE
  5
10B
330
71
100
AcDbEntity
  8
1
100
AcDbLine
 10
7.486500000000001
 20
4.5
 30
0.0
 11
7.0195
 21
4.5
 31
0.0
  0
LINE
  5
10C
330
71
100
AcDbEntity
  8
1
100
AcDbLine
 10
7.486500000000001
 20
1.5625
 30
0.0
 11
7.0195
 21
1.5625
 31
0.0
  0
LINE
  5
10D
330
71
100
AcDbEntity
  8
1
100
AcDbLine
 10
7.5625
 20
1.500499999999999
 30
0.0
 11
7.624500000000001
 21
1.500499999999999
 31
0.0
  0
LINE
  5
10E
330
71
100
AcDbEntity
  8
1
100
AcDbLine
 10
7.624500000000001
 20
1.500499999999999
 30
0.0
 11
7.624500000000001
 21
1.5625
 31
0.0
  0
LINE
  5
10F
330
71
100
AcDbEntity
  8
1
100
AcDbLine
 10
7.624500000000001
 20
1.5625
 30
0.0
 11
7.516500000000001
 21
1.5625
 31
0.0
  0
LINE
  5
110
330
71
100
AcDbEntity
  8
1
100
AcDbLine
 10
7.0195
 20
1.5625
 30
0.0
 11
7.0195
 21
1.500499999999999
 31
0.0
  0
LINE
  5
111
330
71
100
AcDbEntity
  8
1
100
AcDbLine
 10
7.0595
 20
1.5625
 30
0.0
 11
7.0595
 21
1.500499999999999
 31
0.0
  0
LINE
  5
112
330
71
100
AcDbEntity
  8
1
100
AcDbLine
 10
7.0595
 20
1.500499999999999
 30
0.0
 11
7.4245
 21
1.500499999999999
 31
0.0
  0
LINE
  5
113
330
71
100
AcDbEntity
  8
1
100
AcDbLine
 10
7.4245
 20
1.500499999999999
 30
0.0
 11
7.486500000000001
 21
1.5625
 31
0.0
  0
LINE
  5
114
330
71
100
AcDbEntity
  8
1
100
AcDbLine
 10
7.5995
 20
1.547499999999999
 30
0.0
 11
7.5995
 21
1.519253857562439
 31
0.0
  0
LINE
  5
115
330
71
100
AcDbEntity
  8
1
100
AcDbLine
 10
7.5015
 20
1.547499999999999
 30
0.0
 11
7.5995
 21
1.547499999999999
 31
0.0
  0
LINE
  5
116
330
71
100
AcDbEntity
  8
1
100
AcDbLine
 10
7.486500000000001
 20
1.5625
 30
0.0
 11
7.5015
 21
1.547499999999999
 31
0.0
  0
LINE
  5
117
330
71
100
AcDbEntity
  8
1
100
AcDbLine
 10
6.513499999999998
 20
1.5625
 30
0.0
 11
6.498499999999999
 21
1.547499999999999
 31
0.0
  0
LINE
  5
118
330
71
100
AcDbEntity
  8
1
100
AcDbLine
 10
6.498499999999999
 20
1.547499999999999
 30
0.0
 11
6.400499999999999
 21
1.547499999999999
 31
0.0
  0
LINE
  5
119
330
71
100
AcDbEntity
  8
1
100
AcDbLine
 10
6.400499999999999
 20
1.547499999999999
 30
0.0
 11
6.400499999999999
 21
1.519253857562439
 31
0.0
  0
LINE
  5
11A
330
71
100
AcDbEntity
  8
1
100
AcDbLine
 10
6.575499999999999
 20
1.500499999999999
 30
0.0
 11
6.513499999999998
 21
1.5625
 31
0.0
  0
LINE
  5
11B
330
71
100
AcDbEntity
  8
1
100
AcDbLine
 10
6.940499999999999
 20
1.500499999999999
 30
0.0
 11
6.575499999999999
 21
1.500499999999999
 31
0.0
  0
LINE
  5
11C
330
71
100
AcDbEntity
  8
1
100
AcDbLine
 10
6.940499999999999
 20
1.5625
 30
0.0
 11
6.940499999999999
 21
1.500499999999999
 31
0.0
  0
LINE
  5
11D
330
71
100
AcDbEntity
  8
1
100
AcDbLine
 10
6.980499999999999
 20
1.5625
 30
0.0
 11
6.980499999999999
 21
1.500499999999999
 31
0.0
  0
LINE
  5
11E
330
71
100
AcDbEntity
  8
1
100
AcDbLine
 10
6.375499999999998
 20
1.5625
 30
0.0
 11
6.483499999999998
 21
1.5625
 31
0.0
  0
LINE
  5
11F
330
71
100
AcDbEntity
  8
1
100
AcDbLine
 10
6.375499999999998
 20
1.500499999999999
 30
0.0
 11
6.375499999999998
 21
1.5625
 31
0.0
  0
LINE
  5
120
330
71
100
AcDbEntity
  8
1
100
AcDbLine
 10
6.437499999999999
 20
1.500499999999999
 30
0.0
 11
6.375499999999998
 21
1.500499999999999
 31
0.0
  0
LINE
  5
121
330
71
100
AcDbEntity
  8
1
100
AcDbLine
 10
6.513499999999998
 20
1.5625
 30
0.0
 11
6.980499999999999
 21
1.5625
 31
0.0
  0
LINE
  5
122
330
71
100
AcDbEntity
  8
1
100
AcDbLine
 10
5.203499999999999
 20
1.5625
 30
0.0
 11
5.670499999999999
 21
1.5625
 31
0.0
  0
LINE
  5
123
330
71
100
AcDbEntity
  8
1
100
AcDbLine
 10
5.127499999999999
 20
1.500499999999999
 30
0.0
 11
5.065499999999999
 21
1.500499999999999
 31
0.0
  0
LINE
  5
124
330
71
100
AcDbEntity
  8
1
100
AcDbLine
 10
5.065499999999999
 20
1.500499999999999
 30
0.0
 11
5.065499999999999
 21
1.5625
 31
0.0
  0
LINE
  5
125
330
71
100
AcDbEntity
  8
1
100
AcDbLine
 10
5.065499999999999
 20
1.5625
 30
0.0
 11
5.173499999999998
 21
1.5625
 31
0.0
  0
LINE
  5
126
330
71
100
AcDbEntity
  8
1
100
AcDbLine
 10
5.670499999999999
 20
1.5625
 30
0.0
 11
5.670499999999999
 21
1.500499999999999
 31
0.0
  0
LINE
  5
127
330
71
100
AcDbEntity
  8
1
100
AcDbLine
 10
5.630499999999999
 20
1.5625
 30
0.0
 11
5.630499999999999
 21
1.500499999999999
 31
0.0
  0
LINE
  5
128
330
71
100
AcDbEntity
  8
1
100
AcDbLine
 10
5.630499999999999
 20
1.500499999999999
 30
0.0
 11
5.265499999999999
 21
1.500499999999999
 31
0.0
  0
LINE
  5
129
330
71
100
AcDbEntity
  8
1
100
AcDbLine
 10
5.265499999999999
 20
1.500499999999999
 30
0.0
 11
5.203499999999999
 21
1.5625
 31
0.0
  0
LINE
  5
12A
330
71
100
AcDbEntity
  8
1
100
AcDbLine
 10
5.090499999999999
 20
1.547499999999999
 30
0.0
 11
5.090499999999999
 21
1.519253857562439
 31
0.0
  0
LINE
  5
12B
330
71
100
AcDbEntity
  8
1
100
AcDbLine
 10
5.188499999999999
 20
1.547499999999999
 30
0.0
 11
5.090499999999999
 21
1.547499999999999
 31
0.0
  0
LINE
  5
12C
330
71
100
AcDbEntity
  8
1
100
AcDbLine
 10
5.203499999999999
 20
1.5625
 30
0.0
 11
5.188499999999999
 21
1.547499999999999
 31
0.0
  0
LINE
  5
12D
330
71
100
AcDbEntity
  8
1
100
AcDbLine
 10
5.75
 20
1.875
 30
0.0
 11
5.937999999999999
 21
2.062999999999999
 31
0.0
  0
LINE
  5
12E
330
71
100
AcDbEntity
  8
1
100
AcDbLine
 10
5.75
 20
1.75
 30
0.0
 11
5.937999999999999
 21
1.937999999999999
 31
0.0
  0
LINE
  5
12F
330
71
100
AcDbEntity
  8
4
100
AcDbLine
 10
5.065
 20
0.9379999999999999
 30
0.0
 11
5.065
 21
1.125999999999999
 31
0.0
  0
LINE
  5
130
330
71
100
AcDbEntity
  8
4
100
AcDbLine
 10
5.69
 20
0.9379999999999999
 30
0.0
 11
5.69
 21
1.125999999999999
 31
0.0
  0
LINE
  5
131
330
71
100
AcDbEntity
  8
4
100
AcDbLine
 10
5.75
 20
0.9379999999999999
 30
0.0
 11
5.75
 21
1.125999999999999
 31
0.0
  0
LINE
  5
132
330
71
100
AcDbEntity
  8
4
100
AcDbLine
 10
6.375
 20
0.9379999999999999
 30
0.0
 11
6.375
 21
1.125999999999999
 31
0.0
  0
LINE
  5
133
330
71
100
AcDbEntity
  8
4
100
AcDbLine
 10
7.625
 20
0.9379999999999999
 30
0.0
 11
7.625
 21
1.125999999999999
 31
0.0
  0
ENDBLK
  5
135
330
71
100
AcDbEntity
  8
0
100
AcDbBlockEnd
  0
BLOCK
  5
15D
330
138
100
AcDbEntity
  8
8
100
AcDbBlockBegin
  2
C1
 70
     0
 10
0.0
 20
0.0
 30
0.0
  3
C1
  1

  0
LINE
  5
139
330
138
100
AcDbEntity
  8
4
100
AcDbLine
 10
0.1989355031708717
 20
-0.1289726723821474
 30
0.0
 11
0.2176855031708715
 21
-0.0914726723821478
 31
0.0
  0
LINE
  5
13A
330
138
100
AcDbEntity
  8
4
100
AcDbLine
 10
0.2176855031708715
 20
-0.0914726723821478
 30
0.0
 11
0.2364355031708714
 21
-0.1289726723821474
 31
0.0
  0
LINE
  5
13B
330
138
100
AcDbEntity
  8
4
100
AcDbLine
 10
0.1989355031708717
 20
-0.1289726723821474
 30
0.0
 11
0.2176855031708715
 21
-0.166472672382147
 31
0.0
  0
LINE
  5
13C
330
138
100
AcDbEntity
  8
4
100
AcDbLine
 10
0.2176855031708715
 20
-0.166472672382147
 30
0.0
 11
0.2364355031708714
 21
-0.1289726723821474
 31
0.0
  0
LINE
  5
13D
330
138
100
AcDbEntity
  8
4
100
AcDbLine
 10
0.2426855031708719
 20
-0.2244726723821468
 30
0.0
 11
0.2614355031708717
 21
-0.1869726723821472
 31
0.0
  0
LINE
  5
13E
330
138
100
AcDbEntity
  8
4
100
AcDbLine
 10
0.2239355031708721
 20
-0.1869726723821472
 30
0.0
 11
0.2426855031708719
 21
-0.2244726723821468
 31
0.0
  0
LINE
  5
13F
330
138
100
AcDbEntity
  8
4
100
AcDbLine
 10
0.2426855031708719
 20
-0.1494726723821476
 30
0.0
 11
0.2614355031708717
 21
-0.1869726723821472
 31
0.0
  0
LINE
  5
140
330
138
100
AcDbEntity
  8
4
100
AcDbLine
 10
0.2239355031708721
 20
-0.1869726723821472
 30
0.0
 11
0.2426855031708719
 21
-0.1494726723821476
 31
0.0
  0
LINE
  5
141
330
138
100
AcDbEntity
  8
4
100
AcDbLine
 10
0.2239355031708712
 20
-0.4313972804095752
 30
0.0
 11
0.242685503170871
 21
-0.3938972804095755
 31
0.0
  0
LINE
  5
142
330
138
100
AcDbEntity
  8
4
100
AcDbLine
 10
0.242685503170871
 20
-0.3938972804095755
 30
0.0
 11
0.2614355031708717
 21
-0.4313972804095752
 31
0.0
  0
LINE
  5
143
330
138
100
AcDbEntity
  8
4
100
AcDbLine
 10
0.2239355031708712
 20
-0.4313972804095752
 30
0.0
 11
0.242685503170871
 21
-0.4688972804095748
 31
0.0
  0
LINE
  5
144
330
138
100
AcDbEntity
  8
4
100
AcDbLine
 10
0.242685503170871
 20
-0.4688972804095748
 30
0.0
 11
0.2614355031708717
 21
-0.4313972804095752
 31
0.0
  0
LINE
  5
145
330
138
100
AcDbEntity
  8
4
100
AcDbLine
 10
0.2176855031708715
 20
-0.410897280409575
 30
0.0
 11
0.2364355031708714
 21
-0.3733972804095753
 31
0.0
  0
LINE
  5
146
330
138
100
AcDbEntity
  8
4
100
AcDbLine
 10
0.1989355031708717
 20
-0.3733972804095753
 30
0.0
 11
0.2176855031708715
 21
-0.410897280409575
 31
0.0
  0
LINE
  5
147
330
138
100
AcDbEntity
  8
4
100
AcDbLine
 10
0.2176855031708715
 20
-0.3358972804095757
 30
0.0
 11
0.2364355031708714
 21
-0.3733972804095753
 31
0.0
  0
LINE
  5
148
330
138
100
AcDbEntity
  8
4
100
AcDbLine
 10
0.1989355031708717
 20
-0.3733972804095753
 30
0.0
 11
0.2176855031708715
 21
-0.3358972804095757
 31
0.0
  0
LINE
  5
149
330
138
100
AcDbEntity
  8
4
100
AcDbLine
 10
0.4489355031708718
 20
-0.3733972804095753
 30
0.0
 11
0.4676855031708716
 21
-0.3358972804095757
 31
0.0
  0
LINE
  5
14A
330
138
100
AcDbEntity
  8
4
100
AcDbLine
 10
0.4676855031708716
 20
-0.3358972804095757
 30
0.0
 11
0.4864355031708714
 21
-0.3733972804095753
 31
0.0
  0
LINE
  5
14B
330
138
100
AcDbEntity
  8
4
100
AcDbLine
 10
0.4489355031708718
 20
-0.3733972804095753
 30
0.0
 11
0.4676855031708716
 21
-0.410897280409575
 31
0.0
  0
LINE
  5
14C
330
138
100
AcDbEntity
  8
4
100
AcDbLine
 10
0.4676855031708716
 20
-0.410897280409575
 30
0.0
 11
0.4864355031708714
 21
-0.3733972804095753
 31
0.0
  0
LINE
  5
14D
330
138
100
AcDbEntity
  8
4
100
AcDbLine
 10
0.492685503170871
 20
-0.4688972804095748
 30
0.0
 11
0.5114355031708718
 21
-0.4313972804095752
 31
0.0
  0
LINE
  5
14E
330
138
100
AcDbEntity
  8
4
100
AcDbLine
 10
0.4739355031708712
 20
-0.4313972804095752
 30
0.0
 11
0.492685503170871
 21
-0.4688972804095748
 31
0.0
  0
LINE
  5
14F
330
138
100
AcDbEntity
  8
4
100
AcDbLine
 10
0.492685503170871
 20
-0.3938972804095755
 30
0.0
 11
0.5114355031708718
 21
-0.4313972804095752
 31
0.0
  0
LINE
  5
150
330
138
100
AcDbEntity
  8
4
100
AcDbLine
 10
0.4739355031708712
 20
-0.4313972804095752
 30
0.0
 11
0.492685503170871
 21
-0.3938972804095755
 31
0.0
  0
LINE
  5
151
330
138
100
AcDbEntity
  8
4
100
AcDbLine
 10
0.4739355031708712
 20
-0.1869726723821472
 30
0.0
 11
0.492685503170871
 21
-0.1494726723821476
 31
0.0
  0
LINE
  5
152
330
138
100
AcDbEntity
  8
4
100
AcDbLine
 10
0.492685503170871
 20
-0.1494726723821476
 30
0.0
 11
0.5114355031708718
 21
-0.1869726723821472
 31
0.0
  0
LINE
  5
153
330
138
100
AcDbEntity
  8
4
100
AcDbLine
 10
0.4739355031708712
 20
-0.1869726723821472
 30
0.0
 11
0.492685503170871
 21
-0.2244726723821468
 31
0.0
  0
LINE
  5
154
330
138
100
AcDbEntity
  8
4
100
AcDbLine
 10
0.492685503170871
 20
-0.2244726723821468
 30
0.0
 11
0.5114355031708718
 21
-0.1869726723821472
 31
0.0
  0
LINE
  5
155
330
138
100
AcDbEntity
  8
4
100
AcDbLine
 10
0.4676855031708716
 20
-0.166472672382147
 30
0.0
 11
0.4864355031708714
 21
-0.1289726723821474
 31
0.0
  0
LINE
  5
156
330
138
100
AcDbEntity
  8
4
100
AcDbLine
 10
0.4489355031708718
 20
-0.1289726723821474
 30
0.0
 11
0.4676855031708716
 21
-0.166472672382147
 31
0.0
  0
LINE
  5
157
330
138
100
AcDbEntity
  8
4
100
AcDbLine
 10
0.4676855031708716
 20
-0.0914726723821478
 30
0.0
 11
0.4864355031708714
 21
-0.1289726723821474
 31
0.0
  0
LINE
  5
158
330
138
100
AcDbEntity
  8
4
100
AcDbLine
 10
0.4489355031708718
 20
-0.1289726723821474
 30
0.0
 11
0.4676855031708716
 21
-0.0914726723821478
 31
0.0
  0
LINE
  5
159
330
138
100
AcDbEntity
  8
2
100
AcDbLine
 10
0.5114355031708718
 20
-0.1869726723821472
 30
0.0
 11
0.5114355031708718
 21
-0.4313972804095752
 31
0.0
  0
LINE
  5
15A
330
138
100
AcDbEntity
  8
2
100
AcDbLine
 10
0.1989355031708717
 20
-0.1289726723821474
 30
0.0
 11
0.1989355031708717
 21
-0.3733972804095753
 31
0.0
  0
LINE
  5
15B
330
138
100
AcDbEntity
  8
2
100
AcDbLine
 10
0.242685503170871
 20
-0.4688972804095748
 30
0.0
 11
0.492685503170871
 21
-0.4688972804095748
 31
0.0
  0
LINE
  5
15C
330
138
100
AcDbEntity
  8
2
100
AcDbLine
 10
0.2176855031708724
 20
-0.0914726723821478
 30
0.0
 11
0.4676855031708716
 21
-0.0914726723821478
 31
0.0
  0
ENDBLK
  5
15E
330
138
100
AcDbEntity
  8
8
100
AcDbBlockEnd
  0
BLOCK
  5
184
330
15F
100
AcDbEntity
  8
8
100
AcDbBlockBegin
  2
C2
 70
     0
 10
0.0
 20
0.0
 30
0.0
  3
C2
  1

  0
LINE
  5
160
330
15F
100
AcDbEntity
  8
4
100
AcDbLine
 10
0.1989355031708717
 20
-0.125404901464337
 30
0.0
 11
0.2176855031708715
 21
-0.0879049014643374
 31
0.0
  0
LINE
  5
161
330
15F
100
AcDbEntity
  8
4
100
AcDbLine
 10
0.2176855031708715
 20
-0.0879049014643374
 30
0.0
 11
0.2364355031708714
 21
-0.125404901464337
 31
0.0
  0
LINE
  5
162
330
15F
100
AcDbEntity
  8
4
100
AcDbLine
 10
0.1989355031708717
 20
-0.125404901464337
 30
0.0
 11
0.2176855031708715
 21
-0.1629049014643367
 31
0.0
  0
LINE
  5
163
330
15F
100
AcDbEntity
  8
4
100
AcDbLine
 10
0.2176855031708715
 20
-0.1629049014643367
 30
0.0
 11
0.2364355031708714
 21
-0.125404901464337
 31
0.0
  0
LINE
  5
164
330
15F
100
AcDbEntity
  8
4
100
AcDbLine
 10
0.2426855031708719
 20
-0.2209049014643365
 30
0.0
 11
0.2614355031708717
 21
-0.1834049014643369
 31
0.0
  0
LINE
  5
165
330
15F
100
AcDbEntity
  8
4
100
AcDbLine
 10
0.2239355031708721
 20
-0.1834049014643369
 30
0.0
 11
0.2426855031708719
 21
-0.2209049014643365
 31
0.0
  0
LINE
  5
166
330
15F
100
AcDbEntity
  8
4
100
AcDbLine
 10
0.2426855031708719
 20
-0.1459049014643372
 30
0.0
 11
0.2614355031708717
 21
-0.1834049014643369
 31
0.0
  0
LINE
  5
167
330
15F
100
AcDbEntity
  8
4
100
AcDbLine
 10
0.2239355031708721
 20
-0.1834049014643369
 30
0.0
 11
0.2426855031708719
 21
-0.1459049014643372
 31
0.0
  0
LINE
  5
168
330
15F
100
AcDbEntity
  8
4
100
AcDbLine
 10
0.2239355031708712
 20
-0.5200127228719458
 30
0.0
 11
0.242685503170871
 21
-0.4825127228719462
 31
0.0
  0
LINE
  5
169
330
15F
100
AcDbEntity
  8
4
100
AcDbLine
 10
0.242685503170871
 20
-0.4825127228719462
 30
0.0
 11
0.2614355031708717
 21
-0.5200127228719458
 31
0.0
  0
LINE
  5
16A
330
15F
100
AcDbEntity
  8
4
100
AcDbLine
 10
0.2239355031708712
 20
-0.5200127228719458
 30
0.0
 11
0.242685503170871
 21
-0.5575127228719455
 31
0.0
  0
LINE
  5
16B
330
15F
100
AcDbEntity
  8
4
100
AcDbLine
 10
0.242685503170871
 20
-0.5575127228719455
 30
0.0
 11
0.2614355031708717
 21
-0.5200127228719458
 31
0.0
  0
LINE
  5
16C
330
15F
100
AcDbEntity
  8
4
100
AcDbLine
 10
0.2176855031708715
 20
-0.4995127228719456
 30
0.0
 11
0.2364355031708714
 21
-0.462012722871946
 31
0.0
  0
LINE
  5
16D
330
15F
100
AcDbEntity
  8
4
100
AcDbLine
 10
0.1989355031708717
 20
-0.462012722871946
 30
0.0
 11
0.2176855031708715
 21
-0.4995127228719456
 31
0.0
  0
LINE
  5
16E
330
15F
100
AcDbEntity
  8
4
100
AcDbLine
 10
0.2176855031708715
 20
-0.4245127228719463
 30
0.0
 11
0.2364355031708714
 21
-0.462012722871946
 31
0.0
  0
LINE
  5
16F
330
15F
100
AcDbEntity
  8
4
100
AcDbLine
 10
0.1989355031708717
 20
-0.462012722871946
 30
0.0
 11
0.2176855031708715
 21
-0.4245127228719463
 31
0.0
  0
LINE
  5
170
330
15F
100
AcDbEntity
  8
4
100
AcDbLine
 10
0.4489355031708718
 20
-0.462012722871946
 30
0.0
 11
0.4676855031708716
 21
-0.4245127228719463
 31
0.0
  0
LINE
  5
171
330
15F
100
AcDbEntity
  8
4
100
AcDbLine
 10
0.4676855031708716
 20
-0.4245127228719463
 30
0.0
 11
0.4864355031708714
 21
-0.462012722871946
 31
0.0
  0
LINE
  5
172
330
15F
100
AcDbEntity
  8
4
100
AcDbLine
 10
0.4489355031708718
 20
-0.462012722871946
 30
0.0
 11
0.4676855031708716
 21
-0.4995127228719456
 31
0.0
  0
LINE
  5
173
330
15F
100
AcDbEntity
  8
4
100
AcDbLine
 10
0.4676855031708716
 20
-0.4995127228719456
 30
0.0
 11
0.4864355031708714
 21
-0.462012722871946
 31
0.0
  0
LINE
  5
174
330
15F
100
AcDbEntity
  8
4
100
AcDbLine
 10
0.492685503170871
 20
-0.5575127228719455
 30
0.0
 11
0.5114355031708718
 21
-0.5200127228719458
 31
0.0
  0
LINE
  5
175
330
15F
100
AcDbEntity
  8
4
100
AcDbLine
 10
0.4739355031708712
 20
-0.5200127228719458
 30
0.0
 11
0.492685503170871
 21
-0.5575127228719455
 31
0.0
  0
LINE
  5
176
330
15F
100
AcDbEntity
  8
4
100
AcDbLine
 10
0.492685503170871
 20
-0.4825127228719462
 30
0.0
 11
0.5114355031708718
 21
-0.5200127228719458
 31
0.0
  0
LINE
  5
177
330
15F
100
AcDbEntity
  8
4
100
AcDbLine
 10
0.4739355031708712
 20
-0.5200127228719458
 30
0.0
 11
0.492685503170871
 21
-0.4825127228719462
 31
0.0
  0
LINE
  5
178
330
15F
100
AcDbEntity
  8
4
100
AcDbLine
 10
0.4739355031708712
 20
-0.1834049014643369
 30
0.0
 11
0.492685503170871
 21
-0.1459049014643372
 31
0.0
  0
LINE
  5
179
330
15F
100
AcDbEntity
  8
4
100
AcDbLine
 10
0.492685503170871
 20
-0.1459049014643372
 30
0.0
 11
0.5114355031708718
 21
-0.1834049014643369
 31
0.0
  0
LINE
  5
17A
330
15F
100
AcDbEntity
  8
4
100
AcDbLine
 10
0.4739355031708712
 20
-0.1834049014643369
 30
0.0
 11
0.492685503170871
 21
-0.2209049014643365
 31
0.0
  0
LINE
  5
17B
330
15F
100
AcDbEntity
  8
4
100
AcDbLine
 10
0.492685503170871
 20
-0.2209049014643365
 30
0.0
 11
0.5114355031708718
 21
-0.1834049014643369
 31
0.0
  0
LINE
  5
17C
330
15F
100
AcDbEntity
  8
4
100
AcDbLine
 10
0.4676855031708716
 20
-0.1629049014643367
 30
0.0
 11
0.4864355031708714
 21
-0.125404901464337
 31
0.0
  0
LINE
  5
17D
330
15F
100
AcDbEntity
  8
4
100
AcDbLine
 10
0.4489355031708718
 20
-0.125404901464337
 30
0.0
 11
0.4676855031708716
 21
-0.1629049014643367
 31
0.0
  0
LINE
  5
17E
330
15F
100
AcDbEntity
  8
4
100
AcDbLine
 10
0.4676855031708716
 20
-0.0879049014643374
 30
0.0
 11
0.4864355031708714
 21
-0.125404901464337
 31
0.0
  0
LINE
  5
17F
330
15F
100
AcDbEntity
  8
4
100
AcDbLine
 10
0.4489355031708718
 20
-0.125404901464337
 30
0.0
 11
0.4676855031708716
 21
-0.0879049014643374
 31
0.0
  0
LINE
  5
180
330
15F
100
AcDbEntity
  8
2
100
AcDbLine
 10
0.5114355031708718
 20
-0.1834049014643369
 30
0.0
 11
0.5114355031708718
 21
-0.5200127228719458
 31
0.0
  0
LINE
  5
181
330
15F
100
AcDbEntity
  8
2
100
AcDbLine
 10
0.1989355031708717
 20
-0.125404901464337
 30
0.0
 11
0.1989355031708717
 21
-0.462012722871946
 31
0.0
  0
LINE
  5
182
330
15F
100
AcDbEntity
  8
2
100
AcDbLine
 10
0.242685503170871
 20
-0.5575127228719455
 30
0.0
 11
0.492685503170871
 21
-0.5575127228719455
 31
0.0
  0
LINE
  5
183
330
15F
100
AcDbEntity
  8
2
100
AcDbLine
 10
0.2176855031708724
 20
-0.0879049014643365
 30
0.0
 11
0.4676855031708716
 21
-0.0879049014643374
 31
0.0
  0
ENDBLK
  5
185
330
15F
100
AcDbEntity
  8
8
100
AcDbBlockEnd
  0
BLOCK
  5
189
330
186
100
AcDbEntity
  8
8
100
AcDbBlockBegin
  2
TEMP3
 70
     0
 10
0.0
 20
0.0
 30
0.0
  3
TEMP3
  1

  0
TEXT
  5
187
330
186
100
AcDbEntity
  8
8
100
AcDbText
 10
0.03
 20
0.0619999999999998
 30
0.0
 40
0.07
  1
HANDLE & P/A
 50
90.0
  7
ROMANS
100
AcDbText
  0
TEXT
  5
188
330
186
100
AcDbEntity
  8
8
100
AcDbText
 10
0.03
 20
-1.33310960351371
 30
0.0
 40
0.07
  1
LOCK ESCUTCHEON
 50
90.0
  7
ROMANS
 72
     2
 11
0.03
 21
-0.3264429368470441
 31
0.0
100
AcDbText
  0
ENDBLK
  5
18A
330
186
100
AcDbEntity
  8
8
100
AcDbBlockEnd
  0
BLOCK
  5
415
330
18B
100
AcDbEntity
  8
0
100
AcDbBlockBegin
  2
SPL2ATHLETIC4H
 70
     0
 10
0.0
 20
0.0
 30
0.0
  3
SPL2ATHLETIC4H
  1

  4
SPL2 ATHLETIC 4H BOX LOCKER
  0
TEXT
  5
18C
330
18B
100
AcDbEntity
  8
8
100
AcDbText
 10
1.485119047619047
 20
0.0939853021874995
 30
0.0
 40
0.125
  1
SINGLE POINT 2 ATHLETIC LOCKER - FOUR HIGH BOX
  7
ROMANS
 72
     1
 11
4.125
 21
0.0939853021874995
 31
0.0
100
AcDbText
  0
LINE
  5
18D
330
18B
100
AcDbEntity
  8
4
100
AcDbLine
 10
1.094
 20
2.305
 30
0.0
 11
1.094
 21
2.9839853021875
 31
0.0
  0
LINE
  5
18E
330
18B
100
AcDbEntity
  8
4
100
AcDbLine
 10
1.531
 20
2.822946882500001
 30
0.0
 11
1.531
 21
2.4660678153125
 31
0.0
  0
LINE
  5
18F
330
18B
100
AcDbEntity
  8
2
100
AcDbLine
 10
1.3656765346876
 20
2.882731751875001
 30
0.0
 11
1.3656765346876
 21
2.399572399375
 31
0.0
  0
LINE
  5
190
330
18B
100
AcDbEntity
  8
2
100
AcDbLine
 10
1.468164882187401
 20
2.372730213125
 30
0.0
 11
1.468164882187401
 21
2.855889565625
 31
0.0
  0
INSERT
  5
191
330
18B
100
AcDbEntity
  8
8
100
AcDbBlockReference
  2
TEMP3
 10
0.6127187804394048
 20
3.47225158267503
 30
0.0
  0
POINT
  5
192
330
18B
100
AcDbEntity
  8
4
100
AcDbPoint
 10
0.0
 20
0.0
 30
0.0
  0
LINE
  5
193
330
18B
100
AcDbEntity
  8
4
100
AcDbLine
 10
1.525509552812501
 20
2.1119468825
 30
0.0
 11
1.525509552812501
 21
2.193693540625
 31
0.0
  0
LINE
  5
194
330
18B
100
AcDbEntity
  8
4
100
AcDbLine
 10
1.531
 20
2.193693540625
 30
0.0
 11
1.531
 21
2.1119468825
 31
0.0
  0
LINE
  5
195
330
18B
100
AcDbEntity
  8
4
100
AcDbLine
 10
1.094
 20
1.594
 30
0.0
 11
1.094
 21
2.2729853021875
 31
0.0
  0
LINE
  5
196
330
18B
100
AcDbEntity
  8
2
100
AcDbLine
 10
1.3656765346876
 20
2.171731751875
 30
0.0
 11
1.3656765346876
 21
1.688572399375
 31
0.0
  0
LINE
  5
197
330
18B
100
AcDbEntity
  8
2
100
AcDbLine
 10
1.468164882187401
 20
1.661730213125
 30
0.0
 11
1.468164882187401
 21
2.144889565625
 31
0.0
  0
LINE
  5
198
330
18B
100
AcDbEntity
  8
4
100
AcDbLine
 10
1.531
 20
1.5940146978125
 30
0.0
 11
1.094
 21
1.594
 31
0.0
  0
LINE
  5
199
330
18B
100
AcDbEntity
  8
4
100
AcDbLine
 10
1.531
 20
1.5940146978125
 30
0.0
 11
1.094
 21
1.594
 31
0.0
  0
LINE
  5
19A
330
18B
100
AcDbEntity
  8
4
100
AcDbLine
 10
1.103846388354273
 20
2.016462972665414
 30
0.0
 11
1.113974194213721
 21
1.854418078914272
 31
0.0
  0
ARC
  5
19B
330
18B
100
AcDbEntity
  8
4
100
AcDbCircle
 10
1.133071748207654
 20
2.01828955765625
 30
0.0
 40
0.029282385
100
AcDbArc
 50
90.0
 51
183.5763343749981
  0
LINE
  5
19C
330
18B
100
AcDbEntity
  8
4
100
AcDbLine
 10
1.531
 20
2.1119468825
 30
0.0
 11
1.531
 21
1.7550678153125
 31
0.0
  0
ARC
  5
19D
330
18B
100
AcDbEntity
  8
2
100
AcDbCircle
 10
1.4596241865625
 20
1.678811604375
 30
0.0
 40
0.001220099375
100
AcDbArc
 50
23.19861971166717
 51
156.8013802883115
  0
ARC
  5
19E
330
18B
100
AcDbEntity
  8
2
100
AcDbCircle
 10
1.4596241865625
 20
1.644648821874999
 30
0.0
 40
0.001220099375
100
AcDbArc
 50
203.1986197116884
 51
336.8013802883329
  0
LINE
  5
19F
330
18B
100
AcDbEntity
  8
2
100
AcDbLine
 10
1.373095782280766
 20
1.706134411886487
 30
0.0
 11
1.365775195501393
 21
1.689053066776129
 31
0.0
  0
LINE
  5
1A0
330
18B
100
AcDbEntity
  8
2
100
AcDbLine
 10
1.373095782280766
 20
1.671010386863509
 30
0.0
 11
1.365775195501393
 21
1.688091731973871
 31
0.0
  0
ARC
  5
1A1
330
18B
100
AcDbEntity
  8
2
100
AcDbCircle
 10
1.36689675119214
 20
1.688572399375
 30
0.0
 40
0.00122021650454
100
AcDbArc
 50
156.8013802883257
 51
203.1986197116743
  0
ARC
  5
1A2
330
18B
100
AcDbEntity
  8
2
100
AcDbCircle
 10
1.3742172303125
 20
1.705653790624999
 30
0.0
 40
0.001220099375
100
AcDbArc
 50
23.19861971166717
 51
156.8013802883115
  0
ARC
  5
1A3
330
18B
100
AcDbEntity
  8
2
100
AcDbCircle
 10
1.3742172303125
 20
1.671491008125
 30
0.0
 40
0.001220099375
100
AcDbArc
 50
203.1986197116884
 51
336.8013802883329
  0
LINE
  5
1A4
330
18B
100
AcDbEntity
  8
2
100
AcDbLine
 10
1.387539672094234
 20
1.644168200613509
 30
0.0
 11
1.394860258873606
 21
1.661249545723871
 31
0.0
  0
LINE
  5
1A5
330
18B
100
AcDbEntity
  8
2
100
AcDbLine
 10
1.387539672094234
 20
1.679292225636487
 30
0.0
 11
1.394860258873606
 21
1.662210880526129
 31
0.0
  0
ARC
  5
1A6
330
18B
100
AcDbEntity
  8
2
100
AcDbCircle
 10
1.39373870318286
 20
1.661730213125
 30
0.0
 40
0.00122021650454
100
AcDbArc
 50
336.8013802883256
 51
23.19861971167427
  0
ARC
  5
1A7
330
18B
100
AcDbEntity
  8
2
100
AcDbCircle
 10
1.38153770943286
 20
1.688572399375
 30
0.0
 40
0.00122021650454
100
AcDbArc
 50
336.8013802883256
 51
23.19861971167427
  0
ARC
  5
1A8
330
18B
100
AcDbEntity
  8
2
100
AcDbCircle
 10
1.3864182240625
 20
1.678811604375
 30
0.0
 40
0.001220099375
100
AcDbArc
 50
23.19861971166717
 51
156.8013802883115
  0
ARC
  5
1A9
330
18B
100
AcDbEntity
  8
2
100
AcDbCircle
 10
1.3864182240625
 20
1.644648821874999
 30
0.0
 40
0.001220099375
100
AcDbArc
 50
203.1986197116884
 51
336.8013802883329
  0
ARC
  5
1AA
330
18B
100
AcDbEntity
  8
2
100
AcDbCircle
 10
1.379097744942139
 20
1.661730213125
 30
0.0
 40
0.00122021650454
100
AcDbArc
 50
156.8013802883257
 51
203.1986197116743
  0
LINE
  5
1AB
330
18B
100
AcDbEntity
  8
2
100
AcDbLine
 10
1.385296776030767
 20
1.644168200613509
 30
0.0
 11
1.377976189251393
 21
1.661249545723871
 31
0.0
  0
LINE
  5
1AC
330
18B
100
AcDbEntity
  8
2
100
AcDbLine
 10
1.375338678344234
 20
1.706134411886487
 30
0.0
 11
1.382659265123606
 21
1.689053066776129
 31
0.0
  0
LINE
  5
1AD
330
18B
100
AcDbEntity
  8
2
100
AcDbLine
 10
1.375338678344234
 20
1.671010386863509
 30
0.0
 11
1.382659265123606
 21
1.688091731973871
 31
0.0
  0
LINE
  5
1AE
330
18B
100
AcDbEntity
  8
2
100
AcDbLine
 10
1.385296776030767
 20
1.679292225636487
 30
0.0
 11
1.377976189251393
 21
1.662210880526129
 31
0.0
  0
ARC
  5
1AF
330
18B
100
AcDbEntity
  8
2
100
AcDbCircle
 10
1.454743671932861
 20
1.688572399375
 30
0.0
 40
0.00122021650454
100
AcDbArc
 50
336.8013802883256
 51
23.19861971167427
  0
ARC
  5
1B0
330
18B
100
AcDbEntity
  8
2
100
AcDbCircle
 10
1.45230370744214
 20
1.661730213125
 30
0.0
 40
0.00122021650454
100
AcDbArc
 50
156.8013802883257
 51
203.1986197116743
  0
LINE
  5
1B1
330
18B
100
AcDbEntity
  8
2
100
AcDbLine
 10
1.458502738530766
 20
1.644168200613509
 30
0.0
 11
1.451182151751393
 21
1.661249545723871
 31
0.0
  0
LINE
  5
1B2
330
18B
100
AcDbEntity
  8
2
100
AcDbLine
 10
1.448544640844234
 20
1.706134411886487
 30
0.0
 11
1.455865227623606
 21
1.689053066776129
 31
0.0
  0
LINE
  5
1B3
330
18B
100
AcDbEntity
  8
2
100
AcDbLine
 10
1.448544640844234
 20
1.671010386863509
 30
0.0
 11
1.455865227623606
 21
1.688091731973871
 31
0.0
  0
LINE
  5
1B4
330
18B
100
AcDbEntity
  8
2
100
AcDbLine
 10
1.458502738530766
 20
1.679292225636487
 30
0.0
 11
1.451182151751393
 21
1.662210880526129
 31
0.0
  0
ARC
  5
1B5
330
18B
100
AcDbEntity
  8
2
100
AcDbCircle
 10
1.440102713692139
 20
1.688572399375
 30
0.0
 40
0.00122021650454
100
AcDbArc
 50
156.8013802883257
 51
203.1986197116743
  0
LINE
  5
1B6
330
18B
100
AcDbEntity
  8
2
100
AcDbLine
 10
1.446301744780766
 20
1.706134411886487
 30
0.0
 11
1.438981158001393
 21
1.689053066776129
 31
0.0
  0
LINE
  5
1B7
330
18B
100
AcDbEntity
  8
2
100
AcDbLine
 10
1.446301744780766
 20
1.671010386863509
 30
0.0
 11
1.438981158001393
 21
1.688091731973871
 31
0.0
  0
ARC
  5
1B8
330
18B
100
AcDbEntity
  8
2
100
AcDbCircle
 10
1.4474231928125
 20
1.705653790624999
 30
0.0
 40
0.001220099375
100
AcDbArc
 50
23.19861971166717
 51
156.8013802883115
  0
ARC
  5
1B9
330
18B
100
AcDbEntity
  8
2
100
AcDbCircle
 10
1.4474231928125
 20
1.671491008125
 30
0.0
 40
0.001220099375
100
AcDbArc
 50
203.1986197116884
 51
336.8013802883329
  0
LINE
  5
1BA
330
18B
100
AcDbEntity
  8
2
100
AcDbLine
 10
1.3864182240625
 20
1.6434287225
 30
0.0
 11
1.4596241865625
 21
1.6434287225
 31
0.0
  0
LINE
  5
1BB
330
18B
100
AcDbEntity
  8
4
100
AcDbLine
 10
1.531
 20
1.7550678153125
 30
0.0
 11
1.525509552812501
 21
1.7550678153125
 31
0.0
  0
LINE
  5
1BC
330
18B
100
AcDbEntity
  8
2
100
AcDbLine
 10
1.460745634594234
 20
1.644168200613509
 30
0.0
 11
1.468066221373606
 21
1.661249545723871
 31
0.0
  0
LINE
  5
1BD
330
18B
100
AcDbEntity
  8
2
100
AcDbLine
 10
1.460745634594234
 20
1.679292225636487
 30
0.0
 11
1.468066221373606
 21
1.662210880526129
 31
0.0
  0
ARC
  5
1BE
330
18B
100
AcDbEntity
  8
2
100
AcDbCircle
 10
1.466944665682861
 20
1.661730213125
 30
0.0
 40
0.00122021650454
100
AcDbArc
 50
336.8013802883256
 51
23.19861971167427
  0
LINE
  5
1BF
330
18B
100
AcDbEntity
  8
4
100
AcDbLine
 10
1.531
 20
1.6733211571875
 30
0.0
 11
1.531
 21
1.5940146978125
 31
0.0
  0
LINE
  5
1C0
330
18B
100
AcDbEntity
  8
4
  6
CENTER
100
AcDbLine
 10
1.533171622845591
 20
1.71419448625
 30
0.0
 11
1.541600664182292
 21
1.71419448625
 31
0.0
  0
LINE
  5
1C1
330
18B
100
AcDbEntity
  8
4
100
AcDbLine
 10
1.526894684830344
 20
1.71419448625
 30
0.0
 11
1.529315782192449
 21
1.71419448625
 31
0.0
  0
LINE
  5
1C2
330
18B
100
AcDbEntity
  8
4
100
AcDbLine
 10
1.525509552812501
 20
1.6733211571875
 30
0.0
 11
1.531
 21
1.6733211571875
 31
0.0
  0
LINE
  5
1C3
330
18B
100
AcDbEntity
  8
4
  6
CENTER
100
AcDbLine
 10
1.514968488663262
 20
1.71419448625
 30
0.0
 11
1.522859495458277
 21
1.71419448625
 31
0.0
  0
LINE
  5
1C4
330
18B
100
AcDbEntity
  8
4
100
AcDbLine
 10
1.525509552812501
 20
1.7550678153125
 30
0.0
 11
1.525509552812501
 21
1.6733211571875
 31
0.0
  0
LINE
  5
1C5
330
18B
100
AcDbEntity
  8
4
100
AcDbLine
 10
1.531
 20
1.6733211571875
 30
0.0
 11
1.531
 21
1.7550678153125
 31
0.0
  0
CIRCLE
  5
1C6
330
18B
100
AcDbEntity
  8
4
100
AcDbCircle
 10
1.185507453125
 20
1.933492651093749
 30
0.0
 40
0.0128110434375
  0
LINE
  5
1C7
330
18B
100
AcDbEntity
  8
4
100
AcDbLine
 10
1.119088144895451
 20
2.007311039329027
 30
0.0
 11
1.127334725359051
 21
1.875365751911441
 31
0.0
  0
LINE
  5
1C8
330
18B
100
AcDbEntity
  8
4
100
AcDbLine
 10
1.267168517895726
 20
2.016462972665414
 30
0.0
 11
1.25704071203628
 21
1.854418078914272
 31
0.0
  0
LINE
  5
1C9
330
18B
100
AcDbEntity
  8
4
100
AcDbLine
 10
1.251926761354549
 20
2.007311039329027
 30
0.0
 11
1.243680180890949
 21
1.875384134109027
 31
0.0
  0
LINE
  5
1CA
330
18B
100
AcDbEntity
  8
4
100
AcDbLine
 10
1.185507453125
 20
1.830394253906249
 30
0.0
 11
1.231468522164573
 21
1.830394253906249
 31
0.0
  0
ARC
  5
1CB
330
18B
100
AcDbEntity
  8
4
100
AcDbCircle
 10
1.224196607655363
 20
1.876601857436253
 30
0.0
 40
0.01952159
100
AcDbArc
 50
270.0
 51
356.4236656250017
  0
ARC
  5
1CC
330
18B
100
AcDbEntity
  8
4
100
AcDbCircle
 10
1.146818298594636
 20
1.876601857436253
 30
0.0
 40
0.01952159
100
AcDbArc
 50
183.5763343749981
 51
270.0
  0
LINE
  5
1CD
330
18B
100
AcDbEntity
  8
4
100
AcDbLine
 10
1.185507453125
 20
1.830394253906249
 30
0.0
 11
1.139546384085427
 21
1.830394253906249
 31
0.0
  0
ARC
  5
1CE
330
18B
100
AcDbEntity
  8
4
100
AcDbCircle
 10
1.139546384085427
 20
1.856016340781249
 30
0.0
 40
0.025622086875
100
AcDbArc
 50
183.5763343749981
 51
270.0
  0
LINE
  5
1CF
330
18B
100
AcDbEntity
  8
4
100
AcDbLine
 10
1.185507453125
 20
1.857080267436249
 30
0.0
 11
1.224196607655363
 21
1.857080267436254
 31
0.0
  0
CIRCLE
  5
1D0
330
18B
100
AcDbEntity
  8
4
100
AcDbCircle
 10
1.185507453125
 20
1.841375148281253
 30
0.0
 40
0.007023868082
  0
LINE
  5
1D1
330
18B
100
AcDbEntity
  8
4
100
AcDbLine
 10
1.185507453125
 20
1.857080267436249
 30
0.0
 11
1.146818298594636
 21
1.857080267436254
 31
0.0
  0
CIRCLE
  5
1D2
330
18B
100
AcDbEntity
  8
4
100
AcDbCircle
 10
1.185507453125
 20
1.890818455353751
 30
0.0
 40
0.00425570662
  0
ARC
  5
1D3
330
18B
100
AcDbEntity
  8
4
100
AcDbCircle
 10
1.231468522164573
 20
1.856016340781249
 30
0.0
 40
0.025622086875
100
AcDbArc
 50
270.0
 51
356.4236656250017
  0
LINE
  5
1D4
330
18B
100
AcDbEntity
  8
4
100
AcDbLine
 10
1.185507453125
 20
2.02805035265625
 30
0.0
 11
1.232443188118963
 21
2.02805035265625
 31
0.0
  0
LINE
  5
1D5
330
18B
100
AcDbEntity
  8
4
100
AcDbLine
 10
1.185507453125
 20
2.04757194265625
 30
0.0
 11
1.237943158042347
 21
2.04757194265625
 31
0.0
  0
LINE
  5
1D6
330
18B
100
AcDbEntity
  8
4
 62
   130
100
AcDbLine
 10
1.143933307552268
 20
2.013312966528111
 30
0.0
 11
1.164665236132268
 21
1.992581037948113
 31
0.0
  0
LINE
  5
1D7
330
18B
100
AcDbEntity
  8
4
100
AcDbLine
 10
1.13707276529414
 20
2.008137945927702
 30
0.0
 11
1.159490215531855
 21
1.985720495689988
 31
0.0
  0
LINE
  5
1D8
330
18B
100
AcDbEntity
  8
4
100
AcDbLine
 10
1.140523727461276
 20
2.011588908094838
 30
0.0
 11
1.16294117769899
 21
1.989171457857124
 31
0.0
  0
LINE
  5
1D9
330
18B
100
AcDbEntity
  8
4
 62
   130
100
AcDbLine
 10
1.135319705983096
 20
2.004699364958943
 30
0.0
 11
1.156051634563096
 21
1.98396743637894
 31
0.0
  0
LINE
  5
1DA
330
18B
100
AcDbEntity
  8
4
100
AcDbLine
 10
1.185507453125
 20
2.04757194265625
 30
0.0
 11
1.133071748207654
 21
2.04757194265625
 31
0.0
  0
LINE
  5
1DB
330
18B
100
AcDbEntity
  8
4
100
AcDbLine
 10
1.185507453125
 20
2.02805035265625
 30
0.0
 11
1.138571718131037
 21
2.02805035265625
 31
0.0
  0
LINE
  5
1DC
330
18B
100
AcDbEntity
  8
4
100
AcDbLine
 10
1.140523727461276
 20
2.011588908094838
 30
0.0
 11
1.13707276529414
 21
2.008137945927702
 31
0.0
  0
ARC
  5
1DD
330
18B
100
AcDbEntity
  8
4
 62
   130
100
AcDbCircle
 10
1.139626506767683
 20
2.009006165743527
 30
0.0
 40
0.00609073608
100
AcDbArc
 50
45.00000000000031
 51
225.0000000000003
  0
ARC
  5
1DE
330
18B
100
AcDbEntity
  8
4
100
AcDbCircle
 10
1.138571718131037
 20
2.00852876265625
 30
0.0
 40
0.01952159
100
AcDbArc
 50
90.0
 51
183.5763343749981
  0
LINE
  5
1DF
330
18B
100
AcDbEntity
  8
4
100
AcDbLine
 10
1.145713974560648
 20
2.006398660995469
 30
0.0
 11
1.142263012393512
 21
2.002947698828332
 31
0.0
  0
ARC
  5
1E0
330
18B
100
AcDbEntity
  8
4
 62
   130
100
AcDbCircle
 10
1.160358435347683
 20
1.988274237163529
 30
0.0
 40
0.00609073608
100
AcDbArc
 50
225.0000000000003
 51
45.00000000000031
  0
LINE
  5
1E1
330
18B
100
AcDbEntity
  8
4
100
AcDbLine
 10
1.157750930599618
 20
1.994361704956497
 30
0.0
 11
1.154299968432482
 21
1.99091074278936
 31
0.0
  0
LINE
  5
1E2
330
18B
100
AcDbEntity
  8
4
100
AcDbLine
 10
1.159490215531855
 20
1.985720495689988
 30
0.0
 11
1.16294117769899
 21
1.989171457857124
 31
0.0
  0
CIRCLE
  5
1E3
330
18B
100
AcDbEntity
  8
4
100
AcDbCircle
 10
1.185507453125
 20
1.976166846833753
 30
0.0
 40
0.00425570662
  0
ARC
  5
1E4
330
18B
100
AcDbEntity
  8
4
100
AcDbCircle
 10
1.232443188118963
 20
2.00852876265625
 30
0.0
 40
0.01952159
100
AcDbArc
 50
356.4236656250017
 51
90.0
  0
ARC
  5
1E5
330
18B
100
AcDbEntity
  8
4
100
AcDbCircle
 10
1.237943158042347
 20
2.01828955765625
 30
0.0
 40
0.029282385
100
AcDbArc
 50
356.4236656250017
 51
90.0
  0
LINE
  5
1E6
330
18B
100
AcDbEntity
  8
4
100
AcDbLine
 10
1.531
 20
2.1119468825
 30
0.0
 11
1.525509552812501
 21
2.1119468825
 31
0.0
  0
LINE
  5
1E7
330
18B
100
AcDbEntity
  8
4
100
AcDbLine
 10
1.531
 20
2.273
 30
0.0
 11
1.094
 21
2.2729853021875
 31
0.0
  0
LINE
  5
1E8
330
18B
100
AcDbEntity
  8
4
100
AcDbLine
 10
1.531
 20
2.305014697812501
 30
0.0
 11
1.094
 21
2.305
 31
0.0
  0
LINE
  5
1E9
330
18B
100
AcDbEntity
  8
4
100
AcDbLine
 10
1.531
 20
2.305014697812501
 30
0.0
 11
1.094
 21
2.305
 31
0.0
  0
LINE
  5
1EA
330
18B
100
AcDbEntity
  8
4
100
AcDbLine
 10
1.103846388354273
 20
2.727462972665414
 30
0.0
 11
1.113974194213721
 21
2.565418078914272
 31
0.0
  0
ARC
  5
1EB
330
18B
100
AcDbEntity
  8
4
100
AcDbCircle
 10
1.133071748207654
 20
2.72928955765625
 30
0.0
 40
0.029282385
100
AcDbArc
 50
90.0
 51
183.5763343749981
  0
LINE
  5
1EC
330
18B
100
AcDbEntity
  8
4
100
AcDbLine
 10
1.525509552812501
 20
2.4660678153125
 30
0.0
 11
1.525509552812501
 21
2.384321157187501
 31
0.0
  0
LINE
  5
1ED
330
18B
100
AcDbEntity
  8
4
100
AcDbLine
 10
1.531
 20
2.384321157187501
 30
0.0
 11
1.531
 21
2.4660678153125
 31
0.0
  0
ARC
  5
1EE
330
18B
100
AcDbEntity
  8
4
100
AcDbCircle
 10
1.284945552187499
 20
2.479186976959996
 30
0.0
 40
0.27330226
100
AcDbArc
 50
261.40466153832
 51
278.5953384616799
  0
ARC
  5
1EF
330
18B
100
AcDbEntity
  8
4
100
AcDbCircle
 10
1.284945552187499
 20
1.972845736334996
 30
0.0
 40
0.27330226
100
AcDbArc
 50
81.40466153832003
 51
98.59533846167998
  0
ARC
  5
1F0
330
18B
100
AcDbEntity
  8
4
100
AcDbCircle
 10
1.3215485334375
 20
2.226016356647496
 30
0.0
 40
0.079306459375
100
AcDbArc
 50
167.5762104955835
 51
192.4237895044164
  0
CIRCLE
  5
1F1
330
18B
100
AcDbEntity
  8
4
100
AcDbCircle
 10
1.2483425709375
 20
2.226016356647496
 30
0.0
 40
0.00265493624
  0
LINE
  5
1F2
330
18B
100
AcDbEntity
  8
4
100
AcDbLine
 10
1.2448286847375
 20
2.226016356647496
 30
0.0
 11
1.2518564571375
 21
2.226016356647496
 31
0.0
  0
LINE
  5
1F3
330
18B
100
AcDbEntity
  8
4
100
AcDbLine
 10
1.2483425709375
 20
2.2225024704475
 30
0.0
 11
1.2483425709375
 21
2.229530242847498
 31
0.0
  0
ARC
  5
1F4
330
18B
100
AcDbEntity
  8
4
100
AcDbCircle
 10
1.2483425709375
 20
2.226016356647496
 30
0.0
 40
0.079306459375
100
AcDbArc
 50
347.5762104955836
 51
12.42378950441649
  0
LINE
  5
1F5
330
18B
100
AcDbEntity
  8
4
100
AcDbLine
 10
1.3215485334375
 20
2.2225024704475
 30
0.0
 11
1.3215485334375
 21
2.229530242847498
 31
0.0
  0
CIRCLE
  5
1F6
330
18B
100
AcDbEntity
  8
4
100
AcDbCircle
 10
1.3215485334375
 20
2.226016356647496
 30
0.0
 40
0.00265493624
  0
LINE
  5
1F7
330
18B
100
AcDbEntity
  8
4
100
AcDbLine
 10
1.318034647237499
 20
2.226016356647496
 30
0.0
 11
1.3250624196375
 21
2.226016356647496
 31
0.0
  0
ARC
  5
1F8
330
18B
100
AcDbEntity
  8
2
100
AcDbCircle
 10
1.4596241865625
 20
2.161970956874999
 30
0.0
 40
0.001220099375
100
AcDbArc
 50
23.19861971166717
 51
156.8013802883115
  0
ARC
  5
1F9
330
18B
100
AcDbEntity
  8
2
100
AcDbCircle
 10
1.4596241865625
 20
2.127808174375
 30
0.0
 40
0.001220099375
100
AcDbArc
 50
203.1986197116884
 51
336.8013802883329
  0
LINE
  5
1FA
330
18B
100
AcDbEntity
  8
2
100
AcDbLine
 10
1.373095782280766
 20
2.189293764386487
 30
0.0
 11
1.365775195501393
 21
2.172212419276129
 31
0.0
  0
LINE
  5
1FB
330
18B
100
AcDbEntity
  8
2
100
AcDbLine
 10
1.375338678344234
 20
2.189293764386487
 30
0.0
 11
1.382659265123606
 21
2.172212419276129
 31
0.0
  0
LINE
  5
1FC
330
18B
100
AcDbEntity
  8
2
100
AcDbLine
 10
1.373095782280766
 20
2.154169739363509
 30
0.0
 11
1.365775195501393
 21
2.171251084473872
 31
0.0
  0
ARC
  5
1FD
330
18B
100
AcDbEntity
  8
2
100
AcDbCircle
 10
1.36689675119214
 20
2.171731751875
 30
0.0
 40
0.00122021650454
100
AcDbArc
 50
156.8013802883257
 51
203.1986197116743
  0
ARC
  5
1FE
330
18B
100
AcDbEntity
  8
2
100
AcDbCircle
 10
1.3742172303125
 20
2.154650360625
 30
0.0
 40
0.001220099375
100
AcDbArc
 50
203.1986197116884
 51
336.8013802883329
  0
ARC
  5
1FF
330
18B
100
AcDbEntity
  8
2
100
AcDbCircle
 10
1.38153770943286
 20
2.171731751875
 30
0.0
 40
0.00122021650454
100
AcDbArc
 50
336.8013802883256
 51
23.19861971167427
  0
ARC
  5
200
330
18B
100
AcDbEntity
  8
2
100
AcDbCircle
 10
1.3864182240625
 20
2.127808174375
 30
0.0
 40
0.001220099375
100
AcDbArc
 50
203.1986197116884
 51
336.8013802883329
  0
LINE
  5
201
330
18B
100
AcDbEntity
  8
2
100
AcDbLine
 10
1.375338678344234
 20
2.154169739363509
 30
0.0
 11
1.382659265123606
 21
2.171251084473872
 31
0.0
  0
ARC
  5
202
330
18B
100
AcDbEntity
  8
2
100
AcDbCircle
 10
1.3742172303125
 20
2.188813143125
 30
0.0
 40
0.001220099375
100
AcDbArc
 50
23.19861971166717
 51
156.8013802883115
  0
LINE
  5
203
330
18B
100
AcDbEntity
  8
2
100
AcDbLine
 10
1.446301744780766
 20
2.189293764386487
 30
0.0
 11
1.438981158001393
 21
2.172212419276129
 31
0.0
  0
LINE
  5
204
330
18B
100
AcDbEntity
  8
2
100
AcDbLine
 10
1.448544640844234
 20
2.189293764386487
 30
0.0
 11
1.455865227623606
 21
2.172212419276129
 31
0.0
  0
ARC
  5
205
330
18B
100
AcDbEntity
  8
2
100
AcDbCircle
 10
1.454743671932861
 20
2.171731751875
 30
0.0
 40
0.00122021650454
100
AcDbArc
 50
336.8013802883256
 51
23.19861971167427
  0
LINE
  5
206
330
18B
100
AcDbEntity
  8
2
100
AcDbLine
 10
1.446301744780766
 20
2.154169739363509
 30
0.0
 11
1.438981158001393
 21
2.171251084473872
 31
0.0
  0
ARC
  5
207
330
18B
100
AcDbEntity
  8
2
100
AcDbCircle
 10
1.4474231928125
 20
2.154650360625
 30
0.0
 40
0.001220099375
100
AcDbArc
 50
203.1986197116884
 51
336.8013802883329
  0
ARC
  5
208
330
18B
100
AcDbEntity
  8
2
100
AcDbCircle
 10
1.45230370744214
 20
2.144889565625
 30
0.0
 40
0.00122021650454
100
AcDbArc
 50
156.8013802883257
 51
203.1986197116743
  0
ARC
  5
209
330
18B
100
AcDbEntity
  8
2
100
AcDbCircle
 10
1.440102713692139
 20
2.171731751875
 30
0.0
 40
0.00122021650454
100
AcDbArc
 50
156.8013802883257
 51
203.1986197116743
  0
LINE
  5
20A
330
18B
100
AcDbEntity
  8
2
100
AcDbLine
 10
1.458502738530766
 20
2.127327553113509
 30
0.0
 11
1.451182151751393
 21
2.144408898223871
 31
0.0
  0
LINE
  5
20B
330
18B
100
AcDbEntity
  8
2
100
AcDbLine
 10
1.448544640844234
 20
2.154169739363509
 30
0.0
 11
1.455865227623606
 21
2.171251084473872
 31
0.0
  0
LINE
  5
20C
330
18B
100
AcDbEntity
  8
2
100
AcDbLine
 10
1.458502738530766
 20
2.162451578136487
 30
0.0
 11
1.451182151751393
 21
2.145370233026128
 31
0.0
  0
ARC
  5
20D
330
18B
100
AcDbEntity
  8
2
100
AcDbCircle
 10
1.4474231928125
 20
2.188813143125
 30
0.0
 40
0.001220099375
100
AcDbArc
 50
23.19861971166717
 51
156.8013802883115
  0
LINE
  5
20E
330
18B
100
AcDbEntity
  8
2
100
AcDbLine
 10
1.387539672094234
 20
2.127327553113509
 30
0.0
 11
1.394860258873606
 21
2.144408898223871
 31
0.0
  0
ARC
  5
20F
330
18B
100
AcDbEntity
  8
2
100
AcDbCircle
 10
1.39373870318286
 20
2.144889565625
 30
0.0
 40
0.00122021650454
100
AcDbArc
 50
336.8013802883256
 51
23.19861971167427
  0
ARC
  5
210
330
18B
100
AcDbEntity
  8
2
100
AcDbCircle
 10
1.379097744942139
 20
2.144889565625
 30
0.0
 40
0.00122021650454
100
AcDbArc
 50
156.8013802883257
 51
203.1986197116743
  0
LINE
  5
211
330
18B
100
AcDbEntity
  8
2
100
AcDbLine
 10
1.385296776030767
 20
2.127327553113509
 30
0.0
 11
1.377976189251393
 21
2.144408898223871
 31
0.0
  0
LINE
  5
212
330
18B
100
AcDbEntity
  8
2
100
AcDbLine
 10
1.387539672094234
 20
2.162451578136487
 30
0.0
 11
1.394860258873606
 21
2.145370233026128
 31
0.0
  0
LINE
  5
213
330
18B
100
AcDbEntity
  8
2
100
AcDbLine
 10
1.385296776030767
 20
2.162451578136487
 30
0.0
 11
1.377976189251393
 21
2.145370233026128
 31
0.0
  0
ARC
  5
214
330
18B
100
AcDbEntity
  8
2
100
AcDbCircle
 10
1.3864182240625
 20
2.161970956874999
 30
0.0
 40
0.001220099375
100
AcDbArc
 50
23.19861971166717
 51
156.8013802883115
  0
LINE
  5
215
330
18B
100
AcDbEntity
  8
2
100
AcDbLine
 10
1.3742172303125
 20
2.1900332425
 30
0.0
 11
1.4474231928125
 21
2.1900332425
 31
0.0
  0
LINE
  5
216
330
18B
100
AcDbEntity
  8
2
100
AcDbLine
 10
1.460745634594234
 20
2.127327553113509
 30
0.0
 11
1.468066221373606
 21
2.144408898223871
 31
0.0
  0
LINE
  5
217
330
18B
100
AcDbEntity
  8
2
100
AcDbLine
 10
1.460745634594234
 20
2.162451578136487
 30
0.0
 11
1.468066221373606
 21
2.145370233026128
 31
0.0
  0
ARC
  5
218
330
18B
100
AcDbEntity
  8
2
100
AcDbCircle
 10
1.466944665682861
 20
2.144889565625
 30
0.0
 40
0.00122021650454
100
AcDbArc
 50
336.8013802883256
 51
23.19861971167427
  0
LINE
  5
219
330
18B
100
AcDbEntity
  8
4
100
AcDbLine
 10
1.526894684830344
 20
2.1528202115625
 30
0.0
 11
1.529315782192449
 21
2.1528202115625
 31
0.0
  0
LINE
  5
21A
330
18B
100
AcDbEntity
  8
4
  6
CENTER
100
AcDbLine
 10
1.533171622845591
 20
2.1528202115625
 30
0.0
 11
1.541600664182292
 21
2.1528202115625
 31
0.0
  0
LINE
  5
21B
330
18B
100
AcDbEntity
  8
4
  6
CENTER
100
AcDbLine
 10
1.514968488663262
 20
2.1528202115625
 30
0.0
 11
1.522859495458277
 21
2.1528202115625
 31
0.0
  0
LINE
  5
21C
330
18B
100
AcDbEntity
  8
4
100
AcDbLine
 10
1.525509552812501
 20
2.193693540625
 30
0.0
 11
1.531
 21
2.193693540625
 31
0.0
  0
LINE
  5
21D
330
18B
100
AcDbEntity
  8
4
100
AcDbLine
 10
1.531
 20
2.193693540625
 30
0.0
 11
1.531
 21
2.273
 31
0.0
  0
ARC
  5
21E
330
18B
100
AcDbEntity
  8
2
100
AcDbCircle
 10
1.4596241865625
 20
2.389811604375
 30
0.0
 40
0.001220099375
100
AcDbArc
 50
23.19861971166717
 51
156.8013802883115
  0
ARC
  5
21F
330
18B
100
AcDbEntity
  8
2
100
AcDbCircle
 10
1.4596241865625
 20
2.355648821875
 30
0.0
 40
0.001220099375
100
AcDbArc
 50
203.1986197116885
 51
336.8013802883329
  0
LINE
  5
220
330
18B
100
AcDbEntity
  8
2
100
AcDbLine
 10
1.373095782280766
 20
2.417134411886487
 30
0.0
 11
1.365775195501393
 21
2.40005306677613
 31
0.0
  0
LINE
  5
221
330
18B
100
AcDbEntity
  8
2
100
AcDbLine
 10
1.373095782280766
 20
2.38201038686351
 30
0.0
 11
1.365775195501393
 21
2.399091731973872
 31
0.0
  0
ARC
  5
222
330
18B
100
AcDbEntity
  8
2
100
AcDbCircle
 10
1.36689675119214
 20
2.399572399375
 30
0.0
 40
0.00122021650454
100
AcDbArc
 50
156.8013802883257
 51
203.1986197116743
  0
ARC
  5
223
330
18B
100
AcDbEntity
  8
2
100
AcDbCircle
 10
1.3742172303125
 20
2.416653790625
 30
0.0
 40
0.001220099375
100
AcDbArc
 50
23.19861971166717
 51
156.8013802883115
  0
ARC
  5
224
330
18B
100
AcDbEntity
  8
2
100
AcDbCircle
 10
1.3742172303125
 20
2.382491008125001
 30
0.0
 40
0.001220099375
100
AcDbArc
 50
203.1986197116885
 51
336.8013802883329
  0
LINE
  5
225
330
18B
100
AcDbEntity
  8
2
100
AcDbLine
 10
1.387539672094234
 20
2.355168200613509
 30
0.0
 11
1.394860258873606
 21
2.372249545723872
 31
0.0
  0
LINE
  5
226
330
18B
100
AcDbEntity
  8
2
100
AcDbLine
 10
1.387539672094234
 20
2.390292225636487
 30
0.0
 11
1.394860258873606
 21
2.373210880526129
 31
0.0
  0
ARC
  5
227
330
18B
100
AcDbEntity
  8
2
100
AcDbCircle
 10
1.39373870318286
 20
2.372730213125
 30
0.0
 40
0.00122021650454
100
AcDbArc
 50
336.8013802883256
 51
23.19861971167427
  0
ARC
  5
228
330
18B
100
AcDbEntity
  8
2
100
AcDbCircle
 10
1.38153770943286
 20
2.399572399375
 30
0.0
 40
0.00122021650454
100
AcDbArc
 50
336.8013802883256
 51
23.19861971167427
  0
ARC
  5
229
330
18B
100
AcDbEntity
  8
2
100
AcDbCircle
 10
1.3864182240625
 20
2.389811604375
 30
0.0
 40
0.001220099375
100
AcDbArc
 50
23.19861971166717
 51
156.8013802883115
  0
ARC
  5
22A
330
18B
100
AcDbEntity
  8
2
100
AcDbCircle
 10
1.3864182240625
 20
2.355648821875
 30
0.0
 40
0.001220099375
100
AcDbArc
 50
203.1986197116885
 51
336.8013802883329
  0
ARC
  5
22B
330
18B
100
AcDbEntity
  8
2
100
AcDbCircle
 10
1.379097744942139
 20
2.372730213125
 30
0.0
 40
0.00122021650454
100
AcDbArc
 50
156.8013802883257
 51
203.1986197116743
  0
LINE
  5
22C
330
18B
100
AcDbEntity
  8
2
100
AcDbLine
 10
1.385296776030767
 20
2.355168200613509
 30
0.0
 11
1.377976189251393
 21
2.372249545723872
 31
0.0
  0
LINE
  5
22D
330
18B
100
AcDbEntity
  8
2
100
AcDbLine
 10
1.375338678344234
 20
2.417134411886487
 30
0.0
 11
1.382659265123606
 21
2.40005306677613
 31
0.0
  0
LINE
  5
22E
330
18B
100
AcDbEntity
  8
2
100
AcDbLine
 10
1.375338678344234
 20
2.38201038686351
 30
0.0
 11
1.382659265123606
 21
2.399091731973872
 31
0.0
  0
LINE
  5
22F
330
18B
100
AcDbEntity
  8
2
100
AcDbLine
 10
1.385296776030767
 20
2.390292225636487
 30
0.0
 11
1.377976189251393
 21
2.373210880526129
 31
0.0
  0
ARC
  5
230
330
18B
100
AcDbEntity
  8
2
100
AcDbCircle
 10
1.454743671932861
 20
2.399572399375
 30
0.0
 40
0.00122021650454
100
AcDbArc
 50
336.8013802883256
 51
23.19861971167427
  0
ARC
  5
231
330
18B
100
AcDbEntity
  8
2
100
AcDbCircle
 10
1.45230370744214
 20
2.372730213125
 30
0.0
 40
0.00122021650454
100
AcDbArc
 50
156.8013802883257
 51
203.1986197116743
  0
LINE
  5
232
330
18B
100
AcDbEntity
  8
2
100
AcDbLine
 10
1.458502738530766
 20
2.355168200613509
 30
0.0
 11
1.451182151751393
 21
2.372249545723872
 31
0.0
  0
LINE
  5
233
330
18B
100
AcDbEntity
  8
2
100
AcDbLine
 10
1.448544640844234
 20
2.417134411886487
 30
0.0
 11
1.455865227623606
 21
2.40005306677613
 31
0.0
  0
LINE
  5
234
330
18B
100
AcDbEntity
  8
2
100
AcDbLine
 10
1.448544640844234
 20
2.38201038686351
 30
0.0
 11
1.455865227623606
 21
2.399091731973872
 31
0.0
  0
LINE
  5
235
330
18B
100
AcDbEntity
  8
2
100
AcDbLine
 10
1.458502738530766
 20
2.390292225636487
 30
0.0
 11
1.451182151751393
 21
2.373210880526129
 31
0.0
  0
ARC
  5
236
330
18B
100
AcDbEntity
  8
2
100
AcDbCircle
 10
1.440102713692139
 20
2.399572399375
 30
0.0
 40
0.00122021650454
100
AcDbArc
 50
156.8013802883257
 51
203.1986197116743
  0
LINE
  5
237
330
18B
100
AcDbEntity
  8
2
100
AcDbLine
 10
1.446301744780766
 20
2.417134411886487
 30
0.0
 11
1.438981158001393
 21
2.40005306677613
 31
0.0
  0
LINE
  5
238
330
18B
100
AcDbEntity
  8
2
100
AcDbLine
 10
1.446301744780766
 20
2.38201038686351
 30
0.0
 11
1.438981158001393
 21
2.399091731973872
 31
0.0
  0
ARC
  5
239
330
18B
100
AcDbEntity
  8
2
100
AcDbCircle
 10
1.4474231928125
 20
2.416653790625
 30
0.0
 40
0.001220099375
100
AcDbArc
 50
23.19861971166717
 51
156.8013802883115
  0
ARC
  5
23A
330
18B
100
AcDbEntity
  8
2
100
AcDbCircle
 10
1.4474231928125
 20
2.382491008125001
 30
0.0
 40
0.001220099375
100
AcDbArc
 50
203.1986197116885
 51
336.8013802883329
  0
LINE
  5
23B
330
18B
100
AcDbEntity
  8
2
100
AcDbLine
 10
1.3864182240625
 20
2.3544287225
 30
0.0
 11
1.4596241865625
 21
2.3544287225
 31
0.0
  0
LINE
  5
23C
330
18B
100
AcDbEntity
  8
2
100
AcDbLine
 10
1.460745634594234
 20
2.355168200613509
 30
0.0
 11
1.468066221373606
 21
2.372249545723872
 31
0.0
  0
LINE
  5
23D
330
18B
100
AcDbEntity
  8
2
100
AcDbLine
 10
1.460745634594234
 20
2.390292225636487
 30
0.0
 11
1.468066221373606
 21
2.373210880526129
 31
0.0
  0
ARC
  5
23E
330
18B
100
AcDbEntity
  8
2
100
AcDbCircle
 10
1.466944665682861
 20
2.372730213125
 30
0.0
 40
0.00122021650454
100
AcDbArc
 50
336.8013802883256
 51
23.19861971167427
  0
LINE
  5
23F
330
18B
100
AcDbEntity
  8
4
100
AcDbLine
 10
1.531
 20
2.384321157187501
 30
0.0
 11
1.531
 21
2.305014697812501
 31
0.0
  0
LINE
  5
240
330
18B
100
AcDbEntity
  8
4
  6
CENTER
100
AcDbLine
 10
1.533171622845591
 20
2.42519448625
 30
0.0
 11
1.541600664182292
 21
2.42519448625
 31
0.0
  0
LINE
  5
241
330
18B
100
AcDbEntity
  8
4
100
AcDbLine
 10
1.526894684830344
 20
2.42519448625
 30
0.0
 11
1.529315782192449
 21
2.42519448625
 31
0.0
  0
LINE
  5
242
330
18B
100
AcDbEntity
  8
4
100
AcDbLine
 10
1.525509552812501
 20
2.384321157187501
 30
0.0
 11
1.531
 21
2.384321157187501
 31
0.0
  0
LINE
  5
243
330
18B
100
AcDbEntity
  8
4
  6
CENTER
100
AcDbLine
 10
1.514968488663262
 20
2.42519448625
 30
0.0
 11
1.522859495458277
 21
2.42519448625
 31
0.0
  0
CIRCLE
  5
244
330
18B
100
AcDbEntity
  8
4
100
AcDbCircle
 10
1.185507453125
 20
2.64449265109375
 30
0.0
 40
0.0128110434375
  0
LINE
  5
245
330
18B
100
AcDbEntity
  8
4
100
AcDbLine
 10
1.119088144895451
 20
2.718311039329027
 30
0.0
 11
1.127334725359051
 21
2.586365751911442
 31
0.0
  0
LINE
  5
246
330
18B
100
AcDbEntity
  8
4
100
AcDbLine
 10
1.267168517895726
 20
2.727462972665414
 30
0.0
 11
1.25704071203628
 21
2.565418078914272
 31
0.0
  0
LINE
  5
247
330
18B
100
AcDbEntity
  8
4
100
AcDbLine
 10
1.251926761354549
 20
2.718311039329027
 30
0.0
 11
1.243680180890949
 21
2.586384134109027
 31
0.0
  0
LINE
  5
248
330
18B
100
AcDbEntity
  8
4
100
AcDbLine
 10
1.185507453125
 20
2.54139425390625
 30
0.0
 11
1.231468522164573
 21
2.54139425390625
 31
0.0
  0
ARC
  5
249
330
18B
100
AcDbEntity
  8
4
100
AcDbCircle
 10
1.224196607655363
 20
2.587601857436253
 30
0.0
 40
0.01952159
100
AcDbArc
 50
270.0
 51
356.4236656250016
  0
ARC
  5
24A
330
18B
100
AcDbEntity
  8
4
100
AcDbCircle
 10
1.146818298594636
 20
2.587601857436253
 30
0.0
 40
0.01952159
100
AcDbArc
 50
183.5763343749981
 51
270.0
  0
LINE
  5
24B
330
18B
100
AcDbEntity
  8
4
100
AcDbLine
 10
1.185507453125
 20
2.54139425390625
 30
0.0
 11
1.139546384085427
 21
2.54139425390625
 31
0.0
  0
ARC
  5
24C
330
18B
100
AcDbEntity
  8
4
100
AcDbCircle
 10
1.139546384085427
 20
2.56701634078125
 30
0.0
 40
0.025622086875
100
AcDbArc
 50
183.5763343749981
 51
270.0
  0
LINE
  5
24D
330
18B
100
AcDbEntity
  8
4
100
AcDbLine
 10
1.185507453125
 20
2.56808026743625
 30
0.0
 11
1.224196607655363
 21
2.568080267436254
 31
0.0
  0
CIRCLE
  5
24E
330
18B
100
AcDbEntity
  8
4
100
AcDbCircle
 10
1.185507453125
 20
2.552375148281254
 30
0.0
 40
0.007023868082
  0
LINE
  5
24F
330
18B
100
AcDbEntity
  8
4
100
AcDbLine
 10
1.185507453125
 20
2.56808026743625
 30
0.0
 11
1.146818298594636
 21
2.568080267436254
 31
0.0
  0
CIRCLE
  5
250
330
18B
100
AcDbEntity
  8
4
100
AcDbCircle
 10
1.185507453125
 20
2.601818455353751
 30
0.0
 40
0.00425570662
  0
ARC
  5
251
330
18B
100
AcDbEntity
  8
4
100
AcDbCircle
 10
1.231468522164573
 20
2.56701634078125
 30
0.0
 40
0.025622086875
100
AcDbArc
 50
270.0
 51
356.4236656250016
  0
LINE
  5
252
330
18B
100
AcDbEntity
  8
4
100
AcDbLine
 10
1.185507453125
 20
2.73905035265625
 30
0.0
 11
1.232443188118963
 21
2.73905035265625
 31
0.0
  0
LINE
  5
253
330
18B
100
AcDbEntity
  8
4
100
AcDbLine
 10
1.185507453125
 20
2.75857194265625
 30
0.0
 11
1.237943158042347
 21
2.75857194265625
 31
0.0
  0
LINE
  5
254
330
18B
100
AcDbEntity
  8
4
 62
   130
100
AcDbLine
 10
1.143933307552268
 20
2.724312966528112
 30
0.0
 11
1.164665236132268
 21
2.703581037948113
 31
0.0
  0
LINE
  5
255
330
18B
100
AcDbEntity
  8
4
100
AcDbLine
 10
1.13707276529414
 20
2.719137945927702
 30
0.0
 11
1.159490215531855
 21
2.696720495689988
 31
0.0
  0
LINE
  5
256
330
18B
100
AcDbEntity
  8
4
100
AcDbLine
 10
1.140523727461276
 20
2.722588908094838
 30
0.0
 11
1.16294117769899
 21
2.700171457857124
 31
0.0
  0
LINE
  5
257
330
18B
100
AcDbEntity
  8
4
 62
   130
100
AcDbLine
 10
1.135319705983096
 20
2.715699364958943
 30
0.0
 11
1.156051634563096
 21
2.694967436378941
 31
0.0
  0
LINE
  5
258
330
18B
100
AcDbEntity
  8
4
100
AcDbLine
 10
1.185507453125
 20
2.75857194265625
 30
0.0
 11
1.133071748207654
 21
2.75857194265625
 31
0.0
  0
LINE
  5
259
330
18B
100
AcDbEntity
  8
4
100
AcDbLine
 10
1.185507453125
 20
2.73905035265625
 30
0.0
 11
1.138571718131037
 21
2.73905035265625
 31
0.0
  0
LINE
  5
25A
330
18B
100
AcDbEntity
  8
4
100
AcDbLine
 10
1.140523727461276
 20
2.722588908094838
 30
0.0
 11
1.13707276529414
 21
2.719137945927702
 31
0.0
  0
ARC
  5
25B
330
18B
100
AcDbEntity
  8
4
 62
   130
100
AcDbCircle
 10
1.139626506767683
 20
2.720006165743527
 30
0.0
 40
0.00609073608
100
AcDbArc
 50
45.00000000000031
 51
225.0000000000003
  0
ARC
  5
25C
330
18B
100
AcDbEntity
  8
4
100
AcDbCircle
 10
1.138571718131037
 20
2.71952876265625
 30
0.0
 40
0.01952159
100
AcDbArc
 50
90.0
 51
183.5763343749981
  0
LINE
  5
25D
330
18B
100
AcDbEntity
  8
4
100
AcDbLine
 10
1.145713974560648
 20
2.71739866099547
 30
0.0
 11
1.142263012393512
 21
2.713947698828333
 31
0.0
  0
ARC
  5
25E
330
18B
100
AcDbEntity
  8
4
 62
   130
100
AcDbCircle
 10
1.160358435347683
 20
2.699274237163529
 30
0.0
 40
0.00609073608
100
AcDbArc
 50
225.0000000000003
 51
45.00000000000031
  0
LINE
  5
25F
330
18B
100
AcDbEntity
  8
4
100
AcDbLine
 10
1.157750930599618
 20
2.705361704956497
 30
0.0
 11
1.154299968432482
 21
2.701910742789361
 31
0.0
  0
LINE
  5
260
330
18B
100
AcDbEntity
  8
4
100
AcDbLine
 10
1.159490215531855
 20
2.696720495689988
 30
0.0
 11
1.16294117769899
 21
2.700171457857124
 31
0.0
  0
CIRCLE
  5
261
330
18B
100
AcDbEntity
  8
4
100
AcDbCircle
 10
1.185507453125
 20
2.687166846833753
 30
0.0
 40
0.00425570662
  0
ARC
  5
262
330
18B
100
AcDbEntity
  8
4
100
AcDbCircle
 10
1.232443188118963
 20
2.71952876265625
 30
0.0
 40
0.01952159
100
AcDbArc
 50
356.4236656250016
 51
90.0
  0
ARC
  5
263
330
18B
100
AcDbEntity
  8
4
100
AcDbCircle
 10
1.237943158042347
 20
2.72928955765625
 30
0.0
 40
0.029282385
100
AcDbArc
 50
356.4236656250016
 51
90.0
  0
LINE
  5
264
330
18B
100
AcDbEntity
  8
4
100
AcDbLine
 10
1.531
 20
2.4660678153125
 30
0.0
 11
1.525509552812501
 21
2.4660678153125
 31
0.0
  0
LINE
  5
265
330
18B
100
AcDbEntity
  8
2
100
AcDbLine
 10
1.468164882187401
 20
3.794730213125
 30
0.0
 11
1.468164882187401
 21
4.277889565625
 31
0.0
  0
LINE
  5
266
330
18B
100
AcDbEntity
  8
2
100
AcDbLine
 10
1.3656765346876
 20
4.304731751875
 30
0.0
 11
1.3656765346876
 21
3.821572399375
 31
0.0
  0
LINE
  5
267
330
18B
100
AcDbEntity
  8
4
100
AcDbLine
 10
1.531
 20
4.2449468825
 30
0.0
 11
1.531
 21
3.8880678153125
 31
0.0
  0
LINE
  5
268
330
18B
100
AcDbEntity
  8
4
100
AcDbLine
 10
1.094
 20
3.727
 30
0.0
 11
1.094
 21
4.4059853021875
 31
0.0
  0
LINE
  5
269
330
18B
100
AcDbEntity
  8
4
100
AcDbLine
 10
0.9877187804394047
 20
3.410251582675031
 30
0.0
 11
0.6127187804394048
 21
3.410251582675031
 31
0.0
  0
LINE
  5
26A
330
18B
100
AcDbEntity
  8
4
100
AcDbLine
 10
0.9877187804394047
 20
3.269907318971738
 30
0.0
 11
0.6127187804394048
 21
3.269907318971738
 31
0.0
  0
LINE
  5
26B
330
18B
100
AcDbEntity
  8
4
100
AcDbLine
 10
0.6127187804394048
 20
3.269907318971738
 30
0.0
 11
0.6127187804394048
 21
3.207907318971739
 31
0.0
  0
LINE
  5
26C
330
18B
100
AcDbEntity
  8
4
100
AcDbLine
 10
0.6127187804394048
 20
3.410251582675031
 30
0.0
 11
0.6127187804394048
 21
3.47225158267503
 31
0.0
  0
LINE
  5
26D
330
18B
100
AcDbEntity
  8
4
100
AcDbLine
 10
1.094
 20
3.016
 30
0.0
 11
1.094
 21
3.694985302187499
 31
0.0
  0
LINE
  5
26E
330
18B
100
AcDbEntity
  8
4
100
AcDbLine
 10
1.531
 20
3.5339468825
 30
0.0
 11
1.531
 21
3.1770678153125
 31
0.0
  0
LINE
  5
26F
330
18B
100
AcDbEntity
  8
2
100
AcDbLine
 10
1.3656765346876
 20
3.593731751875
 30
0.0
 11
1.3656765346876
 21
3.110572399375
 31
0.0
  0
LINE
  5
270
330
18B
100
AcDbEntity
  8
2
100
AcDbLine
 10
1.468164882187401
 20
3.083730213125
 30
0.0
 11
1.468164882187401
 21
3.566889565624999
 31
0.0
  0
LINE
  5
271
330
18B
100
AcDbEntity
  8
4
100
AcDbLine
 10
1.531
 20
2.984
 30
0.0
 11
1.094
 21
2.9839853021875
 31
0.0
  0
LINE
  5
272
330
18B
100
AcDbEntity
  8
4
100
AcDbLine
 10
1.531
 20
3.0160146978125
 30
0.0
 11
1.094
 21
3.016
 31
0.0
  0
LINE
  5
273
330
18B
100
AcDbEntity
  8
4
100
AcDbLine
 10
1.531
 20
3.0160146978125
 30
0.0
 11
1.094
 21
3.016
 31
0.0
  0
LINE
  5
274
330
18B
100
AcDbEntity
  8
4
100
AcDbLine
 10
1.103846388354273
 20
3.438462972665414
 30
0.0
 11
1.113974194213721
 21
3.276418078914272
 31
0.0
  0
ARC
  5
275
330
18B
100
AcDbEntity
  8
4
100
AcDbCircle
 10
1.133071748207654
 20
3.440289557656249
 30
0.0
 40
0.029282385
100
AcDbArc
 50
90.0
 51
183.5763343749981
  0
INSERT
  5
276
330
18B
100
AcDbEntity
  8
4
100
AcDbBlockReference
  2
ARRO
 10
0.9877187804394047
 20
3.410251582675031
 30
0.0
 50
180.0
  0
INSERT
  5
277
330
18B
100
AcDbEntity
  8
4
100
AcDbBlockReference
  2
ARRO
 10
0.9877187804394047
 20
3.269907318971738
 30
0.0
 50
180.0
  0
LINE
  5
278
330
18B
100
AcDbEntity
  8
4
100
AcDbLine
 10
1.525509552812501
 20
3.1770678153125
 30
0.0
 11
1.525509552812501
 21
3.0953211571875
 31
0.0
  0
LINE
  5
279
330
18B
100
AcDbEntity
  8
4
100
AcDbLine
 10
1.531
 20
3.0953211571875
 30
0.0
 11
1.531
 21
3.1770678153125
 31
0.0
  0
ARC
  5
27A
330
18B
100
AcDbEntity
  8
4
100
AcDbCircle
 10
1.284945552187499
 20
3.190186976959997
 30
0.0
 40
0.27330226
100
AcDbArc
 50
261.40466153832
 51
278.5953384616799
  0
ARC
  5
27B
330
18B
100
AcDbEntity
  8
4
100
AcDbCircle
 10
1.284945552187499
 20
2.683845736334997
 30
0.0
 40
0.27330226
100
AcDbArc
 50
81.40466153832003
 51
98.59533846167998
  0
ARC
  5
27C
330
18B
100
AcDbEntity
  8
4
100
AcDbCircle
 10
1.3215485334375
 20
2.937016356647497
 30
0.0
 40
0.079306459375
100
AcDbArc
 50
167.5762104955835
 51
192.4237895044164
  0
CIRCLE
  5
27D
330
18B
100
AcDbEntity
  8
4
100
AcDbCircle
 10
1.2483425709375
 20
2.937016356647497
 30
0.0
 40
0.00265493624
  0
LINE
  5
27E
330
18B
100
AcDbEntity
  8
4
100
AcDbLine
 10
1.2448286847375
 20
2.937016356647497
 30
0.0
 11
1.2518564571375
 21
2.937016356647497
 31
0.0
  0
LINE
  5
27F
330
18B
100
AcDbEntity
  8
4
100
AcDbLine
 10
1.2483425709375
 20
2.9335024704475
 30
0.0
 11
1.2483425709375
 21
2.940530242847498
 31
0.0
  0
ARC
  5
280
330
18B
100
AcDbEntity
  8
4
100
AcDbCircle
 10
1.2483425709375
 20
2.937016356647497
 30
0.0
 40
0.079306459375
100
AcDbArc
 50
347.5762104955836
 51
12.42378950441649
  0
LINE
  5
281
330
18B
100
AcDbEntity
  8
4
100
AcDbLine
 10
1.3215485334375
 20
2.9335024704475
 30
0.0
 11
1.3215485334375
 21
2.940530242847498
 31
0.0
  0
CIRCLE
  5
282
330
18B
100
AcDbEntity
  8
4
100
AcDbCircle
 10
1.3215485334375
 20
2.937016356647497
 30
0.0
 40
0.00265493624
  0
LINE
  5
283
330
18B
100
AcDbEntity
  8
4
100
AcDbLine
 10
1.318034647237499
 20
2.937016356647497
 30
0.0
 11
1.3250624196375
 21
2.937016356647497
 31
0.0
  0
ARC
  5
284
330
18B
100
AcDbEntity
  8
2
100
AcDbCircle
 10
1.4596241865625
 20
2.872970956875
 30
0.0
 40
0.001220099375
100
AcDbArc
 50
23.19861971166717
 51
156.8013802883115
  0
ARC
  5
285
330
18B
100
AcDbEntity
  8
2
100
AcDbCircle
 10
1.4596241865625
 20
2.838808174375
 30
0.0
 40
0.001220099375
100
AcDbArc
 50
203.1986197116885
 51
336.8013802883329
  0
LINE
  5
286
330
18B
100
AcDbEntity
  8
2
100
AcDbLine
 10
1.373095782280766
 20
2.900293764386487
 30
0.0
 11
1.365775195501393
 21
2.883212419276129
 31
0.0
  0
LINE
  5
287
330
18B
100
AcDbEntity
  8
2
100
AcDbLine
 10
1.375338678344234
 20
2.900293764386487
 30
0.0
 11
1.382659265123606
 21
2.883212419276129
 31
0.0
  0
LINE
  5
288
330
18B
100
AcDbEntity
  8
2
100
AcDbLine
 10
1.373095782280766
 20
2.865169739363509
 30
0.0
 11
1.365775195501393
 21
2.882251084473872
 31
0.0
  0
ARC
  5
289
330
18B
100
AcDbEntity
  8
2
100
AcDbCircle
 10
1.36689675119214
 20
2.882731751875001
 30
0.0
 40
0.00122021650454
100
AcDbArc
 50
156.8013802883257
 51
203.1986197116743
  0
ARC
  5
28A
330
18B
100
AcDbEntity
  8
2
100
AcDbCircle
 10
1.3742172303125
 20
2.865650360625
 30
0.0
 40
0.001220099375
100
AcDbArc
 50
203.1986197116885
 51
336.8013802883329
  0
ARC
  5
28B
330
18B
100
AcDbEntity
  8
2
100
AcDbCircle
 10
1.38153770943286
 20
2.882731751875001
 30
0.0
 40
0.00122021650454
100
AcDbArc
 50
336.8013802883256
 51
23.19861971167427
  0
ARC
  5
28C
330
18B
100
AcDbEntity
  8
2
100
AcDbCircle
 10
1.3864182240625
 20
2.838808174375
 30
0.0
 40
0.001220099375
100
AcDbArc
 50
203.1986197116885
 51
336.8013802883329
  0
LINE
  5
28D
330
18B
100
AcDbEntity
  8
2
100
AcDbLine
 10
1.375338678344234
 20
2.865169739363509
 30
0.0
 11
1.382659265123606
 21
2.882251084473872
 31
0.0
  0
ARC
  5
28E
330
18B
100
AcDbEntity
  8
2
100
AcDbCircle
 10
1.3742172303125
 20
2.899813143125
 30
0.0
 40
0.001220099375
100
AcDbArc
 50
23.19861971166717
 51
156.8013802883115
  0
LINE
  5
28F
330
18B
100
AcDbEntity
  8
2
100
AcDbLine
 10
1.446301744780766
 20
2.900293764386487
 30
0.0
 11
1.438981158001393
 21
2.883212419276129
 31
0.0
  0
LINE
  5
290
330
18B
100
AcDbEntity
  8
2
100
AcDbLine
 10
1.448544640844234
 20
2.900293764386487
 30
0.0
 11
1.455865227623606
 21
2.883212419276129
 31
0.0
  0
ARC
  5
291
330
18B
100
AcDbEntity
  8
2
100
AcDbCircle
 10
1.454743671932861
 20
2.882731751875001
 30
0.0
 40
0.00122021650454
100
AcDbArc
 50
336.8013802883256
 51
23.19861971167427
  0
LINE
  5
292
330
18B
100
AcDbEntity
  8
2
100
AcDbLine
 10
1.446301744780766
 20
2.865169739363509
 30
0.0
 11
1.438981158001393
 21
2.882251084473872
 31
0.0
  0
ARC
  5
293
330
18B
100
AcDbEntity
  8
2
100
AcDbCircle
 10
1.4474231928125
 20
2.865650360625
 30
0.0
 40
0.001220099375
100
AcDbArc
 50
203.1986197116885
 51
336.8013802883329
  0
ARC
  5
294
330
18B
100
AcDbEntity
  8
2
100
AcDbCircle
 10
1.45230370744214
 20
2.855889565625
 30
0.0
 40
0.00122021650454
100
AcDbArc
 50
156.8013802883257
 51
203.1986197116743
  0
ARC
  5
295
330
18B
100
AcDbEntity
  8
2
100
AcDbCircle
 10
1.440102713692139
 20
2.882731751875001
 30
0.0
 40
0.00122021650454
100
AcDbArc
 50
156.8013802883257
 51
203.1986197116743
  0
LINE
  5
296
330
18B
100
AcDbEntity
  8
2
100
AcDbLine
 10
1.458502738530766
 20
2.83832755311351
 30
0.0
 11
1.451182151751393
 21
2.855408898223871
 31
0.0
  0
LINE
  5
297
330
18B
100
AcDbEntity
  8
2
100
AcDbLine
 10
1.448544640844234
 20
2.865169739363509
 30
0.0
 11
1.455865227623606
 21
2.882251084473872
 31
0.0
  0
LINE
  5
298
330
18B
100
AcDbEntity
  8
2
100
AcDbLine
 10
1.458502738530766
 20
2.873451578136487
 30
0.0
 11
1.451182151751393
 21
2.856370233026129
 31
0.0
  0
ARC
  5
299
330
18B
100
AcDbEntity
  8
2
100
AcDbCircle
 10
1.4474231928125
 20
2.899813143125
 30
0.0
 40
0.001220099375
100
AcDbArc
 50
23.19861971166717
 51
156.8013802883115
  0
LINE
  5
29A
330
18B
100
AcDbEntity
  8
2
100
AcDbLine
 10
1.387539672094234
 20
2.83832755311351
 30
0.0
 11
1.394860258873606
 21
2.855408898223871
 31
0.0
  0
ARC
  5
29B
330
18B
100
AcDbEntity
  8
2
100
AcDbCircle
 10
1.39373870318286
 20
2.855889565625
 30
0.0
 40
0.00122021650454
100
AcDbArc
 50
336.8013802883256
 51
23.19861971167427
  0
ARC
  5
29C
330
18B
100
AcDbEntity
  8
2
100
AcDbCircle
 10
1.379097744942139
 20
2.855889565625
 30
0.0
 40
0.00122021650454
100
AcDbArc
 50
156.8013802883257
 51
203.1986197116743
  0
LINE
  5
29D
330
18B
100
AcDbEntity
  8
2
100
AcDbLine
 10
1.385296776030767
 20
2.83832755311351
 30
0.0
 11
1.377976189251393
 21
2.855408898223871
 31
0.0
  0
LINE
  5
29E
330
18B
100
AcDbEntity
  8
2
100
AcDbLine
 10
1.387539672094234
 20
2.873451578136487
 30
0.0
 11
1.394860258873606
 21
2.856370233026129
 31
0.0
  0
LINE
  5
29F
330
18B
100
AcDbEntity
  8
2
100
AcDbLine
 10
1.385296776030767
 20
2.873451578136487
 30
0.0
 11
1.377976189251393
 21
2.856370233026129
 31
0.0
  0
ARC
  5
2A0
330
18B
100
AcDbEntity
  8
2
100
AcDbCircle
 10
1.3864182240625
 20
2.872970956875
 30
0.0
 40
0.001220099375
100
AcDbArc
 50
23.19861971166717
 51
156.8013802883115
  0
LINE
  5
2A1
330
18B
100
AcDbEntity
  8
2
100
AcDbLine
 10
1.3742172303125
 20
2.9010332425
 30
0.0
 11
1.4474231928125
 21
2.9010332425
 31
0.0
  0
LINE
  5
2A2
330
18B
100
AcDbEntity
  8
4
100
AcDbLine
 10
1.525509552812501
 20
2.822946882500001
 30
0.0
 11
1.525509552812501
 21
2.904693540625
 31
0.0
  0
LINE
  5
2A3
330
18B
100
AcDbEntity
  8
4
100
AcDbLine
 10
1.531
 20
2.904693540625
 30
0.0
 11
1.531
 21
2.822946882500001
 31
0.0
  0
LINE
  5
2A4
330
18B
100
AcDbEntity
  8
2
100
AcDbLine
 10
1.460745634594234
 20
2.83832755311351
 30
0.0
 11
1.468066221373606
 21
2.855408898223871
 31
0.0
  0
LINE
  5
2A5
330
18B
100
AcDbEntity
  8
2
100
AcDbLine
 10
1.460745634594234
 20
2.873451578136487
 30
0.0
 11
1.468066221373606
 21
2.856370233026129
 31
0.0
  0
ARC
  5
2A6
330
18B
100
AcDbEntity
  8
2
100
AcDbCircle
 10
1.466944665682861
 20
2.855889565625
 30
0.0
 40
0.00122021650454
100
AcDbArc
 50
336.8013802883256
 51
23.19861971167427
  0
LINE
  5
2A7
330
18B
100
AcDbEntity
  8
4
100
AcDbLine
 10
1.531
 20
2.822946882500001
 30
0.0
 11
1.525509552812501
 21
2.822946882500001
 31
0.0
  0
LINE
  5
2A8
330
18B
100
AcDbEntity
  8
4
100
AcDbLine
 10
1.526894684830344
 20
2.8638202115625
 30
0.0
 11
1.529315782192449
 21
2.8638202115625
 31
0.0
  0
LINE
  5
2A9
330
18B
100
AcDbEntity
  8
4
  6
CENTER
100
AcDbLine
 10
1.533171622845591
 20
2.8638202115625
 30
0.0
 11
1.541600664182292
 21
2.8638202115625
 31
0.0
  0
LINE
  5
2AA
330
18B
100
AcDbEntity
  8
4
  6
CENTER
100
AcDbLine
 10
1.514968488663262
 20
2.8638202115625
 30
0.0
 11
1.522859495458277
 21
2.8638202115625
 31
0.0
  0
LINE
  5
2AB
330
18B
100
AcDbEntity
  8
4
100
AcDbLine
 10
1.525509552812501
 20
2.904693540625
 30
0.0
 11
1.531
 21
2.904693540625
 31
0.0
  0
LINE
  5
2AC
330
18B
100
AcDbEntity
  8
4
100
AcDbLine
 10
1.531
 20
2.904693540625
 30
0.0
 11
1.531
 21
2.984
 31
0.0
  0
ARC
  5
2AD
330
18B
100
AcDbEntity
  8
2
100
AcDbCircle
 10
1.4596241865625
 20
3.100811604375
 30
0.0
 40
0.001220099375
100
AcDbArc
 50
23.19861971166717
 51
156.8013802883115
  0
ARC
  5
2AE
330
18B
100
AcDbEntity
  8
2
100
AcDbCircle
 10
1.4596241865625
 20
3.066648821874999
 30
0.0
 40
0.001220099375
100
AcDbArc
 50
203.1986197116885
 51
336.8013802883329
  0
LINE
  5
2AF
330
18B
100
AcDbEntity
  8
2
100
AcDbLine
 10
1.373095782280766
 20
3.128134411886486
 30
0.0
 11
1.365775195501393
 21
3.111053066776129
 31
0.0
  0
LINE
  5
2B0
330
18B
100
AcDbEntity
  8
2
100
AcDbLine
 10
1.373095782280766
 20
3.093010386863509
 30
0.0
 11
1.365775195501393
 21
3.110091731973871
 31
0.0
  0
ARC
  5
2B1
330
18B
100
AcDbEntity
  8
2
100
AcDbCircle
 10
1.36689675119214
 20
3.110572399375
 30
0.0
 40
0.00122021650454
100
AcDbArc
 50
156.8013802883257
 51
203.1986197116743
  0
ARC
  5
2B2
330
18B
100
AcDbEntity
  8
2
100
AcDbCircle
 10
1.3742172303125
 20
3.127653790624999
 30
0.0
 40
0.001220099375
100
AcDbArc
 50
23.19861971166717
 51
156.8013802883115
  0
ARC
  5
2B3
330
18B
100
AcDbEntity
  8
2
100
AcDbCircle
 10
1.3742172303125
 20
3.093491008125
 30
0.0
 40
0.001220099375
100
AcDbArc
 50
203.1986197116885
 51
336.8013802883329
  0
LINE
  5
2B4
330
18B
100
AcDbEntity
  8
2
100
AcDbLine
 10
1.387539672094234
 20
3.066168200613509
 30
0.0
 11
1.394860258873606
 21
3.083249545723871
 31
0.0
  0
LINE
  5
2B5
330
18B
100
AcDbEntity
  8
2
100
AcDbLine
 10
1.387539672094234
 20
3.101292225636487
 30
0.0
 11
1.394860258873606
 21
3.084210880526129
 31
0.0
  0
ARC
  5
2B6
330
18B
100
AcDbEntity
  8
2
100
AcDbCircle
 10
1.39373870318286
 20
3.083730213125
 30
0.0
 40
0.00122021650454
100
AcDbArc
 50
336.8013802883256
 51
23.19861971167427
  0
ARC
  5
2B7
330
18B
100
AcDbEntity
  8
2
100
AcDbCircle
 10
1.38153770943286
 20
3.110572399375
 30
0.0
 40
0.00122021650454
100
AcDbArc
 50
336.8013802883256
 51
23.19861971167427
  0
ARC
  5
2B8
330
18B
100
AcDbEntity
  8
2
100
AcDbCircle
 10
1.3864182240625
 20
3.100811604375
 30
0.0
 40
0.001220099375
100
AcDbArc
 50
23.19861971166717
 51
156.8013802883115
  0
ARC
  5
2B9
330
18B
100
AcDbEntity
  8
2
100
AcDbCircle
 10
1.3864182240625
 20
3.066648821874999
 30
0.0
 40
0.001220099375
100
AcDbArc
 50
203.1986197116885
 51
336.8013802883329
  0
ARC
  5
2BA
330
18B
100
AcDbEntity
  8
2
100
AcDbCircle
 10
1.379097744942139
 20
3.083730213125
 30
0.0
 40
0.00122021650454
100
AcDbArc
 50
156.8013802883257
 51
203.1986197116743
  0
LINE
  5
2BB
330
18B
100
AcDbEntity
  8
2
100
AcDbLine
 10
1.385296776030767
 20
3.066168200613509
 30
0.0
 11
1.377976189251393
 21
3.083249545723871
 31
0.0
  0
LINE
  5
2BC
330
18B
100
AcDbEntity
  8
2
100
AcDbLine
 10
1.375338678344234
 20
3.128134411886486
 30
0.0
 11
1.382659265123606
 21
3.111053066776129
 31
0.0
  0
LINE
  5
2BD
330
18B
100
AcDbEntity
  8
2
100
AcDbLine
 10
1.375338678344234
 20
3.093010386863509
 30
0.0
 11
1.382659265123606
 21
3.110091731973871
 31
0.0
  0
LINE
  5
2BE
330
18B
100
AcDbEntity
  8
2
100
AcDbLine
 10
1.385296776030767
 20
3.101292225636487
 30
0.0
 11
1.377976189251393
 21
3.084210880526129
 31
0.0
  0
ARC
  5
2BF
330
18B
100
AcDbEntity
  8
2
100
AcDbCircle
 10
1.454743671932861
 20
3.110572399375
 30
0.0
 40
0.00122021650454
100
AcDbArc
 50
336.8013802883256
 51
23.19861971167427
  0
ARC
  5
2C0
330
18B
100
AcDbEntity
  8
2
100
AcDbCircle
 10
1.45230370744214
 20
3.083730213125
 30
0.0
 40
0.00122021650454
100
AcDbArc
 50
156.8013802883257
 51
203.1986197116743
  0
LINE
  5
2C1
330
18B
100
AcDbEntity
  8
2
100
AcDbLine
 10
1.458502738530766
 20
3.066168200613509
 30
0.0
 11
1.451182151751393
 21
3.083249545723871
 31
0.0
  0
LINE
  5
2C2
330
18B
100
AcDbEntity
  8
2
100
AcDbLine
 10
1.448544640844234
 20
3.128134411886486
 30
0.0
 11
1.455865227623606
 21
3.111053066776129
 31
0.0
  0
LINE
  5
2C3
330
18B
100
AcDbEntity
  8
2
100
AcDbLine
 10
1.448544640844234
 20
3.093010386863509
 30
0.0
 11
1.455865227623606
 21
3.110091731973871
 31
0.0
  0
LINE
  5
2C4
330
18B
100
AcDbEntity
  8
2
100
AcDbLine
 10
1.458502738530766
 20
3.101292225636487
 30
0.0
 11
1.451182151751393
 21
3.084210880526129
 31
0.0
  0
ARC
  5
2C5
330
18B
100
AcDbEntity
  8
2
100
AcDbCircle
 10
1.440102713692139
 20
3.110572399375
 30
0.0
 40
0.00122021650454
100
AcDbArc
 50
156.8013802883257
 51
203.1986197116743
  0
LINE
  5
2C6
330
18B
100
AcDbEntity
  8
2
100
AcDbLine
 10
1.446301744780766
 20
3.128134411886486
 30
0.0
 11
1.438981158001393
 21
3.111053066776129
 31
0.0
  0
LINE
  5
2C7
330
18B
100
AcDbEntity
  8
2
100
AcDbLine
 10
1.446301744780766
 20
3.093010386863509
 30
0.0
 11
1.438981158001393
 21
3.110091731973871
 31
0.0
  0
ARC
  5
2C8
330
18B
100
AcDbEntity
  8
2
100
AcDbCircle
 10
1.4474231928125
 20
3.127653790624999
 30
0.0
 40
0.001220099375
100
AcDbArc
 50
23.19861971166717
 51
156.8013802883115
  0
ARC
  5
2C9
330
18B
100
AcDbEntity
  8
2
100
AcDbCircle
 10
1.4474231928125
 20
3.093491008125
 30
0.0
 40
0.001220099375
100
AcDbArc
 50
203.1986197116885
 51
336.8013802883329
  0
LINE
  5
2CA
330
18B
100
AcDbEntity
  8
2
100
AcDbLine
 10
1.3864182240625
 20
3.0654287225
 30
0.0
 11
1.4596241865625
 21
3.0654287225
 31
0.0
  0
LINE
  5
2CB
330
18B
100
AcDbEntity
  8
2
100
AcDbLine
 10
1.460745634594234
 20
3.066168200613509
 30
0.0
 11
1.468066221373606
 21
3.083249545723871
 31
0.0
  0
LINE
  5
2CC
330
18B
100
AcDbEntity
  8
2
100
AcDbLine
 10
1.460745634594234
 20
3.101292225636487
 30
0.0
 11
1.468066221373606
 21
3.084210880526129
 31
0.0
  0
ARC
  5
2CD
330
18B
100
AcDbEntity
  8
2
100
AcDbCircle
 10
1.466944665682861
 20
3.083730213125
 30
0.0
 40
0.00122021650454
100
AcDbArc
 50
336.8013802883256
 51
23.19861971167427
  0
LINE
  5
2CE
330
18B
100
AcDbEntity
  8
4
100
AcDbLine
 10
1.531
 20
3.0953211571875
 30
0.0
 11
1.531
 21
3.0160146978125
 31
0.0
  0
LINE
  5
2CF
330
18B
100
AcDbEntity
  8
4
  6
CENTER
100
AcDbLine
 10
1.533171622845591
 20
3.136194486249999
 30
0.0
 11
1.541600664182292
 21
3.136194486249999
 31
0.0
  0
LINE
  5
2D0
330
18B
100
AcDbEntity
  8
4
100
AcDbLine
 10
1.526894684830344
 20
3.136194486249999
 30
0.0
 11
1.529315782192449
 21
3.136194486249999
 31
0.0
  0
LINE
  5
2D1
330
18B
100
AcDbEntity
  8
4
100
AcDbLine
 10
1.525509552812501
 20
3.0953211571875
 30
0.0
 11
1.531
 21
3.0953211571875
 31
0.0
  0
LINE
  5
2D2
330
18B
100
AcDbEntity
  8
4
  6
CENTER
100
AcDbLine
 10
1.514968488663262
 20
3.136194486249999
 30
0.0
 11
1.522859495458277
 21
3.136194486249999
 31
0.0
  0
CIRCLE
  5
2D3
330
18B
100
AcDbEntity
  8
4
100
AcDbCircle
 10
1.185507453125
 20
3.355492651093749
 30
0.0
 40
0.0128110434375
  0
LINE
  5
2D4
330
18B
100
AcDbEntity
  8
4
100
AcDbLine
 10
1.119088144895451
 20
3.429311039329027
 30
0.0
 11
1.127334725359051
 21
3.297365751911441
 31
0.0
  0
LINE
  5
2D5
330
18B
100
AcDbEntity
  8
4
100
AcDbLine
 10
1.267168517895726
 20
3.438462972665414
 30
0.0
 11
1.25704071203628
 21
3.276418078914272
 31
0.0
  0
LINE
  5
2D6
330
18B
100
AcDbEntity
  8
4
100
AcDbLine
 10
1.251926761354549
 20
3.429311039329027
 30
0.0
 11
1.243680180890949
 21
3.297384134109027
 31
0.0
  0
LINE
  5
2D7
330
18B
100
AcDbEntity
  8
4
100
AcDbLine
 10
1.185507453125
 20
3.252394253906249
 30
0.0
 11
1.231468522164573
 21
3.252394253906249
 31
0.0
  0
ARC
  5
2D8
330
18B
100
AcDbEntity
  8
4
100
AcDbCircle
 10
1.224196607655363
 20
3.298601857436253
 30
0.0
 40
0.01952159
100
AcDbArc
 50
270.0
 51
356.4236656250016
  0
ARC
  5
2D9
330
18B
100
AcDbEntity
  8
4
100
AcDbCircle
 10
1.146818298594636
 20
3.298601857436253
 30
0.0
 40
0.01952159
100
AcDbArc
 50
183.5763343749981
 51
270.0
  0
LINE
  5
2DA
330
18B
100
AcDbEntity
  8
4
100
AcDbLine
 10
1.185507453125
 20
3.252394253906249
 30
0.0
 11
1.139546384085427
 21
3.252394253906249
 31
0.0
  0
ARC
  5
2DB
330
18B
100
AcDbEntity
  8
4
100
AcDbCircle
 10
1.139546384085427
 20
3.278016340781249
 30
0.0
 40
0.025622086875
100
AcDbArc
 50
183.5763343749981
 51
270.0
  0
LINE
  5
2DC
330
18B
100
AcDbEntity
  8
4
100
AcDbLine
 10
1.185507453125
 20
3.279080267436249
 30
0.0
 11
1.224196607655363
 21
3.279080267436254
 31
0.0
  0
CIRCLE
  5
2DD
330
18B
100
AcDbEntity
  8
4
100
AcDbCircle
 10
1.185507453125
 20
3.263375148281253
 30
0.0
 40
0.007023868082
  0
LINE
  5
2DE
330
18B
100
AcDbEntity
  8
4
100
AcDbLine
 10
1.185507453125
 20
3.279080267436249
 30
0.0
 11
1.146818298594636
 21
3.279080267436254
 31
0.0
  0
CIRCLE
  5
2DF
330
18B
100
AcDbEntity
  8
4
100
AcDbCircle
 10
1.185507453125
 20
3.312818455353751
 30
0.0
 40
0.00425570662
  0
ARC
  5
2E0
330
18B
100
AcDbEntity
  8
4
100
AcDbCircle
 10
1.231468522164573
 20
3.278016340781249
 30
0.0
 40
0.025622086875
100
AcDbArc
 50
270.0
 51
356.4236656250016
  0
LINE
  5
2E1
330
18B
100
AcDbEntity
  8
4
100
AcDbLine
 10
1.185507453125
 20
3.45005035265625
 30
0.0
 11
1.232443188118963
 21
3.45005035265625
 31
0.0
  0
LINE
  5
2E2
330
18B
100
AcDbEntity
  8
4
100
AcDbLine
 10
1.185507453125
 20
3.46957194265625
 30
0.0
 11
1.237943158042347
 21
3.46957194265625
 31
0.0
  0
LINE
  5
2E3
330
18B
100
AcDbEntity
  8
4
 62
   130
100
AcDbLine
 10
1.143933307552268
 20
3.435312966528111
 30
0.0
 11
1.164665236132268
 21
3.414581037948113
 31
0.0
  0
LINE
  5
2E4
330
18B
100
AcDbEntity
  8
4
100
AcDbLine
 10
1.13707276529414
 20
3.430137945927701
 30
0.0
 11
1.159490215531855
 21
3.407720495689988
 31
0.0
  0
LINE
  5
2E5
330
18B
100
AcDbEntity
  8
4
100
AcDbLine
 10
1.140523727461276
 20
3.433588908094837
 30
0.0
 11
1.16294117769899
 21
3.411171457857124
 31
0.0
  0
LINE
  5
2E6
330
18B
100
AcDbEntity
  8
4
 62
   130
100
AcDbLine
 10
1.135319705983096
 20
3.426699364958943
 30
0.0
 11
1.156051634563096
 21
3.40596743637894
 31
0.0
  0
LINE
  5
2E7
330
18B
100
AcDbEntity
  8
4
100
AcDbLine
 10
1.185507453125
 20
3.46957194265625
 30
0.0
 11
1.133071748207654
 21
3.46957194265625
 31
0.0
  0
LINE
  5
2E8
330
18B
100
AcDbEntity
  8
4
100
AcDbLine
 10
1.185507453125
 20
3.45005035265625
 30
0.0
 11
1.138571718131037
 21
3.45005035265625
 31
0.0
  0
LINE
  5
2E9
330
18B
100
AcDbEntity
  8
4
100
AcDbLine
 10
1.140523727461276
 20
3.433588908094837
 30
0.0
 11
1.13707276529414
 21
3.430137945927701
 31
0.0
  0
ARC
  5
2EA
330
18B
100
AcDbEntity
  8
4
 62
   130
100
AcDbCircle
 10
1.139626506767683
 20
3.431006165743527
 30
0.0
 40
0.00609073608
100
AcDbArc
 50
45.00000000000031
 51
225.0000000000003
  0
ARC
  5
2EB
330
18B
100
AcDbEntity
  8
4
100
AcDbCircle
 10
1.138571718131037
 20
3.430528762656249
 30
0.0
 40
0.01952159
100
AcDbArc
 50
90.0
 51
183.5763343749981
  0
LINE
  5
2EC
330
18B
100
AcDbEntity
  8
4
100
AcDbLine
 10
1.145713974560648
 20
3.428398660995469
 30
0.0
 11
1.142263012393512
 21
3.424947698828332
 31
0.0
  0
ARC
  5
2ED
330
18B
100
AcDbEntity
  8
4
 62
   130
100
AcDbCircle
 10
1.160358435347683
 20
3.410274237163529
 30
0.0
 40
0.00609073608
100
AcDbArc
 50
225.0000000000003
 51
45.00000000000031
  0
LINE
  5
2EE
330
18B
100
AcDbEntity
  8
4
100
AcDbLine
 10
1.157750930599618
 20
3.416361704956496
 30
0.0
 11
1.154299968432482
 21
3.41291074278936
 31
0.0
  0
LINE
  5
2EF
330
18B
100
AcDbEntity
  8
4
100
AcDbLine
 10
1.159490215531855
 20
3.407720495689988
 30
0.0
 11
1.16294117769899
 21
3.411171457857124
 31
0.0
  0
CIRCLE
  5
2F0
330
18B
100
AcDbEntity
  8
4
100
AcDbCircle
 10
1.185507453125
 20
3.398166846833753
 30
0.0
 40
0.00425570662
  0
ARC
  5
2F1
330
18B
100
AcDbEntity
  8
4
100
AcDbCircle
 10
1.232443188118963
 20
3.430528762656249
 30
0.0
 40
0.01952159
100
AcDbArc
 50
356.4236656250016
 51
90.0
  0
ARC
  5
2F2
330
18B
100
AcDbEntity
  8
4
100
AcDbCircle
 10
1.237943158042347
 20
3.440289557656249
 30
0.0
 40
0.029282385
100
AcDbArc
 50
356.4236656250016
 51
90.0
  0
LINE
  5
2F3
330
18B
100
AcDbEntity
  8
4
100
AcDbLine
 10
1.531
 20
3.1770678153125
 30
0.0
 11
1.525509552812501
 21
3.1770678153125
 31
0.0
  0
LINE
  5
2F4
330
18B
100
AcDbEntity
  8
4
100
AcDbLine
 10
1.531
 20
3.695
 30
0.0
 11
1.094
 21
3.694985302187499
 31
0.0
  0
ARC
  5
2F5
330
18B
100
AcDbEntity
  8
4
100
AcDbCircle
 10
1.133071748207654
 20
4.15128955765625
 30
0.0
 40
0.029282385
100
AcDbArc
 50
90.0
 51
183.5763343749981
  0
LINE
  5
2F6
330
18B
100
AcDbEntity
  8
4
100
AcDbLine
 10
1.103846388354273
 20
4.149462972665414
 30
0.0
 11
1.113974194213721
 21
3.987418078914272
 31
0.0
  0
LINE
  5
2F7
330
18B
100
AcDbEntity
  8
4
100
AcDbLine
 10
1.531
 20
3.7270146978125
 30
0.0
 11
1.094
 21
3.727
 31
0.0
  0
LINE
  5
2F8
330
18B
100
AcDbEntity
  8
4
100
AcDbLine
 10
1.531
 20
3.7270146978125
 30
0.0
 11
1.094
 21
3.727
 31
0.0
  0
LINE
  5
2F9
330
18B
100
AcDbEntity
  8
4
100
AcDbLine
 10
1.531
 20
3.8063211571875
 30
0.0
 11
1.531
 21
3.8880678153125
 31
0.0
  0
LINE
  5
2FA
330
18B
100
AcDbEntity
  8
4
100
AcDbLine
 10
1.525509552812501
 20
3.8880678153125
 30
0.0
 11
1.525509552812501
 21
3.8063211571875
 31
0.0
  0
ARC
  5
2FB
330
18B
100
AcDbEntity
  8
4
100
AcDbCircle
 10
1.284945552187499
 20
3.901186976959996
 30
0.0
 40
0.27330226
100
AcDbArc
 50
261.40466153832
 51
278.5953384616799
  0
ARC
  5
2FC
330
18B
100
AcDbEntity
  8
4
100
AcDbCircle
 10
1.284945552187499
 20
3.394845736334996
 30
0.0
 40
0.27330226
100
AcDbArc
 50
81.40466153832003
 51
98.59533846167998
  0
ARC
  5
2FD
330
18B
100
AcDbEntity
  8
4
100
AcDbCircle
 10
1.3215485334375
 20
3.648016356647496
 30
0.0
 40
0.079306459375
100
AcDbArc
 50
167.5762104955835
 51
192.4237895044164
  0
CIRCLE
  5
2FE
330
18B
100
AcDbEntity
  8
4
100
AcDbCircle
 10
1.2483425709375
 20
3.648016356647496
 30
0.0
 40
0.00265493624
  0
LINE
  5
2FF
330
18B
100
AcDbEntity
  8
4
100
AcDbLine
 10
1.2448286847375
 20
3.648016356647496
 30
0.0
 11
1.2518564571375
 21
3.648016356647496
 31
0.0
  0
LINE
  5
300
330
18B
100
AcDbEntity
  8
4
100
AcDbLine
 10
1.2483425709375
 20
3.644502470447499
 30
0.0
 11
1.2483425709375
 21
3.651530242847497
 31
0.0
  0
ARC
  5
301
330
18B
100
AcDbEntity
  8
4
100
AcDbCircle
 10
1.2483425709375
 20
3.648016356647496
 30
0.0
 40
0.079306459375
100
AcDbArc
 50
347.5762104955836
 51
12.42378950441649
  0
LINE
  5
302
330
18B
100
AcDbEntity
  8
4
100
AcDbLine
 10
1.3215485334375
 20
3.644502470447499
 30
0.0
 11
1.3215485334375
 21
3.651530242847497
 31
0.0
  0
CIRCLE
  5
303
330
18B
100
AcDbEntity
  8
4
100
AcDbCircle
 10
1.3215485334375
 20
3.648016356647496
 30
0.0
 40
0.00265493624
  0
LINE
  5
304
330
18B
100
AcDbEntity
  8
4
100
AcDbLine
 10
1.318034647237499
 20
3.648016356647496
 30
0.0
 11
1.3250624196375
 21
3.648016356647496
 31
0.0
  0
ARC
  5
305
330
18B
100
AcDbEntity
  8
2
100
AcDbCircle
 10
1.4596241865625
 20
3.583970956874999
 30
0.0
 40
0.001220099375
100
AcDbArc
 50
23.19861971166717
 51
156.8013802883115
  0
ARC
  5
306
330
18B
100
AcDbEntity
  8
2
100
AcDbCircle
 10
1.4596241865625
 20
3.549808174375
 30
0.0
 40
0.001220099375
100
AcDbArc
 50
203.1986197116885
 51
336.8013802883329
  0
LINE
  5
307
330
18B
100
AcDbEntity
  8
2
100
AcDbLine
 10
1.373095782280766
 20
3.611293764386487
 30
0.0
 11
1.365775195501393
 21
3.594212419276129
 31
0.0
  0
LINE
  5
308
330
18B
100
AcDbEntity
  8
2
100
AcDbLine
 10
1.375338678344234
 20
3.611293764386487
 30
0.0
 11
1.382659265123606
 21
3.594212419276129
 31
0.0
  0
LINE
  5
309
330
18B
100
AcDbEntity
  8
2
100
AcDbLine
 10
1.373095782280766
 20
3.576169739363509
 30
0.0
 11
1.365775195501393
 21
3.593251084473871
 31
0.0
  0
ARC
  5
30A
330
18B
100
AcDbEntity
  8
2
100
AcDbCircle
 10
1.36689675119214
 20
3.593731751875
 30
0.0
 40
0.00122021650454
100
AcDbArc
 50
156.8013802883257
 51
203.1986197116743
  0
ARC
  5
30B
330
18B
100
AcDbEntity
  8
2
100
AcDbCircle
 10
1.3742172303125
 20
3.576650360624999
 30
0.0
 40
0.001220099375
100
AcDbArc
 50
203.1986197116885
 51
336.8013802883329
  0
ARC
  5
30C
330
18B
100
AcDbEntity
  8
2
100
AcDbCircle
 10
1.38153770943286
 20
3.593731751875
 30
0.0
 40
0.00122021650454
100
AcDbArc
 50
336.8013802883256
 51
23.19861971167427
  0
ARC
  5
30D
330
18B
100
AcDbEntity
  8
2
100
AcDbCircle
 10
1.3864182240625
 20
3.549808174375
 30
0.0
 40
0.001220099375
100
AcDbArc
 50
203.1986197116885
 51
336.8013802883329
  0
LINE
  5
30E
330
18B
100
AcDbEntity
  8
2
100
AcDbLine
 10
1.375338678344234
 20
3.576169739363509
 30
0.0
 11
1.382659265123606
 21
3.593251084473871
 31
0.0
  0
ARC
  5
30F
330
18B
100
AcDbEntity
  8
2
100
AcDbCircle
 10
1.3742172303125
 20
3.610813143125
 30
0.0
 40
0.001220099375
100
AcDbArc
 50
23.19861971166717
 51
156.8013802883115
  0
LINE
  5
310
330
18B
100
AcDbEntity
  8
2
100
AcDbLine
 10
1.446301744780766
 20
3.611293764386487
 30
0.0
 11
1.438981158001393
 21
3.594212419276129
 31
0.0
  0
LINE
  5
311
330
18B
100
AcDbEntity
  8
2
100
AcDbLine
 10
1.448544640844234
 20
3.611293764386487
 30
0.0
 11
1.455865227623606
 21
3.594212419276129
 31
0.0
  0
ARC
  5
312
330
18B
100
AcDbEntity
  8
2
100
AcDbCircle
 10
1.454743671932861
 20
3.593731751875
 30
0.0
 40
0.00122021650454
100
AcDbArc
 50
336.8013802883256
 51
23.19861971167427
  0
LINE
  5
313
330
18B
100
AcDbEntity
  8
2
100
AcDbLine
 10
1.446301744780766
 20
3.576169739363509
 30
0.0
 11
1.438981158001393
 21
3.593251084473871
 31
0.0
  0
ARC
  5
314
330
18B
100
AcDbEntity
  8
2
100
AcDbCircle
 10
1.4474231928125
 20
3.576650360624999
 30
0.0
 40
0.001220099375
100
AcDbArc
 50
203.1986197116885
 51
336.8013802883329
  0
ARC
  5
315
330
18B
100
AcDbEntity
  8
2
100
AcDbCircle
 10
1.45230370744214
 20
3.566889565624999
 30
0.0
 40
0.00122021650454
100
AcDbArc
 50
156.8013802883257
 51
203.1986197116743
  0
ARC
  5
316
330
18B
100
AcDbEntity
  8
2
100
AcDbCircle
 10
1.440102713692139
 20
3.593731751875
 30
0.0
 40
0.00122021650454
100
AcDbArc
 50
156.8013802883257
 51
203.1986197116743
  0
LINE
  5
317
330
18B
100
AcDbEntity
  8
2
100
AcDbLine
 10
1.458502738530766
 20
3.549327553113509
 30
0.0
 11
1.451182151751393
 21
3.566408898223871
 31
0.0
  0
LINE
  5
318
330
18B
100
AcDbEntity
  8
2
100
AcDbLine
 10
1.448544640844234
 20
3.576169739363509
 30
0.0
 11
1.455865227623606
 21
3.593251084473871
 31
0.0
  0
LINE
  5
319
330
18B
100
AcDbEntity
  8
2
100
AcDbLine
 10
1.458502738530766
 20
3.584451578136486
 30
0.0
 11
1.451182151751393
 21
3.567370233026128
 31
0.0
  0
ARC
  5
31A
330
18B
100
AcDbEntity
  8
2
100
AcDbCircle
 10
1.4474231928125
 20
3.610813143125
 30
0.0
 40
0.001220099375
100
AcDbArc
 50
23.19861971166717
 51
156.8013802883115
  0
LINE
  5
31B
330
18B
100
AcDbEntity
  8
2
100
AcDbLine
 10
1.387539672094234
 20
3.549327553113509
 30
0.0
 11
1.394860258873606
 21
3.566408898223871
 31
0.0
  0
ARC
  5
31C
330
18B
100
AcDbEntity
  8
2
100
AcDbCircle
 10
1.39373870318286
 20
3.566889565624999
 30
0.0
 40
0.00122021650454
100
AcDbArc
 50
336.8013802883256
 51
23.19861971167427
  0
ARC
  5
31D
330
18B
100
AcDbEntity
  8
2
100
AcDbCircle
 10
1.379097744942139
 20
3.566889565624999
 30
0.0
 40
0.00122021650454
100
AcDbArc
 50
156.8013802883257
 51
203.1986197116743
  0
LINE
  5
31E
330
18B
100
AcDbEntity
  8
2
100
AcDbLine
 10
1.385296776030767
 20
3.549327553113509
 30
0.0
 11
1.377976189251393
 21
3.566408898223871
 31
0.0
  0
LINE
  5
31F
330
18B
100
AcDbEntity
  8
2
100
AcDbLine
 10
1.387539672094234
 20
3.584451578136486
 30
0.0
 11
1.394860258873606
 21
3.567370233026128
 31
0.0
  0
LINE
  5
320
330
18B
100
AcDbEntity
  8
2
100
AcDbLine
 10
1.385296776030767
 20
3.584451578136486
 30
0.0
 11
1.377976189251393
 21
3.567370233026128
 31
0.0
  0
ARC
  5
321
330
18B
100
AcDbEntity
  8
2
100
AcDbCircle
 10
1.3864182240625
 20
3.583970956874999
 30
0.0
 40
0.001220099375
100
AcDbArc
 50
23.19861971166717
 51
156.8013802883115
  0
LINE
  5
322
330
18B
100
AcDbEntity
  8
2
100
AcDbLine
 10
1.3742172303125
 20
3.612033242499999
 30
0.0
 11
1.4474231928125
 21
3.612033242499999
 31
0.0
  0
LINE
  5
323
330
18B
100
AcDbEntity
  8
4
100
AcDbLine
 10
1.525509552812501
 20
3.5339468825
 30
0.0
 11
1.525509552812501
 21
3.615693540625
 31
0.0
  0
LINE
  5
324
330
18B
100
AcDbEntity
  8
4
100
AcDbLine
 10
1.531
 20
3.615693540625
 30
0.0
 11
1.531
 21
3.5339468825
 31
0.0
  0
LINE
  5
325
330
18B
100
AcDbEntity
  8
2
100
AcDbLine
 10
1.460745634594234
 20
3.549327553113509
 30
0.0
 11
1.468066221373606
 21
3.566408898223871
 31
0.0
  0
LINE
  5
326
330
18B
100
AcDbEntity
  8
2
100
AcDbLine
 10
1.460745634594234
 20
3.584451578136486
 30
0.0
 11
1.468066221373606
 21
3.567370233026128
 31
0.0
  0
ARC
  5
327
330
18B
100
AcDbEntity
  8
2
100
AcDbCircle
 10
1.466944665682861
 20
3.566889565624999
 30
0.0
 40
0.00122021650454
100
AcDbArc
 50
336.8013802883256
 51
23.19861971167427
  0
LINE
  5
328
330
18B
100
AcDbEntity
  8
4
100
AcDbLine
 10
1.531
 20
3.5339468825
 30
0.0
 11
1.525509552812501
 21
3.5339468825
 31
0.0
  0
LINE
  5
329
330
18B
100
AcDbEntity
  8
4
100
AcDbLine
 10
1.526894684830344
 20
3.574820211562499
 30
0.0
 11
1.529315782192449
 21
3.574820211562499
 31
0.0
  0
LINE
  5
32A
330
18B
100
AcDbEntity
  8
4
  6
CENTER
100
AcDbLine
 10
1.533171622845591
 20
3.574820211562499
 30
0.0
 11
1.541600664182292
 21
3.574820211562499
 31
0.0
  0
LINE
  5
32B
330
18B
100
AcDbEntity
  8
4
  6
CENTER
100
AcDbLine
 10
1.514968488663262
 20
3.574820211562499
 30
0.0
 11
1.522859495458277
 21
3.574820211562499
 31
0.0
  0
LINE
  5
32C
330
18B
100
AcDbEntity
  8
4
100
AcDbLine
 10
1.525509552812501
 20
3.615693540625
 30
0.0
 11
1.531
 21
3.615693540625
 31
0.0
  0
LINE
  5
32D
330
18B
100
AcDbEntity
  8
4
100
AcDbLine
 10
1.531
 20
3.615693540625
 30
0.0
 11
1.531
 21
3.695
 31
0.0
  0
ARC
  5
32E
330
18B
100
AcDbEntity
  8
2
100
AcDbCircle
 10
1.4596241865625
 20
3.777648821875
 30
0.0
 40
0.001220099375
100
AcDbArc
 50
203.1986197116885
 51
336.8013802883329
  0
ARC
  5
32F
330
18B
100
AcDbEntity
  8
2
100
AcDbCircle
 10
1.4596241865625
 20
3.811811604375
 30
0.0
 40
0.001220099375
100
AcDbArc
 50
23.19861971166717
 51
156.8013802883115
  0
LINE
  5
330
330
18B
100
AcDbEntity
  8
2
100
AcDbLine
 10
1.3864182240625
 20
3.7764287225
 30
0.0
 11
1.4596241865625
 21
3.7764287225
 31
0.0
  0
ARC
  5
331
330
18B
100
AcDbEntity
  8
2
100
AcDbCircle
 10
1.4474231928125
 20
3.804491008125
 30
0.0
 40
0.001220099375
100
AcDbArc
 50
203.1986197116885
 51
336.8013802883329
  0
ARC
  5
332
330
18B
100
AcDbEntity
  8
2
100
AcDbCircle
 10
1.4474231928125
 20
3.838653790625
 30
0.0
 40
0.001220099375
100
AcDbArc
 50
23.19861971166717
 51
156.8013802883115
  0
LINE
  5
333
330
18B
100
AcDbEntity
  8
2
100
AcDbLine
 10
1.446301744780766
 20
3.80401038686351
 30
0.0
 11
1.438981158001393
 21
3.821091731973871
 31
0.0
  0
LINE
  5
334
330
18B
100
AcDbEntity
  8
2
100
AcDbLine
 10
1.446301744780766
 20
3.839134411886487
 30
0.0
 11
1.438981158001393
 21
3.822053066776129
 31
0.0
  0
ARC
  5
335
330
18B
100
AcDbEntity
  8
2
100
AcDbCircle
 10
1.440102713692139
 20
3.821572399375
 30
0.0
 40
0.00122021650454
100
AcDbArc
 50
156.8013802883257
 51
203.1986197116743
  0
LINE
  5
336
330
18B
100
AcDbEntity
  8
2
100
AcDbLine
 10
1.458502738530766
 20
3.812292225636487
 30
0.0
 11
1.451182151751393
 21
3.795210880526129
 31
0.0
  0
LINE
  5
337
330
18B
100
AcDbEntity
  8
2
100
AcDbLine
 10
1.448544640844234
 20
3.80401038686351
 30
0.0
 11
1.455865227623606
 21
3.821091731973871
 31
0.0
  0
LINE
  5
338
330
18B
100
AcDbEntity
  8
2
100
AcDbLine
 10
1.448544640844234
 20
3.839134411886487
 30
0.0
 11
1.455865227623606
 21
3.822053066776129
 31
0.0
  0
LINE
  5
339
330
18B
100
AcDbEntity
  8
2
100
AcDbLine
 10
1.458502738530766
 20
3.777168200613509
 30
0.0
 11
1.451182151751393
 21
3.794249545723872
 31
0.0
  0
ARC
  5
33A
330
18B
100
AcDbEntity
  8
2
100
AcDbCircle
 10
1.45230370744214
 20
3.794730213125
 30
0.0
 40
0.00122021650454
100
AcDbArc
 50
156.8013802883257
 51
203.1986197116743
  0
ARC
  5
33B
330
18B
100
AcDbEntity
  8
2
100
AcDbCircle
 10
1.454743671932861
 20
3.821572399375
 30
0.0
 40
0.00122021650454
100
AcDbArc
 50
336.8013802883256
 51
23.19861971167426
  0
LINE
  5
33C
330
18B
100
AcDbEntity
  8
2
100
AcDbLine
 10
1.385296776030767
 20
3.812292225636487
 30
0.0
 11
1.377976189251393
 21
3.795210880526129
 31
0.0
  0
LINE
  5
33D
330
18B
100
AcDbEntity
  8
2
100
AcDbLine
 10
1.375338678344234
 20
3.80401038686351
 30
0.0
 11
1.382659265123606
 21
3.821091731973871
 31
0.0
  0
LINE
  5
33E
330
18B
100
AcDbEntity
  8
2
100
AcDbLine
 10
1.375338678344234
 20
3.839134411886487
 30
0.0
 11
1.382659265123606
 21
3.822053066776129
 31
0.0
  0
LINE
  5
33F
330
18B
100
AcDbEntity
  8
2
100
AcDbLine
 10
1.385296776030767
 20
3.777168200613509
 30
0.0
 11
1.377976189251393
 21
3.794249545723872
 31
0.0
  0
ARC
  5
340
330
18B
100
AcDbEntity
  8
2
100
AcDbCircle
 10
1.379097744942139
 20
3.794730213125
 30
0.0
 40
0.00122021650454
100
AcDbArc
 50
156.8013802883257
 51
203.1986197116743
  0
ARC
  5
341
330
18B
100
AcDbEntity
  8
2
100
AcDbCircle
 10
1.3864182240625
 20
3.777648821875
 30
0.0
 40
0.001220099375
100
AcDbArc
 50
203.1986197116885
 51
336.8013802883329
  0
ARC
  5
342
330
18B
100
AcDbEntity
  8
2
100
AcDbCircle
 10
1.3864182240625
 20
3.811811604375
 30
0.0
 40
0.001220099375
100
AcDbArc
 50
23.19861971166717
 51
156.8013802883115
  0
ARC
  5
343
330
18B
100
AcDbEntity
  8
2
100
AcDbCircle
 10
1.38153770943286
 20
3.821572399375
 30
0.0
 40
0.00122021650454
100
AcDbArc
 50
336.8013802883256
 51
23.19861971167426
  0
ARC
  5
344
330
18B
100
AcDbEntity
  8
2
100
AcDbCircle
 10
1.39373870318286
 20
3.794730213125
 30
0.0
 40
0.00122021650454
100
AcDbArc
 50
336.8013802883256
 51
23.19861971167426
  0
LINE
  5
345
330
18B
100
AcDbEntity
  8
2
100
AcDbLine
 10
1.387539672094234
 20
3.812292225636487
 30
0.0
 11
1.394860258873606
 21
3.795210880526129
 31
0.0
  0
LINE
  5
346
330
18B
100
AcDbEntity
  8
2
100
AcDbLine
 10
1.387539672094234
 20
3.777168200613509
 30
0.0
 11
1.394860258873606
 21
3.794249545723872
 31
0.0
  0
ARC
  5
347
330
18B
100
AcDbEntity
  8
2
100
AcDbCircle
 10
1.3742172303125
 20
3.804491008125
 30
0.0
 40
0.001220099375
100
AcDbArc
 50
203.1986197116885
 51
336.8013802883329
  0
ARC
  5
348
330
18B
100
AcDbEntity
  8
2
100
AcDbCircle
 10
1.3742172303125
 20
3.838653790625
 30
0.0
 40
0.001220099375
100
AcDbArc
 50
23.19861971166717
 51
156.8013802883115
  0
ARC
  5
349
330
18B
100
AcDbEntity
  8
2
100
AcDbCircle
 10
1.36689675119214
 20
3.821572399375
 30
0.0
 40
0.00122021650454
100
AcDbArc
 50
156.8013802883257
 51
203.1986197116743
  0
LINE
  5
34A
330
18B
100
AcDbEntity
  8
2
100
AcDbLine
 10
1.373095782280766
 20
3.80401038686351
 30
0.0
 11
1.365775195501393
 21
3.821091731973871
 31
0.0
  0
LINE
  5
34B
330
18B
100
AcDbEntity
  8
2
100
AcDbLine
 10
1.373095782280766
 20
3.839134411886487
 30
0.0
 11
1.365775195501393
 21
3.822053066776129
 31
0.0
  0
LINE
  5
34C
330
18B
100
AcDbEntity
  8
4
  6
CENTER
100
AcDbLine
 10
1.514968488663262
 20
3.84719448625
 30
0.0
 11
1.522859495458277
 21
3.84719448625
 31
0.0
  0
LINE
  5
34D
330
18B
100
AcDbEntity
  8
4
100
AcDbLine
 10
1.525509552812501
 20
3.8063211571875
 30
0.0
 11
1.531
 21
3.8063211571875
 31
0.0
  0
LINE
  5
34E
330
18B
100
AcDbEntity
  8
4
100
AcDbLine
 10
1.526894684830344
 20
3.84719448625
 30
0.0
 11
1.529315782192449
 21
3.84719448625
 31
0.0
  0
LINE
  5
34F
330
18B
100
AcDbEntity
  8
4
  6
CENTER
100
AcDbLine
 10
1.533171622845591
 20
3.84719448625
 30
0.0
 11
1.541600664182292
 21
3.84719448625
 31
0.0
  0
LINE
  5
350
330
18B
100
AcDbEntity
  8
4
100
AcDbLine
 10
1.531
 20
3.8063211571875
 30
0.0
 11
1.531
 21
3.7270146978125
 31
0.0
  0
ARC
  5
351
330
18B
100
AcDbEntity
  8
2
100
AcDbCircle
 10
1.466944665682861
 20
3.794730213125
 30
0.0
 40
0.00122021650454
100
AcDbArc
 50
336.8013802883256
 51
23.19861971167426
  0
LINE
  5
352
330
18B
100
AcDbEntity
  8
2
100
AcDbLine
 10
1.460745634594234
 20
3.812292225636487
 30
0.0
 11
1.468066221373606
 21
3.795210880526129
 31
0.0
  0
LINE
  5
353
330
18B
100
AcDbEntity
  8
2
100
AcDbLine
 10
1.460745634594234
 20
3.777168200613509
 30
0.0
 11
1.468066221373606
 21
3.794249545723872
 31
0.0
  0
LINE
  5
354
330
18B
100
AcDbEntity
  8
4
100
AcDbLine
 10
1.251926761354549
 20
4.140311039329027
 30
0.0
 11
1.243680180890949
 21
4.008384134109027
 31
0.0
  0
LINE
  5
355
330
18B
100
AcDbEntity
  8
4
100
AcDbLine
 10
1.267168517895726
 20
4.149462972665414
 30
0.0
 11
1.25704071203628
 21
3.987418078914272
 31
0.0
  0
LINE
  5
356
330
18B
100
AcDbEntity
  8
4
100
AcDbLine
 10
1.119088144895451
 20
4.140311039329027
 30
0.0
 11
1.127334725359051
 21
4.008365751911441
 31
0.0
  0
ARC
  5
357
330
18B
100
AcDbEntity
  8
4
100
AcDbCircle
 10
1.224196607655363
 20
4.009601857436253
 30
0.0
 40
0.01952159
100
AcDbArc
 50
270.0
 51
356.4236656250017
  0
LINE
  5
358
330
18B
100
AcDbEntity
  8
4
100
AcDbLine
 10
1.185507453125
 20
3.963394253906249
 30
0.0
 11
1.231468522164573
 21
3.963394253906249
 31
0.0
  0
CIRCLE
  5
359
330
18B
100
AcDbEntity
  8
4
100
AcDbCircle
 10
1.185507453125
 20
4.023818455353751
 30
0.0
 40
0.00425570662
  0
LINE
  5
35A
330
18B
100
AcDbEntity
  8
4
100
AcDbLine
 10
1.185507453125
 20
3.990080267436249
 30
0.0
 11
1.146818298594636
 21
3.990080267436254
 31
0.0
  0
CIRCLE
  5
35B
330
18B
100
AcDbEntity
  8
4
100
AcDbCircle
 10
1.185507453125
 20
3.974375148281254
 30
0.0
 40
0.007023868082
  0
LINE
  5
35C
330
18B
100
AcDbEntity
  8
4
100
AcDbLine
 10
1.185507453125
 20
3.990080267436249
 30
0.0
 11
1.224196607655363
 21
3.990080267436254
 31
0.0
  0
ARC
  5
35D
330
18B
100
AcDbEntity
  8
4
100
AcDbCircle
 10
1.139546384085427
 20
3.989016340781249
 30
0.0
 40
0.025622086875
100
AcDbArc
 50
183.5763343749981
 51
270.0
  0
LINE
  5
35E
330
18B
100
AcDbEntity
  8
4
100
AcDbLine
 10
1.185507453125
 20
3.963394253906249
 30
0.0
 11
1.139546384085427
 21
3.963394253906249
 31
0.0
  0
ARC
  5
35F
330
18B
100
AcDbEntity
  8
4
100
AcDbCircle
 10
1.146818298594636
 20
4.009601857436253
 30
0.0
 40
0.01952159
100
AcDbArc
 50
183.5763343749981
 51
270.0
  0
ARC
  5
360
330
18B
100
AcDbEntity
  8
4
100
AcDbCircle
 10
1.231468522164573
 20
3.989016340781249
 30
0.0
 40
0.025622086875
100
AcDbArc
 50
270.0
 51
356.4236656250017
  0
LINE
  5
361
330
18B
100
AcDbEntity
  8
4
100
AcDbLine
 10
1.185507453125
 20
4.18057194265625
 30
0.0
 11
1.237943158042347
 21
4.18057194265625
 31
0.0
  0
LINE
  5
362
330
18B
100
AcDbEntity
  8
4
100
AcDbLine
 10
1.185507453125
 20
4.16105035265625
 30
0.0
 11
1.232443188118963
 21
4.16105035265625
 31
0.0
  0
CIRCLE
  5
363
330
18B
100
AcDbEntity
  8
4
100
AcDbCircle
 10
1.185507453125
 20
4.109166846833753
 30
0.0
 40
0.00425570662
  0
CIRCLE
  5
364
330
18B
100
AcDbEntity
  8
4
100
AcDbCircle
 10
1.185507453125
 20
4.066492651093749
 30
0.0
 40
0.0128110434375
  0
LINE
  5
365
330
18B
100
AcDbEntity
  8
4
100
AcDbLine
 10
1.159490215531855
 20
4.118720495689988
 30
0.0
 11
1.16294117769899
 21
4.122171457857124
 31
0.0
  0
LINE
  5
366
330
18B
100
AcDbEntity
  8
4
100
AcDbLine
 10
1.157750930599618
 20
4.127361704956497
 30
0.0
 11
1.154299968432482
 21
4.123910742789361
 31
0.0
  0
ARC
  5
367
330
18B
100
AcDbEntity
  8
4
 62
   130
100
AcDbCircle
 10
1.160358435347683
 20
4.121274237163529
 30
0.0
 40
0.00609073608
100
AcDbArc
 50
225.0000000000003
 51
45.00000000000031
  0
LINE
  5
368
330
18B
100
AcDbEntity
  8
4
100
AcDbLine
 10
1.145713974560648
 20
4.139398660995469
 30
0.0
 11
1.142263012393512
 21
4.135947698828332
 31
0.0
  0
ARC
  5
369
330
18B
100
AcDbEntity
  8
4
100
AcDbCircle
 10
1.138571718131037
 20
4.14152876265625
 30
0.0
 40
0.01952159
100
AcDbArc
 50
90.0
 51
183.5763343749981
  0
ARC
  5
36A
330
18B
100
AcDbEntity
  8
4
 62
   130
100
AcDbCircle
 10
1.139626506767683
 20
4.142006165743527
 30
0.0
 40
0.00609073608
100
AcDbArc
 50
45.00000000000031
 51
225.0000000000003
  0
LINE
  5
36B
330
18B
100
AcDbEntity
  8
4
100
AcDbLine
 10
1.140523727461276
 20
4.144588908094838
 30
0.0
 11
1.13707276529414
 21
4.141137945927702
 31
0.0
  0
LINE
  5
36C
330
18B
100
AcDbEntity
  8
4
100
AcDbLine
 10
1.185507453125
 20
4.16105035265625
 30
0.0
 11
1.138571718131037
 21
4.16105035265625
 31
0.0
  0
LINE
  5
36D
330
18B
100
AcDbEntity
  8
4
100
AcDbLine
 10
1.185507453125
 20
4.18057194265625
 30
0.0
 11
1.133071748207654
 21
4.18057194265625
 31
0.0
  0
LINE
  5
36E
330
18B
100
AcDbEntity
  8
4
 62
   130
100
AcDbLine
 10
1.135319705983096
 20
4.137699364958943
 30
0.0
 11
1.156051634563096
 21
4.11696743637894
 31
0.0
  0
LINE
  5
36F
330
18B
100
AcDbEntity
  8
4
100
AcDbLine
 10
1.140523727461276
 20
4.144588908094838
 30
0.0
 11
1.16294117769899
 21
4.122171457857124
 31
0.0
  0
LINE
  5
370
330
18B
100
AcDbEntity
  8
4
100
AcDbLine
 10
1.13707276529414
 20
4.141137945927702
 30
0.0
 11
1.159490215531855
 21
4.118720495689988
 31
0.0
  0
LINE
  5
371
330
18B
100
AcDbEntity
  8
4
 62
   130
100
AcDbLine
 10
1.143933307552268
 20
4.146312966528111
 30
0.0
 11
1.164665236132268
 21
4.125581037948113
 31
0.0
  0
ARC
  5
372
330
18B
100
AcDbEntity
  8
4
100
AcDbCircle
 10
1.237943158042347
 20
4.15128955765625
 30
0.0
 40
0.029282385
100
AcDbArc
 50
356.4236656250017
 51
90.0
  0
ARC
  5
373
330
18B
100
AcDbEntity
  8
4
100
AcDbCircle
 10
1.232443188118963
 20
4.14152876265625
 30
0.0
 40
0.01952159
100
AcDbArc
 50
356.4236656250017
 51
90.0
  0
LINE
  5
374
330
18B
100
AcDbEntity
  8
4
100
AcDbLine
 10
1.531
 20
3.8880678153125
 30
0.0
 11
1.525509552812501
 21
3.8880678153125
 31
0.0
  0
LINE
  5
375
330
18B
100
AcDbEntity
  8
4
100
AcDbLine
 10
1.531
 20
4.406
 30
0.0
 11
1.094
 21
4.4059853021875
 31
0.0
  0
LINE
  5
376
330
18B
100
AcDbEntity
  8
4
100
AcDbLine
 10
1.318034647237499
 20
4.359016356647496
 30
0.0
 11
1.3250624196375
 21
4.359016356647496
 31
0.0
  0
CIRCLE
  5
377
330
18B
100
AcDbEntity
  8
4
100
AcDbCircle
 10
1.3215485334375
 20
4.359016356647496
 30
0.0
 40
0.00265493624
  0
LINE
  5
378
330
18B
100
AcDbEntity
  8
4
100
AcDbLine
 10
1.3215485334375
 20
4.3555024704475
 30
0.0
 11
1.3215485334375
 21
4.362530242847498
 31
0.0
  0
ARC
  5
379
330
18B
100
AcDbEntity
  8
4
100
AcDbCircle
 10
1.2483425709375
 20
4.359016356647496
 30
0.0
 40
0.079306459375
100
AcDbArc
 50
347.5762104955836
 51
12.42378950441649
  0
LINE
  5
37A
330
18B
100
AcDbEntity
  8
4
100
AcDbLine
 10
1.2483425709375
 20
4.3555024704475
 30
0.0
 11
1.2483425709375
 21
4.362530242847498
 31
0.0
  0
LINE
  5
37B
330
18B
100
AcDbEntity
  8
4
100
AcDbLine
 10
1.2448286847375
 20
4.359016356647496
 30
0.0
 11
1.2518564571375
 21
4.359016356647496
 31
0.0
  0
CIRCLE
  5
37C
330
18B
100
AcDbEntity
  8
4
100
AcDbCircle
 10
1.2483425709375
 20
4.359016356647496
 30
0.0
 40
0.00265493624
  0
ARC
  5
37D
330
18B
100
AcDbEntity
  8
4
100
AcDbCircle
 10
1.3215485334375
 20
4.359016356647496
 30
0.0
 40
0.079306459375
100
AcDbArc
 50
167.5762104955835
 51
192.4237895044164
  0
ARC
  5
37E
330
18B
100
AcDbEntity
  8
4
100
AcDbCircle
 10
1.284945552187499
 20
4.105845736334996
 30
0.0
 40
0.27330226
100
AcDbArc
 50
81.40466153832003
 51
98.59533846167998
  0
ARC
  5
37F
330
18B
100
AcDbEntity
  8
4
100
AcDbCircle
 10
1.284945552187499
 20
4.612186976959996
 30
0.0
 40
0.27330226
100
AcDbArc
 50
261.40466153832
 51
278.5953384616799
  0
LINE
  5
380
330
18B
100
AcDbEntity
  8
4
100
AcDbLine
 10
1.531
 20
4.326693540625
 30
0.0
 11
1.531
 21
4.406
 31
0.0
  0
ARC
  5
381
330
18B
100
AcDbEntity
  8
2
100
AcDbCircle
 10
1.4596241865625
 20
4.260808174375
 30
0.0
 40
0.001220099375
100
AcDbArc
 50
203.1986197116885
 51
336.8013802883329
  0
ARC
  5
382
330
18B
100
AcDbEntity
  8
2
100
AcDbCircle
 10
1.4596241865625
 20
4.294970956874999
 30
0.0
 40
0.001220099375
100
AcDbArc
 50
23.19861971166717
 51
156.8013802883115
  0
LINE
  5
383
330
18B
100
AcDbEntity
  8
2
100
AcDbLine
 10
1.3742172303125
 20
4.3230332425
 30
0.0
 11
1.4474231928125
 21
4.3230332425
 31
0.0
  0
ARC
  5
384
330
18B
100
AcDbEntity
  8
2
100
AcDbCircle
 10
1.3864182240625
 20
4.294970956874999
 30
0.0
 40
0.001220099375
100
AcDbArc
 50
23.19861971166717
 51
156.8013802883115
  0
LINE
  5
385
330
18B
100
AcDbEntity
  8
2
100
AcDbLine
 10
1.385296776030767
 20
4.295451578136487
 30
0.0
 11
1.377976189251393
 21
4.278370233026128
 31
0.0
  0
LINE
  5
386
330
18B
100
AcDbEntity
  8
2
100
AcDbLine
 10
1.387539672094234
 20
4.295451578136487
 30
0.0
 11
1.394860258873606
 21
4.278370233026128
 31
0.0
  0
LINE
  5
387
330
18B
100
AcDbEntity
  8
2
100
AcDbLine
 10
1.385296776030767
 20
4.260327553113509
 30
0.0
 11
1.377976189251393
 21
4.277408898223871
 31
0.0
  0
ARC
  5
388
330
18B
100
AcDbEntity
  8
2
100
AcDbCircle
 10
1.379097744942139
 20
4.277889565625
 30
0.0
 40
0.00122021650454
100
AcDbArc
 50
156.8013802883257
 51
203.1986197116743
  0
ARC
  5
389
330
18B
100
AcDbEntity
  8
2
100
AcDbCircle
 10
1.39373870318286
 20
4.277889565625
 30
0.0
 40
0.00122021650454
100
AcDbArc
 50
336.8013802883256
 51
23.19861971167426
  0
LINE
  5
38A
330
18B
100
AcDbEntity
  8
2
100
AcDbLine
 10
1.387539672094234
 20
4.260327553113509
 30
0.0
 11
1.394860258873606
 21
4.277408898223871
 31
0.0
  0
ARC
  5
38B
330
18B
100
AcDbEntity
  8
2
100
AcDbCircle
 10
1.4474231928125
 20
4.321813143125
 30
0.0
 40
0.001220099375
100
AcDbArc
 50
23.19861971166717
 51
156.8013802883115
  0
LINE
  5
38C
330
18B
100
AcDbEntity
  8
2
100
AcDbLine
 10
1.458502738530766
 20
4.295451578136487
 30
0.0
 11
1.451182151751393
 21
4.278370233026128
 31
0.0
  0
LINE
  5
38D
330
18B
100
AcDbEntity
  8
2
100
AcDbLine
 10
1.448544640844234
 20
4.287169739363509
 30
0.0
 11
1.455865227623606
 21
4.304251084473872
 31
0.0
  0
LINE
  5
38E
330
18B
100
AcDbEntity
  8
2
100
AcDbLine
 10
1.458502738530766
 20
4.260327553113509
 30
0.0
 11
1.451182151751393
 21
4.277408898223871
 31
0.0
  0
ARC
  5
38F
330
18B
100
AcDbEntity
  8
2
100
AcDbCircle
 10
1.440102713692139
 20
4.304731751875
 30
0.0
 40
0.00122021650454
100
AcDbArc
 50
156.8013802883257
 51
203.1986197116743
  0
ARC
  5
390
330
18B
100
AcDbEntity
  8
2
100
AcDbCircle
 10
1.45230370744214
 20
4.277889565625
 30
0.0
 40
0.00122021650454
100
AcDbArc
 50
156.8013802883257
 51
203.1986197116743
  0
ARC
  5
391
330
18B
100
AcDbEntity
  8
2
100
AcDbCircle
 10
1.4474231928125
 20
4.287650360625
 30
0.0
 40
0.001220099375
100
AcDbArc
 50
203.1986197116885
 51
336.8013802883329
  0
LINE
  5
392
330
18B
100
AcDbEntity
  8
2
100
AcDbLine
 10
1.446301744780766
 20
4.287169739363509
 30
0.0
 11
1.438981158001393
 21
4.304251084473872
 31
0.0
  0
ARC
  5
393
330
18B
100
AcDbEntity
  8
2
100
AcDbCircle
 10
1.454743671932861
 20
4.304731751875
 30
0.0
 40
0.00122021650454
100
AcDbArc
 50
336.8013802883256
 51
23.19861971167426
  0
LINE
  5
394
330
18B
100
AcDbEntity
  8
2
100
AcDbLine
 10
1.448544640844234
 20
4.322293764386487
 30
0.0
 11
1.455865227623606
 21
4.305212419276129
 31
0.0
  0
LINE
  5
395
330
18B
100
AcDbEntity
  8
2
100
AcDbLine
 10
1.446301744780766
 20
4.322293764386487
 30
0.0
 11
1.438981158001393
 21
4.305212419276129
 31
0.0
  0
ARC
  5
396
330
18B
100
AcDbEntity
  8
2
100
AcDbCircle
 10
1.3742172303125
 20
4.321813143125
 30
0.0
 40
0.001220099375
100
AcDbArc
 50
23.19861971166717
 51
156.8013802883115
  0
LINE
  5
397
330
18B
100
AcDbEntity
  8
2
100
AcDbLine
 10
1.375338678344234
 20
4.287169739363509
 30
0.0
 11
1.382659265123606
 21
4.304251084473872
 31
0.0
  0
ARC
  5
398
330
18B
100
AcDbEntity
  8
2
100
AcDbCircle
 10
1.3864182240625
 20
4.260808174375
 30
0.0
 40
0.001220099375
100
AcDbArc
 50
203.1986197116885
 51
336.8013802883329
  0
ARC
  5
399
330
18B
100
AcDbEntity
  8
2
100
AcDbCircle
 10
1.38153770943286
 20
4.304731751875
 30
0.0
 40
0.00122021650454
100
AcDbArc
 50
336.8013802883256
 51
23.19861971167426
  0
ARC
  5
39A
330
18B
100
AcDbEntity
  8
2
100
AcDbCircle
 10
1.3742172303125
 20
4.287650360625
 30
0.0
 40
0.001220099375
100
AcDbArc
 50
203.1986197116885
 51
336.8013802883329
  0
ARC
  5
39B
330
18B
100
AcDbEntity
  8
2
100
AcDbCircle
 10
1.36689675119214
 20
4.304731751875
 30
0.0
 40
0.00122021650454
100
AcDbArc
 50
156.8013802883257
 51
203.1986197116743
  0
LINE
  5
39C
330
18B
100
AcDbEntity
  8
2
100
AcDbLine
 10
1.373095782280766
 20
4.287169739363509
 30
0.0
 11
1.365775195501393
 21
4.304251084473872
 31
0.0
  0
LINE
  5
39D
330
18B
100
AcDbEntity
  8
2
100
AcDbLine
 10
1.375338678344234
 20
4.322293764386487
 30
0.0
 11
1.382659265123606
 21
4.305212419276129
 31
0.0
  0
LINE
  5
39E
330
18B
100
AcDbEntity
  8
2
100
AcDbLine
 10
1.373095782280766
 20
4.322293764386487
 30
0.0
 11
1.365775195501393
 21
4.305212419276129
 31
0.0
  0
LINE
  5
39F
330
18B
100
AcDbEntity
  8
4
100
AcDbLine
 10
1.525509552812501
 20
4.326693540625
 30
0.0
 11
1.531
 21
4.326693540625
 31
0.0
  0
LINE
  5
3A0
330
18B
100
AcDbEntity
  8
4
  6
CENTER
100
AcDbLine
 10
1.514968488663262
 20
4.2858202115625
 30
0.0
 11
1.522859495458277
 21
4.2858202115625
 31
0.0
  0
LINE
  5
3A1
330
18B
100
AcDbEntity
  8
4
  6
CENTER
100
AcDbLine
 10
1.533171622845591
 20
4.2858202115625
 30
0.0
 11
1.541600664182292
 21
4.2858202115625
 31
0.0
  0
LINE
  5
3A2
330
18B
100
AcDbEntity
  8
4
100
AcDbLine
 10
1.526894684830344
 20
4.2858202115625
 30
0.0
 11
1.529315782192449
 21
4.2858202115625
 31
0.0
  0
LINE
  5
3A3
330
18B
100
AcDbEntity
  8
4
100
AcDbLine
 10
1.531
 20
4.2449468825
 30
0.0
 11
1.525509552812501
 21
4.2449468825
 31
0.0
  0
ARC
  5
3A4
330
18B
100
AcDbEntity
  8
2
100
AcDbCircle
 10
1.466944665682861
 20
4.277889565625
 30
0.0
 40
0.00122021650454
100
AcDbArc
 50
336.8013802883256
 51
23.19861971167426
  0
LINE
  5
3A5
330
18B
100
AcDbEntity
  8
2
100
AcDbLine
 10
1.460745634594234
 20
4.295451578136487
 30
0.0
 11
1.468066221373606
 21
4.278370233026128
 31
0.0
  0
LINE
  5
3A6
330
18B
100
AcDbEntity
  8
2
100
AcDbLine
 10
1.460745634594234
 20
4.260327553113509
 30
0.0
 11
1.468066221373606
 21
4.277408898223871
 31
0.0
  0
LINE
  5
3A7
330
18B
100
AcDbEntity
  8
4
100
AcDbLine
 10
1.531
 20
4.326693540625
 30
0.0
 11
1.531
 21
4.2449468825
 31
0.0
  0
LINE
  5
3A8
330
18B
100
AcDbEntity
  8
4
100
AcDbLine
 10
1.525509552812501
 20
4.2449468825
 30
0.0
 11
1.525509552812501
 21
4.326693540625
 31
0.0
  0
LINE
  5
3A9
330
18B
100
AcDbEntity
  8
4
100
AcDbLine
 10
7.624500000000001
 20
2.983985302187499
 30
0.0
 11
7.624500000000001
 21
2.3049853021875
 31
0.0
  0
INSERT
  5
3AA
330
18B
100
AcDbEntity
  8
8
100
AcDbBlockReference
  2
C2
 10
6.9145
 20
2.983985302187499
 30
0.0
  0
LINE
  5
3AB
330
18B
100
AcDbEntity
  8
4
100
AcDbLine
 10
6.375499999999998
 20
2.983985302187499
 30
0.0
 11
6.375499999999998
 21
2.3049853021875
 31
0.0
  0
INSERT
  5
3AC
330
18B
100
AcDbEntity
  8
8
100
AcDbBlockReference
  2
C2
 10
5.0655
 20
2.983985302187499
 30
0.0
  0
LINE
  5
3AD
330
18B
100
AcDbEntity
  8
4
100
AcDbLine
 10
5.0655
 20
2.983985302187499
 30
0.0
 11
5.0655
 21
2.3049853021875
 31
0.0
  0
INSERT
  5
3AE
330
18B
100
AcDbEntity
  8
8
100
AcDbBlockReference
  2
C2
 10
6.3755
 20
2.983985302187499
 30
0.0
  0
INSERT
  5
3AF
330
18B
100
AcDbEntity
  8
8
100
AcDbBlockReference
  2
C1
 10
5.0655
 20
2.221243145077203
 30
0.0
  0
LINE
  5
3B0
330
18B
100
AcDbEntity
  8
4
100
AcDbLine
 10
5.6705
 20
2.320985302187501
 30
0.0
 11
5.127499999999999
 21
2.320985302187501
 31
0.0
  0
LINE
  5
3B1
330
18B
100
AcDbEntity
  8
4
100
AcDbLine
 10
1.687
 20
2.2589853021875
 30
0.0
 11
2.187999999999999
 21
2.2589853021875
 31
0.0
  0
LINE
  5
3B2
330
18B
100
AcDbEntity
  8
4
100
AcDbLine
 10
1.687
 20
2.320985302187501
 30
0.0
 11
2.187999999999999
 21
2.320985302187501
 31
0.0
  0
LINE
  5
3B3
330
18B
100
AcDbEntity
  8
4
100
AcDbLine
 10
2.312
 20
2.2589853021875
 30
0.0
 11
2.5
 21
2.2589853021875
 31
0.0
  0
LINE
  5
3B4
330
18B
100
AcDbEntity
  8
4
100
AcDbLine
 10
2.312
 20
2.320985302187501
 30
0.0
 11
2.5
 21
2.320985302187501
 31
0.0
  0
LINE
  5
3B5
330
18B
100
AcDbEntity
  8
4
100
AcDbLine
 10
2.937
 20
2.2589853021875
 30
0.0
 11
3.437999999999999
 21
2.2589853021875
 31
0.0
  0
LINE
  5
3B6
330
18B
100
AcDbEntity
  8
4
100
AcDbLine
 10
2.937
 20
2.320985302187501
 30
0.0
 11
3.437999999999999
 21
2.320985302187501
 31
0.0
  0
LINE
  5
3B7
330
18B
100
AcDbEntity
  8
4
100
AcDbLine
 10
2.625
 20
2.2589853021875
 30
0.0
 11
2.812999999999999
 21
2.2589853021875
 31
0.0
  0
LINE
  5
3B8
330
18B
100
AcDbEntity
  8
4
100
AcDbLine
 10
2.625
 20
2.320985302187501
 30
0.0
 11
2.812999999999999
 21
2.320985302187501
 31
0.0
  0
LINE
  5
3B9
330
18B
100
AcDbEntity
  8
4
100
AcDbLine
 10
5.0655
 20
2.2729853021875
 30
0.0
 11
5.0655
 21
1.5939853021875
 31
0.0
  0
LINE
  5
3BA
330
18B
100
AcDbEntity
  8
4
100
AcDbLine
 10
5.0655
 20
1.5939853021875
 30
0.0
 11
5.127500000000001
 21
1.5939853021875
 31
0.0
  0
LINE
  5
3BB
330
18B
100
AcDbEntity
  8
4
100
AcDbLine
 10
5.0655
 20
2.2729853021875
 30
0.0
 11
5.127499999999999
 21
2.2729853021875
 31
0.0
  0
LINE
  5
3BC
330
18B
100
AcDbEntity
  8
4
100
AcDbLine
 10
5.0655
 20
2.3049853021875
 30
0.0
 11
5.127499999999999
 21
2.3049853021875
 31
0.0
  0
LINE
  5
3BD
330
18B
100
AcDbEntity
  8
4
100
AcDbLine
 10
5.127499999999999
 20
2.258985302187499
 30
0.0
 11
5.1585
 21
2.289985302187499
 31
0.0
  0
LINE
  5
3BE
330
18B
100
AcDbEntity
  8
4
100
AcDbLine
 10
5.127499999999999
 20
2.320985302187501
 30
0.0
 11
5.127499999999999
 21
2.258985302187499
 31
0.0
  0
INSERT
  5
3BF
330
18B
100
AcDbEntity
  8
8
100
AcDbBlockReference
  2
C1
 10
6.9145
 20
2.221243145077203
 30
0.0
  0
LINE
  5
3C0
330
18B
100
AcDbEntity
  8
4
100
AcDbLine
 10
7.0195
 20
2.320985302187501
 30
0.0
 11
7.5625
 21
2.320985302187501
 31
0.0
  0
LINE
  5
3C1
330
18B
100
AcDbEntity
  8
4
100
AcDbLine
 10
5.6705
 20
2.258985302187499
 30
0.0
 11
5.6705
 21
2.320985302187501
 31
0.0
  0
LINE
  5
3C2
330
18B
100
AcDbEntity
  8
4
100
AcDbLine
 10
6.375499999999998
 20
2.2729853021875
 30
0.0
 11
6.375499999999998
 21
1.5939853021875
 31
0.0
  0
INSERT
  5
3C3
330
18B
100
AcDbEntity
  8
8
100
AcDbBlockReference
  2
C1
 10
6.375499999999998
 20
2.221243145077203
 30
0.0
  0
LINE
  5
3C4
330
18B
100
AcDbEntity
  8
4
100
AcDbLine
 10
6.375499999999998
 20
1.5939853021875
 30
0.0
 11
6.4375
 21
1.5939853021875
 31
0.0
  0
LINE
  5
3C5
330
18B
100
AcDbEntity
  8
4
100
AcDbLine
 10
6.980499999999999
 20
2.320985302187501
 30
0.0
 11
6.437499999999998
 21
2.320985302187501
 31
0.0
  0
LINE
  5
3C6
330
18B
100
AcDbEntity
  8
4
100
AcDbLine
 10
6.437499999999998
 20
2.320985302187501
 30
0.0
 11
6.437499999999998
 21
2.258985302187499
 31
0.0
  0
LINE
  5
3C7
330
18B
100
AcDbEntity
  8
4
100
AcDbLine
 10
6.437499999999998
 20
2.258985302187499
 30
0.0
 11
6.468499999999998
 21
2.289985302187499
 31
0.0
  0
LINE
  5
3C8
330
18B
100
AcDbEntity
  8
4
100
AcDbLine
 10
6.375499999999998
 20
2.2729853021875
 30
0.0
 11
6.437499999999998
 21
2.2729853021875
 31
0.0
  0
LINE
  5
3C9
330
18B
100
AcDbEntity
  8
4
100
AcDbLine
 10
6.375499999999998
 20
2.3049853021875
 30
0.0
 11
6.437499999999998
 21
2.3049853021875
 31
0.0
  0
LINE
  5
3CA
330
18B
100
AcDbEntity
  8
4
100
AcDbLine
 10
6.980499999999999
 20
2.258985302187499
 30
0.0
 11
6.980499999999999
 21
2.320985302187501
 31
0.0
  0
LINE
  5
3CB
330
18B
100
AcDbEntity
  8
4
100
AcDbLine
 10
7.0195
 20
2.258985302187499
 30
0.0
 11
7.0195
 21
2.320985302187501
 31
0.0
  0
LINE
  5
3CC
330
18B
100
AcDbEntity
  8
4
100
AcDbLine
 10
7.624500000000001
 20
2.2729853021875
 30
0.0
 11
7.624500000000001
 21
1.5939853021875
 31
0.0
  0
LINE
  5
3CD
330
18B
100
AcDbEntity
  8
4
100
AcDbLine
 10
7.624500000000001
 20
1.5939853021875
 30
0.0
 11
7.5625
 21
1.5939853021875
 31
0.0
  0
LINE
  5
3CE
330
18B
100
AcDbEntity
  8
4
100
AcDbLine
 10
7.5625
 20
2.320985302187501
 30
0.0
 11
7.5625
 21
2.258985302187499
 31
0.0
  0
LINE
  5
3CF
330
18B
100
AcDbEntity
  8
4
100
AcDbLine
 10
7.5625
 20
2.258985302187499
 30
0.0
 11
7.531500000000001
 21
2.289985302187499
 31
0.0
  0
LINE
  5
3D0
330
18B
100
AcDbEntity
  8
4
100
AcDbLine
 10
7.5625
 20
2.2729853021875
 30
0.0
 11
7.624499999999999
 21
2.2729853021875
 31
0.0
  0
LINE
  5
3D1
330
18B
100
AcDbEntity
  8
4
100
AcDbLine
 10
7.5625
 20
2.3049853021875
 30
0.0
 11
7.624499999999999
 21
2.3049853021875
 31
0.0
  0
INSERT
  5
3D2
330
18B
100
AcDbEntity
  8
8
100
AcDbBlockReference
  2
C1
 10
5.0655
 20
4.4059853021875
 30
0.0
  0
INSERT
  5
3D3
330
18B
100
AcDbEntity
  8
8
100
AcDbBlockReference
  2
C2
 10
5.0655
 20
3.694985302187499
 30
0.0
  0
LINE
  5
3D4
330
18B
100
AcDbEntity
  8
4
100
AcDbLine
 10
5.6705
 20
3.742985302187499
 30
0.0
 11
5.127499999999999
 21
3.742985302187499
 31
0.0
  0
LINE
  5
3D5
330
18B
100
AcDbEntity
  8
4
100
AcDbLine
 10
5.6705
 20
3.0319853021875
 30
0.0
 11
5.127500000000001
 21
3.0319853021875
 31
0.0
  0
LINE
  5
3D6
330
18B
100
AcDbEntity
  8
4
100
AcDbLine
 10
1.687
 20
2.9699853021875
 30
0.0
 11
2.187999999999999
 21
2.9699853021875
 31
0.0
  0
LINE
  5
3D7
330
18B
100
AcDbEntity
  8
4
100
AcDbLine
 10
1.687
 20
3.031985302187501
 30
0.0
 11
2.187999999999999
 21
3.031985302187501
 31
0.0
  0
LINE
  5
3D8
330
18B
100
AcDbEntity
  8
4
100
AcDbLine
 10
2.312
 20
2.9699853021875
 30
0.0
 11
2.5
 21
2.9699853021875
 31
0.0
  0
LINE
  5
3D9
330
18B
100
AcDbEntity
  8
4
100
AcDbLine
 10
2.312
 20
3.031985302187501
 30
0.0
 11
2.472974179311577
 21
3.031985302187501
 31
0.0
  0
LINE
  5
3DA
330
18B
100
AcDbEntity
  8
4
100
AcDbLine
 10
1.687
 20
3.7429853021875
 30
0.0
 11
2.187999999999999
 21
3.7429853021875
 31
0.0
  0
LINE
  5
3DB
330
18B
100
AcDbEntity
  8
4
100
AcDbLine
 10
1.687
 20
3.6809853021875
 30
0.0
 11
2.187999999999999
 21
3.6809853021875
 31
0.0
  0
LINE
  5
3DC
330
18B
100
AcDbEntity
  8
4
100
AcDbLine
 10
2.312
 20
3.6809853021875
 30
0.0
 11
2.5
 21
3.6809853021875
 31
0.0
  0
LINE
  5
3DD
330
18B
100
AcDbEntity
  8
4
100
AcDbLine
 10
2.312
 20
3.7429853021875
 30
0.0
 11
2.5
 21
3.7429853021875
 31
0.0
  0
LINE
  5
3DE
330
18B
100
AcDbEntity
  8
4
100
AcDbLine
 10
2.937
 20
2.9699853021875
 30
0.0
 11
3.437999999999999
 21
2.9699853021875
 31
0.0
  0
LINE
  5
3DF
330
18B
100
AcDbEntity
  8
4
100
AcDbLine
 10
2.937
 20
3.031985302187501
 30
0.0
 11
3.437999999999999
 21
3.031985302187501
 31
0.0
  0
LINE
  5
3E0
330
18B
100
AcDbEntity
  8
4
100
AcDbLine
 10
2.625
 20
2.9699853021875
 30
0.0
 11
2.812999999999999
 21
2.9699853021875
 31
0.0
  0
LINE
  5
3E1
330
18B
100
AcDbEntity
  8
4
100
AcDbLine
 10
2.625
 20
3.031985302187501
 30
0.0
 11
2.812999999999999
 21
3.031985302187501
 31
0.0
  0
LINE
  5
3E2
330
18B
100
AcDbEntity
  8
4
100
AcDbLine
 10
2.937
 20
3.7429853021875
 30
0.0
 11
3.437999999999999
 21
3.7429853021875
 31
0.0
  0
LINE
  5
3E3
330
18B
100
AcDbEntity
  8
4
100
AcDbLine
 10
2.937
 20
3.6809853021875
 30
0.0
 11
3.437999999999999
 21
3.6809853021875
 31
0.0
  0
LINE
  5
3E4
330
18B
100
AcDbEntity
  8
4
100
AcDbLine
 10
2.653974179311578
 20
3.6809853021875
 30
0.0
 11
2.812999999999999
 21
3.6809853021875
 31
0.0
  0
LINE
  5
3E5
330
18B
100
AcDbEntity
  8
4
100
AcDbLine
 10
2.625
 20
3.7429853021875
 30
0.0
 11
2.812999999999999
 21
3.7429853021875
 31
0.0
  0
LINE
  5
3E6
330
18B
100
AcDbEntity
  8
4
100
AcDbLine
 10
5.0655
 20
4.4059853021875
 30
0.0
 11
5.0655
 21
3.726985302187499
 31
0.0
  0
LINE
  5
3E7
330
18B
100
AcDbEntity
  8
4
100
AcDbLine
 10
5.0655
 20
3.694985302187499
 30
0.0
 11
5.0655
 21
3.015985302187499
 31
0.0
  0
LINE
  5
3E8
330
18B
100
AcDbEntity
  8
4
100
AcDbLine
 10
5.0655
 20
3.015985302187499
 30
0.0
 11
5.127500000000001
 21
3.015985302187499
 31
0.0
  0
LINE
  5
3E9
330
18B
100
AcDbEntity
  8
4
100
AcDbLine
 10
5.0655
 20
2.983985302187499
 30
0.0
 11
5.127500000000001
 21
2.983985302187499
 31
0.0
  0
LINE
  5
3EA
330
18B
100
AcDbEntity
  8
4
100
AcDbLine
 10
5.127500000000001
 20
3.0319853021875
 30
0.0
 11
5.127500000000001
 21
2.9699853021875
 31
0.0
  0
LINE
  5
3EB
330
18B
100
AcDbEntity
  8
4
100
AcDbLine
 10
5.127500000000001
 20
2.9699853021875
 30
0.0
 11
5.1585
 21
3.000985302187499
 31
0.0
  0
LINE
  5
3EC
330
18B
100
AcDbEntity
  8
4
100
AcDbLine
 10
5.0655
 20
3.694985302187499
 30
0.0
 11
5.127499999999999
 21
3.694985302187499
 31
0.0
  0
LINE
  5
3ED
330
18B
100
AcDbEntity
  8
4
100
AcDbLine
 10
5.0655
 20
3.726985302187499
 30
0.0
 11
5.127499999999999
 21
3.726985302187499
 31
0.0
  0
LINE
  5
3EE
330
18B
100
AcDbEntity
  8
4
100
AcDbLine
 10
5.127499999999999
 20
3.680985302187499
 30
0.0
 11
5.1585
 21
3.711985302187499
 31
0.0
  0
LINE
  5
3EF
330
18B
100
AcDbEntity
  8
4
100
AcDbLine
 10
5.127499999999999
 20
3.742985302187499
 30
0.0
 11
5.127499999999999
 21
3.680985302187499
 31
0.0
  0
LINE
  5
3F0
330
18B
100
AcDbEntity
  8
4
100
AcDbLine
 10
5.0655
 20
4.4059853021875
 30
0.0
 11
5.127499999999999
 21
4.4059853021875
 31
0.0
  0
INSERT
  5
3F1
330
18B
100
AcDbEntity
  8
8
100
AcDbBlockReference
  2
C2
 10
6.9145
 20
3.694985302187499
 30
0.0
  0
INSERT
  5
3F2
330
18B
100
AcDbEntity
  8
8
100
AcDbBlockReference
  2
C1
 10
6.9145
 20
4.4059853021875
 30
0.0
  0
LINE
  5
3F3
330
18B
100
AcDbEntity
  8
4
100
AcDbLine
 10
7.0195
 20
3.742985302187499
 30
0.0
 11
7.5625
 21
3.742985302187499
 31
0.0
  0
LINE
  5
3F4
330
18B
100
AcDbEntity
  8
4
100
AcDbLine
 10
7.0195
 20
3.0319853021875
 30
0.0
 11
7.5625
 21
3.0319853021875
 31
0.0
  0
LINE
  5
3F5
330
18B
100
AcDbEntity
  8
4
100
AcDbLine
 10
6.375499999999998
 20
4.4059853021875
 30
0.0
 11
6.375499999999998
 21
3.726985302187499
 31
0.0
  0
INSERT
  5
3F6
330
18B
100
AcDbEntity
  8
8
100
AcDbBlockReference
  2
C1
 10
6.375499999999998
 20
4.4059853021875
 30
0.0
  0
LINE
  5
3F7
330
18B
100
AcDbEntity
  8
4
100
AcDbLine
 10
5.6705
 20
2.9699853021875
 30
0.0
 11
5.6705
 21
3.0319853021875
 31
0.0
  0
LINE
  5
3F8
330
18B
100
AcDbEntity
  8
4
100
AcDbLine
 10
5.6705
 20
3.680985302187499
 30
0.0
 11
5.6705
 21
3.742985302187499
 31
0.0
  0
LINE
  5
3F9
330
18B
100
AcDbEntity
  8
4
100
AcDbLine
 10
6.375499999999998
 20
3.694985302187499
 30
0.0
 11
6.375499999999998
 21
3.015985302187499
 31
0.0
  0
INSERT
  5
3FA
330
18B
100
AcDbEntity
  8
8
100
AcDbBlockReference
  2
C2
 10
6.375499999999998
 20
3.694985302187499
 30
0.0
  0
LINE
  5
3FB
330
18B
100
AcDbEntity
  8
4
100
AcDbLine
 10
6.980499999999999
 20
3.0319853021875
 30
0.0
 11
6.4375
 21
3.0319853021875
 31
0.0
  0
LINE
  5
3FC
330
18B
100
AcDbEntity
  8
4
100
AcDbLine
 10
6.4375
 20
3.0319853021875
 30
0.0
 11
6.4375
 21
2.9699853021875
 31
0.0
  0
LINE
  5
3FD
330
18B
100
AcDbEntity
  8
4
100
AcDbLine
 10
6.4375
 20
2.9699853021875
 30
0.0
 11
6.468499999999998
 21
3.000985302187499
 31
0.0
  0
LINE
  5
3FE
330
18B
100
AcDbEntity
  8
4
100
AcDbLine
 10
6.375499999999998
 20
2.983985302187499
 30
0.0
 11
6.4375
 21
2.983985302187499
 31
0.0
  0
LINE
  5
3FF
330
18B
100
AcDbEntity
  8
4
100
AcDbLine
 10
6.375499999999998
 20
3.015985302187499
 30
0.0
 11
6.4375
 21
3.015985302187499
 31
0.0
  0
LINE
  5
400
330
18B
100
AcDbEntity
  8
4
100
AcDbLine
 10
6.980499999999999
 20
2.9699853021875
 30
0.0
 11
6.980499999999999
 21
3.0319853021875
 31
0.0
  0
LINE
  5
401
330
18B
100
AcDbEntity
  8
4
100
AcDbLine
 10
7.0195
 20
2.9699853021875
 30
0.0
 11
7.0195
 21
3.0319853021875
 31
0.0
  0
LINE
  5
402
330
18B
100
AcDbEntity
  8
4
100
AcDbLine
 10
6.980499999999999
 20
3.742985302187499
 30
0.0
 11
6.4375
 21
3.742985302187499
 31
0.0
  0
LINE
  5
403
330
18B
100
AcDbEntity
  8
4
100
AcDbLine
 10
6.4375
 20
3.742985302187499
 30
0.0
 11
6.4375
 21
3.680985302187499
 31
0.0
  0
LINE
  5
404
330
18B
100
AcDbEntity
  8
4
100
AcDbLine
 10
6.4375
 20
3.680985302187499
 30
0.0
 11
6.468499999999998
 21
3.711985302187499
 31
0.0
  0
LINE
  5
405
330
18B
100
AcDbEntity
  8
4
100
AcDbLine
 10
6.375499999999998
 20
3.694985302187499
 30
0.0
 11
6.4375
 21
3.694985302187499
 31
0.0
  0
LINE
  5
406
330
18B
100
AcDbEntity
  8
4
100
AcDbLine
 10
6.375499999999998
 20
3.726985302187499
 30
0.0
 11
6.4375
 21
3.726985302187499
 31
0.0
  0
LINE
  5
407
330
18B
100
AcDbEntity
  8
4
100
AcDbLine
 10
6.980499999999999
 20
3.680985302187499
 30
0.0
 11
6.980499999999999
 21
3.742985302187499
 31
0.0
  0
LINE
  5
408
330
18B
100
AcDbEntity
  8
4
100
AcDbLine
 10
7.0195
 20
3.680985302187499
 30
0.0
 11
7.0195
 21
3.742985302187499
 31
0.0
  0
LINE
  5
409
330
18B
100
AcDbEntity
  8
4
100
AcDbLine
 10
6.375499999999998
 20
4.4059853021875
 30
0.0
 11
6.4375
 21
4.4059853021875
 31
0.0
  0
LINE
  5
40A
330
18B
100
AcDbEntity
  8
4
100
AcDbLine
 10
7.624500000000001
 20
4.4059853021875
 30
0.0
 11
7.624500000000001
 21
3.726985302187499
 31
0.0
  0
LINE
  5
40B
330
18B
100
AcDbEntity
  8
4
100
AcDbLine
 10
7.624500000000001
 20
3.694985302187499
 30
0.0
 11
7.624500000000001
 21
3.015985302187499
 31
0.0
  0
LINE
  5
40C
330
18B
100
AcDbEntity
  8
4
100
AcDbLine
 10
7.5625
 20
3.0319853021875
 30
0.0
 11
7.5625
 21
2.9699853021875
 31
0.0
  0
LINE
  5
40D
330
18B
100
AcDbEntity
  8
4
100
AcDbLine
 10
7.5625
 20
2.9699853021875
 30
0.0
 11
7.531500000000001
 21
3.000985302187499
 31
0.0
  0
LINE
  5
40E
330
18B
100
AcDbEntity
  8
4
100
AcDbLine
 10
7.5625
 20
2.983985302187499
 30
0.0
 11
7.624500000000001
 21
2.983985302187499
 31
0.0
  0
LINE
  5
40F
330
18B
100
AcDbEntity
  8
4
100
AcDbLine
 10
7.5625
 20
3.015985302187499
 30
0.0
 11
7.624500000000001
 21
3.015985302187499
 31
0.0
  0
LINE
  5
410
330
18B
100
AcDbEntity
  8
4
100
AcDbLine
 10
7.5625
 20
3.742985302187499
 30
0.0
 11
7.5625
 21
3.680985302187499
 31
0.0
  0
LINE
  5
411
330
18B
100
AcDbEntity
  8
4
100
AcDbLine
 10
7.5625
 20
3.680985302187499
 30
0.0
 11
7.531500000000001
 21
3.711985302187499
 31
0.0
  0
LINE
  5
412
330
18B
100
AcDbEntity
  8
4
100
AcDbLine
 10
7.5625
 20
3.694985302187499
 30
0.0
 11
7.624500000000001
 21
3.694985302187499
 31
0.0
  0
LINE
  5
413
330
18B
100
AcDbEntity
  8
4
100
AcDbLine
 10
7.5625
 20
3.726985302187499
 30
0.0
 11
7.624500000000001
 21
3.726985302187499
 31
0.0
  0
LINE
  5
414
330
18B
100
AcDbEntity
  8
4
100
AcDbLine
 10
7.624500000000001
 20
4.4059853021875
 30
0.0
 11
7.5625
 21
4.4059853021875
 31
0.0
  0
ENDBLK
  5
416
330
18B
100
AcDbEntity
  8
0
100
AcDbBlockEnd
  0
BLOCK
  5
41B
330
419
100
AcDbEntity
  8
0
100
AcDbBlockBegin
  2
LE1209
 70
     0
 10
0.0
 20
0.0
 30
0.0
  3
LE1209
  1

  0
INSERT
  5
41A
330
419
100
AcDbEntity
  8
4
100
AcDbBlockReference
  2
SPL2ATHLETIC4H
 10
0.0
 20
0.0
 30
0.0
  0
ENDBLK
  5
41C
330
419
100
AcDbEntity
  8
0
100
AcDbBlockEnd
  0
ENDSEC
  0
SECTION
  2
ENTITIES
  0
TEXT
  5
438
330
1F
100
AcDbEntity
  8
8
100
AcDbText
 10
8.844232795828308
 20
3.087171758523982
 30
0.0
 40
0.07
  1
DEPTH
  7
ROMANS
 72
     1
 11
9.009232795828307
 21
3.087171758523982
 31
0.0
100
AcDbText
  0
TEXT
  5
439
330
1F
100
AcDbEntity
  8
8
100
AcDbText
 10
10.4667327958283
 20
3.087171758523982
 30
0.0
 40
0.07
  1
DEPTH
  7
ROMANS
 72
     1
 11
10.6317327958283
 21
3.087171758523982
 31
0.0
100
AcDbText
  0
TEXT
  5
43A
330
1F
100
AcDbEntity
  8
8
100
AcDbText
 10
9.90957128290185
 20
2.929924527403608
 30
0.0
 40
0.1
  1
SR BACK TO BACK
  7
ROMANS
 72
     1
 11
10.63338080671137
 21
2.929924527403608
 31
0.0
100
AcDbText
  0
TEXT
  5
43B
330
1F
100
AcDbEntity
  8
8
100
AcDbText
 10
9.426122120386684
 20
2.745323520578298
 30
0.0
 40
0.1
  1
SECTIONS
  7
ROMANS
 72
     1
 11
9.778503072767637
 21
2.745323520578298
 31
0.0
100
AcDbText
  0
TEXT
  5
43C
330
1F
100
AcDbEntity
  8
8
100
AcDbText
 10
8.933785958955262
 20
2.929924527403608
 30
0.0
 40
0.1
  1
SR
  7
ROMANS
 72
     1
 11
9.03140500657431
 21
2.929924527403608
 31
0.0
100
AcDbText
  0
LINE
  5
43D
330
1F
100
AcDbEntity
  8
4
100
AcDbLine
 10
9.259732795828305
 20
6.433323520578298
 30
0.0
 11
9.523464398493709
 21
6.433323520578298
 31
0.0
  0
LINE
  5
43E
330
1F
100
AcDbEntity
  8
4
100
AcDbLine
 10
9.563891608166136
 20
6.433323520578298
 30
0.0
 11
9.744355404990079
 21
6.433323520578298
 31
0.0
  0
INSERT
  5
43F
330
1F
100
AcDbEntity
  8
4
100
AcDbBlockReference
  2
ARRO
 10
9.563891608166136
 20
6.433323520578298
 30
0.0
  0
LINE
  5
440
330
1F
100
AcDbEntity
  8
4
100
AcDbLine
 10
9.744355404990079
 20
6.433323520578298
 30
0.0
 11
9.744355404990079
 21
6.230335850787786
 31
0.0
  0
TEXT
  5
441
330
1F
100
AcDbEntity
  8
8
100
AcDbText
 10
9.779355404990079
 20
4.855002517454452
 30
0.0
 40
0.07
  1
ANCHORING BY ERECTOR
 50
90.0
  7
ROMANS
 72
     2
 11
9.779355404990079
 21
6.168335850787785
 31
0.0
100
AcDbText
  0
TEXT
  5
442
330
1F
100
AcDbEntity
  8
8
100
AcDbText
 10
8.132232795828304
 20
4.761656853911631
 30
0.0
 40
0.07
  1
LOCKER HEIGHT
 50
90.0
  7
ROMANS
 72
     1
 11
8.132232795828304
 21
5.183323520578298
 31
0.0
100
AcDbText
  0
TEXT
  5
443
330
1F
100
AcDbEntity
  8
8
100
AcDbText
 10
4.976732795828304
 20
3.245323520578298
 30
0.0
 40
0.07
  1
LOCKER WIDTH - SEE SCHEDULE
  7
ROMANS
 72
     1
 11
5.881732795828305
 21
3.245323520578298
 31
0.0
100
AcDbText
  0
TEXT
  5
444
330
1F
100
AcDbEntity
  8
8
100
AcDbText
 10
5.217447081542592
 20
2.745323520578298
 30
0.0
 40
0.1
  1
FRONT ELEVATION
  7
ROMANS
 72
     1
 11
5.881732795828305
 21
2.745323520578298
 31
0.0
100
AcDbText
  0
LINE
  5
445
330
1F
100
AcDbEntity
  8
1
100
AcDbLine
 10
3.631732795828305
 20
2.183323520578298
 30
0.0
 11
11.8817327958283
 21
2.183323520578298
 31
0.0
  0
LINE
  5
446
330
1F
100
AcDbEntity
  8
1
100
AcDbLine
 10
11.8817327958283
 20
2.183323520578298
 30
0.0
 11
11.8817327958283
 21
7.433323520578298
 31
0.0
  0
LINE
  5
447
330
1F
100
AcDbEntity
  8
1
100
AcDbLine
 10
11.8817327958283
 20
7.433323520578298
 30
0.0
 11
3.631732795828305
 21
7.433323520578298
 31
0.0
  0
LINE
  5
448
330
1F
100
AcDbEntity
  8
1
100
AcDbLine
 10
3.631732795828305
 20
7.433323520578298
 30
0.0
 11
3.631732795828305
 21
2.183323520578298
 31
0.0
  0
LINE
  5
449
330
1F
100
AcDbEntity
  8
1
100
AcDbLine
 10
4.631732795828305
 20
3.683323520578298
 30
0.0
 11
6.131732795828305
 21
3.683323520578298
 31
0.0
  0
LINE
  5
44A
330
1F
100
AcDbEntity
  8
1
100
AcDbLine
 10
4.631732795828305
 20
3.683323520578298
 30
0.0
 11
4.631732795828305
 21
6.683323520578298
 31
0.0
  0
LINE
  5
44B
330
1F
100
AcDbEntity
  8
1
100
AcDbLine
 10
4.631732795828305
 20
6.683323520578298
 30
0.0
 11
6.131732795828305
 21
6.683323520578298
 31
0.0
  0
LINE
  5
44C
330
1F
100
AcDbEntity
  8
1
100
AcDbLine
 10
6.256732795828305
 20
6.683323520578298
 30
0.0
 11
7.131732795828305
 21
6.683323520578298
 31
0.0
  0
LINE
  5
44D
330
1F
100
AcDbEntity
  8
1
100
AcDbLine
 10
7.131732795828305
 20
6.683323520578298
 30
0.0
 11
7.131732795828305
 21
3.683323520578298
 31
0.0
  0
LINE
  5
44E
330
1F
100
AcDbEntity
  8
1
100
AcDbLine
 10
7.131732795828305
 20
3.683323520578298
 30
0.0
 11
6.256732795828305
 21
3.683323520578298
 31
0.0
  0
LINE
  5
44F
330
1F
100
AcDbEntity
  8
1
100
AcDbLine
 10
10.6317327958283
 20
3.683323520578298
 30
0.0
 11
10.6317327958283
 21
6.683323520578298
 31
0.0
  0
LINE
  5
450
330
1F
100
AcDbEntity
  8
1
100
AcDbLine
 10
9.381732795828305
 20
3.683323520578298
 30
0.0
 11
9.381732795828305
 21
7.058323520578298
 31
0.0
  0
CIRCLE
  5
451
330
1F
100
AcDbEntity
  8
1
100
AcDbCircle
 10
7.756732795828305
 20
2.683323520578298
 30
0.0
 40
0.1875
  0
LINE
  5
452
330
1F
100
AcDbEntity
  8
1
100
AcDbLine
 10
6.256732795828305
 20
6.808323520578298
 30
0.0
 11
6.256732795828305
 21
5.893297699889878
 31
0.0
  0
LINE
  5
453
330
1F
100
AcDbEntity
  8
1
100
AcDbLine
 10
6.131732795828305
 20
6.808323520578298
 30
0.0
 11
6.131732795828305
 21
6.528297699889877
 31
0.0
  0
LINE
  5
454
330
1F
100
AcDbEntity
  8
1
100
AcDbLine
 10
6.086732795828305
 20
6.573297699889877
 30
0.0
 11
6.176732795828305
 21
6.483297699889877
 31
0.0
  0
LINE
  5
455
330
1F
100
AcDbEntity
  8
1
100
AcDbLine
 10
6.176732795828305
 20
6.483297699889877
 30
0.0
 11
6.086732795828305
 21
6.483297699889877
 31
0.0
  0
LINE
  5
456
330
1F
100
AcDbEntity
  8
1
100
AcDbLine
 10
6.086732795828305
 20
6.483297699889877
 30
0.0
 11
6.176732795828305
 21
6.393297699889878
 31
0.0
  0
LINE
  5
457
330
1F
100
AcDbEntity
  8
1
100
AcDbLine
 10
6.143928826655288
 20
6.426101669062895
 30
0.0
 11
6.143928826655288
 21
5.259002049725967
 31
0.0
  0
LINE
  5
458
330
1F
100
AcDbEntity
  8
1
100
AcDbLine
 10
6.086732795828305
 20
5.233297699889877
 30
0.0
 11
6.176732795828305
 21
5.143297699889878
 31
0.0
  0
LINE
  5
459
330
1F
100
AcDbEntity
  8
1
100
AcDbLine
 10
6.176732795828305
 20
5.233297699889877
 30
0.0
 11
6.086732795828305
 21
5.233297699889877
 31
0.0
  0
LINE
  5
45A
330
1F
100
AcDbEntity
  8
1
100
AcDbLine
 10
6.086732795828305
 20
5.323297699889877
 30
0.0
 11
6.176732795828305
 21
5.233297699889877
 31
0.0
  0
LINE
  5
45B
330
1F
100
AcDbEntity
  8
1
100
AcDbLine
 10
6.086732795828305
 20
3.983297699889877
 30
0.0
 11
6.176732795828305
 21
3.893297699889878
 31
0.0
  0
LINE
  5
45C
330
1F
100
AcDbEntity
  8
1
100
AcDbLine
 10
6.176732795828305
 20
3.983297699889877
 30
0.0
 11
6.086732795828305
 21
3.983297699889877
 31
0.0
  0
LINE
  5
45D
330
1F
100
AcDbEntity
  8
1
100
AcDbLine
 10
6.086732795828305
 20
4.073297699889877
 30
0.0
 11
6.176732795828305
 21
3.983297699889877
 31
0.0
  0
LINE
  5
45E
330
1F
100
AcDbEntity
  8
1
100
AcDbLine
 10
6.131732795828305
 20
5.188297699889877
 30
0.0
 11
6.131732795828305
 21
4.653297699889877
 31
0.0
  0
LINE
  5
45F
330
1F
100
AcDbEntity
  8
1
100
AcDbLine
 10
6.131732795828305
 20
4.653297699889877
 30
0.0
 11
6.131732795828305
 21
4.028297699889877
 31
0.0
  0
LINE
  5
460
330
1F
100
AcDbEntity
  8
1
100
AcDbLine
 10
6.131732795828305
 20
3.938297699889877
 30
0.0
 11
6.131732795828305
 21
3.558323520578298
 31
0.0
  0
LINE
  5
461
330
1F
100
AcDbEntity
  8
1
100
AcDbLine
 10
6.211732795828305
 20
4.698297699889877
 30
0.0
 11
6.301732795828305
 21
4.608297699889877
 31
0.0
  0
LINE
  5
462
330
1F
100
AcDbEntity
  8
1
100
AcDbLine
 10
6.301732795828305
 20
4.608297699889877
 30
0.0
 11
6.211732795828305
 21
4.608297699889877
 31
0.0
  0
LINE
  5
463
330
1F
100
AcDbEntity
  8
1
100
AcDbLine
 10
6.211732795828305
 20
4.608297699889877
 30
0.0
 11
6.301732795828305
 21
4.518297699889878
 31
0.0
  0
LINE
  5
464
330
1F
100
AcDbEntity
  8
1
100
AcDbLine
 10
6.211732795828305
 20
5.938297699889877
 30
0.0
 11
6.301732795828305
 21
5.848297699889878
 31
0.0
  0
LINE
  5
465
330
1F
100
AcDbEntity
  8
1
100
AcDbLine
 10
6.301732795828305
 20
5.848297699889878
 30
0.0
 11
6.211732795828305
 21
5.848297699889878
 31
0.0
  0
LINE
  5
466
330
1F
100
AcDbEntity
  8
1
100
AcDbLine
 10
6.211732795828305
 20
5.848297699889878
 30
0.0
 11
6.301732795828305
 21
5.758297699889878
 31
0.0
  0
LINE
  5
467
330
1F
100
AcDbEntity
  8
1
100
AcDbLine
 10
6.256732795828305
 20
5.809291224730164
 30
0.0
 11
6.256732795828305
 21
4.965797699889877
 31
0.0
  0
LINE
  5
468
330
1F
100
AcDbEntity
  8
1
100
AcDbLine
 10
6.256732795828305
 20
4.965797699889877
 30
0.0
 11
6.256732795828305
 21
4.653297699889877
 31
0.0
  0
LINE
  5
469
330
1F
100
AcDbEntity
  8
1
100
AcDbLine
 10
6.256732795828305
 20
4.563297699889877
 30
0.0
 11
6.256732795828305
 21
3.558323520578298
 31
0.0
  0
LINE
  5
46A
330
1F
100
AcDbEntity
  8
1
100
AcDbLine
 10
9.381732795828305
 20
3.683323520578298
 30
0.0
 11
9.569732795828304
 21
3.871323520578298
 31
0.0
  0
LINE
  5
46B
330
1F
100
AcDbEntity
  8
1
100
AcDbLine
 10
9.381732795828305
 20
3.808323520578298
 30
0.0
 11
9.569732795828304
 21
3.996323520578298
 31
0.0
  0
LINE
  5
46C
330
1F
100
AcDbEntity
  8
1
100
AcDbLine
 10
9.381732795828305
 20
4.183323520578298
 30
0.0
 11
9.569732795828304
 21
4.371323520578298
 31
0.0
  0
LINE
  5
46D
330
1F
100
AcDbEntity
  8
1
100
AcDbLine
 10
9.381732795828305
 20
4.308323520578298
 30
0.0
 11
9.569732795828304
 21
4.496323520578298
 31
0.0
  0
LINE
  5
46E
330
1F
100
AcDbEntity
  8
1
100
AcDbLine
 10
9.381732795828305
 20
4.433323520578298
 30
0.0
 11
9.569732795828304
 21
4.621323520578298
 31
0.0
  0
LINE
  5
46F
330
1F
100
AcDbEntity
  8
1
100
AcDbLine
 10
9.381732795828305
 20
4.558323520578298
 30
0.0
 11
9.569732795828304
 21
4.746323520578298
 31
0.0
  0
LINE
  5
470
330
1F
100
AcDbEntity
  8
1
100
AcDbLine
 10
9.381732795828305
 20
4.683323520578298
 30
0.0
 11
9.569732795828304
 21
4.871323520578298
 31
0.0
  0
LINE
  5
471
330
1F
100
AcDbEntity
  8
1
100
AcDbLine
 10
9.381732795828305
 20
4.808323520578298
 30
0.0
 11
9.569732795828304
 21
4.996323520578298
 31
0.0
  0
LINE
  5
472
330
1F
100
AcDbEntity
  8
1
100
AcDbLine
 10
9.381732795828305
 20
4.933323520578298
 30
0.0
 11
9.569732795828304
 21
5.121323520578298
 31
0.0
  0
LINE
  5
473
330
1F
100
AcDbEntity
  8
1
100
AcDbLine
 10
9.381732795828305
 20
5.058323520578298
 30
0.0
 11
9.569732795828304
 21
5.246323520578298
 31
0.0
  0
LINE
  5
474
330
1F
100
AcDbEntity
  8
1
100
AcDbLine
 10
9.381732795828305
 20
5.183323520578298
 30
0.0
 11
9.569732795828304
 21
5.371323520578298
 31
0.0
  0
LINE
  5
475
330
1F
100
AcDbEntity
  8
1
100
AcDbLine
 10
9.381732795828305
 20
5.308323520578298
 30
0.0
 11
9.569732795828304
 21
5.496323520578298
 31
0.0
  0
LINE
  5
476
330
1F
100
AcDbEntity
  8
1
100
AcDbLine
 10
9.381732795828305
 20
5.433323520578298
 30
0.0
 11
9.569732795828304
 21
5.621323520578298
 31
0.0
  0
LINE
  5
477
330
1F
100
AcDbEntity
  8
1
100
AcDbLine
 10
9.381732795828305
 20
5.558323520578298
 30
0.0
 11
9.569732795828304
 21
5.746323520578298
 31
0.0
  0
LINE
  5
478
330
1F
100
AcDbEntity
  8
1
100
AcDbLine
 10
9.381732795828305
 20
5.683323520578298
 30
0.0
 11
9.569732795828304
 21
5.871323520578298
 31
0.0
  0
LINE
  5
479
330
1F
100
AcDbEntity
  8
1
100
AcDbLine
 10
9.381732795828305
 20
5.808323520578298
 30
0.0
 11
9.569732795828304
 21
5.996323520578298
 31
0.0
  0
LINE
  5
47A
330
1F
100
AcDbEntity
  8
1
100
AcDbLine
 10
9.381732795828305
 20
5.933323520578298
 30
0.0
 11
9.569732795828304
 21
6.121323520578298
 31
0.0
  0
LINE
  5
47B
330
1F
100
AcDbEntity
  8
1
100
AcDbLine
 10
9.381732795828305
 20
6.058323520578298
 30
0.0
 11
9.569732795828304
 21
6.246323520578298
 31
0.0
  0
LINE
  5
47C
330
1F
100
AcDbEntity
  8
1
100
AcDbLine
 10
9.381732795828305
 20
6.183323520578298
 30
0.0
 11
9.569732795828304
 21
6.371323520578298
 31
0.0
  0
LINE
  5
47D
330
1F
100
AcDbEntity
  8
1
100
AcDbLine
 10
9.381732795828305
 20
6.308323520578298
 30
0.0
 11
9.569732795828304
 21
6.496323520578298
 31
0.0
  0
LINE
  5
47E
330
1F
100
AcDbEntity
  8
1
100
AcDbLine
 10
9.381732795828305
 20
6.433323520578298
 30
0.0
 11
9.569732795828304
 21
6.621323520578298
 31
0.0
  0
LINE
  5
47F
330
1F
100
AcDbEntity
  8
1
100
AcDbLine
 10
9.381732795828305
 20
6.558323520578298
 30
0.0
 11
9.569732795828304
 21
6.746323520578298
 31
0.0
  0
LINE
  5
480
330
1F
100
AcDbEntity
  8
1
100
AcDbLine
 10
9.381732795828305
 20
6.683323520578298
 30
0.0
 11
9.569732795828304
 21
6.871323520578298
 31
0.0
  0
LINE
  5
481
330
1F
100
AcDbEntity
  8
1
100
AcDbLine
 10
9.381732795828305
 20
6.808323520578298
 30
0.0
 11
9.569732795828304
 21
6.996323520578298
 31
0.0
  0
LINE
  5
482
330
1F
100
AcDbEntity
  8
1
100
AcDbLine
 10
9.381732795828305
 20
6.933323520578298
 30
0.0
 11
9.506732795828305
 21
7.058323520578298
 31
0.0
  0
LINE
  5
483
330
1F
100
AcDbEntity
  8
1
100
AcDbLine
 10
9.321732795828307
 20
3.683323520578298
 30
0.0
 11
9.321732795828307
 21
6.683323520578298
 31
0.0
  0
LINE
  5
484
330
1F
100
AcDbEntity
  8
4
100
AcDbLine
 10
4.631732795828305
 20
3.621323520578298
 30
0.0
 11
4.631732795828305
 21
3.121323520578298
 31
0.0
  0
LINE
  5
485
330
1F
100
AcDbEntity
  8
4
100
AcDbLine
 10
7.131732795828305
 20
3.621323520578298
 30
0.0
 11
7.131732795828305
 21
3.121323520578298
 31
0.0
  0
LINE
  5
486
330
1F
100
AcDbEntity
  8
4
100
AcDbLine
 10
7.131732795828305
 20
3.183323520578298
 30
0.0
 11
4.631732795828305
 21
3.183323520578298
 31
0.0
  0
INSERT
  5
487
330
1F
100
AcDbEntity
  8
4
100
AcDbBlockReference
  2
ARRO
 10
4.631732795828305
 20
3.183323520578298
 30
0.0
  0
INSERT
  5
488
330
1F
100
AcDbEntity
  8
4
100
AcDbBlockReference
  2
ARRO
 10
7.131732795828305
 20
3.183323520578298
 30
0.0
 50
180.0
  0
LINE
  5
489
330
1F
100
AcDbEntity
  8
4
100
AcDbLine
 10
8.634232795828307
 20
3.683323520578298
 30
0.0
 11
8.134232795828307
 21
3.683323520578298
 31
0.0
  0
LINE
  5
48A
330
1F
100
AcDbEntity
  8
4
100
AcDbLine
 10
8.194232795828305
 20
3.683323520578298
 30
0.0
 11
8.194232795828305
 21
6.683323520578298
 31
0.0
  0
LINE
  5
48B
330
1F
100
AcDbEntity
  8
4
100
AcDbLine
 10
8.634232795828307
 20
6.683323520578298
 30
0.0
 11
8.134232795828307
 21
6.683323520578298
 31
0.0
  0
INSERT
  5
48C
330
1F
100
AcDbEntity
  8
4
100
AcDbBlockReference
  2
ARRO
 10
8.194232795828305
 20
6.683323520578298
 30
0.0
 50
270.0
  0
INSERT
  5
48D
330
1F
100
AcDbEntity
  8
4
100
AcDbBlockReference
  2
ARRO
 10
8.194232795828305
 20
3.683323520578298
 30
0.0
 50
90.0
  0
LINE
  5
48E
330
1F
100
AcDbEntity
  8
4
100
AcDbLine
 10
9.321732795828307
 20
3.183323520578298
 30
0.0
 11
8.696732795828307
 21
3.183323520578298
 31
0.0
  0
LINE
  5
48F
330
1F
100
AcDbEntity
  8
4
100
AcDbLine
 10
9.381732795828305
 20
3.183323520578298
 30
0.0
 11
9.631732795828305
 21
3.183323520578298
 31
0.0
  0
LINE
  5
490
330
1F
100
AcDbEntity
  8
4
100
AcDbLine
 10
10.0067327958283
 20
3.183323520578298
 30
0.0
 11
11.2567327958283
 21
3.183323520578298
 31
0.0
  0
INSERT
  5
491
330
1F
100
AcDbEntity
  8
4
100
AcDbBlockReference
  2
ARRO
 10
8.696732795828307
 20
3.183323520578298
 30
0.0
  0
INSERT
  5
492
330
1F
100
AcDbEntity
  8
4
100
AcDbBlockReference
  2
ARRO
 10
9.321732795828307
 20
3.183323520578298
 30
0.0
 50
180.0
  0
INSERT
  5
493
330
1F
100
AcDbEntity
  8
4
100
AcDbBlockReference
  2
ARRO
 10
9.381732795828305
 20
3.183323520578298
 30
0.0
  0
INSERT
  5
494
330
1F
100
AcDbEntity
  8
4
100
AcDbBlockReference
  2
ARRO
 10
10.0067327958283
 20
3.183323520578298
 30
0.0
  0
INSERT
  5
495
330
1F
100
AcDbEntity
  8
4
100
AcDbBlockReference
  2
ARRO
 10
11.2567327958283
 20
3.183323520578298
 30
0.0
 50
180.0
  0
LINE
  5
496
330
1F
100
AcDbEntity
  8
1
100
AcDbLine
 10
4.693732795828306
 20
3.745323520578298
 30
0.0
 11
4.693732795828306
 21
6.621323520578298
 31
0.0
  0
LINE
  5
497
330
1F
100
AcDbEntity
  8
1
100
AcDbLine
 10
4.693732795828306
 20
6.621323520578298
 30
0.0
 11
5.194732795828306
 21
6.621323520578298
 31
0.0
  0
LINE
  5
498
330
1F
100
AcDbEntity
  8
1
100
AcDbLine
 10
5.194732795828306
 20
6.621323520578298
 30
0.0
 11
5.194732795828305
 21
3.745323520578298
 31
0.0
  0
LINE
  5
499
330
1F
100
AcDbEntity
  8
1
100
AcDbLine
 10
5.318732795828306
 20
3.745323520578298
 30
0.0
 11
5.318732795828306
 21
6.621323520578298
 31
0.0
  0
LINE
  5
49A
330
1F
100
AcDbEntity
  8
1
100
AcDbLine
 10
5.318732795828306
 20
6.621323520578298
 30
0.0
 11
5.819732795828306
 21
6.621323520578298
 31
0.0
  0
LINE
  5
49B
330
1F
100
AcDbEntity
  8
1
100
AcDbLine
 10
5.819732795828306
 20
6.621323520578298
 30
0.0
 11
5.819732795828305
 21
3.745323520578298
 31
0.0
  0
LINE
  5
49C
330
1F
100
AcDbEntity
  8
1
100
AcDbLine
 10
5.819732795828305
 20
3.745323520578298
 30
0.0
 11
5.318732795828306
 21
3.745323520578298
 31
0.0
  0
LINE
  5
49D
330
1F
100
AcDbEntity
  8
1
100
AcDbLine
 10
5.943732795828306
 20
3.745323520578298
 30
0.0
 11
5.943732795828306
 21
6.621323520578298
 31
0.0
  0
LINE
  5
49E
330
1F
100
AcDbEntity
  8
1
100
AcDbLine
 10
5.943732795828306
 20
6.621323520578298
 30
0.0
 11
6.131732795828305
 21
6.621323520578298
 31
0.0
  0
LINE
  5
49F
330
1F
100
AcDbEntity
  8
1
100
AcDbLine
 10
6.444732795828306
 20
6.621323520578298
 30
0.0
 11
6.444732795828305
 21
3.745323520578298
 31
0.0
  0
LINE
  5
4A0
330
1F
100
AcDbEntity
  8
1
100
AcDbLine
 10
6.444732795828305
 20
3.745323520578298
 30
0.0
 11
6.256732795828305
 21
3.745323520578298
 31
0.0
  0
LINE
  5
4A1
330
1F
100
AcDbEntity
  8
1
100
AcDbLine
 10
6.568732795828306
 20
3.745323520578298
 30
0.0
 11
6.568732795828306
 21
6.621323520578298
 31
0.0
  0
LINE
  5
4A2
330
1F
100
AcDbEntity
  8
1
100
AcDbLine
 10
6.568732795828306
 20
6.621323520578298
 30
0.0
 11
7.069732795828306
 21
6.621323520578298
 31
0.0
  0
LINE
  5
4A3
330
1F
100
AcDbEntity
  8
1
100
AcDbLine
 10
7.069732795828306
 20
6.621323520578298
 30
0.0
 11
7.069732795828305
 21
3.745323520578298
 31
0.0
  0
LINE
  5
4A4
330
1F
100
AcDbEntity
  8
1
100
AcDbLine
 10
7.069732795828305
 20
3.745323520578298
 30
0.0
 11
6.568732795828306
 21
3.745323520578298
 31
0.0
  0
LINE
  5
4A5
330
1F
100
AcDbEntity
  8
1
100
AcDbLine
 10
5.256732795828305
 20
3.683323520578298
 30
0.0
 11
5.256732795828305
 21
6.683323520578298
 31
0.0
  0
LINE
  5
4A6
330
1F
100
AcDbEntity
  8
1
100
AcDbLine
 10
5.881732795828305
 20
3.683323520578298
 30
0.0
 11
5.881732795828305
 21
6.683323520578298
 31
0.0
  0
LINE
  5
4A7
330
1F
100
AcDbEntity
  8
1
100
AcDbLine
 10
6.506732795828305
 20
3.683323520578298
 30
0.0
 11
6.506732795828305
 21
6.683323520578298
 31
0.0
  0
LINE
  5
4A8
330
1F
100
AcDbEntity
  8
1
100
AcDbLine
 10
6.256732795828305
 20
6.621323520578298
 30
0.0
 11
6.444732795828306
 21
6.621323520578298
 31
0.0
  0
LINE
  5
4A9
330
1F
100
AcDbEntity
  8
1
100
AcDbLine
 10
6.131732795828304
 20
3.745323520578298
 30
0.0
 11
5.943732795828306
 21
3.745323520578298
 31
0.0
  0
LINE
  5
4AA
330
1F
100
AcDbEntity
  8
4
100
AcDbLine
 10
5.569232795828305
 20
6.589323520578298
 30
0.0
 11
5.569232795828305
 21
6.714323520578298
 31
0.0
  0
CIRCLE
  5
4AB
330
1F
100
AcDbEntity
  8
4
100
AcDbCircle
 10
5.569232795828305
 20
6.495323520578298
 30
0.0
 40
0.094
  0
CIRCLE
  5
4AC
330
1F
100
AcDbEntity
  8
4
100
AcDbCircle
 10
5.410599506136319
 20
3.557323520578298
 30
0.0
 40
0.094
  0
LINE
  5
4AD
330
1F
100
AcDbEntity
  8
4
100
AcDbLine
 10
5.410599506136319
 20
3.651323520578298
 30
0.0
 11
5.410599506136319
 21
3.776323520578298
 31
0.0
  0
CIRCLE
  5
4AE
330
1F
100
AcDbEntity
  8
4
100
AcDbCircle
 10
5.660599506136319
 20
3.557323520578298
 30
0.0
 40
0.094
  0
LINE
  5
4AF
330
1F
100
AcDbEntity
  8
4
100
AcDbLine
 10
5.504599506136319
 20
3.557323520578298
 30
0.0
 11
5.566599506136318
 21
3.557323520578298
 31
0.0
  0
LINE
  5
4B0
330
1F
100
AcDbEntity
  8
1
100
AcDbLine
 10
4.693732795828306
 20
3.745323520578298
 30
0.0
 11
5.194732795828305
 21
3.745323520578298
 31
0.0
  0
LINE
  5
4B1
330
1F
100
AcDbEntity
  8
1
100
AcDbLine
 10
8.835232795828304
 20
6.683323520578298
 30
0.0
 11
8.820232795828305
 21
6.668323520578297
 31
0.0
  0
LINE
  5
4B2
330
1F
100
AcDbEntity
  8
1
100
AcDbLine
 10
8.820232795828305
 20
6.668323520578297
 30
0.0
 11
8.722232795828304
 21
6.668323520578297
 31
0.0
  0
LINE
  5
4B3
330
1F
100
AcDbEntity
  8
1
100
AcDbLine
 10
8.722232795828304
 20
6.668323520578297
 30
0.0
 11
8.722232795828304
 21
6.640077378140738
 31
0.0
  0
LINE
  5
4B4
330
1F
100
AcDbEntity
  8
1
100
AcDbLine
 10
8.897232795828305
 20
6.621323520578298
 30
0.0
 11
8.835232795828304
 21
6.683323520578298
 31
0.0
  0
LINE
  5
4B5
330
1F
100
AcDbEntity
  8
1
100
AcDbLine
 10
9.262232795828305
 20
6.621323520578298
 30
0.0
 11
8.897232795828305
 21
6.621323520578298
 31
0.0
  0
LINE
  5
4B6
330
1F
100
AcDbEntity
  8
1
100
AcDbLine
 10
9.262232795828305
 20
6.683323520578298
 30
0.0
 11
9.262232795828305
 21
6.621323520578298
 31
0.0
  0
LINE
  5
4B7
330
1F
100
AcDbEntity
  8
1
100
AcDbLine
 10
9.302232795828306
 20
6.683323520578298
 30
0.0
 11
9.302232795828306
 21
6.621323520578298
 31
0.0
  0
LINE
  5
4B8
330
1F
100
AcDbEntity
  8
1
100
AcDbLine
 10
8.697232795828305
 20
6.683323520578298
 30
0.0
 11
8.805232795828304
 21
6.683323520578298
 31
0.0
  0
LINE
  5
4B9
330
1F
100
AcDbEntity
  8
1
100
AcDbLine
 10
8.697232795828305
 20
6.621323520578298
 30
0.0
 11
8.697232795828305
 21
6.683323520578298
 31
0.0
  0
LINE
  5
4BA
330
1F
100
AcDbEntity
  8
1
100
AcDbLine
 10
8.759232795828305
 20
6.621323520578298
 30
0.0
 11
8.697232795828305
 21
6.621323520578298
 31
0.0
  0
LINE
  5
4BB
330
1F
100
AcDbEntity
  8
1
100
AcDbLine
 10
8.835232795828304
 20
6.683323520578298
 30
0.0
 11
9.302232795828306
 21
6.683323520578298
 31
0.0
  0
LINE
  5
4BC
330
1F
100
AcDbEntity
  8
1
100
AcDbLine
 10
10.1452327958283
 20
6.683323520578298
 30
0.0
 11
10.6122327958283
 21
6.683323520578298
 31
0.0
  0
LINE
  5
4BD
330
1F
100
AcDbEntity
  8
1
100
AcDbLine
 10
10.0692327958283
 20
6.621323520578298
 30
0.0
 11
10.0072327958283
 21
6.621323520578298
 31
0.0
  0
LINE
  5
4BE
330
1F
100
AcDbEntity
  8
1
100
AcDbLine
 10
10.0072327958283
 20
6.621323520578298
 30
0.0
 11
10.0072327958283
 21
6.683323520578298
 31
0.0
  0
LINE
  5
4BF
330
1F
100
AcDbEntity
  8
1
100
AcDbLine
 10
10.0072327958283
 20
6.683323520578298
 30
0.0
 11
10.1152327958283
 21
6.683323520578298
 31
0.0
  0
LINE
  5
4C0
330
1F
100
AcDbEntity
  8
1
100
AcDbLine
 10
10.6122327958283
 20
6.683323520578298
 30
0.0
 11
10.6122327958283
 21
6.621323520578298
 31
0.0
  0
LINE
  5
4C1
330
1F
100
AcDbEntity
  8
1
100
AcDbLine
 10
10.5722327958283
 20
6.683323520578298
 30
0.0
 11
10.5722327958283
 21
6.621323520578298
 31
0.0
  0
LINE
  5
4C2
330
1F
100
AcDbEntity
  8
1
100
AcDbLine
 10
10.5722327958283
 20
6.621323520578298
 30
0.0
 11
10.2072327958283
 21
6.621323520578298
 31
0.0
  0
LINE
  5
4C3
330
1F
100
AcDbEntity
  8
1
100
AcDbLine
 10
10.2072327958283
 20
6.621323520578298
 30
0.0
 11
10.1452327958283
 21
6.683323520578298
 31
0.0
  0
LINE
  5
4C4
330
1F
100
AcDbEntity
  8
1
100
AcDbLine
 10
10.0322327958283
 20
6.668323520578297
 30
0.0
 11
10.0322327958283
 21
6.640077378140738
 31
0.0
  0
LINE
  5
4C5
330
1F
100
AcDbEntity
  8
1
100
AcDbLine
 10
10.1302327958283
 20
6.668323520578297
 30
0.0
 11
10.0322327958283
 21
6.668323520578297
 31
0.0
  0
LINE
  5
4C6
330
1F
100
AcDbEntity
  8
1
100
AcDbLine
 10
10.1452327958283
 20
6.683323520578298
 30
0.0
 11
10.1302327958283
 21
6.668323520578297
 31
0.0
  0
LINE
  5
4C7
330
1F
100
AcDbEntity
  8
1
100
AcDbLine
 10
11.1532327958283
 20
6.683323520578298
 30
0.0
 11
11.1682327958283
 21
6.668323520578297
 31
0.0
  0
LINE
  5
4C8
330
1F
100
AcDbEntity
  8
1
100
AcDbLine
 10
11.1682327958283
 20
6.668323520578297
 30
0.0
 11
11.26623279582831
 21
6.668323520578297
 31
0.0
  0
LINE
  5
4C9
330
1F
100
AcDbEntity
  8
1
100
AcDbLine
 10
11.26623279582831
 20
6.668323520578297
 30
0.0
 11
11.26623279582831
 21
6.640077378140738
 31
0.0
  0
LINE
  5
4CA
330
1F
100
AcDbEntity
  8
1
100
AcDbLine
 10
11.0912327958283
 20
6.621323520578298
 30
0.0
 11
11.1532327958283
 21
6.683323520578298
 31
0.0
  0
LINE
  5
4CB
330
1F
100
AcDbEntity
  8
1
100
AcDbLine
 10
10.7262327958283
 20
6.621323520578298
 30
0.0
 11
11.0912327958283
 21
6.621323520578298
 31
0.0
  0
LINE
  5
4CC
330
1F
100
AcDbEntity
  8
1
100
AcDbLine
 10
10.7262327958283
 20
6.683323520578298
 30
0.0
 11
10.7262327958283
 21
6.621323520578298
 31
0.0
  0
LINE
  5
4CD
330
1F
100
AcDbEntity
  8
1
100
AcDbLine
 10
10.6862327958283
 20
6.683323520578298
 30
0.0
 11
10.6862327958283
 21
6.621323520578298
 31
0.0
  0
LINE
  5
4CE
330
1F
100
AcDbEntity
  8
1
100
AcDbLine
 10
11.2912327958283
 20
6.683323520578298
 30
0.0
 11
11.1832327958283
 21
6.683323520578298
 31
0.0
  0
LINE
  5
4CF
330
1F
100
AcDbEntity
  8
1
100
AcDbLine
 10
11.2912327958283
 20
6.621323520578298
 30
0.0
 11
11.2912327958283
 21
6.683323520578298
 31
0.0
  0
LINE
  5
4D0
330
1F
100
AcDbEntity
  8
1
100
AcDbLine
 10
11.2292327958283
 20
6.621323520578298
 30
0.0
 11
11.2912327958283
 21
6.621323520578298
 31
0.0
  0
LINE
  5
4D1
330
1F
100
AcDbEntity
  8
1
100
AcDbLine
 10
11.1532327958283
 20
6.683323520578298
 30
0.0
 11
10.6862327958283
 21
6.683323520578298
 31
0.0
  0
LINE
  5
4D2
330
1F
100
AcDbEntity
  8
1
100
AcDbLine
 10
11.1182327958283
 20
3.745823520578298
 30
0.0
 11
10.6512327958283
 21
3.745823520578298
 31
0.0
  0
LINE
  5
4D3
330
1F
100
AcDbEntity
  8
1
100
AcDbLine
 10
11.1942327958283
 20
3.683823520578298
 30
0.0
 11
11.2562327958283
 21
3.683823520578298
 31
0.0
  0
LINE
  5
4D4
330
1F
100
AcDbEntity
  8
1
100
AcDbLine
 10
11.2562327958283
 20
3.683823520578298
 30
0.0
 11
11.2562327958283
 21
3.745823520578298
 31
0.0
  0
LINE
  5
4D5
330
1F
100
AcDbEntity
  8
1
100
AcDbLine
 10
11.2562327958283
 20
3.745823520578298
 30
0.0
 11
11.14823279582831
 21
3.745823520578298
 31
0.0
  0
LINE
  5
4D6
330
1F
100
AcDbEntity
  8
1
100
AcDbLine
 10
10.6512327958283
 20
3.745823520578298
 30
0.0
 11
10.6512327958283
 21
3.683823520578298
 31
0.0
  0
LINE
  5
4D7
330
1F
100
AcDbEntity
  8
1
100
AcDbLine
 10
10.6912327958283
 20
3.745823520578298
 30
0.0
 11
10.6912327958283
 21
3.683823520578298
 31
0.0
  0
LINE
  5
4D8
330
1F
100
AcDbEntity
  8
1
100
AcDbLine
 10
10.6912327958283
 20
3.683823520578298
 30
0.0
 11
11.05623279582831
 21
3.683823520578298
 31
0.0
  0
LINE
  5
4D9
330
1F
100
AcDbEntity
  8
1
100
AcDbLine
 10
11.05623279582831
 20
3.683823520578298
 30
0.0
 11
11.1182327958283
 21
3.745823520578298
 31
0.0
  0
LINE
  5
4DA
330
1F
100
AcDbEntity
  8
1
100
AcDbLine
 10
11.2312327958283
 20
3.730823520578297
 30
0.0
 11
11.2312327958283
 21
3.702577378140738
 31
0.0
  0
LINE
  5
4DB
330
1F
100
AcDbEntity
  8
1
100
AcDbLine
 10
11.1332327958283
 20
3.730823520578297
 30
0.0
 11
11.2312327958283
 21
3.730823520578297
 31
0.0
  0
LINE
  5
4DC
330
1F
100
AcDbEntity
  8
1
100
AcDbLine
 10
11.1182327958283
 20
3.745823520578298
 30
0.0
 11
11.1332327958283
 21
3.730823520578297
 31
0.0
  0
LINE
  5
4DD
330
1F
100
AcDbEntity
  8
1
100
AcDbLine
 10
10.1452327958283
 20
3.745823520578298
 30
0.0
 11
10.1302327958283
 21
3.730823520578297
 31
0.0
  0
LINE
  5
4DE
330
1F
100
AcDbEntity
  8
1
100
AcDbLine
 10
10.1302327958283
 20
3.730823520578297
 30
0.0
 11
10.0322327958283
 21
3.730823520578297
 31
0.0
  0
LINE
  5
4DF
330
1F
100
AcDbEntity
  8
1
100
AcDbLine
 10
10.0322327958283
 20
3.730823520578297
 30
0.0
 11
10.0322327958283
 21
3.702577378140738
 31
0.0
  0
LINE
  5
4E0
330
1F
100
AcDbEntity
  8
1
100
AcDbLine
 10
10.2072327958283
 20
3.683823520578298
 30
0.0
 11
10.1452327958283
 21
3.745823520578298
 31
0.0
  0
LINE
  5
4E1
330
1F
100
AcDbEntity
  8
1
100
AcDbLine
 10
10.5722327958283
 20
3.683823520578298
 30
0.0
 11
10.2072327958283
 21
3.683823520578298
 31
0.0
  0
LINE
  5
4E2
330
1F
100
AcDbEntity
  8
1
100
AcDbLine
 10
10.5722327958283
 20
3.745823520578298
 30
0.0
 11
10.5722327958283
 21
3.683823520578298
 31
0.0
  0
LINE
  5
4E3
330
1F
100
AcDbEntity
  8
1
100
AcDbLine
 10
10.6122327958283
 20
3.745823520578298
 30
0.0
 11
10.6122327958283
 21
3.683823520578298
 31
0.0
  0
LINE
  5
4E4
330
1F
100
AcDbEntity
  8
1
100
AcDbLine
 10
10.0072327958283
 20
3.745823520578298
 30
0.0
 11
10.1152327958283
 21
3.745823520578298
 31
0.0
  0
LINE
  5
4E5
330
1F
100
AcDbEntity
  8
1
100
AcDbLine
 10
10.0072327958283
 20
3.683823520578298
 30
0.0
 11
10.0072327958283
 21
3.745823520578298
 31
0.0
  0
LINE
  5
4E6
330
1F
100
AcDbEntity
  8
1
100
AcDbLine
 10
10.0692327958283
 20
3.683823520578298
 30
0.0
 11
10.0072327958283
 21
3.683823520578298
 31
0.0
  0
LINE
  5
4E7
330
1F
100
AcDbEntity
  8
1
100
AcDbLine
 10
10.1452327958283
 20
3.745823520578298
 30
0.0
 11
10.6122327958283
 21
3.745823520578298
 31
0.0
  0
LINE
  5
4E8
330
1F
100
AcDbEntity
  8
1
100
AcDbLine
 10
8.835232795828304
 20
3.745823520578298
 30
0.0
 11
9.302232795828306
 21
3.745823520578298
 31
0.0
  0
LINE
  5
4E9
330
1F
100
AcDbEntity
  8
1
100
AcDbLine
 10
8.759232795828305
 20
3.683823520578298
 30
0.0
 11
8.697232795828305
 21
3.683823520578298
 31
0.0
  0
LINE
  5
4EA
330
1F
100
AcDbEntity
  8
1
100
AcDbLine
 10
8.697232795828305
 20
3.683823520578298
 30
0.0
 11
8.697232795828305
 21
3.745823520578298
 31
0.0
  0
LINE
  5
4EB
330
1F
100
AcDbEntity
  8
1
100
AcDbLine
 10
8.697232795828305
 20
3.745823520578298
 30
0.0
 11
8.805232795828304
 21
3.745823520578298
 31
0.0
  0
LINE
  5
4EC
330
1F
100
AcDbEntity
  8
1
100
AcDbLine
 10
9.302232795828306
 20
3.745823520578298
 30
0.0
 11
9.302232795828306
 21
3.683823520578298
 31
0.0
  0
LINE
  5
4ED
330
1F
100
AcDbEntity
  8
1
100
AcDbLine
 10
9.262232795828305
 20
3.745823520578298
 30
0.0
 11
9.262232795828305
 21
3.683823520578298
 31
0.0
  0
LINE
  5
4EE
330
1F
100
AcDbEntity
  8
1
100
AcDbLine
 10
9.262232795828305
 20
3.683823520578298
 30
0.0
 11
8.897232795828305
 21
3.683823520578298
 31
0.0
  0
LINE
  5
4EF
330
1F
100
AcDbEntity
  8
1
100
AcDbLine
 10
8.897232795828305
 20
3.683823520578298
 30
0.0
 11
8.835232795828304
 21
3.745823520578298
 31
0.0
  0
LINE
  5
4F0
330
1F
100
AcDbEntity
  8
1
100
AcDbLine
 10
8.722232795828304
 20
3.730823520578297
 30
0.0
 11
8.722232795828304
 21
3.702577378140738
 31
0.0
  0
LINE
  5
4F1
330
1F
100
AcDbEntity
  8
1
100
AcDbLine
 10
8.820232795828305
 20
3.730823520578297
 30
0.0
 11
8.722232795828304
 21
3.730823520578297
 31
0.0
  0
LINE
  5
4F2
330
1F
100
AcDbEntity
  8
1
100
AcDbLine
 10
8.835232795828304
 20
3.745823520578298
 30
0.0
 11
8.820232795828305
 21
3.730823520578297
 31
0.0
  0
LINE
  5
4F3
330
1F
100
AcDbEntity
  8
1
100
AcDbLine
 10
9.381732795828305
 20
4.058323520578298
 30
0.0
 11
9.569732795828304
 21
4.246323520578298
 31
0.0
  0
LINE
  5
4F4
330
1F
100
AcDbEntity
  8
1
100
AcDbLine
 10
9.381732795828305
 20
3.933323520578298
 30
0.0
 11
9.569732795828304
 21
4.121323520578298
 31
0.0
  0
LINE
  5
4F5
330
1F
100
AcDbEntity
  8
4
100
AcDbLine
 10
8.696732795828307
 20
3.121323520578298
 30
0.0
 11
8.696732795828307
 21
3.309323520578298
 31
0.0
  0
LINE
  5
4F6
330
1F
100
AcDbEntity
  8
4
100
AcDbLine
 10
9.321732795828307
 20
3.121323520578298
 30
0.0
 11
9.321732795828307
 21
3.309323520578298
 31
0.0
  0
LINE
  5
4F7
330
1F
100
AcDbEntity
  8
4
100
AcDbLine
 10
9.381732795828305
 20
3.121323520578298
 30
0.0
 11
9.381732795828305
 21
3.309323520578298
 31
0.0
  0
LINE
  5
4F8
330
1F
100
AcDbEntity
  8
4
100
AcDbLine
 10
10.0067327958283
 20
3.121323520578298
 30
0.0
 11
10.0067327958283
 21
3.309323520578298
 31
0.0
  0
LINE
  5
4F9
330
1F
100
AcDbEntity
  8
4
100
AcDbLine
 10
11.2567327958283
 20
3.121323520578298
 30
0.0
 11
11.2567327958283
 21
3.309323520578298
 31
0.0
  0
TEXT
  5
4FA
330
1F
100
AcDbEntity
  8
8
100
AcDbText
 10
5.116851843447353
 20
2.277308822765797
 30
0.0
 40
0.125
  1
SINGLE POINT 2 ATHLETIC LOCKER - FOUR HIGH BOX
  7
ROMANS
 72
     1
 11
7.756732795828305
 21
2.277308822765797
 31
0.0
100
AcDbText
  0
LINE
  5
4FB
330
1F
100
AcDbEntity
  8
4
100
AcDbLine
 10
4.725732795828306
 20
4.488323520578298
 30
0.0
 11
4.725732795828306
 21
5.167308822765798
 31
0.0
  0
LINE
  5
4FC
330
1F
100
AcDbEntity
  8
4
100
AcDbLine
 10
5.162732795828306
 20
5.006270403078299
 30
0.0
 11
5.162732795828306
 21
4.649391335890799
 31
0.0
  0
LINE
  5
4FD
330
1F
100
AcDbEntity
  8
2
100
AcDbLine
 10
4.997409330515906
 20
5.066055272453299
 30
0.0
 11
4.997409330515906
 21
4.582895919953299
 31
0.0
  0
LINE
  5
4FE
330
1F
100
AcDbEntity
  8
2
100
AcDbLine
 10
5.099897678015707
 20
4.556053733703299
 30
0.0
 11
5.099897678015707
 21
5.039213086203298
 31
0.0
  0
INSERT
  5
4FF
330
1F
100
AcDbEntity
  8
8
100
AcDbBlockReference
  2
TEMP3
 10
4.24445157626771
 20
5.655575103253329
 30
0.0
  0
POINT
  5
500
330
1F
100
AcDbEntity
  8
4
100
AcDbPoint
 10
3.631732795828305
 20
2.183323520578298
 30
0.0
  0
LINE
  5
501
330
1F
100
AcDbEntity
  8
4
100
AcDbLine
 10
5.157242348640806
 20
4.295270403078299
 30
0.0
 11
5.157242348640806
 21
4.377017061203298
 31
0.0
  0
LINE
  5
502
330
1F
100
AcDbEntity
  8
4
100
AcDbLine
 10
5.162732795828306
 20
4.377017061203298
 30
0.0
 11
5.162732795828306
 21
4.295270403078299
 31
0.0
  0
LINE
  5
503
330
1F
100
AcDbEntity
  8
4
100
AcDbLine
 10
4.725732795828306
 20
3.777323520578298
 30
0.0
 11
4.725732795828306
 21
4.456308822765798
 31
0.0
  0
LINE
  5
504
330
1F
100
AcDbEntity
  8
2
100
AcDbLine
 10
4.997409330515906
 20
4.355055272453299
 30
0.0
 11
4.997409330515906
 21
3.871895919953298
 31
0.0
  0
LINE
  5
505
330
1F
100
AcDbEntity
  8
2
100
AcDbLine
 10
5.099897678015707
 20
3.845053733703299
 30
0.0
 11
5.099897678015707
 21
4.328213086203298
 31
0.0
  0
LINE
  5
506
330
1F
100
AcDbEntity
  8
4
100
AcDbLine
 10
5.162732795828306
 20
3.777338218390799
 30
0.0
 11
4.725732795828306
 21
3.777323520578298
 31
0.0
  0
LINE
  5
507
330
1F
100
AcDbEntity
  8
4
100
AcDbLine
 10
5.162732795828306
 20
3.777338218390799
 30
0.0
 11
4.725732795828306
 21
3.777323520578298
 31
0.0
  0
LINE
  5
508
330
1F
100
AcDbEntity
  8
4
100
AcDbLine
 10
4.735579184182579
 20
4.199786493243713
 30
0.0
 11
4.745706990042027
 21
4.03774159949257
 31
0.0
  0
ARC
  5
509
330
1F
100
AcDbEntity
  8
4
100
AcDbCircle
 10
4.76480454403596
 20
4.201613078234548
 30
0.0
 40
0.029282385
100
AcDbArc
 50
90.0
 51
183.5763343749981
  0
LINE
  5
50A
330
1F
100
AcDbEntity
  8
4
100
AcDbLine
 10
5.162732795828306
 20
4.295270403078299
 30
0.0
 11
5.162732795828306
 21
3.938391335890798
 31
0.0
  0
ARC
  5
50B
330
1F
100
AcDbEntity
  8
2
100
AcDbCircle
 10
5.091356982390806
 20
3.862135124953298
 30
0.0
 40
0.001220099375
100
AcDbArc
 50
23.19861971166716
 51
156.8013802883115
  0
ARC
  5
50C
330
1F
100
AcDbEntity
  8
2
100
AcDbCircle
 10
5.091356982390806
 20
3.827972342453298
 30
0.0
 40
0.001220099375
100
AcDbArc
 50
203.1986197116884
 51
336.8013802883329
  0
LINE
  5
50D
330
1F
100
AcDbEntity
  8
2
100
AcDbLine
 10
5.004828578109072
 20
3.889457932464785
 30
0.0
 11
4.997507991329699
 21
3.872376587354428
 31
0.0
  0
LINE
  5
50E
330
1F
100
AcDbEntity
  8
2
100
AcDbLine
 10
5.004828578109072
 20
3.854333907441808
 30
0.0
 11
4.997507991329699
 21
3.87141525255217
 31
0.0
  0
ARC
  5
50F
330
1F
100
AcDbEntity
  8
2
100
AcDbCircle
 10
4.998629547020446
 20
3.871895919953298
 30
0.0
 40
0.00122021650454
100
AcDbArc
 50
156.8013802883257
 51
203.1986197116743
  0
ARC
  5
510
330
1F
100
AcDbEntity
  8
2
100
AcDbCircle
 10
5.005950026140806
 20
3.888977311203298
 30
0.0
 40
0.001220099375
100
AcDbArc
 50
23.19861971166716
 51
156.8013802883115
  0
ARC
  5
511
330
1F
100
AcDbEntity
  8
2
100
AcDbCircle
 10
5.005950026140806
 20
3.854814528703299
 30
0.0
 40
0.001220099375
100
AcDbArc
 50
203.1986197116884
 51
336.8013802883329
  0
LINE
  5
512
330
1F
100
AcDbEntity
  8
2
100
AcDbLine
 10
5.01927246792254
 20
3.827491721191807
 30
0.0
 11
5.026593054701912
 21
3.84457306630217
 31
0.0
  0
LINE
  5
513
330
1F
100
AcDbEntity
  8
2
100
AcDbLine
 10
5.01927246792254
 20
3.862615746214785
 30
0.0
 11
5.026593054701912
 21
3.845534401104427
 31
0.0
  0
ARC
  5
514
330
1F
100
AcDbEntity
  8
2
100
AcDbCircle
 10
5.025471499011166
 20
3.845053733703299
 30
0.0
 40
0.00122021650454
100
AcDbArc
 50
336.8013802883256
 51
23.19861971167427
  0
ARC
  5
515
330
1F
100
AcDbEntity
  8
2
100
AcDbCircle
 10
5.013270505261166
 20
3.871895919953298
 30
0.0
 40
0.00122021650454
100
AcDbArc
 50
336.8013802883256
 51
23.19861971167427
  0
ARC
  5
516
330
1F
100
AcDbEntity
  8
2
100
AcDbCircle
 10
5.018151019890806
 20
3.862135124953298
 30
0.0
 40
0.001220099375
100
AcDbArc
 50
23.19861971166716
 51
156.8013802883115
  0
ARC
  5
517
330
1F
100
AcDbEntity
  8
2
100
AcDbCircle
 10
5.018151019890806
 20
3.827972342453298
 30
0.0
 40
0.001220099375
100
AcDbArc
 50
203.1986197116884
 51
336.8013802883329
  0
ARC
  5
518
330
1F
100
AcDbEntity
  8
2
100
AcDbCircle
 10
5.010830540770445
 20
3.845053733703299
 30
0.0
 40
0.00122021650454
100
AcDbArc
 50
156.8013802883257
 51
203.1986197116743
  0
LINE
  5
519
330
1F
100
AcDbEntity
  8
2
100
AcDbLine
 10
5.017029571859072
 20
3.827491721191807
 30
0.0
 11
5.009708985079699
 21
3.84457306630217
 31
0.0
  0
LINE
  5
51A
330
1F
100
AcDbEntity
  8
2
100
AcDbLine
 10
5.00707147417254
 20
3.889457932464785
 30
0.0
 11
5.014392060951912
 21
3.872376587354428
 31
0.0
  0
LINE
  5
51B
330
1F
100
AcDbEntity
  8
2
100
AcDbLine
 10
5.00707147417254
 20
3.854333907441808
 30
0.0
 11
5.014392060951912
 21
3.87141525255217
 31
0.0
  0
LINE
  5
51C
330
1F
100
AcDbEntity
  8
2
100
AcDbLine
 10
5.017029571859072
 20
3.862615746214785
 30
0.0
 11
5.009708985079699
 21
3.845534401104427
 31
0.0
  0
ARC
  5
51D
330
1F
100
AcDbEntity
  8
2
100
AcDbCircle
 10
5.086476467761166
 20
3.871895919953298
 30
0.0
 40
0.00122021650454
100
AcDbArc
 50
336.8013802883256
 51
23.19861971167427
  0
ARC
  5
51E
330
1F
100
AcDbEntity
  8
2
100
AcDbCircle
 10
5.084036503270445
 20
3.845053733703299
 30
0.0
 40
0.00122021650454
100
AcDbArc
 50
156.8013802883257
 51
203.1986197116743
  0
LINE
  5
51F
330
1F
100
AcDbEntity
  8
2
100
AcDbLine
 10
5.090235534359072
 20
3.827491721191807
 30
0.0
 11
5.082914947579699
 21
3.84457306630217
 31
0.0
  0
LINE
  5
520
330
1F
100
AcDbEntity
  8
2
100
AcDbLine
 10
5.08027743667254
 20
3.889457932464785
 30
0.0
 11
5.087598023451912
 21
3.872376587354428
 31
0.0
  0
LINE
  5
521
330
1F
100
AcDbEntity
  8
2
100
AcDbLine
 10
5.08027743667254
 20
3.854333907441808
 30
0.0
 11
5.087598023451912
 21
3.87141525255217
 31
0.0
  0
LINE
  5
522
330
1F
100
AcDbEntity
  8
2
100
AcDbLine
 10
5.090235534359072
 20
3.862615746214785
 30
0.0
 11
5.082914947579699
 21
3.845534401104427
 31
0.0
  0
ARC
  5
523
330
1F
100
AcDbEntity
  8
2
100
AcDbCircle
 10
5.071835509520445
 20
3.871895919953298
 30
0.0
 40
0.00122021650454
100
AcDbArc
 50
156.8013802883257
 51
203.1986197116743
  0
LINE
  5
524
330
1F
100
AcDbEntity
  8
2
100
AcDbLine
 10
5.078034540609072
 20
3.889457932464785
 30
0.0
 11
5.070713953829699
 21
3.872376587354428
 31
0.0
  0
LINE
  5
525
330
1F
100
AcDbEntity
  8
2
100
AcDbLine
 10
5.078034540609072
 20
3.854333907441808
 30
0.0
 11
5.070713953829699
 21
3.87141525255217
 31
0.0
  0
ARC
  5
526
330
1F
100
AcDbEntity
  8
2
100
AcDbCircle
 10
5.079155988640806
 20
3.888977311203298
 30
0.0
 40
0.001220099375
100
AcDbArc
 50
23.19861971166716
 51
156.8013802883115
  0
ARC
  5
527
330
1F
100
AcDbEntity
  8
2
100
AcDbCircle
 10
5.079155988640806
 20
3.854814528703299
 30
0.0
 40
0.001220099375
100
AcDbArc
 50
203.1986197116884
 51
336.8013802883329
  0
LINE
  5
528
330
1F
100
AcDbEntity
  8
2
100
AcDbLine
 10
5.018151019890806
 20
3.826752243078298
 30
0.0
 11
5.091356982390806
 21
3.826752243078298
 31
0.0
  0
LINE
  5
529
330
1F
100
AcDbEntity
  8
4
100
AcDbLine
 10
5.162732795828306
 20
3.938391335890798
 30
0.0
 11
5.157242348640806
 21
3.938391335890798
 31
0.0
  0
LINE
  5
52A
330
1F
100
AcDbEntity
  8
2
100
AcDbLine
 10
5.09247843042254
 20
3.827491721191807
 30
0.0
 11
5.099799017201912
 21
3.84457306630217
 31
0.0
  0
LINE
  5
52B
330
1F
100
AcDbEntity
  8
2
100
AcDbLine
 10
5.09247843042254
 20
3.862615746214785
 30
0.0
 11
5.099799017201912
 21
3.845534401104427
 31
0.0
  0
ARC
  5
52C
330
1F
100
AcDbEntity
  8
2
100
AcDbCircle
 10
5.098677461511167
 20
3.845053733703299
 30
0.0
 40
0.00122021650454
100
AcDbArc
 50
336.8013802883256
 51
23.19861971167427
  0
LINE
  5
52D
330
1F
100
AcDbEntity
  8
4
100
AcDbLine
 10
5.162732795828306
 20
3.856644677765799
 30
0.0
 11
5.162732795828306
 21
3.777338218390799
 31
0.0
  0
LINE
  5
52E
330
1F
100
AcDbEntity
  8
4
  6
CENTER
100
AcDbLine
 10
5.164904418673897
 20
3.897518006828298
 30
0.0
 11
5.173333460010598
 21
3.897518006828298
 31
0.0
  0
LINE
  5
52F
330
1F
100
AcDbEntity
  8
4
100
AcDbLine
 10
5.15862748065865
 20
3.897518006828298
 30
0.0
 11
5.161048578020755
 21
3.897518006828298
 31
0.0
  0
LINE
  5
530
330
1F
100
AcDbEntity
  8
4
100
AcDbLine
 10
5.157242348640806
 20
3.856644677765799
 30
0.0
 11
5.162732795828306
 21
3.856644677765799
 31
0.0
  0
LINE
  5
531
330
1F
100
AcDbEntity
  8
4
  6
CENTER
100
AcDbLine
 10
5.146701284491568
 20
3.897518006828298
 30
0.0
 11
5.154592291286583
 21
3.897518006828298
 31
0.0
  0
LINE
  5
532
330
1F
100
AcDbEntity
  8
4
100
AcDbLine
 10
5.157242348640806
 20
3.938391335890798
 30
0.0
 11
5.157242348640806
 21
3.856644677765799
 31
0.0
  0
LINE
  5
533
330
1F
100
AcDbEntity
  8
4
100
AcDbLine
 10
5.162732795828306
 20
3.856644677765799
 30
0.0
 11
5.162732795828306
 21
3.938391335890798
 31
0.0
  0
CIRCLE
  5
534
330
1F
100
AcDbEntity
  8
4
100
AcDbCircle
 10
4.817240248953305
 20
4.116816171672048
 30
0.0
 40
0.0128110434375
  0
LINE
  5
535
330
1F
100
AcDbEntity
  8
4
100
AcDbLine
 10
4.750820940723757
 20
4.190634559907326
 30
0.0
 11
4.759067521187357
 21
4.05868927248974
 31
0.0
  0
LINE
  5
536
330
1F
100
AcDbEntity
  8
4
100
AcDbLine
 10
4.898901313724032
 20
4.199786493243713
 30
0.0
 11
4.888773507864586
 21
4.03774159949257
 31
0.0
  0
LINE
  5
537
330
1F
100
AcDbEntity
  8
4
100
AcDbLine
 10
4.883659557182855
 20
4.190634559907326
 30
0.0
 11
4.875412976719255
 21
4.058707654687325
 31
0.0
  0
LINE
  5
538
330
1F
100
AcDbEntity
  8
4
100
AcDbLine
 10
4.817240248953305
 20
4.013717774484548
 30
0.0
 11
4.863201317992879
 21
4.013717774484548
 31
0.0
  0
ARC
  5
539
330
1F
100
AcDbEntity
  8
4
100
AcDbCircle
 10
4.855929403483669
 20
4.059925378014551
 30
0.0
 40
0.01952159
100
AcDbArc
 50
270.0
 51
356.4236656250017
  0
ARC
  5
53A
330
1F
100
AcDbEntity
  8
4
100
AcDbCircle
 10
4.778551094422942
 20
4.059925378014551
 30
0.0
 40
0.01952159
100
AcDbArc
 50
183.5763343749981
 51
270.0
  0
LINE
  5
53B
330
1F
100
AcDbEntity
  8
4
100
AcDbLine
 10
4.817240248953305
 20
4.013717774484548
 30
0.0
 11
4.771279179913733
 21
4.013717774484548
 31
0.0
  0
ARC
  5
53C
330
1F
100
AcDbEntity
  8
4
100
AcDbCircle
 10
4.771279179913733
 20
4.039339861359548
 30
0.0
 40
0.025622086875
100
AcDbArc
 50
183.5763343749981
 51
270.0
  0
LINE
  5
53D
330
1F
100
AcDbEntity
  8
4
100
AcDbLine
 10
4.817240248953305
 20
4.040403788014548
 30
0.0
 11
4.855929403483669
 21
4.040403788014552
 31
0.0
  0
CIRCLE
  5
53E
330
1F
100
AcDbEntity
  8
4
100
AcDbCircle
 10
4.817240248953305
 20
4.024698668859552
 30
0.0
 40
0.007023868082
  0
LINE
  5
53F
330
1F
100
AcDbEntity
  8
4
100
AcDbLine
 10
4.817240248953305
 20
4.040403788014548
 30
0.0
 11
4.778551094422942
 21
4.040403788014552
 31
0.0
  0
CIRCLE
  5
540
330
1F
100
AcDbEntity
  8
4
100
AcDbCircle
 10
4.817240248953305
 20
4.074141975932049
 30
0.0
 40
0.00425570662
  0
ARC
  5
541
330
1F
100
AcDbEntity
  8
4
100
AcDbCircle
 10
4.863201317992879
 20
4.039339861359548
 30
0.0
 40
0.025622086875
100
AcDbArc
 50
270.0
 51
356.4236656250017
  0
LINE
  5
542
330
1F
100
AcDbEntity
  8
4
100
AcDbLine
 10
4.817240248953305
 20
4.211373873234548
 30
0.0
 11
4.864175983947269
 21
4.211373873234548
 31
0.0
  0
LINE
  5
543
330
1F
100
AcDbEntity
  8
4
100
AcDbLine
 10
4.817240248953305
 20
4.230895463234548
 30
0.0
 11
4.869675953870653
 21
4.230895463234548
 31
0.0
  0
LINE
  5
544
330
1F
100
AcDbEntity
  8
4
 62
   130
100
AcDbLine
 10
4.775666103380574
 20
4.19663648710641
 30
0.0
 11
4.796398031960574
 21
4.175904558526411
 31
0.0
  0
LINE
  5
545
330
1F
100
AcDbEntity
  8
4
100
AcDbLine
 10
4.768805561122446
 20
4.191461466506
 30
0.0
 11
4.791223011360161
 21
4.169044016268286
 31
0.0
  0
LINE
  5
546
330
1F
100
AcDbEntity
  8
4
100
AcDbLine
 10
4.772256523289582
 20
4.194912428673136
 30
0.0
 11
4.794673973527296
 21
4.172494978435422
 31
0.0
  0
LINE
  5
547
330
1F
100
AcDbEntity
  8
4
 62
   130
100
AcDbLine
 10
4.767052501811402
 20
4.188022885537241
 30
0.0
 11
4.787784430391402
 21
4.167290956957239
 31
0.0
  0
LINE
  5
548
330
1F
100
AcDbEntity
  8
4
100
AcDbLine
 10
4.817240248953305
 20
4.230895463234548
 30
0.0
 11
4.76480454403596
 21
4.230895463234548
 31
0.0
  0
LINE
  5
549
330
1F
100
AcDbEntity
  8
4
100
AcDbLine
 10
4.817240248953305
 20
4.211373873234548
 30
0.0
 11
4.770304513959342
 21
4.211373873234548
 31
0.0
  0
LINE
  5
54A
330
1F
100
AcDbEntity
  8
4
100
AcDbLine
 10
4.772256523289582
 20
4.194912428673136
 30
0.0
 11
4.768805561122446
 21
4.191461466506
 31
0.0
  0
ARC
  5
54B
330
1F
100
AcDbEntity
  8
4
 62
   130
100
AcDbCircle
 10
4.771359302595989
 20
4.192329686321826
 30
0.0
 40
0.00609073608
100
AcDbArc
 50
45.00000000000031
 51
225.0000000000003
  0
ARC
  5
54C
330
1F
100
AcDbEntity
  8
4
100
AcDbCircle
 10
4.770304513959342
 20
4.191852283234548
 30
0.0
 40
0.01952159
100
AcDbArc
 50
90.0
 51
183.5763343749981
  0
LINE
  5
54D
330
1F
100
AcDbEntity
  8
4
100
AcDbLine
 10
4.777446770388954
 20
4.189722181573768
 30
0.0
 11
4.773995808221818
 21
4.186271219406631
 31
0.0
  0
ARC
  5
54E
330
1F
100
AcDbEntity
  8
4
 62
   130
100
AcDbCircle
 10
4.792091231175989
 20
4.171597757741827
 30
0.0
 40
0.00609073608
100
AcDbArc
 50
225.0000000000003
 51
45.00000000000031
  0
LINE
  5
54F
330
1F
100
AcDbEntity
  8
4
100
AcDbLine
 10
4.789483726427924
 20
4.177685225534795
 30
0.0
 11
4.786032764260788
 21
4.174234263367659
 31
0.0
  0
LINE
  5
550
330
1F
100
AcDbEntity
  8
4
100
AcDbLine
 10
4.791223011360161
 20
4.169044016268286
 30
0.0
 11
4.794673973527296
 21
4.172494978435422
 31
0.0
  0
CIRCLE
  5
551
330
1F
100
AcDbEntity
  8
4
100
AcDbCircle
 10
4.817240248953305
 20
4.159490367412051
 30
0.0
 40
0.00425570662
  0
ARC
  5
552
330
1F
100
AcDbEntity
  8
4
100
AcDbCircle
 10
4.864175983947269
 20
4.191852283234548
 30
0.0
 40
0.01952159
100
AcDbArc
 50
356.4236656250017
 51
90.0
  0
ARC
  5
553
330
1F
100
AcDbEntity
  8
4
100
AcDbCircle
 10
4.869675953870653
 20
4.201613078234548
 30
0.0
 40
0.029282385
100
AcDbArc
 50
356.4236656250017
 51
90.0
  0
LINE
  5
554
330
1F
100
AcDbEntity
  8
4
100
AcDbLine
 10
5.162732795828306
 20
4.295270403078299
 30
0.0
 11
5.157242348640806
 21
4.295270403078299
 31
0.0
  0
LINE
  5
555
330
1F
100
AcDbEntity
  8
4
100
AcDbLine
 10
5.162732795828306
 20
4.456323520578298
 30
0.0
 11
4.725732795828306
 21
4.456308822765798
 31
0.0
  0
LINE
  5
556
330
1F
100
AcDbEntity
  8
4
100
AcDbLine
 10
5.162732795828306
 20
4.488338218390799
 30
0.0
 11
4.725732795828306
 21
4.488323520578298
 31
0.0
  0
LINE
  5
557
330
1F
100
AcDbEntity
  8
4
100
AcDbLine
 10
5.162732795828306
 20
4.488338218390799
 30
0.0
 11
4.725732795828306
 21
4.488323520578298
 31
0.0
  0
LINE
  5
558
330
1F
100
AcDbEntity
  8
4
100
AcDbLine
 10
4.735579184182579
 20
4.910786493243713
 30
0.0
 11
4.745706990042027
 21
4.748741599492571
 31
0.0
  0
ARC
  5
559
330
1F
100
AcDbEntity
  8
4
100
AcDbCircle
 10
4.76480454403596
 20
4.912613078234548
 30
0.0
 40
0.029282385
100
AcDbArc
 50
90.0
 51
183.5763343749981
  0
LINE
  5
55A
330
1F
100
AcDbEntity
  8
4
100
AcDbLine
 10
5.157242348640806
 20
4.649391335890799
 30
0.0
 11
5.157242348640806
 21
4.567644677765799
 31
0.0
  0
LINE
  5
55B
330
1F
100
AcDbEntity
  8
4
100
AcDbLine
 10
5.162732795828306
 20
4.567644677765799
 30
0.0
 11
5.162732795828306
 21
4.649391335890799
 31
0.0
  0
ARC
  5
55C
330
1F
100
AcDbEntity
  8
4
100
AcDbCircle
 10
4.916678348015805
 20
4.662510497538295
 30
0.0
 40
0.27330226
100
AcDbArc
 50
261.40466153832
 51
278.5953384616799
  0
ARC
  5
55D
330
1F
100
AcDbEntity
  8
4
100
AcDbCircle
 10
4.916678348015805
 20
4.156169256913295
 30
0.0
 40
0.27330226
100
AcDbArc
 50
81.40466153832001
 51
98.59533846167998
  0
ARC
  5
55E
330
1F
100
AcDbEntity
  8
4
100
AcDbCircle
 10
4.953281329265806
 20
4.409339877225795
 30
0.0
 40
0.079306459375
100
AcDbArc
 50
167.5762104955835
 51
192.4237895044164
  0
CIRCLE
  5
55F
330
1F
100
AcDbEntity
  8
4
100
AcDbCircle
 10
4.880075366765806
 20
4.409339877225795
 30
0.0
 40
0.00265493624
  0
LINE
  5
560
330
1F
100
AcDbEntity
  8
4
100
AcDbLine
 10
4.876561480565806
 20
4.409339877225795
 30
0.0
 11
4.883589252965806
 21
4.409339877225795
 31
0.0
  0
LINE
  5
561
330
1F
100
AcDbEntity
  8
4
100
AcDbLine
 10
4.880075366765806
 20
4.405825991025798
 30
0.0
 11
4.880075366765806
 21
4.412853763425796
 31
0.0
  0
ARC
  5
562
330
1F
100
AcDbEntity
  8
4
100
AcDbCircle
 10
4.880075366765806
 20
4.409339877225795
 30
0.0
 40
0.079306459375
100
AcDbArc
 50
347.5762104955836
 51
12.42378950441649
  0
LINE
  5
563
330
1F
100
AcDbEntity
  8
4
100
AcDbLine
 10
4.953281329265806
 20
4.405825991025798
 30
0.0
 11
4.953281329265806
 21
4.412853763425796
 31
0.0
  0
CIRCLE
  5
564
330
1F
100
AcDbEntity
  8
4
100
AcDbCircle
 10
4.953281329265806
 20
4.409339877225795
 30
0.0
 40
0.00265493624
  0
LINE
  5
565
330
1F
100
AcDbEntity
  8
4
100
AcDbLine
 10
4.949767443065805
 20
4.409339877225795
 30
0.0
 11
4.956795215465806
 21
4.409339877225795
 31
0.0
  0
ARC
  5
566
330
1F
100
AcDbEntity
  8
2
100
AcDbCircle
 10
5.091356982390806
 20
4.345294477453298
 30
0.0
 40
0.001220099375
100
AcDbArc
 50
23.19861971166716
 51
156.8013802883115
  0
ARC
  5
567
330
1F
100
AcDbEntity
  8
2
100
AcDbCircle
 10
5.091356982390806
 20
4.311131694953298
 30
0.0
 40
0.001220099375
100
AcDbArc
 50
203.1986197116884
 51
336.8013802883329
  0
LINE
  5
568
330
1F
100
AcDbEntity
  8
2
100
AcDbLine
 10
5.004828578109072
 20
4.372617284964785
 30
0.0
 11
4.997507991329699
 21
4.355535939854427
 31
0.0
  0
LINE
  5
569
330
1F
100
AcDbEntity
  8
2
100
AcDbLine
 10
5.00707147417254
 20
4.372617284964785
 30
0.0
 11
5.014392060951912
 21
4.355535939854427
 31
0.0
  0
LINE
  5
56A
330
1F
100
AcDbEntity
  8
2
100
AcDbLine
 10
5.004828578109072
 20
4.337493259941807
 30
0.0
 11
4.997507991329699
 21
4.35457460505217
 31
0.0
  0
ARC
  5
56B
330
1F
100
AcDbEntity
  8
2
100
AcDbCircle
 10
4.998629547020446
 20
4.355055272453299
 30
0.0
 40
0.00122021650454
100
AcDbArc
 50
156.8013802883257
 51
203.1986197116743
  0
ARC
  5
56C
330
1F
100
AcDbEntity
  8
2
100
AcDbCircle
 10
5.005950026140806
 20
4.337973881203298
 30
0.0
 40
0.001220099375
100
AcDbArc
 50
203.1986197116884
 51
336.8013802883329
  0
ARC
  5
56D
330
1F
100
AcDbEntity
  8
2
100
AcDbCircle
 10
5.013270505261166
 20
4.355055272453299
 30
0.0
 40
0.00122021650454
100
AcDbArc
 50
336.8013802883256
 51
23.19861971167427
  0
ARC
  5
56E
330
1F
100
AcDbEntity
  8
2
100
AcDbCircle
 10
5.018151019890806
 20
4.311131694953298
 30
0.0
 40
0.001220099375
100
AcDbArc
 50
203.1986197116884
 51
336.8013802883329
  0
LINE
  5
56F
330
1F
100
AcDbEntity
  8
2
100
AcDbLine
 10
5.00707147417254
 20
4.337493259941807
 30
0.0
 11
5.014392060951912
 21
4.35457460505217
 31
0.0
  0
ARC
  5
570
330
1F
100
AcDbEntity
  8
2
100
AcDbCircle
 10
5.005950026140806
 20
4.372136663703298
 30
0.0
 40
0.001220099375
100
AcDbArc
 50
23.19861971166716
 51
156.8013802883115
  0
LINE
  5
571
330
1F
100
AcDbEntity
  8
2
100
AcDbLine
 10
5.078034540609072
 20
4.372617284964785
 30
0.0
 11
5.070713953829699
 21
4.355535939854427
 31
0.0
  0
LINE
  5
572
330
1F
100
AcDbEntity
  8
2
100
AcDbLine
 10
5.08027743667254
 20
4.372617284964785
 30
0.0
 11
5.087598023451912
 21
4.355535939854427
 31
0.0
  0
ARC
  5
573
330
1F
100
AcDbEntity
  8
2
100
AcDbCircle
 10
5.086476467761166
 20
4.355055272453299
 30
0.0
 40
0.00122021650454
100
AcDbArc
 50
336.8013802883256
 51
23.19861971167427
  0
LINE
  5
574
330
1F
100
AcDbEntity
  8
2
100
AcDbLine
 10
5.078034540609072
 20
4.337493259941807
 30
0.0
 11
5.070713953829699
 21
4.35457460505217
 31
0.0
  0
ARC
  5
575
330
1F
100
AcDbEntity
  8
2
100
AcDbCircle
 10
5.079155988640806
 20
4.337973881203298
 30
0.0
 40
0.001220099375
100
AcDbArc
 50
203.1986197116884
 51
336.8013802883329
  0
ARC
  5
576
330
1F
100
AcDbEntity
  8
2
100
AcDbCircle
 10
5.084036503270445
 20
4.328213086203298
 30
0.0
 40
0.00122021650454
100
AcDbArc
 50
156.8013802883257
 51
203.1986197116743
  0
ARC
  5
577
330
1F
100
AcDbEntity
  8
2
100
AcDbCircle
 10
5.071835509520445
 20
4.355055272453299
 30
0.0
 40
0.00122021650454
100
AcDbArc
 50
156.8013802883257
 51
203.1986197116743
  0
LINE
  5
578
330
1F
100
AcDbEntity
  8
2
100
AcDbLine
 10
5.090235534359072
 20
4.310651073691808
 30
0.0
 11
5.082914947579699
 21
4.327732418802169
 31
0.0
  0
LINE
  5
579
330
1F
100
AcDbEntity
  8
2
100
AcDbLine
 10
5.08027743667254
 20
4.337493259941807
 30
0.0
 11
5.087598023451912
 21
4.35457460505217
 31
0.0
  0
LINE
  5
57A
330
1F
100
AcDbEntity
  8
2
100
AcDbLine
 10
5.090235534359072
 20
4.345775098714785
 30
0.0
 11
5.082914947579699
 21
4.328693753604427
 31
0.0
  0
ARC
  5
57B
330
1F
100
AcDbEntity
  8
2
100
AcDbCircle
 10
5.079155988640806
 20
4.372136663703298
 30
0.0
 40
0.001220099375
100
AcDbArc
 50
23.19861971166716
 51
156.8013802883115
  0
LINE
  5
57C
330
1F
100
AcDbEntity
  8
2
100
AcDbLine
 10
5.01927246792254
 20
4.310651073691808
 30
0.0
 11
5.026593054701912
 21
4.327732418802169
 31
0.0
  0
ARC
  5
57D
330
1F
100
AcDbEntity
  8
2
100
AcDbCircle
 10
5.025471499011166
 20
4.328213086203298
 30
0.0
 40
0.00122021650454
100
AcDbArc
 50
336.8013802883256
 51
23.19861971167427
  0
ARC
  5
57E
330
1F
100
AcDbEntity
  8
2
100
AcDbCircle
 10
5.010830540770445
 20
4.328213086203298
 30
0.0
 40
0.00122021650454
100
AcDbArc
 50
156.8013802883257
 51
203.1986197116743
  0
LINE
  5
57F
330
1F
100
AcDbEntity
  8
2
100
AcDbLine
 10
5.017029571859072
 20
4.310651073691808
 30
0.0
 11
5.009708985079699
 21
4.327732418802169
 31
0.0
  0
LINE
  5
580
330
1F
100
AcDbEntity
  8
2
100
AcDbLine
 10
5.01927246792254
 20
4.345775098714785
 30
0.0
 11
5.026593054701912
 21
4.328693753604427
 31
0.0
  0
LINE
  5
581
330
1F
100
AcDbEntity
  8
2
100
AcDbLine
 10
5.017029571859072
 20
4.345775098714785
 30
0.0
 11
5.009708985079699
 21
4.328693753604427
 31
0.0
  0
ARC
  5
582
330
1F
100
AcDbEntity
  8
2
100
AcDbCircle
 10
5.018151019890806
 20
4.345294477453298
 30
0.0
 40
0.001220099375
100
AcDbArc
 50
23.19861971166716
 51
156.8013802883115
  0
LINE
  5
583
330
1F
100
AcDbEntity
  8
2
100
AcDbLine
 10
5.005950026140806
 20
4.373356763078298
 30
0.0
 11
5.079155988640806
 21
4.373356763078298
 31
0.0
  0
LINE
  5
584
330
1F
100
AcDbEntity
  8
2
100
AcDbLine
 10
5.09247843042254
 20
4.310651073691808
 30
0.0
 11
5.099799017201912
 21
4.327732418802169
 31
0.0
  0
LINE
  5
585
330
1F
100
AcDbEntity
  8
2
100
AcDbLine
 10
5.09247843042254
 20
4.345775098714785
 30
0.0
 11
5.099799017201912
 21
4.328693753604427
 31
0.0
  0
ARC
  5
586
330
1F
100
AcDbEntity
  8
2
100
AcDbCircle
 10
5.098677461511167
 20
4.328213086203298
 30
0.0
 40
0.00122021650454
100
AcDbArc
 50
336.8013802883256
 51
23.19861971167427
  0
LINE
  5
587
330
1F
100
AcDbEntity
  8
4
100
AcDbLine
 10
5.15862748065865
 20
4.336143732140798
 30
0.0
 11
5.161048578020755
 21
4.336143732140798
 31
0.0
  0
LINE
  5
588
330
1F
100
AcDbEntity
  8
4
  6
CENTER
100
AcDbLine
 10
5.164904418673897
 20
4.336143732140798
 30
0.0
 11
5.173333460010598
 21
4.336143732140798
 31
0.0
  0
LINE
  5
589
330
1F
100
AcDbEntity
  8
4
  6
CENTER
100
AcDbLine
 10
5.146701284491568
 20
4.336143732140798
 30
0.0
 11
5.154592291286583
 21
4.336143732140798
 31
0.0
  0
LINE
  5
58A
330
1F
100
AcDbEntity
  8
4
100
AcDbLine
 10
5.157242348640806
 20
4.377017061203298
 30
0.0
 11
5.162732795828306
 21
4.377017061203298
 31
0.0
  0
LINE
  5
58B
330
1F
100
AcDbEntity
  8
4
100
AcDbLine
 10
5.162732795828306
 20
4.377017061203298
 30
0.0
 11
5.162732795828306
 21
4.456323520578298
 31
0.0
  0
ARC
  5
58C
330
1F
100
AcDbEntity
  8
2
100
AcDbCircle
 10
5.091356982390806
 20
4.573135124953298
 30
0.0
 40
0.001220099375
100
AcDbArc
 50
23.19861971166716
 51
156.8013802883115
  0
ARC
  5
58D
330
1F
100
AcDbEntity
  8
2
100
AcDbCircle
 10
5.091356982390806
 20
4.538972342453298
 30
0.0
 40
0.001220099375
100
AcDbArc
 50
203.1986197116885
 51
336.8013802883329
  0
LINE
  5
58E
330
1F
100
AcDbEntity
  8
2
100
AcDbLine
 10
5.004828578109072
 20
4.600457932464785
 30
0.0
 11
4.997507991329699
 21
4.583376587354428
 31
0.0
  0
LINE
  5
58F
330
1F
100
AcDbEntity
  8
2
100
AcDbLine
 10
5.004828578109072
 20
4.565333907441808
 30
0.0
 11
4.997507991329699
 21
4.58241525255217
 31
0.0
  0
ARC
  5
590
330
1F
100
AcDbEntity
  8
2
100
AcDbCircle
 10
4.998629547020446
 20
4.582895919953299
 30
0.0
 40
0.00122021650454
100
AcDbArc
 50
156.8013802883257
 51
203.1986197116743
  0
ARC
  5
591
330
1F
100
AcDbEntity
  8
2
100
AcDbCircle
 10
5.005950026140806
 20
4.599977311203298
 30
0.0
 40
0.001220099375
100
AcDbArc
 50
23.19861971166716
 51
156.8013802883115
  0
ARC
  5
592
330
1F
100
AcDbEntity
  8
2
100
AcDbCircle
 10
5.005950026140806
 20
4.565814528703299
 30
0.0
 40
0.001220099375
100
AcDbArc
 50
203.1986197116885
 51
336.8013802883329
  0
LINE
  5
593
330
1F
100
AcDbEntity
  8
2
100
AcDbLine
 10
5.01927246792254
 20
4.538491721191808
 30
0.0
 11
5.026593054701912
 21
4.55557306630217
 31
0.0
  0
LINE
  5
594
330
1F
100
AcDbEntity
  8
2
100
AcDbLine
 10
5.01927246792254
 20
4.573615746214786
 30
0.0
 11
5.026593054701912
 21
4.556534401104427
 31
0.0
  0
ARC
  5
595
330
1F
100
AcDbEntity
  8
2
100
AcDbCircle
 10
5.025471499011166
 20
4.556053733703299
 30
0.0
 40
0.00122021650454
100
AcDbArc
 50
336.8013802883256
 51
23.19861971167427
  0
ARC
  5
596
330
1F
100
AcDbEntity
  8
2
100
AcDbCircle
 10
5.013270505261166
 20
4.582895919953299
 30
0.0
 40
0.00122021650454
100
AcDbArc
 50
336.8013802883256
 51
23.19861971167427
  0
ARC
  5
597
330
1F
100
AcDbEntity
  8
2
100
AcDbCircle
 10
5.018151019890806
 20
4.573135124953298
 30
0.0
 40
0.001220099375
100
AcDbArc
 50
23.19861971166716
 51
156.8013802883115
  0
ARC
  5
598
330
1F
100
AcDbEntity
  8
2
100
AcDbCircle
 10
5.018151019890806
 20
4.538972342453298
 30
0.0
 40
0.001220099375
100
AcDbArc
 50
203.1986197116885
 51
336.8013802883329
  0
ARC
  5
599
330
1F
100
AcDbEntity
  8
2
100
AcDbCircle
 10
5.010830540770445
 20
4.556053733703299
 30
0.0
 40
0.00122021650454
100
AcDbArc
 50
156.8013802883257
 51
203.1986197116743
  0
LINE
  5
59A
330
1F
100
AcDbEntity
  8
2
100
AcDbLine
 10
5.017029571859072
 20
4.538491721191808
 30
0.0
 11
5.009708985079699
 21
4.55557306630217
 31
0.0
  0
LINE
  5
59B
330
1F
100
AcDbEntity
  8
2
100
AcDbLine
 10
5.00707147417254
 20
4.600457932464785
 30
0.0
 11
5.014392060951912
 21
4.583376587354428
 31
0.0
  0
LINE
  5
59C
330
1F
100
AcDbEntity
  8
2
100
AcDbLine
 10
5.00707147417254
 20
4.565333907441808
 30
0.0
 11
5.014392060951912
 21
4.58241525255217
 31
0.0
  0
LINE
  5
59D
330
1F
100
AcDbEntity
  8
2
100
AcDbLine
 10
5.017029571859072
 20
4.573615746214786
 30
0.0
 11
5.009708985079699
 21
4.556534401104427
 31
0.0
  0
ARC
  5
59E
330
1F
100
AcDbEntity
  8
2
100
AcDbCircle
 10
5.086476467761166
 20
4.582895919953299
 30
0.0
 40
0.00122021650454
100
AcDbArc
 50
336.8013802883256
 51
23.19861971167427
  0
ARC
  5
59F
330
1F
100
AcDbEntity
  8
2
100
AcDbCircle
 10
5.084036503270445
 20
4.556053733703299
 30
0.0
 40
0.00122021650454
100
AcDbArc
 50
156.8013802883257
 51
203.1986197116743
  0
LINE
  5
5A0
330
1F
100
AcDbEntity
  8
2
100
AcDbLine
 10
5.090235534359072
 20
4.538491721191808
 30
0.0
 11
5.082914947579699
 21
4.55557306630217
 31
0.0
  0
LINE
  5
5A1
330
1F
100
AcDbEntity
  8
2
100
AcDbLine
 10
5.08027743667254
 20
4.600457932464785
 30
0.0
 11
5.087598023451912
 21
4.583376587354428
 31
0.0
  0
LINE
  5
5A2
330
1F
100
AcDbEntity
  8
2
100
AcDbLine
 10
5.08027743667254
 20
4.565333907441808
 30
0.0
 11
5.087598023451912
 21
4.58241525255217
 31
0.0
  0
LINE
  5
5A3
330
1F
100
AcDbEntity
  8
2
100
AcDbLine
 10
5.090235534359072
 20
4.573615746214786
 30
0.0
 11
5.082914947579699
 21
4.556534401104427
 31
0.0
  0
ARC
  5
5A4
330
1F
100
AcDbEntity
  8
2
100
AcDbCircle
 10
5.071835509520445
 20
4.582895919953299
 30
0.0
 40
0.00122021650454
100
AcDbArc
 50
156.8013802883257
 51
203.1986197116743
  0
LINE
  5
5A5
330
1F
100
AcDbEntity
  8
2
100
AcDbLine
 10
5.078034540609072
 20
4.600457932464785
 30
0.0
 11
5.070713953829699
 21
4.583376587354428
 31
0.0
  0
LINE
  5
5A6
330
1F
100
AcDbEntity
  8
2
100
AcDbLine
 10
5.078034540609072
 20
4.565333907441808
 30
0.0
 11
5.070713953829699
 21
4.58241525255217
 31
0.0
  0
ARC
  5
5A7
330
1F
100
AcDbEntity
  8
2
100
AcDbCircle
 10
5.079155988640806
 20
4.599977311203298
 30
0.0
 40
0.001220099375
100
AcDbArc
 50
23.19861971166716
 51
156.8013802883115
  0
ARC
  5
5A8
330
1F
100
AcDbEntity
  8
2
100
AcDbCircle
 10
5.079155988640806
 20
4.565814528703299
 30
0.0
 40
0.001220099375
100
AcDbArc
 50
203.1986197116885
 51
336.8013802883329
  0
LINE
  5
5A9
330
1F
100
AcDbEntity
  8
2
100
AcDbLine
 10
5.018151019890806
 20
4.537752243078299
 30
0.0
 11
5.091356982390806
 21
4.537752243078299
 31
0.0
  0
LINE
  5
5AA
330
1F
100
AcDbEntity
  8
2
100
AcDbLine
 10
5.09247843042254
 20
4.538491721191808
 30
0.0
 11
5.099799017201912
 21
4.55557306630217
 31
0.0
  0
LINE
  5
5AB
330
1F
100
AcDbEntity
  8
2
100
AcDbLine
 10
5.09247843042254
 20
4.573615746214786
 30
0.0
 11
5.099799017201912
 21
4.556534401104427
 31
0.0
  0
ARC
  5
5AC
330
1F
100
AcDbEntity
  8
2
100
AcDbCircle
 10
5.098677461511167
 20
4.556053733703299
 30
0.0
 40
0.00122021650454
100
AcDbArc
 50
336.8013802883256
 51
23.19861971167427
  0
LINE
  5
5AD
330
1F
100
AcDbEntity
  8
4
100
AcDbLine
 10
5.162732795828306
 20
4.567644677765799
 30
0.0
 11
5.162732795828306
 21
4.488338218390799
 31
0.0
  0
LINE
  5
5AE
330
1F
100
AcDbEntity
  8
4
  6
CENTER
100
AcDbLine
 10
5.164904418673897
 20
4.608518006828298
 30
0.0
 11
5.173333460010598
 21
4.608518006828298
 31
0.0
  0
LINE
  5
5AF
330
1F
100
AcDbEntity
  8
4
100
AcDbLine
 10
5.15862748065865
 20
4.608518006828298
 30
0.0
 11
5.161048578020755
 21
4.608518006828298
 31
0.0
  0
LINE
  5
5B0
330
1F
100
AcDbEntity
  8
4
100
AcDbLine
 10
5.157242348640806
 20
4.567644677765799
 30
0.0
 11
5.162732795828306
 21
4.567644677765799
 31
0.0
  0
LINE
  5
5B1
330
1F
100
AcDbEntity
  8
4
  6
CENTER
100
AcDbLine
 10
5.146701284491568
 20
4.608518006828298
 30
0.0
 11
5.154592291286583
 21
4.608518006828298
 31
0.0
  0
CIRCLE
  5
5B2
330
1F
100
AcDbEntity
  8
4
100
AcDbCircle
 10
4.817240248953305
 20
4.827816171672048
 30
0.0
 40
0.0128110434375
  0
LINE
  5
5B3
330
1F
100
AcDbEntity
  8
4
100
AcDbLine
 10
4.750820940723757
 20
4.901634559907326
 30
0.0
 11
4.759067521187357
 21
4.76968927248974
 31
0.0
  0
LINE
  5
5B4
330
1F
100
AcDbEntity
  8
4
100
AcDbLine
 10
4.898901313724032
 20
4.910786493243713
 30
0.0
 11
4.888773507864586
 21
4.748741599492571
 31
0.0
  0
LINE
  5
5B5
330
1F
100
AcDbEntity
  8
4
100
AcDbLine
 10
4.883659557182855
 20
4.901634559907326
 30
0.0
 11
4.875412976719255
 21
4.769707654687326
 31
0.0
  0
LINE
  5
5B6
330
1F
100
AcDbEntity
  8
4
100
AcDbLine
 10
4.817240248953305
 20
4.724717774484548
 30
0.0
 11
4.863201317992879
 21
4.724717774484548
 31
0.0
  0
ARC
  5
5B7
330
1F
100
AcDbEntity
  8
4
100
AcDbCircle
 10
4.855929403483669
 20
4.770925378014552
 30
0.0
 40
0.01952159
100
AcDbArc
 50
270.0
 51
356.4236656250016
  0
ARC
  5
5B8
330
1F
100
AcDbEntity
  8
4
100
AcDbCircle
 10
4.778551094422942
 20
4.770925378014552
 30
0.0
 40
0.01952159
100
AcDbArc
 50
183.5763343749981
 51
270.0
  0
LINE
  5
5B9
330
1F
100
AcDbEntity
  8
4
100
AcDbLine
 10
4.817240248953305
 20
4.724717774484548
 30
0.0
 11
4.771279179913733
 21
4.724717774484548
 31
0.0
  0
ARC
  5
5BA
330
1F
100
AcDbEntity
  8
4
100
AcDbCircle
 10
4.771279179913733
 20
4.750339861359548
 30
0.0
 40
0.025622086875
100
AcDbArc
 50
183.5763343749981
 51
270.0
  0
LINE
  5
5BB
330
1F
100
AcDbEntity
  8
4
100
AcDbLine
 10
4.817240248953305
 20
4.751403788014548
 30
0.0
 11
4.855929403483669
 21
4.751403788014552
 31
0.0
  0
CIRCLE
  5
5BC
330
1F
100
AcDbEntity
  8
4
100
AcDbCircle
 10
4.817240248953305
 20
4.735698668859552
 30
0.0
 40
0.007023868082
  0
LINE
  5
5BD
330
1F
100
AcDbEntity
  8
4
100
AcDbLine
 10
4.817240248953305
 20
4.751403788014548
 30
0.0
 11
4.778551094422942
 21
4.751403788014552
 31
0.0
  0
CIRCLE
  5
5BE
330
1F
100
AcDbEntity
  8
4
100
AcDbCircle
 10
4.817240248953305
 20
4.78514197593205
 30
0.0
 40
0.00425570662
  0
ARC
  5
5BF
330
1F
100
AcDbEntity
  8
4
100
AcDbCircle
 10
4.863201317992879
 20
4.750339861359548
 30
0.0
 40
0.025622086875
100
AcDbArc
 50
270.0
 51
356.4236656250016
  0
LINE
  5
5C0
330
1F
100
AcDbEntity
  8
4
100
AcDbLine
 10
4.817240248953305
 20
4.922373873234549
 30
0.0
 11
4.864175983947269
 21
4.922373873234549
 31
0.0
  0
LINE
  5
5C1
330
1F
100
AcDbEntity
  8
4
100
AcDbLine
 10
4.817240248953305
 20
4.941895463234549
 30
0.0
 11
4.869675953870653
 21
4.941895463234549
 31
0.0
  0
LINE
  5
5C2
330
1F
100
AcDbEntity
  8
4
 62
   130
100
AcDbLine
 10
4.775666103380574
 20
4.90763648710641
 30
0.0
 11
4.796398031960574
 21
4.886904558526412
 31
0.0
  0
LINE
  5
5C3
330
1F
100
AcDbEntity
  8
4
100
AcDbLine
 10
4.768805561122446
 20
4.902461466506
 30
0.0
 11
4.791223011360161
 21
4.880044016268286
 31
0.0
  0
LINE
  5
5C4
330
1F
100
AcDbEntity
  8
4
100
AcDbLine
 10
4.772256523289582
 20
4.905912428673136
 30
0.0
 11
4.794673973527296
 21
4.883494978435423
 31
0.0
  0
LINE
  5
5C5
330
1F
100
AcDbEntity
  8
4
 62
   130
100
AcDbLine
 10
4.767052501811402
 20
4.899022885537242
 30
0.0
 11
4.787784430391402
 21
4.878290956957239
 31
0.0
  0
LINE
  5
5C6
330
1F
100
AcDbEntity
  8
4
100
AcDbLine
 10
4.817240248953305
 20
4.941895463234549
 30
0.0
 11
4.76480454403596
 21
4.941895463234549
 31
0.0
  0
LINE
  5
5C7
330
1F
100
AcDbEntity
  8
4
100
AcDbLine
 10
4.817240248953305
 20
4.922373873234549
 30
0.0
 11
4.770304513959342
 21
4.922373873234549
 31
0.0
  0
LINE
  5
5C8
330
1F
100
AcDbEntity
  8
4
100
AcDbLine
 10
4.772256523289582
 20
4.905912428673136
 30
0.0
 11
4.768805561122446
 21
4.902461466506
 31
0.0
  0
ARC
  5
5C9
330
1F
100
AcDbEntity
  8
4
 62
   130
100
AcDbCircle
 10
4.771359302595989
 20
4.903329686321826
 30
0.0
 40
0.00609073608
100
AcDbArc
 50
45.00000000000031
 51
225.0000000000003
  0
ARC
  5
5CA
330
1F
100
AcDbEntity
  8
4
100
AcDbCircle
 10
4.770304513959342
 20
4.902852283234548
 30
0.0
 40
0.01952159
100
AcDbArc
 50
90.0
 51
183.5763343749981
  0
LINE
  5
5CB
330
1F
100
AcDbEntity
  8
4
100
AcDbLine
 10
4.777446770388954
 20
4.900722181573768
 30
0.0
 11
4.773995808221818
 21
4.897271219406631
 31
0.0
  0
ARC
  5
5CC
330
1F
100
AcDbEntity
  8
4
 62
   130
100
AcDbCircle
 10
4.792091231175989
 20
4.882597757741828
 30
0.0
 40
0.00609073608
100
AcDbArc
 50
225.0000000000003
 51
45.00000000000031
  0
LINE
  5
5CD
330
1F
100
AcDbEntity
  8
4
100
AcDbLine
 10
4.789483726427924
 20
4.888685225534795
 30
0.0
 11
4.786032764260788
 21
4.885234263367659
 31
0.0
  0
LINE
  5
5CE
330
1F
100
AcDbEntity
  8
4
100
AcDbLine
 10
4.791223011360161
 20
4.880044016268286
 30
0.0
 11
4.794673973527296
 21
4.883494978435423
 31
0.0
  0
CIRCLE
  5
5CF
330
1F
100
AcDbEntity
  8
4
100
AcDbCircle
 10
4.817240248953305
 20
4.870490367412052
 30
0.0
 40
0.00425570662
  0
ARC
  5
5D0
330
1F
100
AcDbEntity
  8
4
100
AcDbCircle
 10
4.864175983947269
 20
4.902852283234548
 30
0.0
 40
0.01952159
100
AcDbArc
 50
356.4236656250016
 51
90.0
  0
ARC
  5
5D1
330
1F
100
AcDbEntity
  8
4
100
AcDbCircle
 10
4.869675953870653
 20
4.912613078234548
 30
0.0
 40
0.029282385
100
AcDbArc
 50
356.4236656250016
 51
90.0
  0
LINE
  5
5D2
330
1F
100
AcDbEntity
  8
4
100
AcDbLine
 10
5.162732795828306
 20
4.649391335890799
 30
0.0
 11
5.157242348640806
 21
4.649391335890799
 31
0.0
  0
LINE
  5
5D3
330
1F
100
AcDbEntity
  8
2
100
AcDbLine
 10
5.099897678015707
 20
5.978053733703299
 30
0.0
 11
5.099897678015707
 21
6.461213086203298
 31
0.0
  0
LINE
  5
5D4
330
1F
100
AcDbEntity
  8
2
100
AcDbLine
 10
4.997409330515906
 20
6.488055272453299
 30
0.0
 11
4.997409330515906
 21
6.004895919953298
 31
0.0
  0
LINE
  5
5D5
330
1F
100
AcDbEntity
  8
4
100
AcDbLine
 10
5.162732795828306
 20
6.428270403078299
 30
0.0
 11
5.162732795828306
 21
6.071391335890798
 31
0.0
  0
LINE
  5
5D6
330
1F
100
AcDbEntity
  8
4
100
AcDbLine
 10
4.725732795828306
 20
5.910323520578298
 30
0.0
 11
4.725732795828306
 21
6.589308822765798
 31
0.0
  0
LINE
  5
5D7
330
1F
100
AcDbEntity
  8
4
100
AcDbLine
 10
4.61945157626771
 20
5.593575103253329
 30
0.0
 11
4.24445157626771
 21
5.593575103253329
 31
0.0
  0
LINE
  5
5D8
330
1F
100
AcDbEntity
  8
4
100
AcDbLine
 10
4.61945157626771
 20
5.453230839550037
 30
0.0
 11
4.24445157626771
 21
5.453230839550037
 31
0.0
  0
LINE
  5
5D9
330
1F
100
AcDbEntity
  8
4
100
AcDbLine
 10
4.24445157626771
 20
5.453230839550037
 30
0.0
 11
4.24445157626771
 21
5.391230839550037
 31
0.0
  0
LINE
  5
5DA
330
1F
100
AcDbEntity
  8
4
100
AcDbLine
 10
4.24445157626771
 20
5.593575103253329
 30
0.0
 11
4.24445157626771
 21
5.655575103253329
 31
0.0
  0
LINE
  5
5DB
330
1F
100
AcDbEntity
  8
4
100
AcDbLine
 10
4.725732795828306
 20
5.199323520578298
 30
0.0
 11
4.725732795828306
 21
5.878308822765798
 31
0.0
  0
LINE
  5
5DC
330
1F
100
AcDbEntity
  8
4
100
AcDbLine
 10
5.162732795828306
 20
5.717270403078298
 30
0.0
 11
5.162732795828306
 21
5.360391335890798
 31
0.0
  0
LINE
  5
5DD
330
1F
100
AcDbEntity
  8
2
100
AcDbLine
 10
4.997409330515906
 20
5.777055272453298
 30
0.0
 11
4.997409330515906
 21
5.293895919953298
 31
0.0
  0
LINE
  5
5DE
330
1F
100
AcDbEntity
  8
2
100
AcDbLine
 10
5.099897678015707
 20
5.267053733703298
 30
0.0
 11
5.099897678015707
 21
5.750213086203298
 31
0.0
  0
LINE
  5
5DF
330
1F
100
AcDbEntity
  8
4
100
AcDbLine
 10
5.162732795828306
 20
5.167323520578299
 30
0.0
 11
4.725732795828306
 21
5.167308822765798
 31
0.0
  0
LINE
  5
5E0
330
1F
100
AcDbEntity
  8
4
100
AcDbLine
 10
5.162732795828306
 20
5.199338218390798
 30
0.0
 11
4.725732795828306
 21
5.199323520578298
 31
0.0
  0
LINE
  5
5E1
330
1F
100
AcDbEntity
  8
4
100
AcDbLine
 10
5.162732795828306
 20
5.199338218390798
 30
0.0
 11
4.725732795828306
 21
5.199323520578298
 31
0.0
  0
LINE
  5
5E2
330
1F
100
AcDbEntity
  8
4
100
AcDbLine
 10
4.735579184182579
 20
5.621786493243712
 30
0.0
 11
4.745706990042027
 21
5.45974159949257
 31
0.0
  0
ARC
  5
5E3
330
1F
100
AcDbEntity
  8
4
100
AcDbCircle
 10
4.76480454403596
 20
5.623613078234548
 30
0.0
 40
0.029282385
100
AcDbArc
 50
90.0
 51
183.5763343749981
  0
INSERT
  5
5E4
330
1F
100
AcDbEntity
  8
4
100
AcDbBlockReference
  2
ARRO
 10
4.61945157626771
 20
5.593575103253329
 30
0.0
 50
180.0
  0
INSERT
  5
5E5
330
1F
100
AcDbEntity
  8
4
100
AcDbBlockReference
  2
ARRO
 10
4.61945157626771
 20
5.453230839550037
 30
0.0
 50
180.0
  0
LINE
  5
5E6
330
1F
100
AcDbEntity
  8
4
100
AcDbLine
 10
5.157242348640806
 20
5.360391335890798
 30
0.0
 11
5.157242348640806
 21
5.278644677765798
 31
0.0
  0
LINE
  5
5E7
330
1F
100
AcDbEntity
  8
4
100
AcDbLine
 10
5.162732795828306
 20
5.278644677765798
 30
0.0
 11
5.162732795828306
 21
5.360391335890798
 31
0.0
  0
ARC
  5
5E8
330
1F
100
AcDbEntity
  8
4
100
AcDbCircle
 10
4.916678348015805
 20
5.373510497538295
 30
0.0
 40
0.27330226
100
AcDbArc
 50
261.40466153832
 51
278.5953384616799
  0
ARC
  5
5E9
330
1F
100
AcDbEntity
  8
4
100
AcDbCircle
 10
4.916678348015805
 20
4.867169256913295
 30
0.0
 40
0.27330226
100
AcDbArc
 50
81.40466153832001
 51
98.59533846167998
  0
ARC
  5
5EA
330
1F
100
AcDbEntity
  8
4
100
AcDbCircle
 10
4.953281329265806
 20
5.120339877225795
 30
0.0
 40
0.079306459375
100
AcDbArc
 50
167.5762104955835
 51
192.4237895044164
  0
CIRCLE
  5
5EB
330
1F
100
AcDbEntity
  8
4
100
AcDbCircle
 10
4.880075366765806
 20
5.120339877225795
 30
0.0
 40
0.00265493624
  0
LINE
  5
5EC
330
1F
100
AcDbEntity
  8
4
100
AcDbLine
 10
4.876561480565806
 20
5.120339877225795
 30
0.0
 11
4.883589252965806
 21
5.120339877225795
 31
0.0
  0
LINE
  5
5ED
330
1F
100
AcDbEntity
  8
4
100
AcDbLine
 10
4.880075366765806
 20
5.116825991025798
 30
0.0
 11
4.880075366765806
 21
5.123853763425796
 31
0.0
  0
ARC
  5
5EE
330
1F
100
AcDbEntity
  8
4
100
AcDbCircle
 10
4.880075366765806
 20
5.120339877225795
 30
0.0
 40
0.079306459375
100
AcDbArc
 50
347.5762104955836
 51
12.42378950441649
  0
LINE
  5
5EF
330
1F
100
AcDbEntity
  8
4
100
AcDbLine
 10
4.953281329265806
 20
5.116825991025798
 30
0.0
 11
4.953281329265806
 21
5.123853763425796
 31
0.0
  0
CIRCLE
  5
5F0
330
1F
100
AcDbEntity
  8
4
100
AcDbCircle
 10
4.953281329265806
 20
5.120339877225795
 30
0.0
 40
0.00265493624
  0
LINE
  5
5F1
330
1F
100
AcDbEntity
  8
4
100
AcDbLine
 10
4.949767443065805
 20
5.120339877225795
 30
0.0
 11
4.956795215465806
 21
5.120339877225795
 31
0.0
  0
ARC
  5
5F2
330
1F
100
AcDbEntity
  8
2
100
AcDbCircle
 10
5.091356982390806
 20
5.056294477453298
 30
0.0
 40
0.001220099375
100
AcDbArc
 50
23.19861971166716
 51
156.8013802883115
  0
ARC
  5
5F3
330
1F
100
AcDbEntity
  8
2
100
AcDbCircle
 10
5.091356982390806
 20
5.022131694953299
 30
0.0
 40
0.001220099375
100
AcDbArc
 50
203.1986197116885
 51
336.8013802883329
  0
LINE
  5
5F4
330
1F
100
AcDbEntity
  8
2
100
AcDbLine
 10
5.004828578109072
 20
5.083617284964786
 30
0.0
 11
4.997507991329699
 21
5.066535939854428
 31
0.0
  0
LINE
  5
5F5
330
1F
100
AcDbEntity
  8
2
100
AcDbLine
 10
5.00707147417254
 20
5.083617284964786
 30
0.0
 11
5.014392060951912
 21
5.066535939854428
 31
0.0
  0
LINE
  5
5F6
330
1F
100
AcDbEntity
  8
2
100
AcDbLine
 10
5.004828578109072
 20
5.048493259941808
 30
0.0
 11
4.997507991329699
 21
5.06557460505217
 31
0.0
  0
ARC
  5
5F7
330
1F
100
AcDbEntity
  8
2
100
AcDbCircle
 10
4.998629547020446
 20
5.066055272453299
 30
0.0
 40
0.00122021650454
100
AcDbArc
 50
156.8013802883257
 51
203.1986197116743
  0
ARC
  5
5F8
330
1F
100
AcDbEntity
  8
2
100
AcDbCircle
 10
5.005950026140806
 20
5.048973881203298
 30
0.0
 40
0.001220099375
100
AcDbArc
 50
203.1986197116885
 51
336.8013802883329
  0
ARC
  5
5F9
330
1F
100
AcDbEntity
  8
2
100
AcDbCircle
 10
5.013270505261166
 20
5.066055272453299
 30
0.0
 40
0.00122021650454
100
AcDbArc
 50
336.8013802883256
 51
23.19861971167427
  0
ARC
  5
5FA
330
1F
100
AcDbEntity
  8
2
100
AcDbCircle
 10
5.018151019890806
 20
5.022131694953299
 30
0.0
 40
0.001220099375
100
AcDbArc
 50
203.1986197116885
 51
336.8013802883329
  0
LINE
  5
5FB
330
1F
100
AcDbEntity
  8
2
100
AcDbLine
 10
5.00707147417254
 20
5.048493259941808
 30
0.0
 11
5.014392060951912
 21
5.06557460505217
 31
0.0
  0
ARC
  5
5FC
330
1F
100
AcDbEntity
  8
2
100
AcDbCircle
 10
5.005950026140806
 20
5.083136663703299
 30
0.0
 40
0.001220099375
100
AcDbArc
 50
23.19861971166716
 51
156.8013802883115
  0
LINE
  5
5FD
330
1F
100
AcDbEntity
  8
2
100
AcDbLine
 10
5.078034540609072
 20
5.083617284964786
 30
0.0
 11
5.070713953829699
 21
5.066535939854428
 31
0.0
  0
LINE
  5
5FE
330
1F
100
AcDbEntity
  8
2
100
AcDbLine
 10
5.08027743667254
 20
5.083617284964786
 30
0.0
 11
5.087598023451912
 21
5.066535939854428
 31
0.0
  0
ARC
  5
5FF
330
1F
100
AcDbEntity
  8
2
100
AcDbCircle
 10
5.086476467761166
 20
5.066055272453299
 30
0.0
 40
0.00122021650454
100
AcDbArc
 50
336.8013802883256
 51
23.19861971167427
  0
LINE
  5
600
330
1F
100
AcDbEntity
  8
2
100
AcDbLine
 10
5.078034540609072
 20
5.048493259941808
 30
0.0
 11
5.070713953829699
 21
5.06557460505217
 31
0.0
  0
ARC
  5
601
330
1F
100
AcDbEntity
  8
2
100
AcDbCircle
 10
5.079155988640806
 20
5.048973881203298
 30
0.0
 40
0.001220099375
100
AcDbArc
 50
203.1986197116885
 51
336.8013802883329
  0
ARC
  5
602
330
1F
100
AcDbEntity
  8
2
100
AcDbCircle
 10
5.084036503270445
 20
5.039213086203298
 30
0.0
 40
0.00122021650454
100
AcDbArc
 50
156.8013802883257
 51
203.1986197116743
  0
ARC
  5
603
330
1F
100
AcDbEntity
  8
2
100
AcDbCircle
 10
5.071835509520445
 20
5.066055272453299
 30
0.0
 40
0.00122021650454
100
AcDbArc
 50
156.8013802883257
 51
203.1986197116743
  0
LINE
  5
604
330
1F
100
AcDbEntity
  8
2
100
AcDbLine
 10
5.090235534359072
 20
5.021651073691808
 30
0.0
 11
5.082914947579699
 21
5.03873241880217
 31
0.0
  0
LINE
  5
605
330
1F
100
AcDbEntity
  8
2
100
AcDbLine
 10
5.08027743667254
 20
5.048493259941808
 30
0.0
 11
5.087598023451912
 21
5.06557460505217
 31
0.0
  0
LINE
  5
606
330
1F
100
AcDbEntity
  8
2
100
AcDbLine
 10
5.090235534359072
 20
5.056775098714785
 30
0.0
 11
5.082914947579699
 21
5.039693753604427
 31
0.0
  0
ARC
  5
607
330
1F
100
AcDbEntity
  8
2
100
AcDbCircle
 10
5.079155988640806
 20
5.083136663703299
 30
0.0
 40
0.001220099375
100
AcDbArc
 50
23.19861971166716
 51
156.8013802883115
  0
LINE
  5
608
330
1F
100
AcDbEntity
  8
2
100
AcDbLine
 10
5.01927246792254
 20
5.021651073691808
 30
0.0
 11
5.026593054701912
 21
5.03873241880217
 31
0.0
  0
ARC
  5
609
330
1F
100
AcDbEntity
  8
2
100
AcDbCircle
 10
5.025471499011166
 20
5.039213086203298
 30
0.0
 40
0.00122021650454
100
AcDbArc
 50
336.8013802883256
 51
23.19861971167427
  0
ARC
  5
60A
330
1F
100
AcDbEntity
  8
2
100
AcDbCircle
 10
5.010830540770445
 20
5.039213086203298
 30
0.0
 40
0.00122021650454
100
AcDbArc
 50
156.8013802883257
 51
203.1986197116743
  0
LINE
  5
60B
330
1F
100
AcDbEntity
  8
2
100
AcDbLine
 10
5.017029571859072
 20
5.021651073691808
 30
0.0
 11
5.009708985079699
 21
5.03873241880217
 31
0.0
  0
LINE
  5
60C
330
1F
100
AcDbEntity
  8
2
100
AcDbLine
 10
5.01927246792254
 20
5.056775098714785
 30
0.0
 11
5.026593054701912
 21
5.039693753604427
 31
0.0
  0
LINE
  5
60D
330
1F
100
AcDbEntity
  8
2
100
AcDbLine
 10
5.017029571859072
 20
5.056775098714785
 30
0.0
 11
5.009708985079699
 21
5.039693753604427
 31
0.0
  0
ARC
  5
60E
330
1F
100
AcDbEntity
  8
2
100
AcDbCircle
 10
5.018151019890806
 20
5.056294477453298
 30
0.0
 40
0.001220099375
100
AcDbArc
 50
23.19861971166716
 51
156.8013802883115
  0
LINE
  5
60F
330
1F
100
AcDbEntity
  8
2
100
AcDbLine
 10
5.005950026140806
 20
5.084356763078298
 30
0.0
 11
5.079155988640806
 21
5.084356763078298
 31
0.0
  0
LINE
  5
610
330
1F
100
AcDbEntity
  8
4
100
AcDbLine
 10
5.157242348640806
 20
5.006270403078299
 30
0.0
 11
5.157242348640806
 21
5.088017061203299
 31
0.0
  0
LINE
  5
611
330
1F
100
AcDbEntity
  8
4
100
AcDbLine
 10
5.162732795828306
 20
5.088017061203299
 30
0.0
 11
5.162732795828306
 21
5.006270403078299
 31
0.0
  0
LINE
  5
612
330
1F
100
AcDbEntity
  8
2
100
AcDbLine
 10
5.09247843042254
 20
5.021651073691808
 30
0.0
 11
5.099799017201912
 21
5.03873241880217
 31
0.0
  0
LINE
  5
613
330
1F
100
AcDbEntity
  8
2
100
AcDbLine
 10
5.09247843042254
 20
5.056775098714785
 30
0.0
 11
5.099799017201912
 21
5.039693753604427
 31
0.0
  0
ARC
  5
614
330
1F
100
AcDbEntity
  8
2
100
AcDbCircle
 10
5.098677461511167
 20
5.039213086203298
 30
0.0
 40
0.00122021650454
100
AcDbArc
 50
336.8013802883256
 51
23.19861971167427
  0
LINE
  5
615
330
1F
100
AcDbEntity
  8
4
100
AcDbLine
 10
5.162732795828306
 20
5.006270403078299
 30
0.0
 11
5.157242348640806
 21
5.006270403078299
 31
0.0
  0
LINE
  5
616
330
1F
100
AcDbEntity
  8
4
100
AcDbLine
 10
5.15862748065865
 20
5.047143732140798
 30
0.0
 11
5.161048578020755
 21
5.047143732140798
 31
0.0
  0
LINE
  5
617
330
1F
100
AcDbEntity
  8
4
  6
CENTER
100
AcDbLine
 10
5.164904418673897
 20
5.047143732140798
 30
0.0
 11
5.173333460010598
 21
5.047143732140798
 31
0.0
  0
LINE
  5
618
330
1F
100
AcDbEntity
  8
4
  6
CENTER
100
AcDbLine
 10
5.146701284491568
 20
5.047143732140798
 30
0.0
 11
5.154592291286583
 21
5.047143732140798
 31
0.0
  0
LINE
  5
619
330
1F
100
AcDbEntity
  8
4
100
AcDbLine
 10
5.157242348640806
 20
5.088017061203299
 30
0.0
 11
5.162732795828306
 21
5.088017061203299
 31
0.0
  0
LINE
  5
61A
330
1F
100
AcDbEntity
  8
4
100
AcDbLine
 10
5.162732795828306
 20
5.088017061203299
 30
0.0
 11
5.162732795828306
 21
5.167323520578299
 31
0.0
  0
ARC
  5
61B
330
1F
100
AcDbEntity
  8
2
100
AcDbCircle
 10
5.091356982390806
 20
5.284135124953298
 30
0.0
 40
0.001220099375
100
AcDbArc
 50
23.19861971166716
 51
156.8013802883115
  0
ARC
  5
61C
330
1F
100
AcDbEntity
  8
2
100
AcDbCircle
 10
5.091356982390806
 20
5.249972342453298
 30
0.0
 40
0.001220099375
100
AcDbArc
 50
203.1986197116885
 51
336.8013802883329
  0
LINE
  5
61D
330
1F
100
AcDbEntity
  8
2
100
AcDbLine
 10
5.004828578109072
 20
5.311457932464785
 30
0.0
 11
4.997507991329699
 21
5.294376587354427
 31
0.0
  0
LINE
  5
61E
330
1F
100
AcDbEntity
  8
2
100
AcDbLine
 10
5.004828578109072
 20
5.276333907441808
 30
0.0
 11
4.997507991329699
 21
5.293415252552169
 31
0.0
  0
ARC
  5
61F
330
1F
100
AcDbEntity
  8
2
100
AcDbCircle
 10
4.998629547020446
 20
5.293895919953298
 30
0.0
 40
0.00122021650454
100
AcDbArc
 50
156.8013802883257
 51
203.1986197116743
  0
ARC
  5
620
330
1F
100
AcDbEntity
  8
2
100
AcDbCircle
 10
5.005950026140806
 20
5.310977311203298
 30
0.0
 40
0.001220099375
100
AcDbArc
 50
23.19861971166716
 51
156.8013802883115
  0
ARC
  5
621
330
1F
100
AcDbEntity
  8
2
100
AcDbCircle
 10
5.005950026140806
 20
5.276814528703298
 30
0.0
 40
0.001220099375
100
AcDbArc
 50
203.1986197116885
 51
336.8013802883329
  0
LINE
  5
622
330
1F
100
AcDbEntity
  8
2
100
AcDbLine
 10
5.01927246792254
 20
5.249491721191807
 30
0.0
 11
5.026593054701912
 21
5.26657306630217
 31
0.0
  0
LINE
  5
623
330
1F
100
AcDbEntity
  8
2
100
AcDbLine
 10
5.01927246792254
 20
5.284615746214785
 30
0.0
 11
5.026593054701912
 21
5.267534401104427
 31
0.0
  0
ARC
  5
624
330
1F
100
AcDbEntity
  8
2
100
AcDbCircle
 10
5.025471499011166
 20
5.267053733703298
 30
0.0
 40
0.00122021650454
100
AcDbArc
 50
336.8013802883256
 51
23.19861971167427
  0
ARC
  5
625
330
1F
100
AcDbEntity
  8
2
100
AcDbCircle
 10
5.013270505261166
 20
5.293895919953298
 30
0.0
 40
0.00122021650454
100
AcDbArc
 50
336.8013802883256
 51
23.19861971167427
  0
ARC
  5
626
330
1F
100
AcDbEntity
  8
2
100
AcDbCircle
 10
5.018151019890806
 20
5.284135124953298
 30
0.0
 40
0.001220099375
100
AcDbArc
 50
23.19861971166716
 51
156.8013802883115
  0
ARC
  5
627
330
1F
100
AcDbEntity
  8
2
100
AcDbCircle
 10
5.018151019890806
 20
5.249972342453298
 30
0.0
 40
0.001220099375
100
AcDbArc
 50
203.1986197116885
 51
336.8013802883329
  0
ARC
  5
628
330
1F
100
AcDbEntity
  8
2
100
AcDbCircle
 10
5.010830540770445
 20
5.267053733703298
 30
0.0
 40
0.00122021650454
100
AcDbArc
 50
156.8013802883257
 51
203.1986197116743
  0
LINE
  5
629
330
1F
100
AcDbEntity
  8
2
100
AcDbLine
 10
5.017029571859072
 20
5.249491721191807
 30
0.0
 11
5.009708985079699
 21
5.26657306630217
 31
0.0
  0
LINE
  5
62A
330
1F
100
AcDbEntity
  8
2
100
AcDbLine
 10
5.00707147417254
 20
5.311457932464785
 30
0.0
 11
5.014392060951912
 21
5.294376587354427
 31
0.0
  0
LINE
  5
62B
330
1F
100
AcDbEntity
  8
2
100
AcDbLine
 10
5.00707147417254
 20
5.276333907441808
 30
0.0
 11
5.014392060951912
 21
5.293415252552169
 31
0.0
  0
LINE
  5
62C
330
1F
100
AcDbEntity
  8
2
100
AcDbLine
 10
5.017029571859072
 20
5.284615746214785
 30
0.0
 11
5.009708985079699
 21
5.267534401104427
 31
0.0
  0
ARC
  5
62D
330
1F
100
AcDbEntity
  8
2
100
AcDbCircle
 10
5.086476467761166
 20
5.293895919953298
 30
0.0
 40
0.00122021650454
100
AcDbArc
 50
336.8013802883256
 51
23.19861971167427
  0
ARC
  5
62E
330
1F
100
AcDbEntity
  8
2
100
AcDbCircle
 10
5.084036503270445
 20
5.267053733703298
 30
0.0
 40
0.00122021650454
100
AcDbArc
 50
156.8013802883257
 51
203.1986197116743
  0
LINE
  5
62F
330
1F
100
AcDbEntity
  8
2
100
AcDbLine
 10
5.090235534359072
 20
5.249491721191807
 30
0.0
 11
5.082914947579699
 21
5.26657306630217
 31
0.0
  0
LINE
  5
630
330
1F
100
AcDbEntity
  8
2
100
AcDbLine
 10
5.08027743667254
 20
5.311457932464785
 30
0.0
 11
5.087598023451912
 21
5.294376587354427
 31
0.0
  0
LINE
  5
631
330
1F
100
AcDbEntity
  8
2
100
AcDbLine
 10
5.08027743667254
 20
5.276333907441808
 30
0.0
 11
5.087598023451912
 21
5.293415252552169
 31
0.0
  0
LINE
  5
632
330
1F
100
AcDbEntity
  8
2
100
AcDbLine
 10
5.090235534359072
 20
5.284615746214785
 30
0.0
 11
5.082914947579699
 21
5.267534401104427
 31
0.0
  0
ARC
  5
633
330
1F
100
AcDbEntity
  8
2
100
AcDbCircle
 10
5.071835509520445
 20
5.293895919953298
 30
0.0
 40
0.00122021650454
100
AcDbArc
 50
156.8013802883257
 51
203.1986197116743
  0
LINE
  5
634
330
1F
100
AcDbEntity
  8
2
100
AcDbLine
 10
5.078034540609072
 20
5.311457932464785
 30
0.0
 11
5.070713953829699
 21
5.294376587354427
 31
0.0
  0
LINE
  5
635
330
1F
100
AcDbEntity
  8
2
100
AcDbLine
 10
5.078034540609072
 20
5.276333907441808
 30
0.0
 11
5.070713953829699
 21
5.293415252552169
 31
0.0
  0
ARC
  5
636
330
1F
100
AcDbEntity
  8
2
100
AcDbCircle
 10
5.079155988640806
 20
5.310977311203298
 30
0.0
 40
0.001220099375
100
AcDbArc
 50
23.19861971166716
 51
156.8013802883115
  0
ARC
  5
637
330
1F
100
AcDbEntity
  8
2
100
AcDbCircle
 10
5.079155988640806
 20
5.276814528703298
 30
0.0
 40
0.001220099375
100
AcDbArc
 50
203.1986197116885
 51
336.8013802883329
  0
LINE
  5
638
330
1F
100
AcDbEntity
  8
2
100
AcDbLine
 10
5.018151019890806
 20
5.248752243078298
 30
0.0
 11
5.091356982390806
 21
5.248752243078298
 31
0.0
  0
LINE
  5
639
330
1F
100
AcDbEntity
  8
2
100
AcDbLine
 10
5.09247843042254
 20
5.249491721191807
 30
0.0
 11
5.099799017201912
 21
5.26657306630217
 31
0.0
  0
LINE
  5
63A
330
1F
100
AcDbEntity
  8
2
100
AcDbLine
 10
5.09247843042254
 20
5.284615746214785
 30
0.0
 11
5.099799017201912
 21
5.267534401104427
 31
0.0
  0
ARC
  5
63B
330
1F
100
AcDbEntity
  8
2
100
AcDbCircle
 10
5.098677461511167
 20
5.267053733703298
 30
0.0
 40
0.00122021650454
100
AcDbArc
 50
336.8013802883256
 51
23.19861971167427
  0
LINE
  5
63C
330
1F
100
AcDbEntity
  8
4
100
AcDbLine
 10
5.162732795828306
 20
5.278644677765798
 30
0.0
 11
5.162732795828306
 21
5.199338218390798
 31
0.0
  0
LINE
  5
63D
330
1F
100
AcDbEntity
  8
4
  6
CENTER
100
AcDbLine
 10
5.164904418673897
 20
5.319518006828298
 30
0.0
 11
5.173333460010598
 21
5.319518006828298
 31
0.0
  0
LINE
  5
63E
330
1F
100
AcDbEntity
  8
4
100
AcDbLine
 10
5.15862748065865
 20
5.319518006828298
 30
0.0
 11
5.161048578020755
 21
5.319518006828298
 31
0.0
  0
LINE
  5
63F
330
1F
100
AcDbEntity
  8
4
100
AcDbLine
 10
5.157242348640806
 20
5.278644677765798
 30
0.0
 11
5.162732795828306
 21
5.278644677765798
 31
0.0
  0
LINE
  5
640
330
1F
100
AcDbEntity
  8
4
  6
CENTER
100
AcDbLine
 10
5.146701284491568
 20
5.319518006828298
 30
0.0
 11
5.154592291286583
 21
5.319518006828298
 31
0.0
  0
CIRCLE
  5
641
330
1F
100
AcDbEntity
  8
4
100
AcDbCircle
 10
4.817240248953305
 20
5.538816171672047
 30
0.0
 40
0.0128110434375
  0
LINE
  5
642
330
1F
100
AcDbEntity
  8
4
100
AcDbLine
 10
4.750820940723757
 20
5.612634559907325
 30
0.0
 11
4.759067521187357
 21
5.48068927248974
 31
0.0
  0
LINE
  5
643
330
1F
100
AcDbEntity
  8
4
100
AcDbLine
 10
4.898901313724032
 20
5.621786493243712
 30
0.0
 11
4.888773507864586
 21
5.45974159949257
 31
0.0
  0
LINE
  5
644
330
1F
100
AcDbEntity
  8
4
100
AcDbLine
 10
4.883659557182855
 20
5.612634559907325
 30
0.0
 11
4.875412976719255
 21
5.480707654687325
 31
0.0
  0
LINE
  5
645
330
1F
100
AcDbEntity
  8
4
100
AcDbLine
 10
4.817240248953305
 20
5.435717774484547
 30
0.0
 11
4.863201317992879
 21
5.435717774484547
 31
0.0
  0
ARC
  5
646
330
1F
100
AcDbEntity
  8
4
100
AcDbCircle
 10
4.855929403483669
 20
5.481925378014551
 30
0.0
 40
0.01952159
100
AcDbArc
 50
270.0
 51
356.4236656250016
  0
ARC
  5
647
330
1F
100
AcDbEntity
  8
4
100
AcDbCircle
 10
4.778551094422942
 20
5.481925378014551
 30
0.0
 40
0.01952159
100
AcDbArc
 50
183.5763343749981
 51
270.0
  0
LINE
  5
648
330
1F
100
AcDbEntity
  8
4
100
AcDbLine
 10
4.817240248953305
 20
5.435717774484547
 30
0.0
 11
4.771279179913733
 21
5.435717774484547
 31
0.0
  0
ARC
  5
649
330
1F
100
AcDbEntity
  8
4
100
AcDbCircle
 10
4.771279179913733
 20
5.461339861359547
 30
0.0
 40
0.025622086875
100
AcDbArc
 50
183.5763343749981
 51
270.0
  0
LINE
  5
64A
330
1F
100
AcDbEntity
  8
4
100
AcDbLine
 10
4.817240248953305
 20
5.462403788014547
 30
0.0
 11
4.855929403483669
 21
5.462403788014552
 31
0.0
  0
CIRCLE
  5
64B
330
1F
100
AcDbEntity
  8
4
100
AcDbCircle
 10
4.817240248953305
 20
5.446698668859552
 30
0.0
 40
0.007023868082
  0
LINE
  5
64C
330
1F
100
AcDbEntity
  8
4
100
AcDbLine
 10
4.817240248953305
 20
5.462403788014547
 30
0.0
 11
4.778551094422942
 21
5.462403788014552
 31
0.0
  0
CIRCLE
  5
64D
330
1F
100
AcDbEntity
  8
4
100
AcDbCircle
 10
4.817240248953305
 20
5.496141975932049
 30
0.0
 40
0.00425570662
  0
ARC
  5
64E
330
1F
100
AcDbEntity
  8
4
100
AcDbCircle
 10
4.863201317992879
 20
5.461339861359547
 30
0.0
 40
0.025622086875
100
AcDbArc
 50
270.0
 51
356.4236656250016
  0
LINE
  5
64F
330
1F
100
AcDbEntity
  8
4
100
AcDbLine
 10
4.817240248953305
 20
5.633373873234548
 30
0.0
 11
4.864175983947269
 21
5.633373873234548
 31
0.0
  0
LINE
  5
650
330
1F
100
AcDbEntity
  8
4
100
AcDbLine
 10
4.817240248953305
 20
5.652895463234548
 30
0.0
 11
4.869675953870653
 21
5.652895463234548
 31
0.0
  0
LINE
  5
651
330
1F
100
AcDbEntity
  8
4
 62
   130
100
AcDbLine
 10
4.775666103380574
 20
5.618636487106409
 30
0.0
 11
4.796398031960574
 21
5.597904558526411
 31
0.0
  0
LINE
  5
652
330
1F
100
AcDbEntity
  8
4
100
AcDbLine
 10
4.768805561122446
 20
5.613461466506
 30
0.0
 11
4.791223011360161
 21
5.591044016268286
 31
0.0
  0
LINE
  5
653
330
1F
100
AcDbEntity
  8
4
100
AcDbLine
 10
4.772256523289582
 20
5.616912428673136
 30
0.0
 11
4.794673973527296
 21
5.594494978435422
 31
0.0
  0
LINE
  5
654
330
1F
100
AcDbEntity
  8
4
 62
   130
100
AcDbLine
 10
4.767052501811402
 20
5.610022885537241
 30
0.0
 11
4.787784430391402
 21
5.589290956957238
 31
0.0
  0
LINE
  5
655
330
1F
100
AcDbEntity
  8
4
100
AcDbLine
 10
4.817240248953305
 20
5.652895463234548
 30
0.0
 11
4.76480454403596
 21
5.652895463234548
 31
0.0
  0
LINE
  5
656
330
1F
100
AcDbEntity
  8
4
100
AcDbLine
 10
4.817240248953305
 20
5.633373873234548
 30
0.0
 11
4.770304513959342
 21
5.633373873234548
 31
0.0
  0
LINE
  5
657
330
1F
100
AcDbEntity
  8
4
100
AcDbLine
 10
4.772256523289582
 20
5.616912428673136
 30
0.0
 11
4.768805561122446
 21
5.613461466506
 31
0.0
  0
ARC
  5
658
330
1F
100
AcDbEntity
  8
4
 62
   130
100
AcDbCircle
 10
4.771359302595989
 20
5.614329686321825
 30
0.0
 40
0.00609073608
100
AcDbArc
 50
45.00000000000031
 51
225.0000000000003
  0
ARC
  5
659
330
1F
100
AcDbEntity
  8
4
100
AcDbCircle
 10
4.770304513959342
 20
5.613852283234548
 30
0.0
 40
0.01952159
100
AcDbArc
 50
90.0
 51
183.5763343749981
  0
LINE
  5
65A
330
1F
100
AcDbEntity
  8
4
100
AcDbLine
 10
4.777446770388954
 20
5.611722181573767
 30
0.0
 11
4.773995808221818
 21
5.60827121940663
 31
0.0
  0
ARC
  5
65B
330
1F
100
AcDbEntity
  8
4
 62
   130
100
AcDbCircle
 10
4.792091231175989
 20
5.593597757741827
 30
0.0
 40
0.00609073608
100
AcDbArc
 50
225.0000000000003
 51
45.00000000000031
  0
LINE
  5
65C
330
1F
100
AcDbEntity
  8
4
100
AcDbLine
 10
4.789483726427924
 20
5.599685225534795
 30
0.0
 11
4.786032764260788
 21
5.596234263367659
 31
0.0
  0
LINE
  5
65D
330
1F
100
AcDbEntity
  8
4
100
AcDbLine
 10
4.791223011360161
 20
5.591044016268286
 30
0.0
 11
4.794673973527296
 21
5.594494978435422
 31
0.0
  0
CIRCLE
  5
65E
330
1F
100
AcDbEntity
  8
4
100
AcDbCircle
 10
4.817240248953305
 20
5.581490367412051
 30
0.0
 40
0.00425570662
  0
ARC
  5
65F
330
1F
100
AcDbEntity
  8
4
100
AcDbCircle
 10
4.864175983947269
 20
5.613852283234548
 30
0.0
 40
0.01952159
100
AcDbArc
 50
356.4236656250016
 51
90.0
  0
ARC
  5
660
330
1F
100
AcDbEntity
  8
4
100
AcDbCircle
 10
4.869675953870653
 20
5.623613078234548
 30
0.0
 40
0.029282385
100
AcDbArc
 50
356.4236656250016
 51
90.0
  0
LINE
  5
661
330
1F
100
AcDbEntity
  8
4
100
AcDbLine
 10
5.162732795828306
 20
5.360391335890798
 30
0.0
 11
5.157242348640806
 21
5.360391335890798
 31
0.0
  0
LINE
  5
662
330
1F
100
AcDbEntity
  8
4
100
AcDbLine
 10
5.162732795828306
 20
5.878323520578298
 30
0.0
 11
4.725732795828306
 21
5.878308822765798
 31
0.0
  0
ARC
  5
663
330
1F
100
AcDbEntity
  8
4
100
AcDbCircle
 10
4.76480454403596
 20
6.334613078234548
 30
0.0
 40
0.029282385
100
AcDbArc
 50
90.0
 51
183.5763343749981
  0
LINE
  5
664
330
1F
100
AcDbEntity
  8
4
100
AcDbLine
 10
4.735579184182579
 20
6.332786493243713
 30
0.0
 11
4.745706990042027
 21
6.17074159949257
 31
0.0
  0
LINE
  5
665
330
1F
100
AcDbEntity
  8
4
100
AcDbLine
 10
5.162732795828306
 20
5.910338218390799
 30
0.0
 11
4.725732795828306
 21
5.910323520578298
 31
0.0
  0
LINE
  5
666
330
1F
100
AcDbEntity
  8
4
100
AcDbLine
 10
5.162732795828306
 20
5.910338218390799
 30
0.0
 11
4.725732795828306
 21
5.910323520578298
 31
0.0
  0
LINE
  5
667
330
1F
100
AcDbEntity
  8
4
100
AcDbLine
 10
5.162732795828306
 20
5.989644677765799
 30
0.0
 11
5.162732795828306
 21
6.071391335890798
 31
0.0
  0
LINE
  5
668
330
1F
100
AcDbEntity
  8
4
100
AcDbLine
 10
5.157242348640806
 20
6.071391335890798
 30
0.0
 11
5.157242348640806
 21
5.989644677765799
 31
0.0
  0
ARC
  5
669
330
1F
100
AcDbEntity
  8
4
100
AcDbCircle
 10
4.916678348015805
 20
6.084510497538294
 30
0.0
 40
0.27330226
100
AcDbArc
 50
261.40466153832
 51
278.5953384616799
  0
ARC
  5
66A
330
1F
100
AcDbEntity
  8
4
100
AcDbCircle
 10
4.916678348015805
 20
5.578169256913295
 30
0.0
 40
0.27330226
100
AcDbArc
 50
81.40466153832001
 51
98.59533846167998
  0
ARC
  5
66B
330
1F
100
AcDbEntity
  8
4
100
AcDbCircle
 10
4.953281329265806
 20
5.831339877225794
 30
0.0
 40
0.079306459375
100
AcDbArc
 50
167.5762104955835
 51
192.4237895044164
  0
CIRCLE
  5
66C
330
1F
100
AcDbEntity
  8
4
100
AcDbCircle
 10
4.880075366765806
 20
5.831339877225794
 30
0.0
 40
0.00265493624
  0
LINE
  5
66D
330
1F
100
AcDbEntity
  8
4
100
AcDbLine
 10
4.876561480565806
 20
5.831339877225794
 30
0.0
 11
4.883589252965806
 21
5.831339877225794
 31
0.0
  0
LINE
  5
66E
330
1F
100
AcDbEntity
  8
4
100
AcDbLine
 10
4.880075366765806
 20
5.827825991025798
 30
0.0
 11
4.880075366765806
 21
5.834853763425796
 31
0.0
  0
ARC
  5
66F
330
1F
100
AcDbEntity
  8
4
100
AcDbCircle
 10
4.880075366765806
 20
5.831339877225794
 30
0.0
 40
0.079306459375
100
AcDbArc
 50
347.5762104955836
 51
12.42378950441649
  0
LINE
  5
670
330
1F
100
AcDbEntity
  8
4
100
AcDbLine
 10
4.953281329265806
 20
5.827825991025798
 30
0.0
 11
4.953281329265806
 21
5.834853763425796
 31
0.0
  0
CIRCLE
  5
671
330
1F
100
AcDbEntity
  8
4
100
AcDbCircle
 10
4.953281329265806
 20
5.831339877225794
 30
0.0
 40
0.00265493624
  0
LINE
  5
672
330
1F
100
AcDbEntity
  8
4
100
AcDbLine
 10
4.949767443065805
 20
5.831339877225794
 30
0.0
 11
4.956795215465806
 21
5.831339877225794
 31
0.0
  0
ARC
  5
673
330
1F
100
AcDbEntity
  8
2
100
AcDbCircle
 10
5.091356982390806
 20
5.767294477453297
 30
0.0
 40
0.001220099375
100
AcDbArc
 50
23.19861971166716
 51
156.8013802883115
  0
ARC
  5
674
330
1F
100
AcDbEntity
  8
2
100
AcDbCircle
 10
5.091356982390806
 20
5.733131694953298
 30
0.0
 40
0.001220099375
100
AcDbArc
 50
203.1986197116885
 51
336.8013802883329
  0
LINE
  5
675
330
1F
100
AcDbEntity
  8
2
100
AcDbLine
 10
5.004828578109072
 20
5.794617284964785
 30
0.0
 11
4.997507991329699
 21
5.777535939854427
 31
0.0
  0
LINE
  5
676
330
1F
100
AcDbEntity
  8
2
100
AcDbLine
 10
5.00707147417254
 20
5.794617284964785
 30
0.0
 11
5.014392060951912
 21
5.777535939854427
 31
0.0
  0
LINE
  5
677
330
1F
100
AcDbEntity
  8
2
100
AcDbLine
 10
5.004828578109072
 20
5.759493259941807
 30
0.0
 11
4.997507991329699
 21
5.77657460505217
 31
0.0
  0
ARC
  5
678
330
1F
100
AcDbEntity
  8
2
100
AcDbCircle
 10
4.998629547020446
 20
5.777055272453298
 30
0.0
 40
0.00122021650454
100
AcDbArc
 50
156.8013802883257
 51
203.1986197116743
  0
ARC
  5
679
330
1F
100
AcDbEntity
  8
2
100
AcDbCircle
 10
5.005950026140806
 20
5.759973881203298
 30
0.0
 40
0.001220099375
100
AcDbArc
 50
203.1986197116885
 51
336.8013802883329
  0
ARC
  5
67A
330
1F
100
AcDbEntity
  8
2
100
AcDbCircle
 10
5.013270505261166
 20
5.777055272453298
 30
0.0
 40
0.00122021650454
100
AcDbArc
 50
336.8013802883256
 51
23.19861971167427
  0
ARC
  5
67B
330
1F
100
AcDbEntity
  8
2
100
AcDbCircle
 10
5.018151019890806
 20
5.733131694953298
 30
0.0
 40
0.001220099375
100
AcDbArc
 50
203.1986197116885
 51
336.8013802883329
  0
LINE
  5
67C
330
1F
100
AcDbEntity
  8
2
100
AcDbLine
 10
5.00707147417254
 20
5.759493259941807
 30
0.0
 11
5.014392060951912
 21
5.77657460505217
 31
0.0
  0
ARC
  5
67D
330
1F
100
AcDbEntity
  8
2
100
AcDbCircle
 10
5.005950026140806
 20
5.794136663703298
 30
0.0
 40
0.001220099375
100
AcDbArc
 50
23.19861971166716
 51
156.8013802883115
  0
LINE
  5
67E
330
1F
100
AcDbEntity
  8
2
100
AcDbLine
 10
5.078034540609072
 20
5.794617284964785
 30
0.0
 11
5.070713953829699
 21
5.777535939854427
 31
0.0
  0
LINE
  5
67F
330
1F
100
AcDbEntity
  8
2
100
AcDbLine
 10
5.08027743667254
 20
5.794617284964785
 30
0.0
 11
5.087598023451912
 21
5.777535939854427
 31
0.0
  0
ARC
  5
680
330
1F
100
AcDbEntity
  8
2
100
AcDbCircle
 10
5.086476467761166
 20
5.777055272453298
 30
0.0
 40
0.00122021650454
100
AcDbArc
 50
336.8013802883256
 51
23.19861971167427
  0
LINE
  5
681
330
1F
100
AcDbEntity
  8
2
100
AcDbLine
 10
5.078034540609072
 20
5.759493259941807
 30
0.0
 11
5.070713953829699
 21
5.77657460505217
 31
0.0
  0
ARC
  5
682
330
1F
100
AcDbEntity
  8
2
100
AcDbCircle
 10
5.079155988640806
 20
5.759973881203298
 30
0.0
 40
0.001220099375
100
AcDbArc
 50
203.1986197116885
 51
336.8013802883329
  0
ARC
  5
683
330
1F
100
AcDbEntity
  8
2
100
AcDbCircle
 10
5.084036503270445
 20
5.750213086203298
 30
0.0
 40
0.00122021650454
100
AcDbArc
 50
156.8013802883257
 51
203.1986197116743
  0
ARC
  5
684
330
1F
100
AcDbEntity
  8
2
100
AcDbCircle
 10
5.071835509520445
 20
5.777055272453298
 30
0.0
 40
0.00122021650454
100
AcDbArc
 50
156.8013802883257
 51
203.1986197116743
  0
LINE
  5
685
330
1F
100
AcDbEntity
  8
2
100
AcDbLine
 10
5.090235534359072
 20
5.732651073691807
 30
0.0
 11
5.082914947579699
 21
5.749732418802169
 31
0.0
  0
LINE
  5
686
330
1F
100
AcDbEntity
  8
2
100
AcDbLine
 10
5.08027743667254
 20
5.759493259941807
 30
0.0
 11
5.087598023451912
 21
5.77657460505217
 31
0.0
  0
LINE
  5
687
330
1F
100
AcDbEntity
  8
2
100
AcDbLine
 10
5.090235534359072
 20
5.767775098714785
 30
0.0
 11
5.082914947579699
 21
5.750693753604426
 31
0.0
  0
ARC
  5
688
330
1F
100
AcDbEntity
  8
2
100
AcDbCircle
 10
5.079155988640806
 20
5.794136663703298
 30
0.0
 40
0.001220099375
100
AcDbArc
 50
23.19861971166716
 51
156.8013802883115
  0
LINE
  5
689
330
1F
100
AcDbEntity
  8
2
100
AcDbLine
 10
5.01927246792254
 20
5.732651073691807
 30
0.0
 11
5.026593054701912
 21
5.749732418802169
 31
0.0
  0
ARC
  5
68A
330
1F
100
AcDbEntity
  8
2
100
AcDbCircle
 10
5.025471499011166
 20
5.750213086203298
 30
0.0
 40
0.00122021650454
100
AcDbArc
 50
336.8013802883256
 51
23.19861971167427
  0
ARC
  5
68B
330
1F
100
AcDbEntity
  8
2
100
AcDbCircle
 10
5.010830540770445
 20
5.750213086203298
 30
0.0
 40
0.00122021650454
100
AcDbArc
 50
156.8013802883257
 51
203.1986197116743
  0
LINE
  5
68C
330
1F
100
AcDbEntity
  8
2
100
AcDbLine
 10
5.017029571859072
 20
5.732651073691807
 30
0.0
 11
5.009708985079699
 21
5.749732418802169
 31
0.0
  0
LINE
  5
68D
330
1F
100
AcDbEntity
  8
2
100
AcDbLine
 10
5.01927246792254
 20
5.767775098714785
 30
0.0
 11
5.026593054701912
 21
5.750693753604426
 31
0.0
  0
LINE
  5
68E
330
1F
100
AcDbEntity
  8
2
100
AcDbLine
 10
5.017029571859072
 20
5.767775098714785
 30
0.0
 11
5.009708985079699
 21
5.750693753604426
 31
0.0
  0
ARC
  5
68F
330
1F
100
AcDbEntity
  8
2
100
AcDbCircle
 10
5.018151019890806
 20
5.767294477453297
 30
0.0
 40
0.001220099375
100
AcDbArc
 50
23.19861971166716
 51
156.8013802883115
  0
LINE
  5
690
330
1F
100
AcDbEntity
  8
2
100
AcDbLine
 10
5.005950026140806
 20
5.795356763078298
 30
0.0
 11
5.079155988640806
 21
5.795356763078298
 31
0.0
  0
LINE
  5
691
330
1F
100
AcDbEntity
  8
4
100
AcDbLine
 10
5.157242348640806
 20
5.717270403078298
 30
0.0
 11
5.157242348640806
 21
5.799017061203298
 31
0.0
  0
LINE
  5
692
330
1F
100
AcDbEntity
  8
4
100
AcDbLine
 10
5.162732795828306
 20
5.799017061203298
 30
0.0
 11
5.162732795828306
 21
5.717270403078298
 31
0.0
  0
LINE
  5
693
330
1F
100
AcDbEntity
  8
2
100
AcDbLine
 10
5.09247843042254
 20
5.732651073691807
 30
0.0
 11
5.099799017201912
 21
5.749732418802169
 31
0.0
  0
LINE
  5
694
330
1F
100
AcDbEntity
  8
2
100
AcDbLine
 10
5.09247843042254
 20
5.767775098714785
 30
0.0
 11
5.099799017201912
 21
5.750693753604426
 31
0.0
  0
ARC
  5
695
330
1F
100
AcDbEntity
  8
2
100
AcDbCircle
 10
5.098677461511167
 20
5.750213086203298
 30
0.0
 40
0.00122021650454
100
AcDbArc
 50
336.8013802883256
 51
23.19861971167427
  0
LINE
  5
696
330
1F
100
AcDbEntity
  8
4
100
AcDbLine
 10
5.162732795828306
 20
5.717270403078298
 30
0.0
 11
5.157242348640806
 21
5.717270403078298
 31
0.0
  0
LINE
  5
697
330
1F
100
AcDbEntity
  8
4
100
AcDbLine
 10
5.15862748065865
 20
5.758143732140798
 30
0.0
 11
5.161048578020755
 21
5.758143732140798
 31
0.0
  0
LINE
  5
698
330
1F
100
AcDbEntity
  8
4
  6
CENTER
100
AcDbLine
 10
5.164904418673897
 20
5.758143732140798
 30
0.0
 11
5.173333460010598
 21
5.758143732140798
 31
0.0
  0
LINE
  5
699
330
1F
100
AcDbEntity
  8
4
  6
CENTER
100
AcDbLine
 10
5.146701284491568
 20
5.758143732140798
 30
0.0
 11
5.154592291286583
 21
5.758143732140798
 31
0.0
  0
LINE
  5
69A
330
1F
100
AcDbEntity
  8
4
100
AcDbLine
 10
5.157242348640806
 20
5.799017061203298
 30
0.0
 11
5.162732795828306
 21
5.799017061203298
 31
0.0
  0
LINE
  5
69B
330
1F
100
AcDbEntity
  8
4
100
AcDbLine
 10
5.162732795828306
 20
5.799017061203298
 30
0.0
 11
5.162732795828306
 21
5.878323520578298
 31
0.0
  0
ARC
  5
69C
330
1F
100
AcDbEntity
  8
2
100
AcDbCircle
 10
5.091356982390806
 20
5.960972342453298
 30
0.0
 40
0.001220099375
100
AcDbArc
 50
203.1986197116885
 51
336.8013802883329
  0
ARC
  5
69D
330
1F
100
AcDbEntity
  8
2
100
AcDbCircle
 10
5.091356982390806
 20
5.995135124953298
 30
0.0
 40
0.001220099375
100
AcDbArc
 50
23.19861971166716
 51
156.8013802883115
  0
LINE
  5
69E
330
1F
100
AcDbEntity
  8
2
100
AcDbLine
 10
5.018151019890806
 20
5.959752243078298
 30
0.0
 11
5.091356982390806
 21
5.959752243078298
 31
0.0
  0
ARC
  5
69F
330
1F
100
AcDbEntity
  8
2
100
AcDbCircle
 10
5.079155988640806
 20
5.987814528703299
 30
0.0
 40
0.001220099375
100
AcDbArc
 50
203.1986197116885
 51
336.8013802883329
  0
ARC
  5
6A0
330
1F
100
AcDbEntity
  8
2
100
AcDbCircle
 10
5.079155988640806
 20
6.021977311203298
 30
0.0
 40
0.001220099375
100
AcDbArc
 50
23.19861971166716
 51
156.8013802883115
  0
LINE
  5
6A1
330
1F
100
AcDbEntity
  8
2
100
AcDbLine
 10
5.078034540609072
 20
5.987333907441808
 30
0.0
 11
5.070713953829699
 21
6.00441525255217
 31
0.0
  0
LINE
  5
6A2
330
1F
100
AcDbEntity
  8
2
100
AcDbLine
 10
5.078034540609072
 20
6.022457932464785
 30
0.0
 11
5.070713953829699
 21
6.005376587354428
 31
0.0
  0
ARC
  5
6A3
330
1F
100
AcDbEntity
  8
2
100
AcDbCircle
 10
5.071835509520445
 20
6.004895919953298
 30
0.0
 40
0.00122021650454
100
AcDbArc
 50
156.8013802883257
 51
203.1986197116743
  0
LINE
  5
6A4
330
1F
100
AcDbEntity
  8
2
100
AcDbLine
 10
5.090235534359072
 20
5.995615746214785
 30
0.0
 11
5.082914947579699
 21
5.978534401104427
 31
0.0
  0
LINE
  5
6A5
330
1F
100
AcDbEntity
  8
2
100
AcDbLine
 10
5.08027743667254
 20
5.987333907441808
 30
0.0
 11
5.087598023451912
 21
6.00441525255217
 31
0.0
  0
LINE
  5
6A6
330
1F
100
AcDbEntity
  8
2
100
AcDbLine
 10
5.08027743667254
 20
6.022457932464785
 30
0.0
 11
5.087598023451912
 21
6.005376587354428
 31
0.0
  0
LINE
  5
6A7
330
1F
100
AcDbEntity
  8
2
100
AcDbLine
 10
5.090235534359072
 20
5.960491721191807
 30
0.0
 11
5.082914947579699
 21
5.97757306630217
 31
0.0
  0
ARC
  5
6A8
330
1F
100
AcDbEntity
  8
2
100
AcDbCircle
 10
5.084036503270445
 20
5.978053733703299
 30
0.0
 40
0.00122021650454
100
AcDbArc
 50
156.8013802883257
 51
203.1986197116743
  0
ARC
  5
6A9
330
1F
100
AcDbEntity
  8
2
100
AcDbCircle
 10
5.086476467761166
 20
6.004895919953298
 30
0.0
 40
0.00122021650454
100
AcDbArc
 50
336.8013802883256
 51
23.19861971167425
  0
LINE
  5
6AA
330
1F
100
AcDbEntity
  8
2
100
AcDbLine
 10
5.017029571859072
 20
5.995615746214785
 30
0.0
 11
5.009708985079699
 21
5.978534401104427
 31
0.0
  0
LINE
  5
6AB
330
1F
100
AcDbEntity
  8
2
100
AcDbLine
 10
5.00707147417254
 20
5.987333907441808
 30
0.0
 11
5.014392060951912
 21
6.00441525255217
 31
0.0
  0
LINE
  5
6AC
330
1F
100
AcDbEntity
  8
2
100
AcDbLine
 10
5.00707147417254
 20
6.022457932464785
 30
0.0
 11
5.014392060951912
 21
6.005376587354428
 31
0.0
  0
LINE
  5
6AD
330
1F
100
AcDbEntity
  8
2
100
AcDbLine
 10
5.017029571859072
 20
5.960491721191807
 30
0.0
 11
5.009708985079699
 21
5.97757306630217
 31
0.0
  0
ARC
  5
6AE
330
1F
100
AcDbEntity
  8
2
100
AcDbCircle
 10
5.010830540770445
 20
5.978053733703299
 30
0.0
 40
0.00122021650454
100
AcDbArc
 50
156.8013802883257
 51
203.1986197116743
  0
ARC
  5
6AF
330
1F
100
AcDbEntity
  8
2
100
AcDbCircle
 10
5.018151019890806
 20
5.960972342453298
 30
0.0
 40
0.001220099375
100
AcDbArc
 50
203.1986197116885
 51
336.8013802883329
  0
ARC
  5
6B0
330
1F
100
AcDbEntity
  8
2
100
AcDbCircle
 10
5.018151019890806
 20
5.995135124953298
 30
0.0
 40
0.001220099375
100
AcDbArc
 50
23.19861971166716
 51
156.8013802883115
  0
ARC
  5
6B1
330
1F
100
AcDbEntity
  8
2
100
AcDbCircle
 10
5.013270505261166
 20
6.004895919953298
 30
0.0
 40
0.00122021650454
100
AcDbArc
 50
336.8013802883256
 51
23.19861971167425
  0
ARC
  5
6B2
330
1F
100
AcDbEntity
  8
2
100
AcDbCircle
 10
5.025471499011166
 20
5.978053733703299
 30
0.0
 40
0.00122021650454
100
AcDbArc
 50
336.8013802883256
 51
23.19861971167425
  0
LINE
  5
6B3
330
1F
100
AcDbEntity
  8
2
100
AcDbLine
 10
5.01927246792254
 20
5.995615746214785
 30
0.0
 11
5.026593054701912
 21
5.978534401104427
 31
0.0
  0
LINE
  5
6B4
330
1F
100
AcDbEntity
  8
2
100
AcDbLine
 10
5.01927246792254
 20
5.960491721191807
 30
0.0
 11
5.026593054701912
 21
5.97757306630217
 31
0.0
  0
ARC
  5
6B5
330
1F
100
AcDbEntity
  8
2
100
AcDbCircle
 10
5.005950026140806
 20
5.987814528703299
 30
0.0
 40
0.001220099375
100
AcDbArc
 50
203.1986197116885
 51
336.8013802883329
  0
ARC
  5
6B6
330
1F
100
AcDbEntity
  8
2
100
AcDbCircle
 10
5.005950026140806
 20
6.021977311203298
 30
0.0
 40
0.001220099375
100
AcDbArc
 50
23.19861971166716
 51
156.8013802883115
  0
ARC
  5
6B7
330
1F
100
AcDbEntity
  8
2
100
AcDbCircle
 10
4.998629547020446
 20
6.004895919953298
 30
0.0
 40
0.00122021650454
100
AcDbArc
 50
156.8013802883257
 51
203.1986197116743
  0
LINE
  5
6B8
330
1F
100
AcDbEntity
  8
2
100
AcDbLine
 10
5.004828578109072
 20
5.987333907441808
 30
0.0
 11
4.997507991329699
 21
6.00441525255217
 31
0.0
  0
LINE
  5
6B9
330
1F
100
AcDbEntity
  8
2
100
AcDbLine
 10
5.004828578109072
 20
6.022457932464785
 30
0.0
 11
4.997507991329699
 21
6.005376587354428
 31
0.0
  0
LINE
  5
6BA
330
1F
100
AcDbEntity
  8
4
  6
CENTER
100
AcDbLine
 10
5.146701284491568
 20
6.030518006828298
 30
0.0
 11
5.154592291286583
 21
6.030518006828298
 31
0.0
  0
LINE
  5
6BB
330
1F
100
AcDbEntity
  8
4
100
AcDbLine
 10
5.157242348640806
 20
5.989644677765799
 30
0.0
 11
5.162732795828306
 21
5.989644677765799
 31
0.0
  0
LINE
  5
6BC
330
1F
100
AcDbEntity
  8
4
100
AcDbLine
 10
5.15862748065865
 20
6.030518006828298
 30
0.0
 11
5.161048578020755
 21
6.030518006828298
 31
0.0
  0
LINE
  5
6BD
330
1F
100
AcDbEntity
  8
4
  6
CENTER
100
AcDbLine
 10
5.164904418673897
 20
6.030518006828298
 30
0.0
 11
5.173333460010598
 21
6.030518006828298
 31
0.0
  0
LINE
  5
6BE
330
1F
100
AcDbEntity
  8
4
100
AcDbLine
 10
5.162732795828306
 20
5.989644677765799
 30
0.0
 11
5.162732795828306
 21
5.910338218390799
 31
0.0
  0
ARC
  5
6BF
330
1F
100
AcDbEntity
  8
2
100
AcDbCircle
 10
5.098677461511167
 20
5.978053733703299
 30
0.0
 40
0.00122021650454
100
AcDbArc
 50
336.8013802883256
 51
23.19861971167425
  0
LINE
  5
6C0
330
1F
100
AcDbEntity
  8
2
100
AcDbLine
 10
5.09247843042254
 20
5.995615746214785
 30
0.0
 11
5.099799017201912
 21
5.978534401104427
 31
0.0
  0
LINE
  5
6C1
330
1F
100
AcDbEntity
  8
2
100
AcDbLine
 10
5.09247843042254
 20
5.960491721191807
 30
0.0
 11
5.099799017201912
 21
5.97757306630217
 31
0.0
  0
LINE
  5
6C2
330
1F
100
AcDbEntity
  8
4
100
AcDbLine
 10
4.883659557182855
 20
6.323634559907326
 30
0.0
 11
4.875412976719255
 21
6.191707654687325
 31
0.0
  0
LINE
  5
6C3
330
1F
100
AcDbEntity
  8
4
100
AcDbLine
 10
4.898901313724032
 20
6.332786493243713
 30
0.0
 11
4.888773507864586
 21
6.17074159949257
 31
0.0
  0
LINE
  5
6C4
330
1F
100
AcDbEntity
  8
4
100
AcDbLine
 10
4.750820940723757
 20
6.323634559907326
 30
0.0
 11
4.759067521187357
 21
6.19168927248974
 31
0.0
  0
ARC
  5
6C5
330
1F
100
AcDbEntity
  8
4
100
AcDbCircle
 10
4.855929403483669
 20
6.192925378014551
 30
0.0
 40
0.01952159
100
AcDbArc
 50
270.0
 51
356.4236656250017
  0
LINE
  5
6C6
330
1F
100
AcDbEntity
  8
4
100
AcDbLine
 10
4.817240248953305
 20
6.146717774484548
 30
0.0
 11
4.863201317992879
 21
6.146717774484548
 31
0.0
  0
CIRCLE
  5
6C7
330
1F
100
AcDbEntity
  8
4
100
AcDbCircle
 10
4.817240248953305
 20
6.207141975932049
 30
0.0
 40
0.00425570662
  0
LINE
  5
6C8
330
1F
100
AcDbEntity
  8
4
100
AcDbLine
 10
4.817240248953305
 20
6.173403788014548
 30
0.0
 11
4.778551094422942
 21
6.173403788014552
 31
0.0
  0
CIRCLE
  5
6C9
330
1F
100
AcDbEntity
  8
4
100
AcDbCircle
 10
4.817240248953305
 20
6.157698668859552
 30
0.0
 40
0.007023868082
  0
LINE
  5
6CA
330
1F
100
AcDbEntity
  8
4
100
AcDbLine
 10
4.817240248953305
 20
6.173403788014548
 30
0.0
 11
4.855929403483669
 21
6.173403788014552
 31
0.0
  0
ARC
  5
6CB
330
1F
100
AcDbEntity
  8
4
100
AcDbCircle
 10
4.771279179913733
 20
6.172339861359548
 30
0.0
 40
0.025622086875
100
AcDbArc
 50
183.5763343749981
 51
270.0
  0
LINE
  5
6CC
330
1F
100
AcDbEntity
  8
4
100
AcDbLine
 10
4.817240248953305
 20
6.146717774484548
 30
0.0
 11
4.771279179913733
 21
6.146717774484548
 31
0.0
  0
ARC
  5
6CD
330
1F
100
AcDbEntity
  8
4
100
AcDbCircle
 10
4.778551094422942
 20
6.192925378014551
 30
0.0
 40
0.01952159
100
AcDbArc
 50
183.5763343749981
 51
270.0
  0
ARC
  5
6CE
330
1F
100
AcDbEntity
  8
4
100
AcDbCircle
 10
4.863201317992879
 20
6.172339861359548
 30
0.0
 40
0.025622086875
100
AcDbArc
 50
270.0
 51
356.4236656250017
  0
LINE
  5
6CF
330
1F
100
AcDbEntity
  8
4
100
AcDbLine
 10
4.817240248953305
 20
6.363895463234548
 30
0.0
 11
4.869675953870653
 21
6.363895463234548
 31
0.0
  0
LINE
  5
6D0
330
1F
100
AcDbEntity
  8
4
100
AcDbLine
 10
4.817240248953305
 20
6.344373873234548
 30
0.0
 11
4.864175983947269
 21
6.344373873234548
 31
0.0
  0
CIRCLE
  5
6D1
330
1F
100
AcDbEntity
  8
4
100
AcDbCircle
 10
4.817240248953305
 20
6.292490367412051
 30
0.0
 40
0.00425570662
  0
CIRCLE
  5
6D2
330
1F
100
AcDbEntity
  8
4
100
AcDbCircle
 10
4.817240248953305
 20
6.249816171672048
 30
0.0
 40
0.0128110434375
  0
LINE
  5
6D3
330
1F
100
AcDbEntity
  8
4
100
AcDbLine
 10
4.791223011360161
 20
6.302044016268286
 30
0.0
 11
4.794673973527296
 21
6.305494978435422
 31
0.0
  0
LINE
  5
6D4
330
1F
100
AcDbEntity
  8
4
100
AcDbLine
 10
4.789483726427924
 20
6.310685225534795
 30
0.0
 11
4.786032764260788
 21
6.307234263367659
 31
0.0
  0
ARC
  5
6D5
330
1F
100
AcDbEntity
  8
4
 62
   130
100
AcDbCircle
 10
4.792091231175989
 20
6.304597757741827
 30
0.0
 40
0.00609073608
100
AcDbArc
 50
225.0000000000003
 51
45.00000000000031
  0
LINE
  5
6D6
330
1F
100
AcDbEntity
  8
4
100
AcDbLine
 10
4.777446770388954
 20
6.322722181573768
 30
0.0
 11
4.773995808221818
 21
6.319271219406631
 31
0.0
  0
ARC
  5
6D7
330
1F
100
AcDbEntity
  8
4
100
AcDbCircle
 10
4.770304513959342
 20
6.324852283234548
 30
0.0
 40
0.01952159
100
AcDbArc
 50
90.0
 51
183.5763343749981
  0
ARC
  5
6D8
330
1F
100
AcDbEntity
  8
4
 62
   130
100
AcDbCircle
 10
4.771359302595989
 20
6.325329686321826
 30
0.0
 40
0.00609073608
100
AcDbArc
 50
45.00000000000031
 51
225.0000000000003
  0
LINE
  5
6D9
330
1F
100
AcDbEntity
  8
4
100
AcDbLine
 10
4.772256523289582
 20
6.327912428673136
 30
0.0
 11
4.768805561122446
 21
6.324461466506
 31
0.0
  0
LINE
  5
6DA
330
1F
100
AcDbEntity
  8
4
100
AcDbLine
 10
4.817240248953305
 20
6.344373873234548
 30
0.0
 11
4.770304513959342
 21
6.344373873234548
 31
0.0
  0
LINE
  5
6DB
330
1F
100
AcDbEntity
  8
4
100
AcDbLine
 10
4.817240248953305
 20
6.363895463234548
 30
0.0
 11
4.76480454403596
 21
6.363895463234548
 31
0.0
  0
LINE
  5
6DC
330
1F
100
AcDbEntity
  8
4
 62
   130
100
AcDbLine
 10
4.767052501811402
 20
6.321022885537241
 30
0.0
 11
4.787784430391402
 21
6.300290956957239
 31
0.0
  0
LINE
  5
6DD
330
1F
100
AcDbEntity
  8
4
100
AcDbLine
 10
4.772256523289582
 20
6.327912428673136
 30
0.0
 11
4.794673973527296
 21
6.305494978435422
 31
0.0
  0
LINE
  5
6DE
330
1F
100
AcDbEntity
  8
4
100
AcDbLine
 10
4.768805561122446
 20
6.324461466506
 30
0.0
 11
4.791223011360161
 21
6.302044016268286
 31
0.0
  0
LINE
  5
6DF
330
1F
100
AcDbEntity
  8
4
 62
   130
100
AcDbLine
 10
4.775666103380574
 20
6.32963648710641
 30
0.0
 11
4.796398031960574
 21
6.308904558526411
 31
0.0
  0
ARC
  5
6E0
330
1F
100
AcDbEntity
  8
4
100
AcDbCircle
 10
4.869675953870653
 20
6.334613078234548
 30
0.0
 40
0.029282385
100
AcDbArc
 50
356.4236656250017
 51
90.0
  0
ARC
  5
6E1
330
1F
100
AcDbEntity
  8
4
100
AcDbCircle
 10
4.864175983947269
 20
6.324852283234548
 30
0.0
 40
0.01952159
100
AcDbArc
 50
356.4236656250017
 51
90.0
  0
LINE
  5
6E2
330
1F
100
AcDbEntity
  8
4
100
AcDbLine
 10
5.162732795828306
 20
6.071391335890798
 30
0.0
 11
5.157242348640806
 21
6.071391335890798
 31
0.0
  0
LINE
  5
6E3
330
1F
100
AcDbEntity
  8
4
100
AcDbLine
 10
5.162732795828306
 20
6.589323520578298
 30
0.0
 11
4.725732795828306
 21
6.589308822765798
 31
0.0
  0
LINE
  5
6E4
330
1F
100
AcDbEntity
  8
4
100
AcDbLine
 10
4.949767443065805
 20
6.542339877225795
 30
0.0
 11
4.956795215465806
 21
6.542339877225795
 31
0.0
  0
CIRCLE
  5
6E5
330
1F
100
AcDbEntity
  8
4
100
AcDbCircle
 10
4.953281329265806
 20
6.542339877225795
 30
0.0
 40
0.00265493624
  0
LINE
  5
6E6
330
1F
100
AcDbEntity
  8
4
100
AcDbLine
 10
4.953281329265806
 20
6.538825991025798
 30
0.0
 11
4.953281329265806
 21
6.545853763425796
 31
0.0
  0
ARC
  5
6E7
330
1F
100
AcDbEntity
  8
4
100
AcDbCircle
 10
4.880075366765806
 20
6.542339877225795
 30
0.0
 40
0.079306459375
100
AcDbArc
 50
347.5762104955836
 51
12.42378950441649
  0
LINE
  5
6E8
330
1F
100
AcDbEntity
  8
4
100
AcDbLine
 10
4.880075366765806
 20
6.538825991025798
 30
0.0
 11
4.880075366765806
 21
6.545853763425796
 31
0.0
  0
LINE
  5
6E9
330
1F
100
AcDbEntity
  8
4
100
AcDbLine
 10
4.876561480565806
 20
6.542339877225795
 30
0.0
 11
4.883589252965806
 21
6.542339877225795
 31
0.0
  0
CIRCLE
  5
6EA
330
1F
100
AcDbEntity
  8
4
100
AcDbCircle
 10
4.880075366765806
 20
6.542339877225795
 30
0.0
 40
0.00265493624
  0
ARC
  5
6EB
330
1F
100
AcDbEntity
  8
4
100
AcDbCircle
 10
4.953281329265806
 20
6.542339877225795
 30
0.0
 40
0.079306459375
100
AcDbArc
 50
167.5762104955835
 51
192.4237895044164
  0
ARC
  5
6EC
330
1F
100
AcDbEntity
  8
4
100
AcDbCircle
 10
4.916678348015805
 20
6.289169256913295
 30
0.0
 40
0.27330226
100
AcDbArc
 50
81.40466153832001
 51
98.59533846167998
  0
ARC
  5
6ED
330
1F
100
AcDbEntity
  8
4
100
AcDbCircle
 10
4.916678348015805
 20
6.795510497538295
 30
0.0
 40
0.27330226
100
AcDbArc
 50
261.40466153832
 51
278.5953384616799
  0
LINE
  5
6EE
330
1F
100
AcDbEntity
  8
4
100
AcDbLine
 10
5.162732795828306
 20
6.510017061203298
 30
0.0
 11
5.162732795828306
 21
6.589323520578298
 31
0.0
  0
ARC
  5
6EF
330
1F
100
AcDbEntity
  8
2
100
AcDbCircle
 10
5.091356982390806
 20
6.444131694953298
 30
0.0
 40
0.001220099375
100
AcDbArc
 50
203.1986197116885
 51
336.8013802883329
  0
ARC
  5
6F0
330
1F
100
AcDbEntity
  8
2
100
AcDbCircle
 10
5.091356982390806
 20
6.478294477453298
 30
0.0
 40
0.001220099375
100
AcDbArc
 50
23.19861971166716
 51
156.8013802883115
  0
LINE
  5
6F1
330
1F
100
AcDbEntity
  8
2
100
AcDbLine
 10
5.005950026140806
 20
6.506356763078298
 30
0.0
 11
5.079155988640806
 21
6.506356763078298
 31
0.0
  0
ARC
  5
6F2
330
1F
100
AcDbEntity
  8
2
100
AcDbCircle
 10
5.018151019890806
 20
6.478294477453298
 30
0.0
 40
0.001220099375
100
AcDbArc
 50
23.19861971166716
 51
156.8013802883115
  0
LINE
  5
6F3
330
1F
100
AcDbEntity
  8
2
100
AcDbLine
 10
5.017029571859072
 20
6.478775098714785
 30
0.0
 11
5.009708985079699
 21
6.461693753604427
 31
0.0
  0
LINE
  5
6F4
330
1F
100
AcDbEntity
  8
2
100
AcDbLine
 10
5.01927246792254
 20
6.478775098714785
 30
0.0
 11
5.026593054701912
 21
6.461693753604427
 31
0.0
  0
LINE
  5
6F5
330
1F
100
AcDbEntity
  8
2
100
AcDbLine
 10
5.017029571859072
 20
6.443651073691808
 30
0.0
 11
5.009708985079699
 21
6.460732418802169
 31
0.0
  0
ARC
  5
6F6
330
1F
100
AcDbEntity
  8
2
100
AcDbCircle
 10
5.010830540770445
 20
6.461213086203298
 30
0.0
 40
0.00122021650454
100
AcDbArc
 50
156.8013802883257
 51
203.1986197116743
  0
ARC
  5
6F7
330
1F
100
AcDbEntity
  8
2
100
AcDbCircle
 10
5.025471499011166
 20
6.461213086203298
 30
0.0
 40
0.00122021650454
100
AcDbArc
 50
336.8013802883256
 51
23.19861971167425
  0
LINE
  5
6F8
330
1F
100
AcDbEntity
  8
2
100
AcDbLine
 10
5.01927246792254
 20
6.443651073691808
 30
0.0
 11
5.026593054701912
 21
6.460732418802169
 31
0.0
  0
ARC
  5
6F9
330
1F
100
AcDbEntity
  8
2
100
AcDbCircle
 10
5.079155988640806
 20
6.505136663703298
 30
0.0
 40
0.001220099375
100
AcDbArc
 50
23.19861971166716
 51
156.8013802883115
  0
LINE
  5
6FA
330
1F
100
AcDbEntity
  8
2
100
AcDbLine
 10
5.090235534359072
 20
6.478775098714785
 30
0.0
 11
5.082914947579699
 21
6.461693753604427
 31
0.0
  0
LINE
  5
6FB
330
1F
100
AcDbEntity
  8
2
100
AcDbLine
 10
5.08027743667254
 20
6.470493259941807
 30
0.0
 11
5.087598023451912
 21
6.48757460505217
 31
0.0
  0
LINE
  5
6FC
330
1F
100
AcDbEntity
  8
2
100
AcDbLine
 10
5.090235534359072
 20
6.443651073691808
 30
0.0
 11
5.082914947579699
 21
6.460732418802169
 31
0.0
  0
ARC
  5
6FD
330
1F
100
AcDbEntity
  8
2
100
AcDbCircle
 10
5.071835509520445
 20
6.488055272453299
 30
0.0
 40
0.00122021650454
100
AcDbArc
 50
156.8013802883257
 51
203.1986197116743
  0
ARC
  5
6FE
330
1F
100
AcDbEntity
  8
2
100
AcDbCircle
 10
5.084036503270445
 20
6.461213086203298
 30
0.0
 40
0.00122021650454
100
AcDbArc
 50
156.8013802883257
 51
203.1986197116743
  0
ARC
  5
6FF
330
1F
100
AcDbEntity
  8
2
100
AcDbCircle
 10
5.079155988640806
 20
6.470973881203298
 30
0.0
 40
0.001220099375
100
AcDbArc
 50
203.1986197116885
 51
336.8013802883329
  0
LINE
  5
700
330
1F
100
AcDbEntity
  8
2
100
AcDbLine
 10
5.078034540609072
 20
6.470493259941807
 30
0.0
 11
5.070713953829699
 21
6.48757460505217
 31
0.0
  0
ARC
  5
701
330
1F
100
AcDbEntity
  8
2
100
AcDbCircle
 10
5.086476467761166
 20
6.488055272453299
 30
0.0
 40
0.00122021650454
100
AcDbArc
 50
336.8013802883256
 51
23.19861971167425
  0
LINE
  5
702
330
1F
100
AcDbEntity
  8
2
100
AcDbLine
 10
5.08027743667254
 20
6.505617284964785
 30
0.0
 11
5.087598023451912
 21
6.488535939854427
 31
0.0
  0
LINE
  5
703
330
1F
100
AcDbEntity
  8
2
100
AcDbLine
 10
5.078034540609072
 20
6.505617284964785
 30
0.0
 11
5.070713953829699
 21
6.488535939854427
 31
0.0
  0
ARC
  5
704
330
1F
100
AcDbEntity
  8
2
100
AcDbCircle
 10
5.005950026140806
 20
6.505136663703298
 30
0.0
 40
0.001220099375
100
AcDbArc
 50
23.19861971166716
 51
156.8013802883115
  0
LINE
  5
705
330
1F
100
AcDbEntity
  8
2
100
AcDbLine
 10
5.00707147417254
 20
6.470493259941807
 30
0.0
 11
5.014392060951912
 21
6.48757460505217
 31
0.0
  0
ARC
  5
706
330
1F
100
AcDbEntity
  8
2
100
AcDbCircle
 10
5.018151019890806
 20
6.444131694953298
 30
0.0
 40
0.001220099375
100
AcDbArc
 50
203.1986197116885
 51
336.8013802883329
  0
ARC
  5
707
330
1F
100
AcDbEntity
  8
2
100
AcDbCircle
 10
5.013270505261166
 20
6.488055272453299
 30
0.0
 40
0.00122021650454
100
AcDbArc
 50
336.8013802883256
 51
23.19861971167425
  0
ARC
  5
708
330
1F
100
AcDbEntity
  8
2
100
AcDbCircle
 10
5.005950026140806
 20
6.470973881203298
 30
0.0
 40
0.001220099375
100
AcDbArc
 50
203.1986197116885
 51
336.8013802883329
  0
ARC
  5
709
330
1F
100
AcDbEntity
  8
2
100
AcDbCircle
 10
4.998629547020446
 20
6.488055272453299
 30
0.0
 40
0.00122021650454
100
AcDbArc
 50
156.8013802883257
 51
203.1986197116743
  0
LINE
  5
70A
330
1F
100
AcDbEntity
  8
2
100
AcDbLine
 10
5.004828578109072
 20
6.470493259941807
 30
0.0
 11
4.997507991329699
 21
6.48757460505217
 31
0.0
  0
LINE
  5
70B
330
1F
100
AcDbEntity
  8
2
100
AcDbLine
 10
5.00707147417254
 20
6.505617284964785
 30
0.0
 11
5.014392060951912
 21
6.488535939854427
 31
0.0
  0
LINE
  5
70C
330
1F
100
AcDbEntity
  8
2
100
AcDbLine
 10
5.004828578109072
 20
6.505617284964785
 30
0.0
 11
4.997507991329699
 21
6.488535939854427
 31
0.0
  0
LINE
  5
70D
330
1F
100
AcDbEntity
  8
4
100
AcDbLine
 10
5.157242348640806
 20
6.510017061203298
 30
0.0
 11
5.162732795828306
 21
6.510017061203298
 31
0.0
  0
LINE
  5
70E
330
1F
100
AcDbEntity
  8
4
  6
CENTER
100
AcDbLine
 10
5.146701284491568
 20
6.469143732140798
 30
0.0
 11
5.154592291286583
 21
6.469143732140798
 31
0.0
  0
LINE
  5
70F
330
1F
100
AcDbEntity
  8
4
  6
CENTER
100
AcDbLine
 10
5.164904418673897
 20
6.469143732140798
 30
0.0
 11
5.173333460010598
 21
6.469143732140798
 31
0.0
  0
LINE
  5
710
330
1F
100
AcDbEntity
  8
4
100
AcDbLine
 10
5.15862748065865
 20
6.469143732140798
 30
0.0
 11
5.161048578020755
 21
6.469143732140798
 31
0.0
  0
LINE
  5
711
330
1F
100
AcDbEntity
  8
4
100
AcDbLine
 10
5.162732795828306
 20
6.428270403078299
 30
0.0
 11
5.157242348640806
 21
6.428270403078299
 31
0.0
  0
ARC
  5
712
330
1F
100
AcDbEntity
  8
2
100
AcDbCircle
 10
5.098677461511167
 20
6.461213086203298
 30
0.0
 40
0.00122021650454
100
AcDbArc
 50
336.8013802883256
 51
23.19861971167425
  0
LINE
  5
713
330
1F
100
AcDbEntity
  8
2
100
AcDbLine
 10
5.09247843042254
 20
6.478775098714785
 30
0.0
 11
5.099799017201912
 21
6.461693753604427
 31
0.0
  0
LINE
  5
714
330
1F
100
AcDbEntity
  8
2
100
AcDbLine
 10
5.09247843042254
 20
6.443651073691808
 30
0.0
 11
5.099799017201912
 21
6.460732418802169
 31
0.0
  0
LINE
  5
715
330
1F
100
AcDbEntity
  8
4
100
AcDbLine
 10
5.162732795828306
 20
6.510017061203298
 30
0.0
 11
5.162732795828306
 21
6.428270403078299
 31
0.0
  0
LINE
  5
716
330
1F
100
AcDbEntity
  8
4
100
AcDbLine
 10
5.157242348640806
 20
6.428270403078299
 30
0.0
 11
5.157242348640806
 21
6.510017061203298
 31
0.0
  0
LINE
  5
717
330
1F
100
AcDbEntity
  8
4
100
AcDbLine
 10
11.2912327958283
 20
5.167308822765797
 30
0.0
 11
11.2912327958283
 21
4.488308822765798
 31
0.0
  0
LINE
  5
719
330
1F
100
AcDbEntity
  8
4
100
AcDbLine
 10
10.0072327958283
 20
5.167308822765797
 30
0.0
 11
10.0072327958283
 21
4.488308822765798
 31
0.0
  0
LINE
  5
71B
330
1F
100
AcDbEntity
  8
4
100
AcDbLine
 10
8.697232795828305
 20
5.167308822765797
 30
0.0
 11
8.697232795828305
 21
4.488308822765798
 31
0.0
  0
LINE
  5
71E
330
1F
100
AcDbEntity
  8
4
100
AcDbLine
 10
9.302232795828306
 20
4.504308822765799
 30
0.0
 11
8.759232795828305
 21
4.504308822765799
 31
0.0
  0
LINE
  5
71F
330
1F
100
AcDbEntity
  8
4
100
AcDbLine
 10
5.318732795828306
 20
4.442308822765799
 30
0.0
 11
5.819732795828305
 21
4.442308822765799
 31
0.0
  0
LINE
  5
720
330
1F
100
AcDbEntity
  8
4
100
AcDbLine
 10
5.318732795828306
 20
4.504308822765799
 30
0.0
 11
5.819732795828305
 21
4.504308822765799
 31
0.0
  0
LINE
  5
721
330
1F
100
AcDbEntity
  8
4
100
AcDbLine
 10
5.943732795828306
 20
4.442308822765799
 30
0.0
 11
6.131732795828305
 21
4.442308822765799
 31
0.0
  0
LINE
  5
722
330
1F
100
AcDbEntity
  8
4
100
AcDbLine
 10
5.943732795828306
 20
4.504308822765799
 30
0.0
 11
6.131732795828305
 21
4.504308822765799
 31
0.0
  0
LINE
  5
723
330
1F
100
AcDbEntity
  8
4
100
AcDbLine
 10
6.568732795828306
 20
4.442308822765799
 30
0.0
 11
7.069732795828305
 21
4.442308822765799
 31
0.0
  0
LINE
  5
724
330
1F
100
AcDbEntity
  8
4
100
AcDbLine
 10
6.568732795828306
 20
4.504308822765799
 30
0.0
 11
7.069732795828305
 21
4.504308822765799
 31
0.0
  0
LINE
  5
725
330
1F
100
AcDbEntity
  8
4
100
AcDbLine
 10
6.256732795828305
 20
4.442308822765799
 30
0.0
 11
6.444732795828305
 21
4.442308822765799
 31
0.0
  0
LINE
  5
726
330
1F
100
AcDbEntity
  8
4
100
AcDbLine
 10
6.256732795828305
 20
4.504308822765799
 30
0.0
 11
6.444732795828305
 21
4.504308822765799
 31
0.0
  0
LINE
  5
727
330
1F
100
AcDbEntity
  8
4
100
AcDbLine
 10
8.697232795828305
 20
4.456308822765798
 30
0.0
 11
8.697232795828305
 21
3.777308822765798
 31
0.0
  0
LINE
  5
728
330
1F
100
AcDbEntity
  8
4
100
AcDbLine
 10
8.697232795828305
 20
3.777308822765798
 30
0.0
 11
8.759232795828307
 21
3.777308822765798
 31
0.0
  0
LINE
  5
729
330
1F
100
AcDbEntity
  8
4
100
AcDbLine
 10
8.697232795828305
 20
4.456308822765798
 30
0.0
 11
8.759232795828305
 21
4.456308822765798
 31
0.0
  0
LINE
  5
72A
330
1F
100
AcDbEntity
  8
4
100
AcDbLine
 10
8.697232795828305
 20
4.488308822765798
 30
0.0
 11
8.759232795828305
 21
4.488308822765798
 31
0.0
  0
LINE
  5
72B
330
1F
100
AcDbEntity
  8
4
100
AcDbLine
 10
8.759232795828305
 20
4.442308822765798
 30
0.0
 11
8.790232795828305
 21
4.473308822765797
 31
0.0
  0
LINE
  5
72C
330
1F
100
AcDbEntity
  8
4
100
AcDbLine
 10
8.759232795828305
 20
4.504308822765799
 30
0.0
 11
8.759232795828305
 21
4.442308822765798
 31
0.0
  0
LINE
  5
72E
330
1F
100
AcDbEntity
  8
4
100
AcDbLine
 10
10.6862327958283
 20
4.504308822765799
 30
0.0
 11
11.2292327958283
 21
4.504308822765799
 31
0.0
  0
LINE
  5
72F
330
1F
100
AcDbEntity
  8
4
100
AcDbLine
 10
9.302232795828306
 20
4.442308822765798
 30
0.0
 11
9.302232795828306
 21
4.504308822765799
 31
0.0
  0
LINE
  5
730
330
1F
100
AcDbEntity
  8
4
100
AcDbLine
 10
10.0072327958283
 20
4.456308822765798
 30
0.0
 11
10.0072327958283
 21
3.777308822765798
 31
0.0
  0
LINE
  5
732
330
1F
100
AcDbEntity
  8
4
100
AcDbLine
 10
10.0072327958283
 20
3.777308822765798
 30
0.0
 11
10.0692327958283
 21
3.777308822765798
 31
0.0
  0
LINE
  5
733
330
1F
100
AcDbEntity
  8
4
100
AcDbLine
 10
10.6122327958283
 20
4.504308822765799
 30
0.0
 11
10.0692327958283
 21
4.504308822765799
 31
0.0
  0
LINE
  5
734
330
1F
100
AcDbEntity
  8
4
100
AcDbLine
 10
10.0692327958283
 20
4.504308822765799
 30
0.0
 11
10.0692327958283
 21
4.442308822765798
 31
0.0
  0
LINE
  5
735
330
1F
100
AcDbEntity
  8
4
100
AcDbLine
 10
10.0692327958283
 20
4.442308822765798
 30
0.0
 11
10.1002327958283
 21
4.473308822765797
 31
0.0
  0
LINE
  5
736
330
1F
100
AcDbEntity
  8
4
100
AcDbLine
 10
10.0072327958283
 20
4.456308822765798
 30
0.0
 11
10.0692327958283
 21
4.456308822765798
 31
0.0
  0
LINE
  5
737
330
1F
100
AcDbEntity
  8
4
100
AcDbLine
 10
10.0072327958283
 20
4.488308822765798
 30
0.0
 11
10.0692327958283
 21
4.488308822765798
 31
0.0
  0
LINE
  5
738
330
1F
100
AcDbEntity
  8
4
100
AcDbLine
 10
10.6122327958283
 20
4.442308822765798
 30
0.0
 11
10.6122327958283
 21
4.504308822765799
 31
0.0
  0
LINE
  5
739
330
1F
100
AcDbEntity
  8
4
100
AcDbLine
 10
10.6862327958283
 20
4.442308822765798
 30
0.0
 11
10.6862327958283
 21
4.504308822765799
 31
0.0
  0
LINE
  5
73A
330
1F
100
AcDbEntity
  8
4
100
AcDbLine
 10
11.2912327958283
 20
4.456308822765798
 30
0.0
 11
11.2912327958283
 21
3.777308822765798
 31
0.0
  0
LINE
  5
73B
330
1F
100
AcDbEntity
  8
4
100
AcDbLine
 10
11.2562327958283
 20
3.777308822765798
 30
0.0
 11
11.1942327958283
 21
3.777308822765798
 31
0.0
  0
LINE
  5
73C
330
1F
100
AcDbEntity
  8
4
100
AcDbLine
 10
11.2292327958283
 20
4.504308822765799
 30
0.0
 11
11.2292327958283
 21
4.442308822765798
 31
0.0
  0
LINE
  5
73D
330
1F
100
AcDbEntity
  8
4
100
AcDbLine
 10
11.2292327958283
 20
4.442308822765798
 30
0.0
 11
11.1982327958283
 21
4.473308822765797
 31
0.0
  0
LINE
  5
73E
330
1F
100
AcDbEntity
  8
4
100
AcDbLine
 10
11.2292327958283
 20
4.456308822765798
 30
0.0
 11
11.2912327958283
 21
4.456308822765798
 31
0.0
  0
LINE
  5
73F
330
1F
100
AcDbEntity
  8
4
100
AcDbLine
 10
11.2292327958283
 20
4.488308822765798
 30
0.0
 11
11.2912327958283
 21
4.488308822765798
 31
0.0
  0
LINE
  5
742
330
1F
100
AcDbEntity
  8
4
100
AcDbLine
 10
9.302232795828306
 20
5.926308822765798
 30
0.0
 11
8.759232795828305
 21
5.926308822765798
 31
0.0
  0
LINE
  5
743
330
1F
100
AcDbEntity
  8
4
100
AcDbLine
 10
9.302232795828306
 20
5.215308822765798
 30
0.0
 11
8.759232795828307
 21
5.215308822765798
 31
0.0
  0
LINE
  5
744
330
1F
100
AcDbEntity
  8
4
100
AcDbLine
 10
5.318732795828306
 20
5.153308822765798
 30
0.0
 11
5.819732795828305
 21
5.153308822765798
 31
0.0
  0
LINE
  5
745
330
1F
100
AcDbEntity
  8
4
100
AcDbLine
 10
5.318732795828306
 20
5.215308822765799
 30
0.0
 11
5.819732795828305
 21
5.215308822765799
 31
0.0
  0
LINE
  5
746
330
1F
100
AcDbEntity
  8
4
100
AcDbLine
 10
5.943732795828306
 20
5.153308822765798
 30
0.0
 11
6.131732795828305
 21
5.153308822765798
 31
0.0
  0
LINE
  5
747
330
1F
100
AcDbEntity
  8
4
100
AcDbLine
 10
5.943732795828306
 20
5.215308822765799
 30
0.0
 11
6.104706975139883
 21
5.215308822765799
 31
0.0
  0
LINE
  5
748
330
1F
100
AcDbEntity
  8
4
100
AcDbLine
 10
5.318732795828306
 20
5.926308822765799
 30
0.0
 11
5.819732795828305
 21
5.926308822765799
 31
0.0
  0
LINE
  5
749
330
1F
100
AcDbEntity
  8
4
100
AcDbLine
 10
5.318732795828306
 20
5.864308822765798
 30
0.0
 11
5.819732795828305
 21
5.864308822765798
 31
0.0
  0
LINE
  5
74A
330
1F
100
AcDbEntity
  8
4
100
AcDbLine
 10
5.943732795828306
 20
5.864308822765798
 30
0.0
 11
6.131732795828305
 21
5.864308822765798
 31
0.0
  0
LINE
  5
74B
330
1F
100
AcDbEntity
  8
4
100
AcDbLine
 10
5.943732795828306
 20
5.926308822765799
 30
0.0
 11
6.131732795828305
 21
5.926308822765799
 31
0.0
  0
LINE
  5
74C
330
1F
100
AcDbEntity
  8
4
100
AcDbLine
 10
6.568732795828306
 20
5.153308822765798
 30
0.0
 11
7.069732795828305
 21
5.153308822765798
 31
0.0
  0
LINE
  5
74D
330
1F
100
AcDbEntity
  8
4
100
AcDbLine
 10
6.568732795828306
 20
5.215308822765799
 30
0.0
 11
7.069732795828305
 21
5.215308822765799
 31
0.0
  0
LINE
  5
74E
330
1F
100
AcDbEntity
  8
4
100
AcDbLine
 10
6.256732795828305
 20
5.153308822765798
 30
0.0
 11
6.444732795828305
 21
5.153308822765798
 31
0.0
  0
LINE
  5
74F
330
1F
100
AcDbEntity
  8
4
100
AcDbLine
 10
6.256732795828305
 20
5.215308822765799
 30
0.0
 11
6.444732795828305
 21
5.215308822765799
 31
0.0
  0
LINE
  5
750
330
1F
100
AcDbEntity
  8
4
100
AcDbLine
 10
6.568732795828306
 20
5.926308822765799
 30
0.0
 11
7.069732795828305
 21
5.926308822765799
 31
0.0
  0
LINE
  5
751
330
1F
100
AcDbEntity
  8
4
100
AcDbLine
 10
6.568732795828306
 20
5.864308822765798
 30
0.0
 11
7.069732795828305
 21
5.864308822765798
 31
0.0
  0
LINE
  5
752
330
1F
100
AcDbEntity
  8
4
100
AcDbLine
 10
6.285706975139884
 20
5.864308822765798
 30
0.0
 11
6.444732795828305
 21
5.864308822765798
 31
0.0
  0
LINE
  5
753
330
1F
100
AcDbEntity
  8
4
100
AcDbLine
 10
6.256732795828305
 20
5.926308822765799
 30
0.0
 11
6.444732795828305
 21
5.926308822765799
 31
0.0
  0
LINE
  5
754
330
1F
100
AcDbEntity
  8
4
100
AcDbLine
 10
8.697232795828305
 20
6.589308822765798
 30
0.0
 11
8.697232795828305
 21
5.910308822765798
 31
0.0
  0
LINE
  5
755
330
1F
100
AcDbEntity
  8
4
100
AcDbLine
 10
8.697232795828305
 20
5.878308822765798
 30
0.0
 11
8.697232795828305
 21
5.199308822765797
 31
0.0
  0
LINE
  5
756
330
1F
100
AcDbEntity
  8
4
100
AcDbLine
 10
8.697232795828305
 20
5.199308822765797
 30
0.0
 11
8.759232795828307
 21
5.199308822765797
 31
0.0
  0
LINE
  5
757
330
1F
100
AcDbEntity
  8
4
100
AcDbLine
 10
8.697232795828305
 20
5.167308822765797
 30
0.0
 11
8.759232795828307
 21
5.167308822765797
 31
0.0
  0
LINE
  5
758
330
1F
100
AcDbEntity
  8
4
100
AcDbLine
 10
8.759232795828307
 20
5.215308822765798
 30
0.0
 11
8.759232795828307
 21
5.153308822765798
 31
0.0
  0
LINE
  5
759
330
1F
100
AcDbEntity
  8
4
100
AcDbLine
 10
8.759232795828307
 20
5.153308822765798
 30
0.0
 11
8.790232795828305
 21
5.184308822765798
 31
0.0
  0
LINE
  5
75A
330
1F
100
AcDbEntity
  8
4
100
AcDbLine
 10
8.697232795828305
 20
5.878308822765798
 30
0.0
 11
8.759232795828305
 21
5.878308822765798
 31
0.0
  0
LINE
  5
75B
330
1F
100
AcDbEntity
  8
4
100
AcDbLine
 10
8.697232795828305
 20
5.910308822765798
 30
0.0
 11
8.759232795828305
 21
5.910308822765798
 31
0.0
  0
LINE
  5
75C
330
1F
100
AcDbEntity
  8
4
100
AcDbLine
 10
8.759232795828305
 20
5.864308822765798
 30
0.0
 11
8.790232795828305
 21
5.895308822765797
 31
0.0
  0
LINE
  5
75D
330
1F
100
AcDbEntity
  8
4
100
AcDbLine
 10
8.759232795828305
 20
5.926308822765798
 30
0.0
 11
8.759232795828305
 21
5.864308822765798
 31
0.0
  0
LINE
  5
75E
330
1F
100
AcDbEntity
  8
4
100
AcDbLine
 10
8.697232795828305
 20
6.589308822765798
 30
0.0
 11
8.759232795828305
 21
6.589308822765798
 31
0.0
  0
LINE
  5
761
330
1F
100
AcDbEntity
  8
4
100
AcDbLine
 10
10.6862327958283
 20
5.926308822765798
 30
0.0
 11
11.2292327958283
 21
5.926308822765798
 31
0.0
  0
LINE
  5
762
330
1F
100
AcDbEntity
  8
4
100
AcDbLine
 10
10.6862327958283
 20
5.215308822765798
 30
0.0
 11
11.2292327958283
 21
5.215308822765798
 31
0.0
  0
LINE
  5
763
330
1F
100
AcDbEntity
  8
4
100
AcDbLine
 10
10.0072327958283
 20
6.589308822765798
 30
0.0
 11
10.0072327958283
 21
5.910308822765798
 31
0.0
  0
LINE
  5
765
330
1F
100
AcDbEntity
  8
4
100
AcDbLine
 10
9.302232795828306
 20
5.153308822765798
 30
0.0
 11
9.302232795828306
 21
5.215308822765798
 31
0.0
  0
LINE
  5
766
330
1F
100
AcDbEntity
  8
4
100
AcDbLine
 10
9.302232795828306
 20
5.864308822765798
 30
0.0
 11
9.302232795828306
 21
5.926308822765798
 31
0.0
  0
LINE
  5
767
330
1F
100
AcDbEntity
  8
4
100
AcDbLine
 10
10.0072327958283
 20
5.878308822765798
 30
0.0
 11
10.0072327958283
 21
5.199308822765797
 31
0.0
  0
LINE
  5
769
330
1F
100
AcDbEntity
  8
4
100
AcDbLine
 10
10.6122327958283
 20
5.215308822765798
 30
0.0
 11
10.0692327958283
 21
5.215308822765798
 31
0.0
  0
LINE
  5
76A
330
1F
100
AcDbEntity
  8
4
100
AcDbLine
 10
10.0692327958283
 20
5.215308822765798
 30
0.0
 11
10.0692327958283
 21
5.153308822765798
 31
0.0
  0
LINE
  5
76B
330
1F
100
AcDbEntity
  8
4
100
AcDbLine
 10
10.0692327958283
 20
5.153308822765798
 30
0.0
 11
10.1002327958283
 21
5.184308822765798
 31
0.0
  0
LINE
  5
76C
330
1F
100
AcDbEntity
  8
4
100
AcDbLine
 10
10.0072327958283
 20
5.167308822765797
 30
0.0
 11
10.0692327958283
 21
5.167308822765797
 31
0.0
  0
LINE
  5
76D
330
1F
100
AcDbEntity
  8
4
100
AcDbLine
 10
10.0072327958283
 20
5.199308822765797
 30
0.0
 11
10.0692327958283
 21
5.199308822765797
 31
0.0
  0
LINE
  5
76E
330
1F
100
AcDbEntity
  8
4
100
AcDbLine
 10
10.6122327958283
 20
5.153308822765798
 30
0.0
 11
10.6122327958283
 21
5.215308822765798
 31
0.0
  0
LINE
  5
76F
330
1F
100
AcDbEntity
  8
4
100
AcDbLine
 10
10.6862327958283
 20
5.153308822765798
 30
0.0
 11
10.6862327958283
 21
5.215308822765798
 31
0.0
  0
LINE
  5
770
330
1F
100
AcDbEntity
  8
4
100
AcDbLine
 10
10.6122327958283
 20
5.926308822765798
 30
0.0
 11
10.0692327958283
 21
5.926308822765798
 31
0.0
  0
LINE
  5
771
330
1F
100
AcDbEntity
  8
4
100
AcDbLine
 10
10.0692327958283
 20
5.926308822765798
 30
0.0
 11
10.0692327958283
 21
5.864308822765798
 31
0.0
  0
LINE
  5
772
330
1F
100
AcDbEntity
  8
4
100
AcDbLine
 10
10.0692327958283
 20
5.864308822765798
 30
0.0
 11
10.1002327958283
 21
5.895308822765797
 31
0.0
  0
LINE
  5
773
330
1F
100
AcDbEntity
  8
4
100
AcDbLine
 10
10.0072327958283
 20
5.878308822765798
 30
0.0
 11
10.0692327958283
 21
5.878308822765798
 31
0.0
  0
LINE
  5
774
330
1F
100
AcDbEntity
  8
4
100
AcDbLine
 10
10.0072327958283
 20
5.910308822765798
 30
0.0
 11
10.0692327958283
 21
5.910308822765798
 31
0.0
  0
LINE
  5
775
330
1F
100
AcDbEntity
  8
4
100
AcDbLine
 10
10.6122327958283
 20
5.864308822765798
 30
0.0
 11
10.6122327958283
 21
5.926308822765798
 31
0.0
  0
LINE
  5
776
330
1F
100
AcDbEntity
  8
4
100
AcDbLine
 10
10.6862327958283
 20
5.864308822765798
 30
0.0
 11
10.6862327958283
 21
5.926308822765798
 31
0.0
  0
LINE
  5
777
330
1F
100
AcDbEntity
  8
4
100
AcDbLine
 10
10.0072327958283
 20
6.589308822765798
 30
0.0
 11
10.0692327958283
 21
6.589308822765798
 31
0.0
  0
LINE
  5
778
330
1F
100
AcDbEntity
  8
4
100
AcDbLine
 10
11.2912327958283
 20
6.589308822765798
 30
0.0
 11
11.2912327958283
 21
5.910308822765798
 31
0.0
  0
LINE
  5
779
330
1F
100
AcDbEntity
  8
4
100
AcDbLine
 10
11.2912327958283
 20
5.878308822765798
 30
0.0
 11
11.2912327958283
 21
5.199308822765797
 31
0.0
  0
LINE
  5
77A
330
1F
100
AcDbEntity
  8
4
100
AcDbLine
 10
11.2292327958283
 20
5.215308822765798
 30
0.0
 11
11.2292327958283
 21
5.153308822765798
 31
0.0
  0
LINE
  5
77B
330
1F
100
AcDbEntity
  8
4
100
AcDbLine
 10
11.2292327958283
 20
5.153308822765798
 30
0.0
 11
11.1982327958283
 21
5.184308822765798
 31
0.0
  0
LINE
  5
77C
330
1F
100
AcDbEntity
  8
4
100
AcDbLine
 10
11.2292327958283
 20
5.167308822765797
 30
0.0
 11
11.2912327958283
 21
5.167308822765797
 31
0.0
  0
LINE
  5
77D
330
1F
100
AcDbEntity
  8
4
100
AcDbLine
 10
11.2292327958283
 20
5.199308822765797
 30
0.0
 11
11.2912327958283
 21
5.199308822765797
 31
0.0
  0
LINE
  5
77E
330
1F
100
AcDbEntity
  8
4
100
AcDbLine
 10
11.2292327958283
 20
5.926308822765798
 30
0.0
 11
11.2292327958283
 21
5.864308822765798
 31
0.0
  0
LINE
  5
77F
330
1F
100
AcDbEntity
  8
4
100
AcDbLine
 10
11.2292327958283
 20
5.864308822765798
 30
0.0
 11
11.1982327958283
 21
5.895308822765797
 31
0.0
  0
LINE
  5
780
330
1F
100
AcDbEntity
  8
4
100
AcDbLine
 10
11.2292327958283
 20
5.878308822765798
 30
0.0
 11
11.2912327958283
 21
5.878308822765798
 31
0.0
  0
LINE
  5
781
330
1F
100
AcDbEntity
  8
4
100
AcDbLine
 10
11.2292327958283
 20
5.910308822765798
 30
0.0
 11
11.2912327958283
 21
5.910308822765798
 31
0.0
  0
LINE
  5
782
330
1F
100
AcDbEntity
  8
4
100
AcDbLine
 10
11.2912327958283
 20
6.589308822765798
 30
0.0
 11
11.2292327958283
 21
6.589308822765798
 31
0.0
  0
LINE
  5
78B
330
1F
100
AcDbEntity
  8
4
100
AcDbLine
 10
8.921168298999177
 20
3.973169385245927
 30
0.0
 11
8.939918298999177
 21
4.010669385245926
 31
0.0
  0
LINE
  5
78C
330
1F
100
AcDbEntity
  8
4
100
AcDbLine
 10
8.939918298999177
 20
4.010669385245926
 30
0.0
 11
8.958668298999178
 21
3.973169385245927
 31
0.0
  0
LINE
  5
78D
330
1F
100
AcDbEntity
  8
4
100
AcDbLine
 10
8.921168298999177
 20
3.973169385245927
 30
0.0
 11
8.939918298999177
 21
3.935669385245927
 31
0.0
  0
LINE
  5
78E
330
1F
100
AcDbEntity
  8
4
100
AcDbLine
 10
8.939918298999177
 20
3.935669385245927
 30
0.0
 11
8.958668298999178
 21
3.973169385245927
 31
0.0
  0
LINE
  5
78F
330
1F
100
AcDbEntity
  8
4
100
AcDbLine
 10
8.914918298999177
 20
3.993669385245927
 30
0.0
 11
8.933668298999176
 21
4.031169385245926
 31
0.0
  0
LINE
  5
790
330
1F
100
AcDbEntity
  8
4
100
AcDbLine
 10
8.896168298999178
 20
4.031169385245926
 30
0.0
 11
8.914918298999177
 21
3.993669385245927
 31
0.0
  0
LINE
  5
791
330
1F
100
AcDbEntity
  8
4
100
AcDbLine
 10
8.914918298999177
 20
4.068669385245926
 30
0.0
 11
8.933668298999176
 21
4.031169385245926
 31
0.0
  0
LINE
  5
792
330
1F
100
AcDbEntity
  8
4
100
AcDbLine
 10
8.896168298999178
 20
4.031169385245926
 30
0.0
 11
8.914918298999177
 21
4.068669385245926
 31
0.0
  0
LINE
  5
793
330
1F
100
AcDbEntity
  8
4
100
AcDbLine
 10
9.146168298999178
 20
4.031169385245926
 30
0.0
 11
9.164918298999177
 21
4.068669385245926
 31
0.0
  0
LINE
  5
794
330
1F
100
AcDbEntity
  8
4
100
AcDbLine
 10
9.164918298999177
 20
4.068669385245926
 30
0.0
 11
9.183668298999176
 21
4.031169385245926
 31
0.0
  0
LINE
  5
795
330
1F
100
AcDbEntity
  8
4
100
AcDbLine
 10
9.146168298999178
 20
4.031169385245926
 30
0.0
 11
9.164918298999177
 21
3.993669385245927
 31
0.0
  0
LINE
  5
796
330
1F
100
AcDbEntity
  8
4
100
AcDbLine
 10
9.164918298999177
 20
3.993669385245927
 30
0.0
 11
9.183668298999176
 21
4.031169385245926
 31
0.0
  0
LINE
  5
797
330
1F
100
AcDbEntity
  8
4
100
AcDbLine
 10
9.189918298999177
 20
3.935669385245927
 30
0.0
 11
9.208668298999178
 21
3.973169385245927
 31
0.0
  0
LINE
  5
798
330
1F
100
AcDbEntity
  8
4
100
AcDbLine
 10
9.171168298999177
 20
3.973169385245927
 30
0.0
 11
9.189918298999177
 21
3.935669385245927
 31
0.0
  0
LINE
  5
799
330
1F
100
AcDbEntity
  8
4
100
AcDbLine
 10
9.189918298999177
 20
4.010669385245926
 30
0.0
 11
9.208668298999178
 21
3.973169385245927
 31
0.0
  0
LINE
  5
79A
330
1F
100
AcDbEntity
  8
4
100
AcDbLine
 10
9.171168298999177
 20
3.973169385245927
 30
0.0
 11
9.189918298999177
 21
4.010669385245926
 31
0.0
  0
LINE
  5
7A5
330
1F
100
AcDbEntity
  8
2
100
AcDbLine
 10
8.939918298999177
 20
3.935669385245927
 30
0.0
 11
9.189918298999177
 21
3.935669385245927
 31
0.0
  0
LINE
  5
7AF
330
1F
100
AcDbEntity
  8
4
100
AcDbLine
 10
10.80516829899917
 20
3.972830397631202
 30
0.0
 11
10.82391829899918
 21
4.010330397631202
 31
0.0
  0
LINE
  5
7B0
330
1F
100
AcDbEntity
  8
4
100
AcDbLine
 10
10.82391829899918
 20
4.010330397631202
 30
0.0
 11
10.84266829899918
 21
3.972830397631202
 31
0.0
  0
LINE
  5
7B1
330
1F
100
AcDbEntity
  8
4
100
AcDbLine
 10
10.80516829899917
 20
3.972830397631202
 30
0.0
 11
10.82391829899918
 21
3.935330397631203
 31
0.0
  0
LINE
  5
7B2
330
1F
100
AcDbEntity
  8
4
100
AcDbLine
 10
10.82391829899918
 20
3.935330397631203
 30
0.0
 11
10.84266829899918
 21
3.972830397631202
 31
0.0
  0
LINE
  5
7B3
330
1F
100
AcDbEntity
  8
4
100
AcDbLine
 10
10.79891829899918
 20
3.993330397631202
 30
0.0
 11
10.81766829899917
 21
4.030830397631202
 31
0.0
  0
LINE
  5
7B4
330
1F
100
AcDbEntity
  8
4
100
AcDbLine
 10
10.78016829899918
 20
4.030830397631202
 30
0.0
 11
10.79891829899918
 21
3.993330397631202
 31
0.0
  0
LINE
  5
7B5
330
1F
100
AcDbEntity
  8
4
100
AcDbLine
 10
10.79891829899918
 20
4.068330397631202
 30
0.0
 11
10.81766829899917
 21
4.030830397631202
 31
0.0
  0
LINE
  5
7B6
330
1F
100
AcDbEntity
  8
4
100
AcDbLine
 10
10.78016829899918
 20
4.030830397631202
 30
0.0
 11
10.79891829899918
 21
4.068330397631202
 31
0.0
  0
LINE
  5
7B7
330
1F
100
AcDbEntity
  8
4
100
AcDbLine
 10
11.03016829899918
 20
4.030830397631202
 30
0.0
 11
11.04891829899917
 21
4.068330397631202
 31
0.0
  0
LINE
  5
7B8
330
1F
100
AcDbEntity
  8
4
100
AcDbLine
 10
11.04891829899917
 20
4.068330397631202
 30
0.0
 11
11.06766829899918
 21
4.030830397631202
 31
0.0
  0
LINE
  5
7B9
330
1F
100
AcDbEntity
  8
4
100
AcDbLine
 10
11.03016829899918
 20
4.030830397631202
 30
0.0
 11
11.04891829899917
 21
3.993330397631202
 31
0.0
  0
LINE
  5
7BA
330
1F
100
AcDbEntity
  8
4
100
AcDbLine
 10
11.04891829899917
 20
3.993330397631202
 30
0.0
 11
11.06766829899918
 21
4.030830397631202
 31
0.0
  0
LINE
  5
7BB
330
1F
100
AcDbEntity
  8
4
100
AcDbLine
 10
11.07391829899918
 20
3.935330397631203
 30
0.0
 11
11.09266829899918
 21
3.972830397631202
 31
0.0
  0
LINE
  5
7BC
330
1F
100
AcDbEntity
  8
4
100
AcDbLine
 10
11.05516829899918
 20
3.972830397631202
 30
0.0
 11
11.07391829899918
 21
3.935330397631203
 31
0.0
  0
LINE
  5
7BD
330
1F
100
AcDbEntity
  8
4
100
AcDbLine
 10
11.07391829899918
 20
4.010330397631202
 30
0.0
 11
11.09266829899918
 21
3.972830397631202
 31
0.0
  0
LINE
  5
7BE
330
1F
100
AcDbEntity
  8
4
100
AcDbLine
 10
11.05516829899918
 20
3.972830397631202
 30
0.0
 11
11.07391829899918
 21
4.010330397631202
 31
0.0
  0
LINE
  5
7C9
330
1F
100
AcDbEntity
  8
2
100
AcDbLine
 10
10.82391829899918
 20
3.935330397631203
 30
0.0
 11
11.07391829899918
 21
3.935330397631203
 31
0.0
  0
LINE
  5
813
330
1F
100
AcDbEntity
  8
4
100
AcDbLine
 10
10.78016829899918
 20
6.460336150383651
 30
0.0
 11
10.79891829899918
 21
6.49783615038365
 31
0.0
  0
LINE
  5
814
330
1F
100
AcDbEntity
  8
4
100
AcDbLine
 10
10.79891829899918
 20
6.49783615038365
 30
0.0
 11
10.81766829899917
 21
6.460336150383651
 31
0.0
  0
LINE
  5
815
330
1F
100
AcDbEntity
  8
4
100
AcDbLine
 10
10.78016829899918
 20
6.460336150383651
 30
0.0
 11
10.79891829899918
 21
6.422836150383651
 31
0.0
  0
LINE
  5
816
330
1F
100
AcDbEntity
  8
4
100
AcDbLine
 10
10.79891829899918
 20
6.422836150383651
 30
0.0
 11
10.81766829899917
 21
6.460336150383651
 31
0.0
  0
LINE
  5
817
330
1F
100
AcDbEntity
  8
4
100
AcDbLine
 10
10.82391829899918
 20
6.364836150383651
 30
0.0
 11
10.84266829899918
 21
6.402336150383651
 31
0.0
  0
LINE
  5
818
330
1F
100
AcDbEntity
  8
4
100
AcDbLine
 10
10.80516829899917
 20
6.402336150383651
 30
0.0
 11
10.82391829899918
 21
6.364836150383651
 31
0.0
  0
LINE
  5
819
330
1F
100
AcDbEntity
  8
4
100
AcDbLine
 10
10.82391829899918
 20
6.43983615038365
 30
0.0
 11
10.84266829899918
 21
6.402336150383651
 31
0.0
  0
LINE
  5
81A
330
1F
100
AcDbEntity
  8
4
100
AcDbLine
 10
10.80516829899917
 20
6.402336150383651
 30
0.0
 11
10.82391829899918
 21
6.43983615038365
 31
0.0
  0
LINE
  5
82B
330
1F
100
AcDbEntity
  8
4
100
AcDbLine
 10
11.05516829899918
 20
6.402336150383651
 30
0.0
 11
11.07391829899918
 21
6.43983615038365
 31
0.0
  0
LINE
  5
82C
330
1F
100
AcDbEntity
  8
4
100
AcDbLine
 10
11.07391829899918
 20
6.43983615038365
 30
0.0
 11
11.09266829899918
 21
6.402336150383651
 31
0.0
  0
LINE
  5
82D
330
1F
100
AcDbEntity
  8
4
100
AcDbLine
 10
11.05516829899918
 20
6.402336150383651
 30
0.0
 11
11.07391829899918
 21
6.364836150383651
 31
0.0
  0
LINE
  5
82E
330
1F
100
AcDbEntity
  8
4
100
AcDbLine
 10
11.07391829899918
 20
6.364836150383651
 30
0.0
 11
11.09266829899918
 21
6.402336150383651
 31
0.0
  0
LINE
  5
82F
330
1F
100
AcDbEntity
  8
4
100
AcDbLine
 10
11.04891829899917
 20
6.422836150383651
 30
0.0
 11
11.06766829899918
 21
6.460336150383651
 31
0.0
  0
LINE
  5
830
330
1F
100
AcDbEntity
  8
4
100
AcDbLine
 10
11.03016829899918
 20
6.460336150383651
 30
0.0
 11
11.04891829899917
 21
6.422836150383651
 31
0.0
  0
LINE
  5
831
330
1F
100
AcDbEntity
  8
4
100
AcDbLine
 10
11.04891829899917
 20
6.49783615038365
 30
0.0
 11
11.06766829899918
 21
6.460336150383651
 31
0.0
  0
LINE
  5
832
330
1F
100
AcDbEntity
  8
4
100
AcDbLine
 10
11.03016829899918
 20
6.460336150383651
 30
0.0
 11
11.04891829899917
 21
6.49783615038365
 31
0.0
  0
LINE
  5
833
330
1F
100
AcDbEntity
  8
2
100
AcDbLine
 10
11.09266829899918
 20
6.402336150383651
 30
0.0
 11
11.09266829899918
 21
6.157911542356223
 31
0.0
  0
LINE
  5
834
330
1F
100
AcDbEntity
  8
2
  6
HIDDEN
 48
0.75
100
AcDbLine
 10
10.78016829899918
 20
6.460336150383651
 30
0.0
 11
10.78016829899918
 21
4.030830397631202
 31
0.0
  0
LINE
  5
836
330
1F
100
AcDbEntity
  8
2
100
AcDbLine
 10
10.79891829899918
 20
6.49783615038365
 30
0.0
 11
11.04891829899917
 21
6.49783615038365
 31
0.0
  0
LINE
  5
837
330
1F
100
AcDbEntity
  8
1
100
AcDbLine
 10
10.6667327958283
 20
3.683323520578298
 30
0.0
 11
10.6667327958283
 21
6.683323520578298
 31
0.0
  0
LINE
  5
838
330
1F
100
AcDbEntity
  8
4
100
AcDbLine
 10
8.896168298999178
 20
6.460336150383651
 30
0.0
 11
8.914918298999177
 21
6.49783615038365
 31
0.0
  0
LINE
  5
839
330
1F
100
AcDbEntity
  8
4
100
AcDbLine
 10
8.914918298999177
 20
6.49783615038365
 30
0.0
 11
8.933668298999176
 21
6.460336150383651
 31
0.0
  0
LINE
  5
83A
330
1F
100
AcDbEntity
  8
4
100
AcDbLine
 10
8.896168298999178
 20
6.460336150383651
 30
0.0
 11
8.914918298999177
 21
6.422836150383651
 31
0.0
  0
LINE
  5
83B
330
1F
100
AcDbEntity
  8
4
100
AcDbLine
 10
8.914918298999177
 20
6.422836150383651
 30
0.0
 11
8.933668298999176
 21
6.460336150383651
 31
0.0
  0
LINE
  5
83C
330
1F
100
AcDbEntity
  8
4
100
AcDbLine
 10
8.939918298999177
 20
6.364836150383651
 30
0.0
 11
8.958668298999178
 21
6.402336150383651
 31
0.0
  0
LINE
  5
83D
330
1F
100
AcDbEntity
  8
4
100
AcDbLine
 10
8.921168298999177
 20
6.402336150383651
 30
0.0
 11
8.939918298999177
 21
6.364836150383651
 31
0.0
  0
LINE
  5
83E
330
1F
100
AcDbEntity
  8
4
100
AcDbLine
 10
8.939918298999177
 20
6.43983615038365
 30
0.0
 11
8.958668298999178
 21
6.402336150383651
 31
0.0
  0
LINE
  5
83F
330
1F
100
AcDbEntity
  8
4
100
AcDbLine
 10
8.921168298999177
 20
6.402336150383651
 30
0.0
 11
8.939918298999177
 21
6.43983615038365
 31
0.0
  0
LINE
  5
850
330
1F
100
AcDbEntity
  8
4
100
AcDbLine
 10
9.171168298999177
 20
6.402336150383651
 30
0.0
 11
9.189918298999177
 21
6.43983615038365
 31
0.0
  0
LINE
  5
851
330
1F
100
AcDbEntity
  8
4
100
AcDbLine
 10
9.189918298999177
 20
6.43983615038365
 30
0.0
 11
9.208668298999178
 21
6.402336150383651
 31
0.0
  0
LINE
  5
852
330
1F
100
AcDbEntity
  8
4
100
AcDbLine
 10
9.171168298999177
 20
6.402336150383651
 30
0.0
 11
9.189918298999177
 21
6.364836150383651
 31
0.0
  0
LINE
  5
853
330
1F
100
AcDbEntity
  8
4
100
AcDbLine
 10
9.189918298999177
 20
6.364836150383651
 30
0.0
 11
9.208668298999178
 21
6.402336150383651
 31
0.0
  0
LINE
  5
854
330
1F
100
AcDbEntity
  8
4
100
AcDbLine
 10
9.164918298999177
 20
6.422836150383651
 30
0.0
 11
9.183668298999176
 21
6.460336150383651
 31
0.0
  0
LINE
  5
855
330
1F
100
AcDbEntity
  8
4
100
AcDbLine
 10
9.146168298999178
 20
6.460336150383651
 30
0.0
 11
9.164918298999177
 21
6.422836150383651
 31
0.0
  0
LINE
  5
856
330
1F
100
AcDbEntity
  8
4
100
AcDbLine
 10
9.164918298999177
 20
6.49783615038365
 30
0.0
 11
9.183668298999176
 21
6.460336150383651
 31
0.0
  0
LINE
  5
857
330
1F
100
AcDbEntity
  8
4
100
AcDbLine
 10
9.146168298999178
 20
6.460336150383651
 30
0.0
 11
9.164918298999177
 21
6.49783615038365
 31
0.0
  0
LINE
  5
85B
330
1F
100
AcDbEntity
  8
2
100
AcDbLine
 10
8.914918298999179
 20
6.49783615038365
 30
0.0
 11
9.164918298999177
 21
6.49783615038365
 31
0.0
  0
LINE
  5
85C
330
1F
100
AcDbEntity
  8
2
  6
HIDDEN
 48
0.75
100
AcDbLine
 10
8.896168298999178
 20
6.460336150383651
 30
0.0
 11
8.896168298999178
 21
4.031169385245926
 31
0.0
  0
LINE
  5
85E
330
1F
100
AcDbEntity
  8
2
  6
HIDDEN
 48
0.75
100
AcDbLine
 10
9.208668298999178
 20
6.402336150383651
 30
0.0
 11
9.208668298999178
 21
3.973169385245927
 31
0.0
  0
LINE
  5
867
330
1F
100
AcDbEntity
  8
4
100
AcDbLine
 10
10.23116829899917
 20
3.973169385245927
 30
0.0
 11
10.24991829899917
 21
4.010669385245926
 31
0.0
  0
LINE
  5
868
330
1F
100
AcDbEntity
  8
4
100
AcDbLine
 10
10.24991829899917
 20
4.010669385245926
 30
0.0
 11
10.26866829899917
 21
3.973169385245927
 31
0.0
  0
LINE
  5
869
330
1F
100
AcDbEntity
  8
4
100
AcDbLine
 10
10.23116829899917
 20
3.973169385245927
 30
0.0
 11
10.24991829899917
 21
3.935669385245927
 31
0.0
  0
LINE
  5
86A
330
1F
100
AcDbEntity
  8
4
100
AcDbLine
 10
10.24991829899917
 20
3.935669385245927
 30
0.0
 11
10.26866829899917
 21
3.973169385245927
 31
0.0
  0
LINE
  5
86B
330
1F
100
AcDbEntity
  8
4
100
AcDbLine
 10
10.22491829899917
 20
3.993669385245927
 30
0.0
 11
10.24366829899917
 21
4.031169385245926
 31
0.0
  0
LINE
  5
86C
330
1F
100
AcDbEntity
  8
4
100
AcDbLine
 10
10.20616829899918
 20
4.031169385245926
 30
0.0
 11
10.22491829899917
 21
3.993669385245927
 31
0.0
  0
LINE
  5
86D
330
1F
100
AcDbEntity
  8
4
100
AcDbLine
 10
10.22491829899917
 20
4.068669385245926
 30
0.0
 11
10.24366829899917
 21
4.031169385245926
 31
0.0
  0
LINE
  5
86E
330
1F
100
AcDbEntity
  8
4
100
AcDbLine
 10
10.20616829899918
 20
4.031169385245926
 30
0.0
 11
10.22491829899917
 21
4.068669385245926
 31
0.0
  0
LINE
  5
86F
330
1F
100
AcDbEntity
  8
4
100
AcDbLine
 10
10.45616829899917
 20
4.031169385245926
 30
0.0
 11
10.47491829899917
 21
4.068669385245926
 31
0.0
  0
LINE
  5
870
330
1F
100
AcDbEntity
  8
4
100
AcDbLine
 10
10.47491829899917
 20
4.068669385245926
 30
0.0
 11
10.49366829899917
 21
4.031169385245926
 31
0.0
  0
LINE
  5
871
330
1F
100
AcDbEntity
  8
4
100
AcDbLine
 10
10.45616829899917
 20
4.031169385245926
 30
0.0
 11
10.47491829899917
 21
3.993669385245927
 31
0.0
  0
LINE
  5
872
330
1F
100
AcDbEntity
  8
4
100
AcDbLine
 10
10.47491829899917
 20
3.993669385245927
 30
0.0
 11
10.49366829899917
 21
4.031169385245926
 31
0.0
  0
LINE
  5
873
330
1F
100
AcDbEntity
  8
4
100
AcDbLine
 10
10.49991829899918
 20
3.935669385245927
 30
0.0
 11
10.51866829899918
 21
3.973169385245927
 31
0.0
  0
LINE
  5
874
330
1F
100
AcDbEntity
  8
4
100
AcDbLine
 10
10.48116829899917
 20
3.973169385245927
 30
0.0
 11
10.49991829899918
 21
3.935669385245927
 31
0.0
  0
LINE
  5
875
330
1F
100
AcDbEntity
  8
4
100
AcDbLine
 10
10.49991829899918
 20
4.010669385245926
 30
0.0
 11
10.51866829899918
 21
3.973169385245927
 31
0.0
  0
LINE
  5
876
330
1F
100
AcDbEntity
  8
4
100
AcDbLine
 10
10.48116829899917
 20
3.973169385245927
 30
0.0
 11
10.49991829899918
 21
4.010669385245926
 31
0.0
  0
LINE
  5
881
330
1F
100
AcDbEntity
  8
2
100
AcDbLine
 10
10.24991829899917
 20
3.935669385245927
 30
0.0
 11
10.49991829899918
 21
3.935669385245927
 31
0.0
  0
LINE
  5
883
330
1F
100
AcDbEntity
  8
4
100
AcDbLine
 10
10.20616829899918
 20
6.460336150383651
 30
0.0
 11
10.22491829899917
 21
6.49783615038365
 31
0.0
  0
LINE
  5
884
330
1F
100
AcDbEntity
  8
4
100
AcDbLine
 10
10.22491829899917
 20
6.49783615038365
 30
0.0
 11
10.24366829899917
 21
6.460336150383651
 31
0.0
  0
LINE
  5
885
330
1F
100
AcDbEntity
  8
4
100
AcDbLine
 10
10.20616829899918
 20
6.460336150383651
 30
0.0
 11
10.22491829899917
 21
6.422836150383651
 31
0.0
  0
LINE
  5
886
330
1F
100
AcDbEntity
  8
4
100
AcDbLine
 10
10.22491829899917
 20
6.422836150383651
 30
0.0
 11
10.24366829899917
 21
6.460336150383651
 31
0.0
  0
LINE
  5
887
330
1F
100
AcDbEntity
  8
4
100
AcDbLine
 10
10.24991829899917
 20
6.364836150383651
 30
0.0
 11
10.26866829899917
 21
6.402336150383651
 31
0.0
  0
LINE
  5
888
330
1F
100
AcDbEntity
  8
4
100
AcDbLine
 10
10.23116829899917
 20
6.402336150383651
 30
0.0
 11
10.24991829899917
 21
6.364836150383651
 31
0.0
  0
LINE
  5
889
330
1F
100
AcDbEntity
  8
4
100
AcDbLine
 10
10.24991829899917
 20
6.43983615038365
 30
0.0
 11
10.26866829899917
 21
6.402336150383651
 31
0.0
  0
LINE
  5
88A
330
1F
100
AcDbEntity
  8
4
100
AcDbLine
 10
10.23116829899917
 20
6.402336150383651
 30
0.0
 11
10.24991829899917
 21
6.43983615038365
 31
0.0
  0
LINE
  5
89B
330
1F
100
AcDbEntity
  8
4
100
AcDbLine
 10
10.48116829899917
 20
6.402336150383651
 30
0.0
 11
10.49991829899918
 21
6.43983615038365
 31
0.0
  0
LINE
  5
89C
330
1F
100
AcDbEntity
  8
4
100
AcDbLine
 10
10.49991829899918
 20
6.43983615038365
 30
0.0
 11
10.51866829899918
 21
6.402336150383651
 31
0.0
  0
LINE
  5
89D
330
1F
100
AcDbEntity
  8
4
100
AcDbLine
 10
10.48116829899917
 20
6.402336150383651
 30
0.0
 11
10.49991829899918
 21
6.364836150383651
 31
0.0
  0
LINE
  5
89E
330
1F
100
AcDbEntity
  8
4
100
AcDbLine
 10
10.49991829899918
 20
6.364836150383651
 30
0.0
 11
10.51866829899918
 21
6.402336150383651
 31
0.0
  0
LINE
  5
89F
330
1F
100
AcDbEntity
  8
4
100
AcDbLine
 10
10.47491829899917
 20
6.422836150383651
 30
0.0
 11
10.49366829899917
 21
6.460336150383651
 31
0.0
  0
LINE
  5
8A0
330
1F
100
AcDbEntity
  8
4
100
AcDbLine
 10
10.45616829899917
 20
6.460336150383651
 30
0.0
 11
10.47491829899917
 21
6.422836150383651
 31
0.0
  0
LINE
  5
8A1
330
1F
100
AcDbEntity
  8
4
100
AcDbLine
 10
10.47491829899917
 20
6.49783615038365
 30
0.0
 11
10.49366829899917
 21
6.460336150383651
 31
0.0
  0
LINE
  5
8A2
330
1F
100
AcDbEntity
  8
4
100
AcDbLine
 10
10.45616829899917
 20
6.460336150383651
 30
0.0
 11
10.47491829899917
 21
6.49783615038365
 31
0.0
  0
LINE
  5
8A3
330
1F
100
AcDbEntity
  8
2
  6
HIDDEN
 48
0.75
100
AcDbLine
 10
10.51866829899918
 20
6.402336150383651
 30
0.0
 11
10.51866829899918
 21
3.973169385245927
 31
0.0
  0
LINE
  5
8A4
330
1F
100
AcDbEntity
  8
2
  6
HIDDEN
 48
0.75
100
AcDbLine
 10
10.20616829899918
 20
6.460336150383651
 30
0.0
 11
10.20616829899918
 21
4.031169385245926
 31
0.0
  0
LINE
  5
8A6
330
1F
100
AcDbEntity
  8
2
100
AcDbLine
 10
10.22491829899918
 20
6.49783615038365
 30
0.0
 11
10.47491829899917
 21
6.49783615038365
 31
0.0
  0
LINE
  5
8A7
330
1F
100
AcDbEntity
  8
2
  6
HIDDEN
 48
0.75
100
AcDbLine
 10
11.09266829899918
 20
6.402336150383651
 30
0.0
 11
11.09266829899918
 21
3.972830397631202
 31
0.0
  0
ENDSEC
  0
SECTION
  2
OBJECTS
  0
DICTIONARY
  5
C
330
0
100
AcDbDictionary
281
     1
  3
ACAD_COLOR
350
421
  3
ACAD_GROUP
350
D
  3
ACAD_LAYOUT
350
1A
  3
ACAD_MATERIAL
350
420
  3
ACAD_MLINESTYLE
350
17
  3
ACAD_PLOTSETTINGS
350
19
  3
ACAD_PLOTSTYLENAME
350
E
  3
ACDBHEADERROUNDTRIPXREC
350
916
  3
AcDbVariableDictionary
350
42F
  3
DWGPROPS
350
915
  0
DICTIONARY
  5
421
102
{ACAD_REACTORS
330
C
102
}
330
C
100
AcDbDictionary
281
     1
  0
DICTIONARY
  5
D
102
{ACAD_REACTORS
330
C
102
}
330
C
100
AcDbDictionary
281
     1
  0
DICTIONARY
  5
1A
102
{ACAD_REACTORS
330
C
102
}
330
C
100
AcDbDictionary
281
     1
  3
Layout1
350
59
  3
Layout2
350
5E
  3
Model
350
22
  0
DICTIONARY
  5
420
102
{ACAD_REACTORS
330
C
102
}
330
C
100
AcDbDictionary
281
     1
  0
DICTIONARY
  5
17
102
{ACAD_REACTORS
330
C
102
}
330
C
100
AcDbDictionary
281
     1
  3
Standard
350
18
  0
DICTIONARY
  5
19
102
{ACAD_REACTORS
330
C
102
}
330
C
100
AcDbDictionary
281
     1
  0
ACDBDICTIONARYWDFLT
  5
E
102
{ACAD_REACTORS
330
C
102
}
330
C
100
AcDbDictionary
281
     1
  3
Normal
350
F
100
AcDbDictionaryWithDefault
340
F
  0
DICTIONARY
  5
916
102
{ACAD_REACTORS
330
C
102
}
330
C
100
AcDbDictionary
281
     1
  3
COLORDICT
350
918
  3
MATERIALDICT
350
917
  0
DICTIONARY
  5
42F
102
{ACAD_REACTORS
330
C
102
}
330
C
100
AcDbDictionary
281
     1
  3
DIMASSOC
350
430
  3
PROJECTNAME
350
431
  0
XRECORD
  5
915
102
{ACAD_REACTORS
330
C
102
}
330
C
100
AcDbXrecord
280
     1
  1
DWGPROPS COOKIE
  2

  3

  4

  6

  7

  8
dbabbo
  9

300
=
301
=
302
=
303
=
304
=
305
=
306
=
307
=
308
=
309
=
 40
0.1897762615740741
 41
2452635.553931968
 42
2454728.614729271
  1

 90
        0
  0
LAYOUT
  5
59
102
{ACAD_XDICTIONARY
360
91B
102
}
102
{ACAD_REACTORS
330
1A
102
}
330
1A
100
AcDbPlotSettings
  1

  2
None
  4

  6

 40
0.0
 41
0.0
 42
0.0
 43
0.0
 44
0.0
 45
0.0
 46
0.0
 47
0.0
 48
0.0
 49
0.0
140
0.0
141
0.0
142
1.0
143
1.0
 70
   688
 72
     0
 73
     0
 74
     5
  7
monochrome.ctb
 75
    16
147
1.0
148
0.0
149
0.0
100
AcDbLayout
  1
Layout1
 70
     1
 71
     1
 10
0.0
 20
0.0
 11
12.0
 21
9.0
 12
0.0
 22
0.0
 32
0.0
 14
0.0
 24
0.0
 34
0.0
 15
0.0
 25
0.0
 35
0.0
146
0.0
 13
0.0
 23
0.0
 33
0.0
 16
1.0
 26
0.0
 36
0.0
 17
0.0
 27
1.0
 37
0.0
 76
     0
330
58
  0
LAYOUT
  5
5E
102
{ACAD_XDICTIONARY
360
91D
102
}
102
{ACAD_REACTORS
330
1A
102
}
330
1A
100
AcDbPlotSettings
  1

  2
None
  4

  6

 40
0.0
 41
0.0
 42
0.0
 43
0.0
 44
0.0
 45
0.0
 46
0.0
 47
0.0
 48
0.0
 49
0.0
140
0.0
141
0.0
142
1.0
143
1.0
 70
   688
 72
     0
 73
     0
 74
     5
  7
monochrome.ctb
 75
    16
147
1.0
148
0.0
149
0.0
100
AcDbLayout
  1
Layout2
 70
     1
 71
     2
 10
0.0
 20
0.0
 11
12.0
 21
9.0
 12
0.0
 22
0.0
 32
0.0
 14
0.0
 24
0.0
 34
0.0
 15
0.0
 25
0.0
 35
0.0
146
0.0
 13
0.0
 23
0.0
 33
0.0
 16
1.0
 26
0.0
 36
0.0
 17
0.0
 27
1.0
 37
0.0
 76
     0
330
5D
  0
LAYOUT
  5
22
102
{ACAD_XDICTIONARY
360
919
102
}
102
{ACAD_REACTORS
330
1A
102
}
330
1A
100
AcDbPlotSettings
  1

  2
\\EXCHANGE01\LaserJet 5000 (eng)
  4
Letter
  6

 40
4.233333110809326
 41
4.233341693878173
 42
8.466659545898437
 43
4.23333740234375
 44
215.8999938964844
 45
279.3999938964844
 46
18.288
 47
4.571999999999999
 48
0.0
 49
0.0
140
0.0
141
0.0
142
1.0
143
0.8
 70
 11940
 72
     0
 73
     1
 74
     1
  7
monochrome.ctb
 75
     0
147
1.25
148
-92.24088216470656
149
-55.45475523548056
100
AcDbLayout
  1
Model
 70
     1
 71
     0
 10
0.0
 20
0.0
 11
12.0
 21
9.0
 12
0.0
 22
0.0
 32
0.0
 14
0.0
 24
0.0
 34
0.0
 15
0.0
 25
0.0
 35
0.0
146
0.0
 13
0.0
 23
0.0
 33
0.0
 16
1.0
 26
0.0
 36
0.0
 17
0.0
 27
1.0
 37
0.0
 76
     0
330
1F
  0
MLINESTYLE
  5
18
102
{ACAD_REACTORS
330
17
102
}
330
17
100
AcDbMlineStyle
  2
STANDARD
 70
     0
  3

 62
   256
 51
90.0
 52
90.0
 71
     2
 49
0.5
 62
   256
  6
BYLAYER
 49
-0.5
 62
   256
  6
BYLAYER
  0
ACDBPLACEHOLDER
  5
F
102
{ACAD_REACTORS
330
E
102
}
330
E
  0
XRECORD
  5
918
102
{ACAD_REACTORS
330
916
102
}
330
916
100
AcDbXrecord
280
     1
340
421
  0
XRECORD
  5
917
102
{ACAD_REACTORS
330
916
102
}
330
916
100
AcDbXrecord
280
     1
340
420
  0
DICTIONARYVAR
  5
430
102
{ACAD_REACTORS
330
42F
102
}
330
42F
100
DictionaryVariables
280
     0
  1
1
  0
DICTIONARYVAR
  5
431
102
{ACAD_REACTORS
330
42F
102
}
330
42F
100
DictionaryVariables
280
     0
  1

  0
DICTIONARY
  5
91B
330
59
100
AcDbDictionary
280
     1
281
     1
  3
ACAD_XREC_ROUNDTRIP
360
91C
  0
DICTIONARY
  5
91D
330
5E
100
AcDbDictionary
280
     1
281
     1
  3
ACAD_XREC_ROUNDTRIP
360
91E
  0
DICTIONARY
  5
919
330
22
100
AcDbDictionary
280
     1
281
     1
  3
ACAD_XREC_ROUNDTRIP
360
91A
  0
XRECORD
  5
91C
102
{ACAD_REACTORS
330
91B
102
}
330
91B
100
AcDbXrecord
280
     1
102
SHADEPLOT
 70
     0
102
SHADEPLOTRESLEVEL
 70
     2
102
SHADEPLOTCUSTOMDPI
 70
   300
  0
XRECORD
  5
91E
102
{ACAD_REACTORS
330
91D
102
}
330
91D
100
AcDbXrecord
280
     1
102
SHADEPLOT
 70
     0
102
SHADEPLOTRESLEVEL
 70
     2
102
SHADEPLOTCUSTOMDPI
 70
   300
  0
XRECORD
  5
91A
102
{ACAD_REACTORS
330
919
102
}
330
919
100
AcDbXrecord
280
     1
102
SHADEPLOT
 70
     0
102
SHADEPLOTRESLEVEL
 70
     2
102
SHADEPLOTCUSTOMDPI
 70
   300
  0
ENDSEC
  0
EOF
