  0
SECTION
  2
HEADER
  9
$ACADVER
  1
AC1015
  9
$ACADMAINTVER
 70
    20
  9
$DWGCODEPAGE
  3
ANSI_1252
  9
$INSBASE
 10
0.0
 20
0.0
 30
0.0
  9
$EXTMIN
 10
1.744628936220692
 20
1.691619895970937
 30
-0.0000000000000058
  9
$EXTMAX
 10
9.99536135373097
 20
6.942398089848456
 30
0.0000000000000104
  9
$LIMMIN
 10
0.0
 20
0.0
  9
$LIMMAX
 10
12.0
 20
9.0
  9
$ORTHOMODE
 70
     1
  9
$REGENMODE
 70
     1
  9
$FILLMODE
 70
     1
  9
$QTEXTMODE
 70
     0
  9
$MIRRTEXT
 70
     1
  9
$LTSCALE
 40
1.0
  9
$ATTMODE
 70
     1
  9
$TEXTSIZE
 40
0.2
  9
$TRACEWID
 40
0.05
  9
$TEXTSTYLE
  7
Standard
  9
$CLAYER
  8
0
  9
$CELTYPE
  6
ByLayer
  9
$CECOLOR
 62
   256
  9
$CELTSCALE
 40
1.0
  9
$DISPSILH
 70
     0
  9
$DIMSCALE
 40
1.0
  9
$DIMASZ
 40
0.18
  9
$DIMEXO
 40
0.0625
  9
$DIMDLI
 40
0.38
  9
$DIMRND
 40
0.0
  9
$DIMDLE
 40
0.0
  9
$DIMEXE
 40
0.18
  9
$DIMTP
 40
0.0
  9
$DIMTM
 40
0.0
  9
$DIMTXT
 40
0.18
  9
$DIMCEN
 40
0.09
  9
$DIMTSZ
 40
0.0
  9
$DIMTOL
 70
     0
  9
$DIMLIM
 70
     0
  9
$DIMTIH
 70
     1
  9
$DIMTOH
 70
     1
  9
$DIMSE1
 70
     0
  9
$DIMSE2
 70
     0
  9
$DIMTAD
 70
     0
  9
$DIMZIN
 70
     0
  9
$DIMBLK
  1

  9
$DIMASO
 70
     1
  9
$DIMSHO
 70
     1
  9
$DIMPOST
  1

  9
$DIMAPOST
  1

  9
$DIMALT
 70
     0
  9
$DIMALTD
 70
     2
  9
$DIMALTF
 40
25.4
  9
$DIMLFAC
 40
1.0
  9
$DIMTOFL
 70
     0
  9
$DIMTVP
 40
0.0
  9
$DIMTIX
 70
     0
  9
$DIMSOXD
 70
     0
  9
$DIMSAH
 70
     0
  9
$DIMBLK1
  1

  9
$DIMBLK2
  1

  9
$DIMSTYLE
  2
Standard
  9
$DIMCLRD
 70
     0
  9
$DIMCLRE
 70
     0
  9
$DIMCLRT
 70
     0
  9
$DIMTFAC
 40
1.0
  9
$DIMGAP
 40
0.09
  9
$DIMJUST
 70
     0
  9
$DIMSD1
 70
     0
  9
$DIMSD2
 70
     0
  9
$DIMTOLJ
 70
     1
  9
$DIMTZIN
 70
     0
  9
$DIMALTZ
 70
     0
  9
$DIMALTTZ
 70
     0
  9
$DIMUPT
 70
     0
  9
$DIMDEC
 70
     4
  9
$DIMTDEC
 70
     4
  9
$DIMALTU
 70
     2
  9
$DIMALTTD
 70
     2
  9
$DIMTXSTY
  7
Standard
  9
$DIMAUNIT
 70
     0
  9
$DIMADEC
 70
     0
  9
$DIMALTRND
 40
0.0
  9
$DIMAZIN
 70
     0
  9
$DIMDSEP
 70
    46
  9
$DIMATFIT
 70
     3
  9
$DIMFRAC
 70
     0
  9
$DIMLDRBLK
  1

  9
$DIMLUNIT
 70
     2
  9
$DIMLWD
 70
    -2
  9
$DIMLWE
 70
    -2
  9
$DIMTMOVE
 70
     0
  9
$LUNITS
 70
     2
  9
$LUPREC
 70
     4
  9
$SKETCHINC
 40
0.1
  9
$FILLETRAD
 40
0.5
  9
$AUNITS
 70
     0
  9
$AUPREC
 70
     0
  9
$MENU
  1
.
  9
$ELEVATION
 40
0.0
  9
$PELEVATION
 40
0.0
  9
$THICKNESS
 40
0.0
  9
$LIMCHECK
 70
     0
  9
$CHAMFERA
 40
0.5
  9
$CHAMFERB
 40
0.5
  9
$CHAMFERC
 40
1.0
  9
$CHAMFERD
 40
0.0
  9
$SKPOLY
 70
     0
  9
$TDCREATE
 40
2452632.731050579
  9
$TDUCREATE
 40
2452632.939383912
  9
$TDUPDATE
 40
2454728.618497535
  9
$TDUUPDATE
 40
2454728.826830868
  9
$TDINDWG
 40
0.2457439931
  9
$TDUSRTIMER
 40
0.2457439931
  9
$USRTIMER
 70
     1
  9
$ANGBASE
 50
0.0
  9
$ANGDIR
 70
     0
  9
$PDMODE
 70
     0
  9
$PDSIZE
 40
0.0
  9
$PLINEWID
 40
0.0
  9
$SPLFRAME
 70
     0
  9
$SPLINETYPE
 70
     6
  9
$SPLINESEGS
 70
     8
  9
$HANDSEED
  5
AA9
  9
$SURFTAB1
 70
     6
  9
$SURFTAB2
 70
     6
  9
$SURFTYPE
 70
     6
  9
$SURFU
 70
     6
  9
$SURFV
 70
     6
  9
$UCSBASE
  2

  9
$UCSNAME
  2

  9
$UCSORG
 10
0.0
 20
0.0
 30
0.0
  9
$UCSXDIR
 10
1.0
 20
0.0
 30
0.0
  9
$UCSYDIR
 10
0.0
 20
1.0
 30
0.0
  9
$UCSORTHOREF
  2

  9
$UCSORTHOVIEW
 70
     0
  9
$UCSORGTOP
 10
0.0
 20
0.0
 30
0.0
  9
$UCSORGBOTTOM
 10
0.0
 20
0.0
 30
0.0
  9
$UCSORGLEFT
 10
0.0
 20
0.0
 30
0.0
  9
$UCSORGRIGHT
 10
0.0
 20
0.0
 30
0.0
  9
$UCSORGFRONT
 10
0.0
 20
0.0
 30
0.0
  9
$UCSORGBACK
 10
0.0
 20
0.0
 30
0.0
  9
$PUCSBASE
  2

  9
$PUCSNAME
  2

  9
$PUCSORG
 10
0.0
 20
0.0
 30
0.0
  9
$PUCSXDIR
 10
1.0
 20
0.0
 30
0.0
  9
$PUCSYDIR
 10
0.0
 20
1.0
 30
0.0
  9
$PUCSORTHOREF
  2

  9
$PUCSORTHOVIEW
 70
     0
  9
$PUCSORGTOP
 10
0.0
 20
0.0
 30
0.0
  9
$PUCSORGBOTTOM
 10
0.0
 20
0.0
 30
0.0
  9
$PUCSORGLEFT
 10
0.0
 20
0.0
 30
0.0
  9
$PUCSORGRIGHT
 10
0.0
 20
0.0
 30
0.0
  9
$PUCSORGFRONT
 10
0.0
 20
0.0
 30
0.0
  9
$PUCSORGBACK
 10
0.0
 20
0.0
 30
0.0
  9
$USERI1
 70
     0
  9
$USERI2
 70
     0
  9
$USERI3
 70
     0
  9
$USERI4
 70
     0
  9
$USERI5
 70
     0
  9
$USERR1
 40
0.0
  9
$USERR2
 40
0.0
  9
$USERR3
 40
0.0
  9
$USERR4
 40
0.0
  9
$USERR5
 40
0.0
  9
$WORLDVIEW
 70
     1
  9
$SHADEDGE
 70
     3
  9
$SHADEDIF
 70
    70
  9
$TILEMODE
 70
     1
  9
$MAXACTVP
 70
    64
  9
$PINSBASE
 10
0.0
 20
0.0
 30
0.0
  9
$PLIMCHECK
 70
     0
  9
$PEXTMIN
 10
0.3173218056528384
 20
0.1892395231281867
 30
-0.0015258207003583
  9
$PEXTMAX
 10
10.32678225255429
 20
7.646896381684225
 30
0.0000000349246037
  9
$PLIMMIN
 10
-0.2500002402958907
 20
-0.2499999962453767
  9
$PLIMMAX
 10
10.74999951940821
 20
8.249999763458731
  9
$UNITMODE
 70
     0
  9
$VISRETAIN
 70
     1
  9
$PLINEGEN
 70
     0
  9
$PSLTSCALE
 70
     1
  9
$TREEDEPTH
 70
  3020
  9
$CMLSTYLE
  2
Standard
  9
$CMLJUST
 70
     0
  9
$CMLSCALE
 40
1.0
  9
$PROXYGRAPHICS
 70
     1
  9
$MEASUREMENT
 70
     0
  9
$CELWEIGHT
370
    -1
  9
$ENDCAPS
280
     0
  9
$JOINSTYLE
280
     0
  9
$LWDISPLAY
290
     0
  9
$INSUNITS
 70
     1
  9
$HYPERLINKBASE
  1

  9
$STYLESHEET
  1
monochrome.ctb
  9
$XEDIT
290
     1
  9
$CEPSNTYPE
380
     0
  9
$PSTYLEMODE
290
     1
  9
$FINGERPRINTGUID
  2
{CC7F7A22-169A-11D7-8CE2-CBADEC528623}
  9
$VERSIONGUID
  2
{BB90BEB0-56A0-41DC-B844-C9B7A4A31CF6}
  9
$EXTNAMES
290
     1
  9
$PSVPSCALE
 40
1.0
  9
$OLESTARTUP
290
     0
  0
ENDSEC
  0
SECTION
  2
CLASSES
  0
CLASS
  1
ACDBDICTIONARYWDFLT
  2
AcDbDictionaryWithDefault
  3
ObjectDBX Classes
 90
        0
280
     0
281
     0
  0
CLASS
  1
ACDBPLACEHOLDER
  2
AcDbPlaceHolder
  3
ObjectDBX Classes
 90
        0
280
     0
281
     0
  0
CLASS
  1
LAYOUT
  2
AcDbLayout
  3
ObjectDBX Classes
 90
        0
280
     0
281
     0
  0
CLASS
  1
DICTIONARYVAR
  2
AcDbDictionaryVar
  3
ObjectDBX Classes
 90
        0
280
     0
281
     0
  0
ENDSEC
  0
SECTION
  2
TABLES
  0
TABLE
  2
VPORT
  5
8
330
0
100
AcDbSymbolTable
 70
     2
  0
VPORT
  5
A9A
330
8
100
AcDbSymbolTableRecord
100
AcDbViewportTableRecord
  2
*Active
 70
     0
 10
0.0
 20
0.0
 11
1.0
 21
1.0
 12
5.869995144975831
 22
4.317008992909697
 13
0.0
 23
0.0
 14
0.5
 24
0.5
 15
0.5
 25
0.5
 16
0.0
 26
0.0
 36
1.0
 17
0.0
 27
0.0
 37
0.0
 40
5.545189497268501
 41
1.495145631067961
 42
50.0
 43
0.0
 44
0.0
 50
0.0
 51
0.0
 71
     0
 72
   100
 73
     1
 74
     3
 75
     0
 76
     0
 77
     0
 78
     0
281
     0
 65
     1
110
0.0
120
0.0
130
0.0
111
1.0
121
0.0
131
0.0
112
0.0
122
1.0
132
0.0
 79
     0
146
0.0
  0
ENDTAB
  0
TABLE
  2
LTYPE
  5
5
330
0
100
AcDbSymbolTable
 70
     2
  0
LTYPE
  5
14
330
5
100
AcDbSymbolTableRecord
100
AcDbLinetypeTableRecord
  2
ByBlock
 70
     0
  3

 72
    65
 73
     0
 40
0.0
  0
LTYPE
  5
15
330
5
100
AcDbSymbolTableRecord
100
AcDbLinetypeTableRecord
  2
ByLayer
 70
     0
  3

 72
    65
 73
     0
 40
0.0
  0
LTYPE
  5
16
330
5
100
AcDbSymbolTableRecord
100
AcDbLinetypeTableRecord
  2
Continuous
 70
     0
  3
Solid line
 72
    65
 73
     0
 40
0.0
  0
LTYPE
  5
690
330
5
100
AcDbSymbolTableRecord
100
AcDbLinetypeTableRecord
  2
HIDDEN
 70
     0
  3
_ _ _ _ _ _ _ _ _ _ _ _ _ _ _ _ _ _ _ _ _ _ _
 72
    65
 73
     2
 40
0.375
 49
0.25
 74
     0
 49
-0.125
 74
     0
  0
ENDTAB
  0
TABLE
  2
LAYER
  5
2
102
{ACAD_XDICTIONARY
360
A08
102
}
330
0
100
AcDbSymbolTable
 70
     6
  0
LAYER
  5
10
330
2
100
AcDbSymbolTableRecord
100
AcDbLayerTableRecord
  2
0
 70
     0
 62
     7
  6
Continuous
370
    -3
390
F
  0
LAYER
  5
33
330
2
100
AcDbSymbolTableRecord
100
AcDbLayerTableRecord
  2
1
 70
     0
 62
     1
  6
Continuous
370
    -3
390
F
  0
LAYER
  5
34
330
2
100
AcDbSymbolTableRecord
100
AcDbLayerTableRecord
  2
4
 70
     0
 62
     4
  6
Continuous
370
    -3
390
F
  0
LAYER
  5
35
330
2
100
AcDbSymbolTableRecord
100
AcDbLayerTableRecord
  2
8
 70
     0
 62
     2
  6
Continuous
370
    -3
390
F
  0
LAYER
  5
691
330
2
100
AcDbSymbolTableRecord
100
AcDbLayerTableRecord
  2
2
 70
     0
 62
     2
  6
HIDDEN
370
    -3
390
F
  0
LAYER
  5
69E
330
2
100
AcDbSymbolTableRecord
100
AcDbLayerTableRecord
  2
VP-1
 70
     0
 62
    -5
  6
Continuous
370
    -3
390
F
  0
ENDTAB
  0
TABLE
  2
STYLE
  5
3
330
0
100
AcDbSymbolTable
 70
     2
  0
STYLE
  5
11
330
3
100
AcDbSymbolTableRecord
100
AcDbTextStyleTableRecord
  2
Standard
 70
     0
 40
0.0
 41
1.0
 50
0.0
 71
     0
 42
0.2
  3
txt
  4

  0
STYLE
  5
36
330
3
100
AcDbSymbolTableRecord
100
AcDbTextStyleTableRecord
  2
ROMANS
 70
     0
 40
0.0
 41
1.0
 50
0.0
 71
     0
 42
0.07
  3
ROMANS
  4

  0
ENDTAB
  0
TABLE
  2
VIEW
  5
6
330
0
100
AcDbSymbolTable
 70
     0
  0
ENDTAB
  0
TABLE
  2
UCS
  5
7
330
0
100
AcDbSymbolTable
 70
     0
  0
ENDTAB
  0
TABLE
  2
APPID
  5
9
330
0
100
AcDbSymbolTable
 70
     1
  0
APPID
  5
12
330
9
100
AcDbSymbolTableRecord
100
AcDbRegAppTableRecord
  2
ACAD
 70
     0
  0
ENDTAB
  0
TABLE
  2
DIMSTYLE
  5
A
330
0
100
AcDbSymbolTable
 70
     1
100
AcDbDimStyleTable
 71
     0
  0
DIMSTYLE
105
27
330
A
100
AcDbSymbolTableRecord
100
AcDbDimStyleTableRecord
  2
Standard
 70
     0
340
11
  0
ENDTAB
  0
TABLE
  2
BLOCK_RECORD
  5
1
330
0
100
AcDbSymbolTable
 70
    10
  0
BLOCK_RECORD
  5
1F
330
1
100
AcDbSymbolTableRecord
100
AcDbBlockTableRecord
  2
*Model_Space
340
22
  0
BLOCK_RECORD
  5
1B
330
1
100
AcDbSymbolTableRecord
100
AcDbBlockTableRecord
  2
*Paper_Space
340
1E
  0
BLOCK_RECORD
  5
23
330
1
100
AcDbSymbolTableRecord
100
AcDbBlockTableRecord
  2
*Paper_Space0
340
26
  0
BLOCK_RECORD
  5
2B
330
1
100
AcDbSymbolTableRecord
100
AcDbBlockTableRecord
  2
ARRO
340
0
102
{BLKREFS
331
3F
331
A9
331
AA
331
AB
331
AC
331
AD
331
B1
331
B2
331
B6
331
B7
331
53B
331
53C
331
5E4
331
5E7
331
641
331
6B2
331
71C
331
71D
331
71E
331
71F
331
720
331
724
331
725
331
729
331
72A
331
8B4
331
8B5
331
95D
331
960
331
9BA
102
}
  0
BLOCK_RECORD
  5
37
330
1
100
AcDbSymbolTableRecord
100
AcDbBlockTableRecord
  2
LE1006
340
0
  0
BLOCK_RECORD
  5
3D1
330
1
100
AcDbSymbolTableRecord
100
AcDbBlockTableRecord
  2
TEMP3
340
0
102
{BLKREFS
331
404
331
77D
102
}
  0
BLOCK_RECORD
  5
3D6
330
1
100
AcDbSymbolTableRecord
100
AcDbBlockTableRecord
  2
ARRO2
340
0
102
{BLKREFS
331
62E
331
9A7
102
}
  0
BLOCK_RECORD
  5
3E3
330
1
100
AcDbSymbolTableRecord
100
AcDbBlockTableRecord
  2
FRACTION
340
0
102
{BLKREFS
331
5EC
331
63A
331
965
331
9B3
102
}
  0
BLOCK_RECORD
  5
3E9
330
1
100
AcDbSymbolTableRecord
100
AcDbBlockTableRecord
  2
B1
340
0
102
{BLKREFS
331
5D5
331
5D3
331
5D2
331
5D1
331
5CE
331
5CB
331
5E1
331
5DF
331
5DE
331
5DD
331
5DA
331
5D7
331
5F6
331
5FB
331
5F8
331
605
331
603
331
602
331
61C
331
61A
331
619
331
618
331
615
331
611
331
62A
331
628
331
627
331
626
331
623
331
620
331
644
331
651
331
64D
331
66A
331
668
331
667
331
944
331
950
331
971
331
993
331
9A1
331
9BD
102
}
  0
BLOCK_RECORD
  5
3FC
330
1
100
AcDbSymbolTableRecord
100
AcDbBlockTableRecord
  2
SPL2ATHLETICDT72
340
0
310
2800000020000000200000000100080000000000000400000000000000000000000000000000000000000000000080000080000000808000800000008000800080800000C0C0C000C0DCC000F0CAA6000020400000206000002080000020A0000020C0000020E00000400000004020000040400000406000004080000040A0
310
000040C0000040E00000600000006020000060400000606000006080000060A0000060C0000060E00000800000008020000080400000806000008080000080A0000080C0000080E00000A0000000A0200000A0400000A0600000A0800000A0A00000A0C00000A0E00000C0000000C0200000C0400000C0600000C0800000C0
310
A00000C0C00000C0E00000E0000000E0200000E0400000E0600000E0800000E0A00000E0C00000E0E00040000000400020004000400040006000400080004000A0004000C0004000E00040200000402020004020400040206000402080004020A0004020C0004020E000404000004040200040404000404060004040800040
310
40A0004040C0004040E00040600000406020004060400040606000406080004060A0004060C0004060E00040800000408020004080400040806000408080004080A0004080C0004080E00040A0000040A0200040A0400040A0600040A0800040A0A00040A0C00040A0E00040C0000040C0200040C0400040C0600040C08000
310
40C0A00040C0C00040C0E00040E0000040E0200040E0400040E0600040E0800040E0A00040E0C00040E0E00080000000800020008000400080006000800080008000A0008000C0008000E00080200000802020008020400080206000802080008020A0008020C0008020E00080400000804020008040400080406000804080
310
008040A0008040C0008040E00080600000806020008060400080606000806080008060A0008060C0008060E00080800000808020008080400080806000808080008080A0008080C0008080E00080A0000080A0200080A0400080A0600080A0800080A0A00080A0C00080A0E00080C0000080C0200080C0400080C0600080C0
310
800080C0A00080C0C00080C0E00080E0000080E0200080E0400080E0600080E0800080E0A00080E0C00080E0E000C0000000C0002000C0004000C0006000C0008000C000A000C000C000C000E000C0200000C0202000C0204000C0206000C0208000C020A000C020C000C020E000C0400000C0402000C0404000C0406000C0
310
408000C040A000C040C000C040E000C0600000C0602000C0604000C0606000C0608000C060A000C060C000C060E000C0800000C0802000C0804000C0806000C0808000C080A000C080C000C080E000C0A00000C0A02000C0A04000C0A06000C0A08000C0A0A000C0A0C000C0A0E000C0C00000C0C02000C0C04000C0C06000
310
C0C08000C0C0A000F0FBFF00A4A0A000808080000000FF0000FF000000FFFF00FF000000FF00FF00FFFF0000FFFFFF0000000000000000000000000000000000000000000000000000000000000000000000000000000000000000000000000000000000000000000000000000000000000000000000000000000000000000
310
00000000000000000000000000000000000000000000000000000000000000000000000000000000000000000000000000000000000000000000000000000000000000000000000000000000000000000000000000000000000000000000000000000000000000000000000000000000000000000000000000000000000000
310
00000000000000000000000000000000000000FE0000000000FBFBFBFBFBFBFBFBFBFBFBFBFBFBFBFBFBFBFBFBFB000000000000000000000000000000000000000000000000000000000000000000000000000000000000000000000000000000000000000000000000000000000000000000000000000000000000000000
310
0000000000000000000000000000000000000000000000000000000000000000000000000000000000000000000000000000000000000000FEFEFE0000000000000000000000FEFE00000000FE000000FEFE000000000000FEFBFE0000000000000000000000FEFEFBFB0000FEFBFBFBFBFE000000000000FEFEFE00000000
310
00000000000000FEFEFBFB0000FEFBFBFBFBFE000000000000FEFEFE00000000000000000000FBFBFEFBFB0000FEFBFEFBFBFE00000000FBFBFEFBFE0000000000000000000000FEFEFBFB0000FEFBFBFBFBFE00000000FBFBFEFEFEFEFEFE00FEFEFE00000000FEFEFEFE0000FEFEFEFEFEFE00000000FBFBFEFEFEFEFEFE
310
FEFEFEFE00000000FEFEFEFE0000FEFEFEFEFEFE00000000FBFBFEFEFE0000000000000000000000FEFEFBFB0000FEFBFBFBFBFE00000000FBFEFEFEFE0000000000000000000000FBFEFBFB0000FEFBFBFBFBFE00000000FBFEFEFEFE0000000000000000000000FBFEFBFB0000FEFBFBFBFBFE00000000FBFBFEFEFE0000
310
000000000000000000FEFEFBFB0000FEFBFBFBFBFE00000000FBFBFEFEFEFEFEFE00FEFEFE00000000FEFEFEFE0000FEFEFEFEFEFE00000000FBFB0000000000000000000000000000000000000000000000000000000000000000000000000000000000000000000000000000000000000000000000000000000000000000
310
00000000000000000000000000000000000000000000000000000000000000000000000000000000000000000000000000000000000000000000000000000000000000000000000000000000000000000000000000000000000000000000000000000000000000000000000000000000000000000000000000000000000000
310
0000000000000000000000000000000000000000000000000000000000000000000000000000000000000000000000000000000000000000
102
{BLKREFS
331
693
102
}
1001
ACAD
1000
DesignCenter Data
1002
{
1070
     1
1070
     1
1002
}
  0
BLOCK_RECORD
  5
692
330
1
100
AcDbSymbolTableRecord
100
AcDbBlockTableRecord
  2
LE1203
340
0
1001
ACAD
1000
DesignCenter Data
1002
{
1070
     1
1070
     1
1002
}
  0
BLOCK_RECORD
  5
A0A
330
1
100
AcDbSymbolTableRecord
100
AcDbBlockTableRecord
  2
HDV hooks
340
0
102
{BLKREFS
331
A36
102
}
1001
ACAD
1000
DesignCenter Data
1002
{
1070
     1
1070
     1
1002
}
  0
ENDTAB
  0
ENDSEC
  0
SECTION
  2
BLOCKS
  0
BLOCK
  5
20
330
1F
100
AcDbEntity
  8
0
100
AcDbBlockBegin
  2
*Model_Space
 70
     0
 10
0.0
 20
0.0
 30
0.0
  3
*Model_Space
  1

  0
ENDBLK
  5
21
330
1F
100
AcDbEntity
  8
0
100
AcDbBlockEnd
  0
BLOCK
  5
1C
330
1B
100
AcDbEntity
 67
     1
  8
0
100
AcDbBlockBegin
  2
*Paper_Space
 70
     0
 10
0.0
 20
0.0
 30
0.0
  3
*Paper_Space
  1

  0
ENDBLK
  5
1D
330
1B
100
AcDbEntity
 67
     1
  8
0
100
AcDbBlockEnd
  0
BLOCK
  5
24
330
23
100
AcDbEntity
  8
0
100
AcDbBlockBegin
  2
*Paper_Space0
 70
     0
 10
0.0
 20
0.0
 30
0.0
  3
*Paper_Space0
  1

  0
ENDBLK
  5
25
330
23
100
AcDbEntity
  8
0
100
AcDbBlockEnd
  0
BLOCK
  5
31
330
2B
100
AcDbEntity
  8
8
100
AcDbBlockBegin
  2
ARRO
 70
     0
 10
0.0
 20
0.0
 30
0.0
  3
ARRO
  1

  0
LINE
  5
2C
330
2B
100
AcDbEntity
  8
4
100
AcDbLine
 10
0.1250000000000018
 20
0.0199999999999996
 30
0.0
 11
0.1250000000000018
 21
-0.0200000000000005
 31
0.0
  0
LINE
  5
2D
330
2B
100
AcDbEntity
  8
4
100
AcDbLine
 10
0.1250000000000018
 20
-0.0100000000000007
 30
0.0
 11
0.0000000000000009
 21
0.0
 31
0.0
  0
LINE
  5
2E
330
2B
100
AcDbEntity
  8
4
100
AcDbLine
 10
0.1250000000000018
 20
0.0099999999999989
 30
0.0
 11
0.0000000000000018
 21
0.0
 31
0.0
  0
LINE
  5
2F
330
2B
100
AcDbEntity
  8
4
100
AcDbLine
 10
0.0000000000000018
 20
0.0
 30
0.0
 11
0.1250000000000018
 21
-0.0200000000000005
 31
0.0
  0
LINE
  5
30
330
2B
100
AcDbEntity
  8
4
100
AcDbLine
 10
0.1250000000000018
 20
0.0199999999999996
 30
0.0
 11
0.0000000000000018
 21
0.0
 31
0.0
  0
ENDBLK
  5
32
330
2B
100
AcDbEntity
  8
8
100
AcDbBlockEnd
  0
BLOCK
  5
102
330
37
100
AcDbEntity
  8
0
100
AcDbBlockBegin
  2
LE1006
 70
     0
 10
0.0
 20
0.0
 30
0.0
  3
LE1006
  1

  0
TEXT
  5
38
330
37
100
AcDbEntity
  8
8
100
AcDbText
 10
5.2125
 20
0.9038482379456846
 30
0.0
 40
0.07
  1
DEPTH
  7
ROMANS
 72
     1
 11
5.3775
 21
0.9038482379456846
 31
0.0
100
AcDbText
  0
TEXT
  5
39
330
37
100
AcDbEntity
  8
8
100
AcDbText
 10
6.834999999999999
 20
0.9038482379456846
 30
0.0
 40
0.07
  1
DEPTH
  7
ROMANS
 72
     1
 11
7.0
 21
0.9038482379456846
 31
0.0
100
AcDbText
  0
TEXT
  5
3A
330
37
100
AcDbEntity
  8
8
100
AcDbText
 10
6.899267058502116
 20
0.7466010068253098
 30
0.0
 40
0.1
  1
DR
  7
ROMANS
 72
     1
 11
7.001648010883068
 21
0.7466010068253098
 31
0.0
100
AcDbText
  0
TEXT
  5
3B
330
37
100
AcDbEntity
  8
8
100
AcDbText
 10
5.794389324558379
 20
0.5620000000000003
 30
0.0
 40
0.1
  1
SECTIONS
  7
ROMANS
 72
     1
 11
6.146770276939331
 21
0.5620000000000003
 31
0.0
100
AcDbText
  0
TEXT
  5
3C
330
37
100
AcDbEntity
  8
8
100
AcDbText
 10
5.302053163126957
 20
0.7466010068253098
 30
0.0
 40
0.1
  1
SR
  7
ROMANS
 72
     1
 11
5.399672210746004
 21
0.7466010068253098
 31
0.0
100
AcDbText
  0
LINE
  5
3D
330
37
100
AcDbEntity
  8
4
100
AcDbLine
 10
5.628
 20
4.25
 30
0.0
 11
5.891731602665403
 21
4.25
 31
0.0
  0
LINE
  5
3E
330
37
100
AcDbEntity
  8
4
100
AcDbLine
 10
5.93215881233783
 20
4.25
 30
0.0
 11
6.112622609161773
 21
4.25
 31
0.0
  0
INSERT
  5
3F
330
37
100
AcDbEntity
  8
4
100
AcDbBlockReference
  2
ARRO
 10
5.93215881233783
 20
4.25
 30
0.0
  0
LINE
  5
40
330
37
100
AcDbEntity
  8
4
100
AcDbLine
 10
6.112622609161773
 20
4.25
 30
0.0
 11
6.112622609161773
 21
4.047012330209487
 31
0.0
  0
TEXT
  5
41
330
37
100
AcDbEntity
  8
8
100
AcDbText
 10
6.147622609161773
 20
2.671678996876154
 30
0.0
 40
0.07
  1
ANCHORING BY ERECTOR
 50
90.0
  7
ROMANS
 72
     2
 11
6.147622609161773
 21
3.985012330209487
 31
0.0
100
AcDbText
  0
TEXT
  5
42
330
37
100
AcDbEntity
  8
8
100
AcDbText
 10
4.500499999999999
 20
2.578333333333333
 30
0.0
 40
0.07
  1
LOCKER HEIGHT
 50
90.0
  7
ROMANS
 72
     1
 11
4.500499999999999
 21
3.0
 31
0.0
100
AcDbText
  0
TEXT
  5
43
330
37
100
AcDbEntity
  8
8
100
AcDbText
 10
1.344999999999998
 20
1.062
 30
0.0
 40
0.07
  1
LOCKER WIDTH - SEE SCHEDULE
  7
ROMANS
 72
     1
 11
2.249999999999999
 21
1.062
 31
0.0
100
AcDbText
  0
TEXT
  5
44
330
37
100
AcDbEntity
  8
8
100
AcDbText
 10
1.585714285714285
 20
0.5620000000000003
 30
0.0
 40
0.1
  1
FRONT ELEVATION
  7
ROMANS
 72
     1
 11
2.249999999999999
 21
0.5620000000000003
 31
0.0
100
AcDbText
  0
LINE
  5
45
330
37
100
AcDbEntity
  8
4
100
AcDbLine
 10
7.625
 20
0.9379999999999999
 30
0.0
 11
7.625
 21
1.125999999999999
 31
0.0
  0
LINE
  5
46
330
37
100
AcDbEntity
  8
4
100
AcDbLine
 10
6.375
 20
0.9379999999999999
 30
0.0
 11
6.375
 21
1.125999999999999
 31
0.0
  0
LINE
  5
47
330
37
100
AcDbEntity
  8
4
100
AcDbLine
 10
5.75
 20
0.9379999999999999
 30
0.0
 11
5.75
 21
1.125999999999999
 31
0.0
  0
LINE
  5
48
330
37
100
AcDbEntity
  8
4
100
AcDbLine
 10
5.69
 20
0.9379999999999999
 30
0.0
 11
5.69
 21
1.125999999999999
 31
0.0
  0
LINE
  5
49
330
37
100
AcDbEntity
  8
4
100
AcDbLine
 10
5.065
 20
0.9379999999999999
 30
0.0
 11
5.065
 21
1.125999999999999
 31
0.0
  0
LINE
  5
4A
330
37
100
AcDbEntity
  8
1
100
AcDbLine
 10
5.75
 20
1.75
 30
0.0
 11
5.937999999999999
 21
1.937999999999999
 31
0.0
  0
LINE
  5
4B
330
37
100
AcDbEntity
  8
1
100
AcDbLine
 10
5.75
 20
1.875
 30
0.0
 11
5.937999999999999
 21
2.062999999999999
 31
0.0
  0
LINE
  5
4C
330
37
100
AcDbEntity
  8
1
100
AcDbLine
 10
5.203499999999999
 20
1.5625
 30
0.0
 11
5.188499999999999
 21
1.547499999999999
 31
0.0
  0
LINE
  5
4D
330
37
100
AcDbEntity
  8
1
100
AcDbLine
 10
5.188499999999999
 20
1.547499999999999
 30
0.0
 11
5.090499999999999
 21
1.547499999999999
 31
0.0
  0
LINE
  5
4E
330
37
100
AcDbEntity
  8
1
100
AcDbLine
 10
5.090499999999999
 20
1.547499999999999
 30
0.0
 11
5.090499999999999
 21
1.519253857562439
 31
0.0
  0
LINE
  5
4F
330
37
100
AcDbEntity
  8
1
100
AcDbLine
 10
5.265499999999999
 20
1.500499999999999
 30
0.0
 11
5.203499999999999
 21
1.5625
 31
0.0
  0
LINE
  5
50
330
37
100
AcDbEntity
  8
1
100
AcDbLine
 10
5.630499999999999
 20
1.500499999999999
 30
0.0
 11
5.265499999999999
 21
1.500499999999999
 31
0.0
  0
LINE
  5
51
330
37
100
AcDbEntity
  8
1
100
AcDbLine
 10
5.630499999999999
 20
1.5625
 30
0.0
 11
5.630499999999999
 21
1.500499999999999
 31
0.0
  0
LINE
  5
52
330
37
100
AcDbEntity
  8
1
100
AcDbLine
 10
5.670499999999999
 20
1.5625
 30
0.0
 11
5.670499999999999
 21
1.500499999999999
 31
0.0
  0
LINE
  5
53
330
37
100
AcDbEntity
  8
1
100
AcDbLine
 10
5.065499999999999
 20
1.5625
 30
0.0
 11
5.173499999999998
 21
1.5625
 31
0.0
  0
LINE
  5
54
330
37
100
AcDbEntity
  8
1
100
AcDbLine
 10
5.065499999999999
 20
1.500499999999999
 30
0.0
 11
5.065499999999999
 21
1.5625
 31
0.0
  0
LINE
  5
55
330
37
100
AcDbEntity
  8
1
100
AcDbLine
 10
5.127499999999999
 20
1.500499999999999
 30
0.0
 11
5.065499999999999
 21
1.500499999999999
 31
0.0
  0
LINE
  5
56
330
37
100
AcDbEntity
  8
1
100
AcDbLine
 10
5.203499999999999
 20
1.5625
 30
0.0
 11
5.670499999999999
 21
1.5625
 31
0.0
  0
LINE
  5
57
330
37
100
AcDbEntity
  8
1
100
AcDbLine
 10
6.513499999999998
 20
1.5625
 30
0.0
 11
6.980499999999999
 21
1.5625
 31
0.0
  0
LINE
  5
58
330
37
100
AcDbEntity
  8
1
100
AcDbLine
 10
6.437499999999999
 20
1.500499999999999
 30
0.0
 11
6.375499999999998
 21
1.500499999999999
 31
0.0
  0
LINE
  5
59
330
37
100
AcDbEntity
  8
1
100
AcDbLine
 10
6.375499999999998
 20
1.500499999999999
 30
0.0
 11
6.375499999999998
 21
1.5625
 31
0.0
  0
LINE
  5
5A
330
37
100
AcDbEntity
  8
1
100
AcDbLine
 10
6.375499999999998
 20
1.5625
 30
0.0
 11
6.483499999999998
 21
1.5625
 31
0.0
  0
LINE
  5
5B
330
37
100
AcDbEntity
  8
1
100
AcDbLine
 10
6.980499999999999
 20
1.5625
 30
0.0
 11
6.980499999999999
 21
1.500499999999999
 31
0.0
  0
LINE
  5
5C
330
37
100
AcDbEntity
  8
1
100
AcDbLine
 10
6.940499999999999
 20
1.5625
 30
0.0
 11
6.940499999999999
 21
1.500499999999999
 31
0.0
  0
LINE
  5
5D
330
37
100
AcDbEntity
  8
1
100
AcDbLine
 10
6.940499999999999
 20
1.500499999999999
 30
0.0
 11
6.575499999999999
 21
1.500499999999999
 31
0.0
  0
LINE
  5
5E
330
37
100
AcDbEntity
  8
1
100
AcDbLine
 10
6.575499999999999
 20
1.500499999999999
 30
0.0
 11
6.513499999999998
 21
1.5625
 31
0.0
  0
LINE
  5
5F
330
37
100
AcDbEntity
  8
1
100
AcDbLine
 10
6.400499999999999
 20
1.547499999999999
 30
0.0
 11
6.400499999999999
 21
1.519253857562439
 31
0.0
  0
LINE
  5
60
330
37
100
AcDbEntity
  8
1
100
AcDbLine
 10
6.498499999999999
 20
1.547499999999999
 30
0.0
 11
6.400499999999999
 21
1.547499999999999
 31
0.0
  0
LINE
  5
61
330
37
100
AcDbEntity
  8
1
100
AcDbLine
 10
6.513499999999998
 20
1.5625
 30
0.0
 11
6.498499999999999
 21
1.547499999999999
 31
0.0
  0
LINE
  5
62
330
37
100
AcDbEntity
  8
1
100
AcDbLine
 10
7.486500000000001
 20
1.5625
 30
0.0
 11
7.5015
 21
1.547499999999999
 31
0.0
  0
LINE
  5
63
330
37
100
AcDbEntity
  8
1
100
AcDbLine
 10
7.5015
 20
1.547499999999999
 30
0.0
 11
7.5995
 21
1.547499999999999
 31
0.0
  0
LINE
  5
64
330
37
100
AcDbEntity
  8
1
100
AcDbLine
 10
7.5995
 20
1.547499999999999
 30
0.0
 11
7.5995
 21
1.519253857562439
 31
0.0
  0
LINE
  5
65
330
37
100
AcDbEntity
  8
1
100
AcDbLine
 10
7.4245
 20
1.500499999999999
 30
0.0
 11
7.486500000000001
 21
1.5625
 31
0.0
  0
LINE
  5
66
330
37
100
AcDbEntity
  8
1
100
AcDbLine
 10
7.0595
 20
1.500499999999999
 30
0.0
 11
7.4245
 21
1.500499999999999
 31
0.0
  0
LINE
  5
67
330
37
100
AcDbEntity
  8
1
100
AcDbLine
 10
7.0595
 20
1.5625
 30
0.0
 11
7.0595
 21
1.500499999999999
 31
0.0
  0
LINE
  5
68
330
37
100
AcDbEntity
  8
1
100
AcDbLine
 10
7.0195
 20
1.5625
 30
0.0
 11
7.0195
 21
1.500499999999999
 31
0.0
  0
LINE
  5
69
330
37
100
AcDbEntity
  8
1
100
AcDbLine
 10
7.624500000000001
 20
1.5625
 30
0.0
 11
7.516500000000001
 21
1.5625
 31
0.0
  0
LINE
  5
6A
330
37
100
AcDbEntity
  8
1
100
AcDbLine
 10
7.624500000000001
 20
1.500499999999999
 30
0.0
 11
7.624500000000001
 21
1.5625
 31
0.0
  0
LINE
  5
6B
330
37
100
AcDbEntity
  8
1
100
AcDbLine
 10
7.5625
 20
1.500499999999999
 30
0.0
 11
7.624500000000001
 21
1.500499999999999
 31
0.0
  0
LINE
  5
6C
330
37
100
AcDbEntity
  8
1
100
AcDbLine
 10
7.486500000000001
 20
1.5625
 30
0.0
 11
7.0195
 21
1.5625
 31
0.0
  0
LINE
  5
6D
330
37
100
AcDbEntity
  8
1
100
AcDbLine
 10
7.486500000000001
 20
4.5
 30
0.0
 11
7.0195
 21
4.5
 31
0.0
  0
LINE
  5
6E
330
37
100
AcDbEntity
  8
1
100
AcDbLine
 10
7.5625
 20
4.437999999999999
 30
0.0
 11
7.624500000000001
 21
4.437999999999999
 31
0.0
  0
LINE
  5
6F
330
37
100
AcDbEntity
  8
1
100
AcDbLine
 10
7.624500000000001
 20
4.437999999999999
 30
0.0
 11
7.624500000000001
 21
4.5
 31
0.0
  0
LINE
  5
70
330
37
100
AcDbEntity
  8
1
100
AcDbLine
 10
7.624500000000001
 20
4.5
 30
0.0
 11
7.516500000000001
 21
4.5
 31
0.0
  0
LINE
  5
71
330
37
100
AcDbEntity
  8
1
100
AcDbLine
 10
7.0195
 20
4.5
 30
0.0
 11
7.0195
 21
4.437999999999999
 31
0.0
  0
LINE
  5
72
330
37
100
AcDbEntity
  8
1
100
AcDbLine
 10
7.0595
 20
4.5
 30
0.0
 11
7.0595
 21
4.437999999999999
 31
0.0
  0
LINE
  5
73
330
37
100
AcDbEntity
  8
1
100
AcDbLine
 10
7.0595
 20
4.437999999999999
 30
0.0
 11
7.4245
 21
4.437999999999999
 31
0.0
  0
LINE
  5
74
330
37
100
AcDbEntity
  8
1
100
AcDbLine
 10
7.4245
 20
4.437999999999999
 30
0.0
 11
7.486500000000001
 21
4.5
 31
0.0
  0
LINE
  5
75
330
37
100
AcDbEntity
  8
1
100
AcDbLine
 10
7.5995
 20
4.484999999999999
 30
0.0
 11
7.5995
 21
4.456753857562439
 31
0.0
  0
LINE
  5
76
330
37
100
AcDbEntity
  8
1
100
AcDbLine
 10
7.5015
 20
4.484999999999999
 30
0.0
 11
7.5995
 21
4.484999999999999
 31
0.0
  0
LINE
  5
77
330
37
100
AcDbEntity
  8
1
100
AcDbLine
 10
7.486500000000001
 20
4.5
 30
0.0
 11
7.5015
 21
4.484999999999999
 31
0.0
  0
LINE
  5
78
330
37
100
AcDbEntity
  8
1
100
AcDbLine
 10
6.513499999999998
 20
4.5
 30
0.0
 11
6.498499999999999
 21
4.484999999999999
 31
0.0
  0
LINE
  5
79
330
37
100
AcDbEntity
  8
1
100
AcDbLine
 10
6.498499999999999
 20
4.484999999999999
 30
0.0
 11
6.400499999999999
 21
4.484999999999999
 31
0.0
  0
LINE
  5
7A
330
37
100
AcDbEntity
  8
1
100
AcDbLine
 10
6.400499999999999
 20
4.484999999999999
 30
0.0
 11
6.400499999999999
 21
4.456753857562439
 31
0.0
  0
LINE
  5
7B
330
37
100
AcDbEntity
  8
1
100
AcDbLine
 10
6.575499999999999
 20
4.437999999999999
 30
0.0
 11
6.513499999999998
 21
4.5
 31
0.0
  0
LINE
  5
7C
330
37
100
AcDbEntity
  8
1
100
AcDbLine
 10
6.940499999999999
 20
4.437999999999999
 30
0.0
 11
6.575499999999999
 21
4.437999999999999
 31
0.0
  0
LINE
  5
7D
330
37
100
AcDbEntity
  8
1
100
AcDbLine
 10
6.940499999999999
 20
4.5
 30
0.0
 11
6.940499999999999
 21
4.437999999999999
 31
0.0
  0
LINE
  5
7E
330
37
100
AcDbEntity
  8
1
100
AcDbLine
 10
6.980499999999999
 20
4.5
 30
0.0
 11
6.980499999999999
 21
4.437999999999999
 31
0.0
  0
LINE
  5
7F
330
37
100
AcDbEntity
  8
1
100
AcDbLine
 10
6.375499999999998
 20
4.5
 30
0.0
 11
6.483499999999998
 21
4.5
 31
0.0
  0
LINE
  5
80
330
37
100
AcDbEntity
  8
1
100
AcDbLine
 10
6.375499999999998
 20
4.437999999999999
 30
0.0
 11
6.375499999999998
 21
4.5
 31
0.0
  0
LINE
  5
81
330
37
100
AcDbEntity
  8
1
100
AcDbLine
 10
6.437499999999999
 20
4.437999999999999
 30
0.0
 11
6.375499999999998
 21
4.437999999999999
 31
0.0
  0
LINE
  5
82
330
37
100
AcDbEntity
  8
1
100
AcDbLine
 10
6.513499999999998
 20
4.5
 30
0.0
 11
6.980499999999999
 21
4.5
 31
0.0
  0
LINE
  5
83
330
37
100
AcDbEntity
  8
1
100
AcDbLine
 10
5.203499999999999
 20
4.5
 30
0.0
 11
5.670499999999999
 21
4.5
 31
0.0
  0
LINE
  5
84
330
37
100
AcDbEntity
  8
1
100
AcDbLine
 10
5.127499999999999
 20
4.437999999999999
 30
0.0
 11
5.065499999999999
 21
4.437999999999999
 31
0.0
  0
LINE
  5
85
330
37
100
AcDbEntity
  8
1
100
AcDbLine
 10
5.065499999999999
 20
4.437999999999999
 30
0.0
 11
5.065499999999999
 21
4.5
 31
0.0
  0
LINE
  5
86
330
37
100
AcDbEntity
  8
1
100
AcDbLine
 10
5.065499999999999
 20
4.5
 30
0.0
 11
5.173499999999998
 21
4.5
 31
0.0
  0
LINE
  5
87
330
37
100
AcDbEntity
  8
1
100
AcDbLine
 10
5.670499999999999
 20
4.5
 30
0.0
 11
5.670499999999999
 21
4.437999999999999
 31
0.0
  0
LINE
  5
88
330
37
100
AcDbEntity
  8
1
100
AcDbLine
 10
5.630499999999999
 20
4.5
 30
0.0
 11
5.630499999999999
 21
4.437999999999999
 31
0.0
  0
LINE
  5
89
330
37
100
AcDbEntity
  8
1
100
AcDbLine
 10
5.630499999999999
 20
4.437999999999999
 30
0.0
 11
5.265499999999999
 21
4.437999999999999
 31
0.0
  0
LINE
  5
8A
330
37
100
AcDbEntity
  8
1
100
AcDbLine
 10
5.265499999999999
 20
4.437999999999999
 30
0.0
 11
5.203499999999999
 21
4.5
 31
0.0
  0
LINE
  5
8B
330
37
100
AcDbEntity
  8
1
100
AcDbLine
 10
5.090499999999999
 20
4.484999999999999
 30
0.0
 11
5.090499999999999
 21
4.456753857562439
 31
0.0
  0
LINE
  5
8C
330
37
100
AcDbEntity
  8
1
100
AcDbLine
 10
5.188499999999999
 20
4.484999999999999
 30
0.0
 11
5.090499999999999
 21
4.484999999999999
 31
0.0
  0
LINE
  5
8D
330
37
100
AcDbEntity
  8
1
100
AcDbLine
 10
5.203499999999999
 20
4.5
 30
0.0
 11
5.188499999999999
 21
4.484999999999999
 31
0.0
  0
LINE
  5
8E
330
37
100
AcDbEntity
  8
1
100
AcDbLine
 10
1.062
 20
1.562
 30
0.0
 11
1.562999999999999
 21
1.562
 31
0.0
  0
LINE
  5
8F
330
37
100
AcDbEntity
  8
4
100
AcDbLine
 10
1.872866710308013
 20
1.373999999999999
 30
0.0
 11
1.934866710308013
 21
1.373999999999999
 31
0.0
  0
CIRCLE
  5
90
330
37
100
AcDbEntity
  8
4
100
AcDbCircle
 10
2.028866710308013
 20
1.373999999999999
 30
0.0
 40
0.094
  0
LINE
  5
91
330
37
100
AcDbEntity
  8
4
100
AcDbLine
 10
1.778866710308013
 20
1.467999999999999
 30
0.0
 11
1.778866710308013
 21
1.592999999999999
 31
0.0
  0
CIRCLE
  5
92
330
37
100
AcDbEntity
  8
4
100
AcDbCircle
 10
1.778866710308013
 20
1.373999999999999
 30
0.0
 40
0.094
  0
CIRCLE
  5
93
330
37
100
AcDbEntity
  8
4
100
AcDbCircle
 10
1.9375
 20
4.312
 30
0.0
 40
0.094
  0
LINE
  5
94
330
37
100
AcDbEntity
  8
4
100
AcDbLine
 10
1.9375
 20
4.406
 30
0.0
 11
1.9375
 21
4.531
 31
0.0
  0
LINE
  5
95
330
37
100
AcDbEntity
  8
1
100
AcDbLine
 10
2.499999999999999
 20
1.562
 30
0.0
 11
2.312
 21
1.562
 31
0.0
  0
LINE
  5
96
330
37
100
AcDbEntity
  8
1
100
AcDbLine
 10
2.625
 20
4.438
 30
0.0
 11
2.813
 21
4.438
 31
0.0
  0
LINE
  5
97
330
37
100
AcDbEntity
  8
1
100
AcDbLine
 10
2.875
 20
1.5
 30
0.0
 11
2.875
 21
4.5
 31
0.0
  0
LINE
  5
98
330
37
100
AcDbEntity
  8
1
100
AcDbLine
 10
2.25
 20
1.5
 30
0.0
 11
2.25
 21
4.5
 31
0.0
  0
LINE
  5
99
330
37
100
AcDbEntity
  8
1
100
AcDbLine
 10
1.625
 20
1.5
 30
0.0
 11
1.625
 21
4.5
 31
0.0
  0
LINE
  5
9A
330
37
100
AcDbEntity
  8
1
100
AcDbLine
 10
3.437999999999999
 20
1.562
 30
0.0
 11
2.937
 21
1.562
 31
0.0
  0
LINE
  5
9B
330
37
100
AcDbEntity
  8
1
100
AcDbLine
 10
3.438
 20
4.438
 30
0.0
 11
3.438
 21
3.03100587855713
 31
0.0
  0
LINE
  5
9C
330
37
100
AcDbEntity
  8
1
100
AcDbLine
 10
2.937
 20
4.438
 30
0.0
 11
3.438
 21
4.438
 31
0.0
  0
LINE
  5
9D
330
37
100
AcDbEntity
  8
1
100
AcDbLine
 10
2.937
 20
1.562
 30
0.0
 11
2.937
 21
2.96900587855713
 31
0.0
  0
LINE
  5
9E
330
37
100
AcDbEntity
  8
1
100
AcDbLine
 10
2.812999999999999
 20
1.562
 30
0.0
 11
2.625
 21
1.562
 31
0.0
  0
LINE
  5
9F
330
37
100
AcDbEntity
  8
1
100
AcDbLine
 10
2.813
 20
4.438
 30
0.0
 11
2.813
 21
3.03100587855713
 31
0.0
  0
LINE
  5
A0
330
37
100
AcDbEntity
  8
1
100
AcDbLine
 10
2.312
 20
4.438
 30
0.0
 11
2.5
 21
4.438
 31
0.0
  0
LINE
  5
A1
330
37
100
AcDbEntity
  8
1
100
AcDbLine
 10
2.312
 20
1.562
 30
0.0
 11
2.312
 21
2.96900587855713
 31
0.0
  0
LINE
  5
A2
330
37
100
AcDbEntity
  8
1
100
AcDbLine
 10
2.187999999999999
 20
1.562
 30
0.0
 11
1.687
 21
1.562
 31
0.0
  0
LINE
  5
A3
330
37
100
AcDbEntity
  8
1
100
AcDbLine
 10
2.188
 20
4.438
 30
0.0
 11
2.188
 21
3.03100587855713
 31
0.0
  0
LINE
  5
A4
330
37
100
AcDbEntity
  8
1
100
AcDbLine
 10
1.687
 20
4.438
 30
0.0
 11
2.188
 21
4.438
 31
0.0
  0
LINE
  5
A5
330
37
100
AcDbEntity
  8
1
100
AcDbLine
 10
1.687
 20
1.562
 30
0.0
 11
1.687
 21
2.96900587855713
 31
0.0
  0
LINE
  5
A6
330
37
100
AcDbEntity
  8
1
100
AcDbLine
 10
1.563
 20
4.438
 30
0.0
 11
1.562999999999999
 21
3.03100587855713
 31
0.0
  0
LINE
  5
A7
330
37
100
AcDbEntity
  8
1
100
AcDbLine
 10
1.062
 20
4.438
 30
0.0
 11
1.563
 21
4.438
 31
0.0
  0
LINE
  5
A8
330
37
100
AcDbEntity
  8
1
100
AcDbLine
 10
1.062
 20
1.562
 30
0.0
 11
1.062
 21
2.96900587855713
 31
0.0
  0
INSERT
  5
A9
330
37
100
AcDbEntity
  8
4
100
AcDbBlockReference
  2
ARRO
 10
7.625
 20
0.9999999999999998
 30
0.0
 50
180.0
  0
INSERT
  5
AA
330
37
100
AcDbEntity
  8
4
100
AcDbBlockReference
  2
ARRO
 10
6.375
 20
0.9999999999999998
 30
0.0
  0
INSERT
  5
AB
330
37
100
AcDbEntity
  8
4
100
AcDbBlockReference
  2
ARRO
 10
5.75
 20
0.9999999999999998
 30
0.0
  0
INSERT
  5
AC
330
37
100
AcDbEntity
  8
4
100
AcDbBlockReference
  2
ARRO
 10
5.69
 20
0.9999999999999998
 30
0.0
 50
180.0
  0
INSERT
  5
AD
330
37
100
AcDbEntity
  8
4
100
AcDbBlockReference
  2
ARRO
 10
5.065
 20
0.9999999999999998
 30
0.0
  0
LINE
  5
AE
330
37
100
AcDbEntity
  8
4
100
AcDbLine
 10
6.375
 20
0.9999999999999998
 30
0.0
 11
7.625
 21
0.9999999999999998
 31
0.0
  0
LINE
  5
AF
330
37
100
AcDbEntity
  8
4
100
AcDbLine
 10
5.75
 20
0.9999999999999998
 30
0.0
 11
6.0
 21
0.9999999999999998
 31
0.0
  0
LINE
  5
B0
330
37
100
AcDbEntity
  8
4
100
AcDbLine
 10
5.69
 20
0.9999999999999998
 30
0.0
 11
5.065
 21
0.9999999999999998
 31
0.0
  0
INSERT
  5
B1
330
37
100
AcDbEntity
  8
4
100
AcDbBlockReference
  2
ARRO
 10
4.5625
 20
1.5
 30
0.0
 50
90.0
  0
INSERT
  5
B2
330
37
100
AcDbEntity
  8
4
100
AcDbBlockReference
  2
ARRO
 10
4.5625
 20
4.5
 30
0.0
 50
270.0
  0
LINE
  5
B3
330
37
100
AcDbEntity
  8
4
100
AcDbLine
 10
5.0025
 20
4.5
 30
0.0
 11
4.5025
 21
4.5
 31
0.0
  0
LINE
  5
B4
330
37
100
AcDbEntity
  8
4
100
AcDbLine
 10
4.5625
 20
1.5
 30
0.0
 11
4.5625
 21
4.5
 31
0.0
  0
LINE
  5
B5
330
37
100
AcDbEntity
  8
4
100
AcDbLine
 10
5.0025
 20
1.5
 30
0.0
 11
4.5025
 21
1.5
 31
0.0
  0
INSERT
  5
B6
330
37
100
AcDbEntity
  8
4
100
AcDbBlockReference
  2
ARRO
 10
3.499999999999999
 20
0.9999999999999998
 30
0.0
 50
180.0
  0
INSERT
  5
B7
330
37
100
AcDbEntity
  8
4
100
AcDbBlockReference
  2
ARRO
 10
0.9999999999999998
 20
1.0
 30
0.0
  0
LINE
  5
B8
330
37
100
AcDbEntity
  8
4
100
AcDbLine
 10
3.499999999999999
 20
1.0
 30
0.0
 11
0.9999999999999998
 21
1.0
 31
0.0
  0
LINE
  5
B9
330
37
100
AcDbEntity
  8
4
100
AcDbLine
 10
3.499999999999999
 20
1.437999999999999
 30
0.0
 11
3.499999999999999
 21
0.9379999999999999
 31
0.0
  0
LINE
  5
BA
330
37
100
AcDbEntity
  8
4
100
AcDbLine
 10
1.0
 20
1.437999999999999
 30
0.0
 11
0.9999999999999998
 21
0.9379999999999999
 31
0.0
  0
LINE
  5
BB
330
37
100
AcDbEntity
  8
1
100
AcDbLine
 10
5.69
 20
1.5
 30
0.0
 11
5.69
 21
4.5
 31
0.0
  0
LINE
  5
BC
330
37
100
AcDbEntity
  8
1
100
AcDbLine
 10
5.75
 20
4.75
 30
0.0
 11
5.875
 21
4.875
 31
0.0
  0
LINE
  5
BD
330
37
100
AcDbEntity
  8
1
100
AcDbLine
 10
5.75
 20
4.625
 30
0.0
 11
5.937999999999999
 21
4.812999999999999
 31
0.0
  0
LINE
  5
BE
330
37
100
AcDbEntity
  8
1
100
AcDbLine
 10
5.75
 20
4.5
 30
0.0
 11
5.937999999999999
 21
4.687999999999999
 31
0.0
  0
LINE
  5
BF
330
37
100
AcDbEntity
  8
1
100
AcDbLine
 10
5.75
 20
4.375
 30
0.0
 11
5.937999999999999
 21
4.562999999999999
 31
0.0
  0
LINE
  5
C0
330
37
100
AcDbEntity
  8
1
100
AcDbLine
 10
5.75
 20
4.25
 30
0.0
 11
5.937999999999999
 21
4.437999999999999
 31
0.0
  0
LINE
  5
C1
330
37
100
AcDbEntity
  8
1
100
AcDbLine
 10
5.75
 20
4.125
 30
0.0
 11
5.937999999999999
 21
4.312999999999999
 31
0.0
  0
LINE
  5
C2
330
37
100
AcDbEntity
  8
1
100
AcDbLine
 10
5.75
 20
4.0
 30
0.0
 11
5.937999999999999
 21
4.187999999999999
 31
0.0
  0
LINE
  5
C3
330
37
100
AcDbEntity
  8
1
100
AcDbLine
 10
5.75
 20
3.875
 30
0.0
 11
5.937999999999999
 21
4.062999999999999
 31
0.0
  0
LINE
  5
C4
330
37
100
AcDbEntity
  8
1
100
AcDbLine
 10
5.75
 20
3.75
 30
0.0
 11
5.937999999999999
 21
3.937999999999999
 31
0.0
  0
LINE
  5
C5
330
37
100
AcDbEntity
  8
1
100
AcDbLine
 10
5.75
 20
3.625
 30
0.0
 11
5.937999999999999
 21
3.812999999999999
 31
0.0
  0
LINE
  5
C6
330
37
100
AcDbEntity
  8
1
100
AcDbLine
 10
5.75
 20
3.5
 30
0.0
 11
5.937999999999999
 21
3.687999999999999
 31
0.0
  0
LINE
  5
C7
330
37
100
AcDbEntity
  8
1
100
AcDbLine
 10
5.75
 20
3.375
 30
0.0
 11
5.937999999999999
 21
3.562999999999999
 31
0.0
  0
LINE
  5
C8
330
37
100
AcDbEntity
  8
1
100
AcDbLine
 10
5.75
 20
3.25
 30
0.0
 11
5.937999999999999
 21
3.437999999999999
 31
0.0
  0
LINE
  5
C9
330
37
100
AcDbEntity
  8
1
100
AcDbLine
 10
5.75
 20
3.125
 30
0.0
 11
5.937999999999999
 21
3.312999999999999
 31
0.0
  0
LINE
  5
CA
330
37
100
AcDbEntity
  8
1
100
AcDbLine
 10
5.75
 20
3.0
 30
0.0
 11
5.937999999999999
 21
3.187999999999999
 31
0.0
  0
LINE
  5
CB
330
37
100
AcDbEntity
  8
1
100
AcDbLine
 10
5.75
 20
2.875
 30
0.0
 11
5.937999999999999
 21
3.062999999999999
 31
0.0
  0
LINE
  5
CC
330
37
100
AcDbEntity
  8
1
100
AcDbLine
 10
5.75
 20
2.75
 30
0.0
 11
5.937999999999999
 21
2.937999999999999
 31
0.0
  0
LINE
  5
CD
330
37
100
AcDbEntity
  8
1
100
AcDbLine
 10
5.75
 20
2.625
 30
0.0
 11
5.937999999999999
 21
2.812999999999999
 31
0.0
  0
LINE
  5
CE
330
37
100
AcDbEntity
  8
1
100
AcDbLine
 10
5.75
 20
2.5
 30
0.0
 11
5.937999999999999
 21
2.687999999999999
 31
0.0
  0
LINE
  5
CF
330
37
100
AcDbEntity
  8
1
100
AcDbLine
 10
5.75
 20
2.375
 30
0.0
 11
5.937999999999999
 21
2.562999999999999
 31
0.0
  0
LINE
  5
D0
330
37
100
AcDbEntity
  8
1
100
AcDbLine
 10
5.75
 20
2.25
 30
0.0
 11
5.937999999999999
 21
2.437999999999999
 31
0.0
  0
LINE
  5
D1
330
37
100
AcDbEntity
  8
1
100
AcDbLine
 10
5.75
 20
2.125
 30
0.0
 11
5.937999999999999
 21
2.312999999999999
 31
0.0
  0
LINE
  5
D2
330
37
100
AcDbEntity
  8
1
100
AcDbLine
 10
5.75
 20
2.0
 30
0.0
 11
5.937999999999999
 21
2.187999999999999
 31
0.0
  0
LINE
  5
D3
330
37
100
AcDbEntity
  8
1
100
AcDbLine
 10
5.75
 20
1.625
 30
0.0
 11
5.937999999999999
 21
1.812999999999999
 31
0.0
  0
LINE
  5
D4
330
37
100
AcDbEntity
  8
1
100
AcDbLine
 10
5.75
 20
1.5
 30
0.0
 11
5.937999999999999
 21
1.687999999999999
 31
0.0
  0
LINE
  5
D5
330
37
100
AcDbEntity
  8
1
100
AcDbLine
 10
2.625
 20
2.379974179311579
 30
0.0
 11
2.624999999999999
 21
1.375
 31
0.0
  0
LINE
  5
D6
330
37
100
AcDbEntity
  8
1
100
AcDbLine
 10
2.625
 20
2.782474179311579
 30
0.0
 11
2.625
 21
2.469974179311579
 31
0.0
  0
LINE
  5
D7
330
37
100
AcDbEntity
  8
1
100
AcDbLine
 10
2.625
 20
3.625967704151865
 30
0.0
 11
2.625
 21
2.782474179311579
 31
0.0
  0
LINE
  5
D8
330
37
100
AcDbEntity
  8
1
100
AcDbLine
 10
2.58
 20
3.664974179311579
 30
0.0
 11
2.669999999999999
 21
3.574974179311579
 31
0.0
  0
LINE
  5
D9
330
37
100
AcDbEntity
  8
1
100
AcDbLine
 10
2.669999999999999
 20
3.664974179311579
 30
0.0
 11
2.58
 21
3.664974179311579
 31
0.0
  0
LINE
  5
DA
330
37
100
AcDbEntity
  8
1
100
AcDbLine
 10
2.58
 20
3.754974179311579
 30
0.0
 11
2.669999999999999
 21
3.664974179311579
 31
0.0
  0
LINE
  5
DB
330
37
100
AcDbEntity
  8
1
100
AcDbLine
 10
2.579999999999999
 20
2.424974179311579
 30
0.0
 11
2.669999999999999
 21
2.334974179311579
 31
0.0
  0
LINE
  5
DC
330
37
100
AcDbEntity
  8
1
100
AcDbLine
 10
2.669999999999999
 20
2.424974179311579
 30
0.0
 11
2.579999999999999
 21
2.424974179311579
 31
0.0
  0
LINE
  5
DD
330
37
100
AcDbEntity
  8
1
100
AcDbLine
 10
2.579999999999999
 20
2.514974179311579
 30
0.0
 11
2.669999999999999
 21
2.424974179311579
 31
0.0
  0
LINE
  5
DE
330
37
100
AcDbEntity
  8
1
100
AcDbLine
 10
2.499999999999999
 20
1.754974179311579
 30
0.0
 11
2.499999999999999
 21
1.375
 31
0.0
  0
LINE
  5
DF
330
37
100
AcDbEntity
  8
1
100
AcDbLine
 10
2.5
 20
2.469974179311579
 30
0.0
 11
2.499999999999999
 21
1.844974179311579
 31
0.0
  0
LINE
  5
E0
330
37
100
AcDbEntity
  8
1
100
AcDbLine
 10
2.5
 20
3.004974179311579
 30
0.0
 11
2.5
 21
2.469974179311579
 31
0.0
  0
LINE
  5
E1
330
37
100
AcDbEntity
  8
1
100
AcDbLine
 10
2.454999999999999
 20
1.889974179311579
 30
0.0
 11
2.544999999999999
 21
1.799974179311579
 31
0.0
  0
LINE
  5
E2
330
37
100
AcDbEntity
  8
1
100
AcDbLine
 10
2.544999999999999
 20
1.799974179311579
 30
0.0
 11
2.454999999999999
 21
1.799974179311579
 31
0.0
  0
LINE
  5
E3
330
37
100
AcDbEntity
  8
1
100
AcDbLine
 10
2.454999999999999
 20
1.799974179311579
 30
0.0
 11
2.544999999999999
 21
1.709974179311579
 31
0.0
  0
LINE
  5
E4
330
37
100
AcDbEntity
  8
1
100
AcDbLine
 10
2.454999999999999
 20
3.139974179311579
 30
0.0
 11
2.544999999999999
 21
3.049974179311579
 31
0.0
  0
LINE
  5
E5
330
37
100
AcDbEntity
  8
1
100
AcDbLine
 10
2.544999999999999
 20
3.049974179311579
 30
0.0
 11
2.454999999999999
 21
3.049974179311579
 31
0.0
  0
LINE
  5
E6
330
37
100
AcDbEntity
  8
1
100
AcDbLine
 10
2.454999999999999
 20
3.049974179311579
 30
0.0
 11
2.544999999999999
 21
2.959974179311579
 31
0.0
  0
LINE
  5
E7
330
37
100
AcDbEntity
  8
1
100
AcDbLine
 10
2.512196030826982
 20
4.242778148484597
 30
0.0
 11
2.512196030826982
 21
3.07567852914767
 31
0.0
  0
LINE
  5
E8
330
37
100
AcDbEntity
  8
1
100
AcDbLine
 10
2.455
 20
4.299974179311579
 30
0.0
 11
2.544999999999999
 21
4.209974179311579
 31
0.0
  0
LINE
  5
E9
330
37
100
AcDbEntity
  8
1
100
AcDbLine
 10
2.544999999999999
 20
4.299974179311579
 30
0.0
 11
2.455
 21
4.299974179311579
 31
0.0
  0
LINE
  5
EA
330
37
100
AcDbEntity
  8
1
100
AcDbLine
 10
2.455
 20
4.389974179311579
 30
0.0
 11
2.544999999999999
 21
4.299974179311579
 31
0.0
  0
LINE
  5
EB
330
37
100
AcDbEntity
  8
1
100
AcDbLine
 10
2.5
 20
4.625
 30
0.0
 11
2.5
 21
4.344974179311579
 31
0.0
  0
LINE
  5
EC
330
37
100
AcDbEntity
  8
1
100
AcDbLine
 10
2.625
 20
4.625
 30
0.0
 11
2.625
 21
3.709974179311579
 31
0.0
  0
CIRCLE
  5
ED
330
37
100
AcDbEntity
  8
1
100
AcDbCircle
 10
4.125
 20
0.5
 30
0.0
 40
0.1875
  0
LINE
  5
EE
330
37
100
AcDbEntity
  8
1
100
AcDbLine
 10
5.75
 20
1.5
 30
0.0
 11
5.75
 21
4.875
 31
0.0
  0
LINE
  5
EF
330
37
100
AcDbEntity
  8
1
100
AcDbLine
 10
7.0
 20
1.5
 30
0.0
 11
7.0
 21
4.5
 31
0.0
  0
LINE
  5
F0
330
37
100
AcDbEntity
  8
1
100
AcDbLine
 10
3.499999999999999
 20
1.5
 30
0.0
 11
2.624999999999999
 21
1.5
 31
0.0
  0
LINE
  5
F1
330
37
100
AcDbEntity
  8
1
100
AcDbLine
 10
3.5
 20
4.5
 30
0.0
 11
3.499999999999999
 21
1.5
 31
0.0
  0
LINE
  5
F2
330
37
100
AcDbEntity
  8
1
100
AcDbLine
 10
2.625
 20
4.5
 30
0.0
 11
3.5
 21
4.5
 31
0.0
  0
LINE
  5
F3
330
37
100
AcDbEntity
  8
1
100
AcDbLine
 10
1.0
 20
4.5
 30
0.0
 11
2.5
 21
4.5
 31
0.0
  0
LINE
  5
F4
330
37
100
AcDbEntity
  8
1
100
AcDbLine
 10
1.0
 20
1.5
 30
0.0
 11
1.0
 21
4.5
 31
0.0
  0
LINE
  5
F5
330
37
100
AcDbEntity
  8
1
100
AcDbLine
 10
1.0
 20
1.5
 30
0.0
 11
2.5
 21
1.5
 31
0.0
  0
LINE
  5
F6
330
37
100
AcDbEntity
  8
1
100
AcDbLine
 10
0.0
 20
5.25
 30
0.0
 11
0.0
 21
0.0
 31
0.0
  0
LINE
  5
F7
330
37
100
AcDbEntity
  8
1
100
AcDbLine
 10
8.25
 20
5.25
 30
0.0
 11
0.0
 21
5.25
 31
0.0
  0
LINE
  5
F8
330
37
100
AcDbEntity
  8
1
100
AcDbLine
 10
8.25
 20
0.0
 30
0.0
 11
8.25
 21
5.25
 31
0.0
  0
LINE
  5
F9
330
37
100
AcDbEntity
  8
1
100
AcDbLine
 10
0.0
 20
0.0
 30
0.0
 11
8.25
 21
0.0
 31
0.0
  0
LINE
  5
FA
330
37
100
AcDbEntity
  8
1
100
AcDbLine
 10
1.062
 20
3.03100587855713
 30
0.0
 11
1.062
 21
4.438
 31
0.0
  0
LINE
  5
FB
330
37
100
AcDbEntity
  8
1
100
AcDbLine
 10
1.562999999999999
 20
2.96900587855713
 30
0.0
 11
1.562999999999999
 21
1.562
 31
0.0
  0
LINE
  5
FC
330
37
100
AcDbEntity
  8
1
100
AcDbLine
 10
1.687
 20
3.03100587855713
 30
0.0
 11
1.687
 21
4.438
 31
0.0
  0
LINE
  5
FD
330
37
100
AcDbEntity
  8
1
100
AcDbLine
 10
2.187999999999999
 20
2.96900587855713
 30
0.0
 11
2.187999999999999
 21
1.562
 31
0.0
  0
LINE
  5
FE
330
37
100
AcDbEntity
  8
1
100
AcDbLine
 10
2.312
 20
3.03100587855713
 30
0.0
 11
2.312
 21
4.438
 31
0.0
  0
LINE
  5
FF
330
37
100
AcDbEntity
  8
1
100
AcDbLine
 10
2.812999999999999
 20
2.96900587855713
 30
0.0
 11
2.812999999999999
 21
1.562
 31
0.0
  0
LINE
  5
100
330
37
100
AcDbEntity
  8
1
100
AcDbLine
 10
2.937
 20
3.03100587855713
 30
0.0
 11
2.937
 21
4.438
 31
0.0
  0
LINE
  5
101
330
37
100
AcDbEntity
  8
1
100
AcDbLine
 10
3.437999999999999
 20
2.96900587855713
 30
0.0
 11
3.437999999999999
 21
1.562
 31
0.0
  0
ENDBLK
  5
103
330
37
100
AcDbEntity
  8
0
100
AcDbBlockEnd
  0
BLOCK
  5
3D4
330
3D1
100
AcDbEntity
  8
8
100
AcDbBlockBegin
  2
TEMP3
 70
     0
 10
0.0
 20
0.0
 30
0.0
  3
TEMP3
  1

  0
TEXT
  5
3D2
330
3D1
100
AcDbEntity
  8
8
100
AcDbText
 10
0.03
 20
0.0619999999999998
 30
0.0
 40
0.07
  1
HANDLE & P/A
 50
90.0
  7
ROMANS
100
AcDbText
  0
TEXT
  5
3D3
330
3D1
100
AcDbEntity
  8
8
100
AcDbText
 10
0.03
 20
-1.33310960351371
 30
0.0
 40
0.07
  1
LOCK ESCUTCHEON
 50
90.0
  7
ROMANS
 72
     2
 11
0.03
 21
-0.3264429368470441
 31
0.0
100
AcDbText
  0
ENDBLK
  5
3D5
330
3D1
100
AcDbEntity
  8
8
100
AcDbBlockEnd
  0
BLOCK
  5
3E1
330
3D6
100
AcDbEntity
  8
4
100
AcDbBlockBegin
  2
ARRO2
 70
     0
 10
0.0
 20
0.0
 30
0.0
  3
ARRO2
  1

  0
LINE
  5
3D7
330
3D6
100
AcDbEntity
  8
4
100
AcDbLine
 10
-0.124999999999992
 20
-0.0200000000000005
 30
0.0
 11
0.000000000000008
 21
-0.0000000000000009
 31
0.0
  0
LINE
  5
3D8
330
3D6
100
AcDbEntity
  8
4
100
AcDbLine
 10
0.000000000000008
 20
-0.0000000000000009
 30
0.0
 11
-0.124999999999992
 21
0.0199999999999996
 31
0.0
  0
LINE
  5
3D9
330
3D6
100
AcDbEntity
  8
4
100
AcDbLine
 10
-0.124999999999992
 20
-0.0099999999999998
 30
0.0
 11
0.000000000000008
 21
-0.0000000000000009
 31
0.0
  0
LINE
  5
3DA
330
3D6
100
AcDbEntity
  8
4
100
AcDbLine
 10
-0.124999999999992
 20
0.0099999999999998
 30
0.0
 11
0.0000000000000089
 21
-0.0000000000000009
 31
0.0
  0
LINE
  5
3DB
330
3D6
100
AcDbEntity
  8
4
100
AcDbLine
 10
-0.124999999999992
 20
-0.0200000000000005
 30
0.0
 11
-0.124999999999992
 21
0.0199999999999996
 31
0.0
  0
LINE
  5
3DC
330
3D6
100
AcDbEntity
  8
4
100
AcDbLine
 10
0.1250000000000124
 20
0.0199999999999987
 30
0.0
 11
0.1250000000000124
 21
-0.0200000000000014
 31
0.0
  0
LINE
  5
3DD
330
3D6
100
AcDbEntity
  8
4
100
AcDbLine
 10
0.1250000000000124
 20
-0.0100000000000016
 30
0.0
 11
0.0000000000000115
 21
-0.0000000000000009
 31
0.0
  0
LINE
  5
3DE
330
3D6
100
AcDbEntity
  8
4
100
AcDbLine
 10
0.1250000000000124
 20
0.009999999999998
 30
0.0
 11
0.0000000000000124
 21
-0.0000000000000009
 31
0.0
  0
LINE
  5
3DF
330
3D6
100
AcDbEntity
  8
4
100
AcDbLine
 10
0.0000000000000124
 20
-0.0000000000000009
 30
0.0
 11
0.1250000000000124
 21
-0.0200000000000014
 31
0.0
  0
LINE
  5
3E0
330
3D6
100
AcDbEntity
  8
4
100
AcDbLine
 10
0.1250000000000124
 20
0.0199999999999987
 30
0.0
 11
0.0000000000000124
 21
-0.0000000000000009
 31
0.0
  0
ENDBLK
  5
3E2
330
3D6
100
AcDbEntity
  8
4
100
AcDbBlockEnd
  0
BLOCK
  5
3E7
330
3E3
100
AcDbEntity
  8
2
100
AcDbBlockBegin
  2
FRACTION
 70
     2
 10
0.0
 20
0.0
 30
0.0
  3
FRACTION
  1

  0
ATTDEF
  5
3E4
330
3E3
100
AcDbEntity
  8
8
100
AcDbText
 10
-0.0729108846144104
 20
0.0974999999999966
 30
0.0
 40
0.125
  1

 72
     2
 11
-0.0729108846144104
 21
0.0974999999999966
 31
0.0
100
AcDbAttributeDefinition
  3
ENTER WHOLE NUMBER
  2
A
 70
     0
  0
ATTDEF
  5
3E5
330
3E3
100
AcDbEntity
  8
8
100
AcDbText
 10
0.0719999999999992
 20
0.1799999999999962
 30
0.0
 40
0.1
  1

 72
     1
 11
0.0719999999999992
 21
0.1799999999999962
 31
0.0
100
AcDbAttributeDefinition
  3
ENTER NUMERATOR
  2
B
 70
     0
  0
ATTDEF
  5
3E6
330
3E3
100
AcDbEntity
  8
8
100
AcDbText
 10
0.0719999999999992
 20
0.0399999999999992
 30
0.0
 40
0.1
  1

 72
     1
 11
0.0719999999999992
 21
0.0399999999999992
 31
0.0
100
AcDbAttributeDefinition
  3
ENTER DENOMINATOR
  2
C
 70
     0
  0
ENDBLK
  5
3E8
330
3E3
100
AcDbEntity
  8
2
100
AcDbBlockEnd
  0
BLOCK
  5
3FA
330
3E9
100
AcDbEntity
  8
4
100
AcDbBlockBegin
  2
B1
 70
     0
 10
0.0
 20
0.0
 30
0.0
  3
B1
  1

  0
LINE
  5
3EA
330
3E9
100
AcDbEntity
  8
4
100
AcDbLine
 10
0.23125
 20
-0.0375000000000005
 30
0.0
 11
0.2499999999999998
 21
-0.0000000000000009
 31
0.0
  0
LINE
  5
3EB
330
3E9
100
AcDbEntity
  8
4
100
AcDbLine
 10
0.2499999999999998
 20
-0.0000000000000009
 30
0.0
 11
0.2687499999999996
 21
-0.0375000000000005
 31
0.0
  0
LINE
  5
3EC
330
3E9
100
AcDbEntity
  8
4
100
AcDbLine
 10
0.23125
 20
-0.0375000000000005
 30
0.0
 11
0.2499999999999998
 21
-0.0750000000000002
 31
0.0
  0
LINE
  5
3ED
330
3E9
100
AcDbEntity
  8
4
100
AcDbLine
 10
0.2499999999999998
 20
-0.0750000000000002
 30
0.0
 11
0.2687499999999996
 21
-0.0375000000000005
 31
0.0
  0
LINE
  5
3EE
330
3E9
100
AcDbEntity
  8
4
100
AcDbLine
 10
0.2749999999999992
 20
-0.133
 30
0.0
 11
0.29375
 21
-0.0955000000000004
 31
0.0
  0
LINE
  5
3EF
330
3E9
100
AcDbEntity
  8
4
100
AcDbLine
 10
0.2562499999999994
 20
-0.0955000000000004
 30
0.0
 11
0.2749999999999992
 21
-0.133
 31
0.0
  0
LINE
  5
3F0
330
3E9
100
AcDbEntity
  8
4
100
AcDbLine
 10
0.2749999999999992
 20
-0.0580000000000007
 30
0.0
 11
0.29375
 21
-0.0955000000000004
 31
0.0
  0
LINE
  5
3F1
330
3E9
100
AcDbEntity
  8
4
100
AcDbLine
 10
0.2562499999999994
 20
-0.0955000000000004
 30
0.0
 11
0.2749999999999992
 21
-0.0580000000000007
 31
0.0
  0
LINE
  5
3F2
330
3E9
100
AcDbEntity
  8
4
100
AcDbLine
 10
0.0062500000000003
 20
-0.0955000000000004
 30
0.0
 11
0.0250000000000001
 21
-0.0580000000000007
 31
0.0
  0
LINE
  5
3F3
330
3E9
100
AcDbEntity
  8
4
100
AcDbLine
 10
0.0250000000000001
 20
-0.0580000000000007
 30
0.0
 11
0.04375
 21
-0.0955000000000004
 31
0.0
  0
LINE
  5
3F4
330
3E9
100
AcDbEntity
  8
4
100
AcDbLine
 10
0.0062500000000003
 20
-0.0955000000000004
 30
0.0
 11
0.0250000000000001
 21
-0.133
 31
0.0
  0
LINE
  5
3F5
330
3E9
100
AcDbEntity
  8
4
100
AcDbLine
 10
0.0250000000000001
 20
-0.133
 30
0.0
 11
0.04375
 21
-0.0955000000000004
 31
0.0
  0
LINE
  5
3F6
330
3E9
100
AcDbEntity
  8
4
100
AcDbLine
 10
-0.0000000000000002
 20
-0.0750000000000002
 30
0.0
 11
0.0187499999999996
 21
-0.0375000000000005
 31
0.0
  0
LINE
  5
3F7
330
3E9
100
AcDbEntity
  8
4
100
AcDbLine
 10
-0.0187500000000001
 20
-0.0375000000000005
 30
0.0
 11
-0.0000000000000002
 21
-0.0750000000000002
 31
0.0
  0
LINE
  5
3F8
330
3E9
100
AcDbEntity
  8
4
100
AcDbLine
 10
-0.0000000000000002
 20
-0.0000000000000009
 30
0.0
 11
0.0187499999999996
 21
-0.0375000000000005
 31
0.0
  0
LINE
  5
3F9
330
3E9
100
AcDbEntity
  8
4
100
AcDbLine
 10
-0.0187500000000001
 20
-0.0375000000000005
 30
0.0
 11
-0.0000000000000002
 21
-0.0000000000000009
 31
0.0
  0
ENDBLK
  5
3FB
330
3E9
100
AcDbEntity
  8
4
100
AcDbBlockEnd
  0
BLOCK
  5
68E
330
3FC
100
AcDbEntity
  8
0
100
AcDbBlockBegin
  2
SPL2ATHLETICDT72
 70
     0
 10
0.0
 20
0.0
 30
0.0
  3
SPL2ATHLETICDT72
  1

  4
SPL2 ATHLETIC DT 72 INCH
  0
TEXT
  5
3FD
330
3FC
100
AcDbEntity
  8
8
100
AcDbText
 10
1.422619047619047
 20
0.0940382753335138
 30
0.0
 40
0.125
  1
SINGLE POINT 2 ATHLETIC LOCKER - 72" DOUBLE TIER
  7
ROMANS
 72
     1
 11
4.125
 21
0.0940382753335138
 31
0.0
100
AcDbText
  0
LINE
  5
3FE
330
3FC
100
AcDbEntity
  8
4
  6
HIDDEN
100
AcDbLine
 10
1.505822237817195
 20
1.602421185526712
 30
0.0
 11
1.505822237817193
 21
2.933061388106862
 31
0.0
  0
LINE
  5
3FF
330
3FC
100
AcDbEntity
  8
4
  6
HIDDEN
100
AcDbLine
 10
1.434551490212087
 20
1.602421185526708
 30
0.0
 11
1.434551490212085
 21
2.933061388106855
 31
0.0
  0
LINE
  5
400
330
3FC
100
AcDbEntity
  8
4
  6
HIDDEN
100
AcDbLine
 10
1.48408857577278
 20
1.602421185526708
 30
0.0
 11
1.48408857577278
 21
2.933061388106859
 31
0.0
  0
LINE
  5
401
330
3FC
100
AcDbEntity
  8
4
  6
HIDDEN
100
AcDbLine
 10
1.412817828167671
 20
1.602421185526708
 30
0.0
 11
1.412817828167671
 21
2.933061388106855
 31
0.0
  0
LINE
  5
402
330
3FC
100
AcDbEntity
  8
4
100
AcDbLine
 10
1.531
 20
1.594042637600133
 30
0.0
 11
1.531
 21
2.93706547269071
 31
0.0
  0
LINE
  5
403
330
3FC
100
AcDbEntity
  8
4
100
AcDbLine
 10
1.094
 20
2.937044153890644
 30
0.0
 11
1.094
 21
1.594021318800067
 31
0.0
  0
INSERT
  5
404
330
3FC
100
AcDbEntity
  8
8
100
AcDbBlockReference
  2
TEMP3
 10
0.585911882523317
 20
3.936866340648614
 30
0.0
  0
ARC
  5
405
330
3FC
100
AcDbEntity
  8
4
100
AcDbCircle
 10
1.712
 20
2.874084459323295
 30
0.0
 40
0.025
100
AcDbArc
 50
180.0
 51
0.0
  0
ARC
  5
406
330
3FC
100
AcDbEntity
  8
4
100
AcDbCircle
 10
2.788
 20
2.874084459323295
 30
0.0
 40
0.025
100
AcDbArc
 50
180.0
 51
0.0
  0
LINE
  5
407
330
3FC
100
AcDbEntity
  8
4
100
AcDbLine
 10
1.905
 20
2.911084459323294
 30
0.0
 11
1.905
 21
2.849084459323293
 31
0.0
  0
LINE
  5
408
330
3FC
100
AcDbEntity
  8
4
100
AcDbLine
 10
1.967
 20
2.911084459323294
 30
0.0
 11
1.967
 21
2.849084459323293
 31
0.0
  0
ARC
  5
409
330
3FC
100
AcDbEntity
  8
4
100
AcDbCircle
 10
2.163
 20
2.874084459323295
 30
0.0
 40
0.025
100
AcDbArc
 50
180.0
 51
0.0
  0
ARC
  5
40A
330
3FC
100
AcDbEntity
  8
4
100
AcDbCircle
 10
2.336999999999999
 20
2.874084459323295
 30
0.0
 40
0.025
100
AcDbArc
 50
180.0
 51
0.0
  0
ARC
  5
40B
330
3FC
100
AcDbEntity
  8
4
100
AcDbCircle
 10
2.961999999999999
 20
2.874084459323295
 30
0.0
 40
0.025
100
AcDbArc
 50
180.0
 51
0.0
  0
LINE
  5
40C
330
3FC
100
AcDbEntity
  8
4
100
AcDbLine
 10
3.217
 20
2.911084459323294
 30
0.0
 11
3.217
 21
2.849084459323293
 31
0.0
  0
LINE
  5
40D
330
3FC
100
AcDbEntity
  8
4
100
AcDbLine
 10
3.155000000000001
 20
2.911084459323294
 30
0.0
 11
3.155000000000001
 21
2.849084459323293
 31
0.0
  0
ARC
  5
40E
330
3FC
100
AcDbEntity
  8
4
100
AcDbCircle
 10
3.413
 20
2.874084459323295
 30
0.0
 40
0.025
100
AcDbArc
 50
180.0
 51
0.0
  0
POINT
  5
40F
330
3FC
100
AcDbEntity
  8
4
100
AcDbPoint
 10
0.0
 20
0.0
 30
0.0
  0
ARC
  5
410
330
3FC
100
AcDbEntity
  8
4
100
AcDbCircle
 10
1.244149660466558
 20
2.186885603436721
 30
0.0
 40
0.0256985868768425
100
AcDbArc
 50
270.0
 51
356.4236656250017
  0
ARC
  5
411
330
3FC
100
AcDbEntity
  8
4
100
AcDbCircle
 10
1.151953069968031
 20
2.186885603436721
 30
0.0
 40
0.0256985868768425
100
AcDbArc
 50
183.5763343749981
 51
270.0
  0
LINE
  5
412
330
3FC
100
AcDbEntity
  8
4
100
AcDbLine
 10
1.094
 20
1.594021318800067
 30
0.0
 11
1.531
 21
1.594042637600133
 31
0.0
  0
LINE
  5
413
330
3FC
100
AcDbEntity
  8
2
100
AcDbLine
 10
1.171861591506541
 20
1.836685371252004
 30
0.0
 11
1.171861591506541
 21
1.752452071252005
 31
0.0
  0
LINE
  5
414
330
3FC
100
AcDbEntity
  8
4
100
AcDbLine
 10
1.342914438073393
 20
1.73154425679839
 30
0.0
 11
1.355203451621445
 21
1.7045153739573
 31
0.0
  0
LINE
  5
415
330
3FC
100
AcDbEntity
  8
4
100
AcDbLine
 10
1.342914438073393
 20
1.67546050712717
 30
0.0
 11
1.355203451621445
 21
1.702489389968262
 31
0.0
  0
LINE
  5
416
330
3FC
100
AcDbEntity
  8
2
100
AcDbLine
 10
1.208573858473459
 20
1.674132568389247
 30
0.0
 11
1.26465593901391
 21
1.674132568389247
 31
0.0
  0
LINE
  5
417
330
3FC
100
AcDbEntity
  8
4
100
AcDbLine
 10
1.188722916812337
 20
1.724410196416395
 30
0.0
 11
1.201011930360392
 21
1.751439079257485
 31
0.0
  0
ARC
  5
418
330
3FC
100
AcDbEntity
  8
4
100
AcDbCircle
 10
1.208573858473459
 20
1.730424711071853
 30
0.0
 40
0.0024474844644612
100
AcDbArc
 50
21.67779679634186
 51
158.3222032036579
  0
LINE
  5
419
330
3FC
100
AcDbEntity
  8
4
100
AcDbLine
 10
1.210750276992488
 20
1.73154425679839
 30
0.0
 11
1.223039290540542
 21
1.7045153739573
 31
0.0
  0
LINE
  5
41A
330
3FC
100
AcDbEntity
  8
4
100
AcDbLine
 10
1.206397439954428
 20
1.73154425679839
 30
0.0
 11
1.194108426406375
 21
1.7045153739573
 31
0.0
  0
LINE
  5
41B
330
3FC
100
AcDbEntity
  8
4
100
AcDbLine
 10
1.188722916812338
 20
1.780493946087615
 30
0.0
 11
1.201011930360392
 21
1.753465063246523
 31
0.0
  0
ARC
  5
41C
330
3FC
100
AcDbEntity
  8
4
100
AcDbCircle
 10
1.198783920615613
 20
1.752452071252005
 30
0.0
 40
0.0024474844644612
100
AcDbArc
 50
335.5504979363147
 51
24.44950206368503
  0
LINE
  5
41D
330
3FC
100
AcDbEntity
  8
4
100
AcDbLine
 10
1.184370079774278
 20
1.724410196416395
 30
0.0
 11
1.172081066226225
 21
1.751439079257485
 31
0.0
  0
LINE
  5
41E
330
3FC
100
AcDbEntity
  8
4
100
AcDbLine
 10
1.184370079774279
 20
1.780493946087615
 30
0.0
 11
1.172081066226225
 21
1.753465063246523
 31
0.0
  0
ARC
  5
41F
330
3FC
100
AcDbEntity
  8
4
100
AcDbCircle
 10
1.174309075971002
 20
1.752452071252005
 30
0.0
 40
0.0024474844644612
100
AcDbArc
 50
155.5504979363149
 51
204.4495020636849
  0
ARC
  5
420
330
3FC
100
AcDbEntity
  8
4
100
AcDbCircle
 10
1.186546498293309
 20
1.725529742142932
 30
0.0
 40
0.0024474844644612
100
AcDbArc
 50
201.6777967963417
 51
338.3222032036581
  0
ARC
  5
421
330
3FC
100
AcDbEntity
  8
4
100
AcDbCircle
 10
1.186546498293309
 20
1.779374400361078
 30
0.0
 40
0.0024474844644612
100
AcDbArc
 50
21.67779679634186
 51
158.3222032036579
  0
ARC
  5
422
330
3FC
100
AcDbEntity
  8
4
100
AcDbCircle
 10
1.208573858473459
 20
1.676580052853708
 30
0.0
 40
0.0024474844644612
100
AcDbArc
 50
201.6777967963417
 51
338.3222032036581
  0
LINE
  5
423
330
3FC
100
AcDbEntity
  8
4
100
AcDbLine
 10
1.206397439954428
 20
1.67546050712717
 30
0.0
 11
1.194108426406375
 21
1.702489389968262
 31
0.0
  0
LINE
  5
424
330
3FC
100
AcDbEntity
  8
4
100
AcDbLine
 10
1.210750276992488
 20
1.67546050712717
 30
0.0
 11
1.223039290540542
 21
1.702489389968262
 31
0.0
  0
ARC
  5
425
330
3FC
100
AcDbEntity
  8
4
100
AcDbCircle
 10
1.196336436151153
 20
1.703502381962782
 30
0.0
 40
0.0024474844644612
100
AcDbArc
 50
155.5504979363149
 51
204.4495020636849
  0
ARC
  5
426
330
3FC
100
AcDbEntity
  8
4
100
AcDbCircle
 10
1.220811280795764
 20
1.703502381962782
 30
0.0
 40
0.0024474844644612
100
AcDbArc
 50
335.5504979363147
 51
24.44950206368503
  0
LINE
  5
427
330
3FC
100
AcDbEntity
  8
4
100
AcDbLine
 10
1.320887077893242
 20
1.724410196416395
 30
0.0
 11
1.333176091441296
 21
1.751439079257485
 31
0.0
  0
LINE
  5
428
330
3FC
100
AcDbEntity
  8
4
100
AcDbLine
 10
1.316534240855183
 20
1.724410196416395
 30
0.0
 11
1.304245227307129
 21
1.751439079257485
 31
0.0
  0
ARC
  5
429
330
3FC
100
AcDbEntity
  8
4
100
AcDbCircle
 10
1.340738019554362
 20
1.730424711071853
 30
0.0
 40
0.0024474844644612
100
AcDbArc
 50
21.67779679634186
 51
158.3222032036579
  0
ARC
  5
42A
330
3FC
100
AcDbEntity
  8
4
100
AcDbCircle
 10
1.318710659374211
 20
1.725529742142932
 30
0.0
 40
0.0024474844644612
100
AcDbArc
 50
201.6777967963417
 51
338.3222032036581
  0
LINE
  5
42B
330
3FC
100
AcDbEntity
  8
4
100
AcDbLine
 10
1.338561601035334
 20
1.73154425679839
 30
0.0
 11
1.32627258748728
 21
1.7045153739573
 31
0.0
  0
ARC
  5
42C
330
3FC
100
AcDbEntity
  8
4
100
AcDbCircle
 10
1.306473237051906
 20
1.752452071252005
 30
0.0
 40
0.0024474844644612
100
AcDbArc
 50
155.5504979363149
 51
204.4495020636849
  0
ARC
  5
42D
330
3FC
100
AcDbEntity
  8
4
100
AcDbCircle
 10
1.330948081696517
 20
1.752452071252005
 30
0.0
 40
0.0024474844644612
100
AcDbArc
 50
335.5504979363147
 51
24.44950206368503
  0
ARC
  5
42E
330
3FC
100
AcDbEntity
  8
4
100
AcDbCircle
 10
1.318710659374211
 20
1.779374400361078
 30
0.0
 40
0.0024474844644612
100
AcDbArc
 50
21.67779679634186
 51
158.3222032036579
  0
LINE
  5
42F
330
3FC
100
AcDbEntity
  8
4
100
AcDbLine
 10
1.320887077893242
 20
1.780493946087615
 30
0.0
 11
1.333176091441296
 21
1.753465063246523
 31
0.0
  0
LINE
  5
430
330
3FC
100
AcDbEntity
  8
4
100
AcDbLine
 10
1.316534240855183
 20
1.780493946087615
 30
0.0
 11
1.304245227307129
 21
1.753465063246523
 31
0.0
  0
ARC
  5
431
330
3FC
100
AcDbEntity
  8
4
100
AcDbCircle
 10
1.340738019554362
 20
1.676580052853708
 30
0.0
 40
0.0024474844644612
100
AcDbArc
 50
201.6777967963417
 51
338.3222032036581
  0
LINE
  5
432
330
3FC
100
AcDbEntity
  8
4
100
AcDbLine
 10
1.338561601035334
 20
1.67546050712717
 30
0.0
 11
1.32627258748728
 21
1.702489389968262
 31
0.0
  0
LINE
  5
433
330
3FC
100
AcDbEntity
  8
2
100
AcDbLine
 10
1.28465593901391
 20
1.674132568389247
 30
0.0
 11
1.340738019554362
 21
1.674132568389247
 31
0.0
  0
ARC
  5
434
330
3FC
100
AcDbEntity
  8
4
100
AcDbCircle
 10
1.328500597232057
 20
1.703502381962782
 30
0.0
 40
0.0024474844644612
100
AcDbArc
 50
155.5504979363149
 51
204.4495020636849
  0
LINE
  5
435
330
3FC
100
AcDbEntity
  8
4
100
AcDbLine
 10
1.505822237817195
 20
1.602421185526712
 30
0.0
 11
1.412817828167671
 21
1.602421185526708
 31
0.0
  0
LINE
  5
436
330
3FC
100
AcDbEntity
  8
2
100
AcDbLine
 10
1.355422926341129
 20
1.787735681962781
 30
0.0
 11
1.355422926341129
 21
1.703502381962782
 31
0.0
  0
ARC
  5
437
330
3FC
100
AcDbEntity
  8
4
100
AcDbCircle
 10
1.352975441876668
 20
1.703502381962782
 30
0.0
 40
0.0024474844644612
100
AcDbArc
 50
335.5504979363147
 51
24.44950206368503
  0
LINE
  5
438
330
3FC
100
AcDbEntity
  8
4
100
AcDbLine
 10
1.342914438073393
 20
1.969158642862513
 30
0.0
 11
1.355203451621445
 21
1.996187525703604
 31
0.0
  0
LINE
  5
439
330
3FC
100
AcDbEntity
  8
4
100
AcDbLine
 10
1.342914438073393
 20
2.025242392533734
 30
0.0
 11
1.355203451621445
 21
1.998213509692643
 31
0.0
  0
LINE
  5
43A
330
3FC
100
AcDbEntity
  8
4
100
AcDbLine
 10
1.338561601035334
 20
1.969158642862513
 30
0.0
 11
1.32627258748728
 21
1.996187525703604
 31
0.0
  0
LINE
  5
43B
330
3FC
100
AcDbEntity
  8
4
100
AcDbLine
 10
1.206397439954428
 20
1.969158642862513
 30
0.0
 11
1.194108426406375
 21
1.996187525703604
 31
0.0
  0
LINE
  5
43C
330
3FC
100
AcDbEntity
  8
4
100
AcDbLine
 10
1.210750276992488
 20
1.969158642862513
 30
0.0
 11
1.223039290540542
 21
1.996187525703604
 31
0.0
  0
LINE
  5
43D
330
3FC
100
AcDbEntity
  8
2
100
AcDbLine
 10
1.171861591506541
 20
2.046150206987345
 30
0.0
 11
1.171861591506541
 21
1.961916906987346
 31
0.0
  0
ARC
  5
43E
330
3FC
100
AcDbEntity
  8
4
100
AcDbCircle
 10
1.208573858473459
 20
1.97027818858905
 30
0.0
 40
0.0024474844644612
100
AcDbArc
 50
201.6777967963417
 51
338.3222032036581
  0
LINE
  5
43F
330
3FC
100
AcDbEntity
  8
2
100
AcDbLine
 10
1.171861591506541
 20
1.940918671252003
 30
0.0
 11
1.171861591506541
 21
1.856685371252004
 31
0.0
  0
ARC
  5
440
330
3FC
100
AcDbEntity
  8
4
100
AcDbCircle
 10
1.340738019554362
 20
1.97027818858905
 30
0.0
 40
0.0024474844644612
100
AcDbArc
 50
201.6777967963417
 51
338.3222032036581
  0
LINE
  5
441
330
3FC
100
AcDbEntity
  8
2
100
AcDbLine
 10
1.186546498293309
 20
2.075520020560882
 30
0.0
 11
1.24262857883376
 21
2.075520020560882
 31
0.0
  0
ARC
  5
442
330
3FC
100
AcDbEntity
  8
4
100
AcDbCircle
 10
1.186546498293309
 20
2.07307253609642
 30
0.0
 40
0.0024474844644612
100
AcDbArc
 50
21.67779679634186
 51
158.3222032036579
  0
LINE
  5
443
330
3FC
100
AcDbEntity
  8
4
100
AcDbLine
 10
1.188722916812337
 20
2.018108332151739
 30
0.0
 11
1.201011930360392
 21
2.045137214992829
 31
0.0
  0
ARC
  5
444
330
3FC
100
AcDbEntity
  8
4
100
AcDbCircle
 10
1.198783920615613
 20
2.046150206987345
 30
0.0
 40
0.0024474844644612
100
AcDbArc
 50
335.5504979363147
 51
24.44950206368503
  0
ARC
  5
445
330
3FC
100
AcDbEntity
  8
4
100
AcDbCircle
 10
1.208573858473459
 20
2.024122846807197
 30
0.0
 40
0.0024474844644612
100
AcDbArc
 50
21.67779679634186
 51
158.3222032036579
  0
ARC
  5
446
330
3FC
100
AcDbEntity
  8
4
100
AcDbCircle
 10
1.196336436151153
 20
1.997200517698124
 30
0.0
 40
0.0024474844644612
100
AcDbArc
 50
155.5504979363149
 51
204.4495020636849
  0
ARC
  5
447
330
3FC
100
AcDbEntity
  8
4
100
AcDbCircle
 10
1.220811280795764
 20
1.997200517698124
 30
0.0
 40
0.0024474844644612
100
AcDbArc
 50
335.5504979363147
 51
24.44950206368503
  0
LINE
  5
448
330
3FC
100
AcDbEntity
  8
4
100
AcDbLine
 10
1.210750276992488
 20
2.025242392533734
 30
0.0
 11
1.223039290540542
 21
1.998213509692643
 31
0.0
  0
LINE
  5
449
330
3FC
100
AcDbEntity
  8
4
100
AcDbLine
 10
1.206397439954428
 20
2.025242392533734
 30
0.0
 11
1.194108426406375
 21
1.998213509692643
 31
0.0
  0
LINE
  5
44A
330
3FC
100
AcDbEntity
  8
4
100
AcDbLine
 10
1.184370079774278
 20
2.018108332151739
 30
0.0
 11
1.172081066226225
 21
2.045137214992829
 31
0.0
  0
ARC
  5
44B
330
3FC
100
AcDbEntity
  8
4
100
AcDbCircle
 10
1.174309075971002
 20
2.046150206987345
 30
0.0
 40
0.0024474844644612
100
AcDbArc
 50
155.5504979363149
 51
204.4495020636849
  0
ARC
  5
44C
330
3FC
100
AcDbEntity
  8
4
100
AcDbCircle
 10
1.186546498293309
 20
2.019227877878274
 30
0.0
 40
0.0024474844644612
100
AcDbArc
 50
201.6777967963417
 51
338.3222032036581
  0
LINE
  5
44D
330
3FC
100
AcDbEntity
  8
4
100
AcDbLine
 10
1.184370079774279
 20
2.074192081822957
 30
0.0
 11
1.172081066226225
 21
2.047163198981865
 31
0.0
  0
LINE
  5
44E
330
3FC
100
AcDbEntity
  8
4
100
AcDbLine
 10
1.188722916812338
 20
2.074192081822957
 30
0.0
 11
1.201011930360392
 21
2.047163198981865
 31
0.0
  0
ARC
  5
44F
330
3FC
100
AcDbEntity
  8
4
100
AcDbCircle
 10
1.318710659374211
 20
2.07307253609642
 30
0.0
 40
0.0024474844644612
100
AcDbArc
 50
21.67779679634186
 51
158.3222032036579
  0
LINE
  5
450
330
3FC
100
AcDbEntity
  8
2
100
AcDbLine
 10
1.262628578833759
 20
2.075520020560882
 30
0.0
 11
1.318710659374211
 21
2.075520020560882
 31
0.0
  0
ARC
  5
451
330
3FC
100
AcDbEntity
  8
4
100
AcDbCircle
 10
1.306473237051906
 20
2.046150206987345
 30
0.0
 40
0.0024474844644612
100
AcDbArc
 50
155.5504979363149
 51
204.4495020636849
  0
ARC
  5
452
330
3FC
100
AcDbEntity
  8
4
100
AcDbCircle
 10
1.330948081696517
 20
2.046150206987345
 30
0.0
 40
0.0024474844644612
100
AcDbArc
 50
335.5504979363147
 51
24.44950206368503
  0
ARC
  5
453
330
3FC
100
AcDbEntity
  8
4
100
AcDbCircle
 10
1.340738019554362
 20
2.024122846807197
 30
0.0
 40
0.0024474844644612
100
AcDbArc
 50
21.67779679634186
 51
158.3222032036579
  0
ARC
  5
454
330
3FC
100
AcDbEntity
  8
4
100
AcDbCircle
 10
1.318710659374211
 20
2.019227877878274
 30
0.0
 40
0.0024474844644612
100
AcDbArc
 50
201.6777967963417
 51
338.3222032036581
  0
LINE
  5
455
330
3FC
100
AcDbEntity
  8
4
100
AcDbLine
 10
1.320887077893242
 20
2.018108332151739
 30
0.0
 11
1.333176091441296
 21
2.045137214992829
 31
0.0
  0
LINE
  5
456
330
3FC
100
AcDbEntity
  8
4
100
AcDbLine
 10
1.316534240855183
 20
2.018108332151739
 30
0.0
 11
1.304245227307129
 21
2.045137214992829
 31
0.0
  0
ARC
  5
457
330
3FC
100
AcDbEntity
  8
4
100
AcDbCircle
 10
1.328500597232057
 20
1.997200517698124
 30
0.0
 40
0.0024474844644612
100
AcDbArc
 50
155.5504979363149
 51
204.4495020636849
  0
LINE
  5
458
330
3FC
100
AcDbEntity
  8
4
100
AcDbLine
 10
1.338561601035334
 20
2.025242392533734
 30
0.0
 11
1.32627258748728
 21
1.998213509692643
 31
0.0
  0
LINE
  5
459
330
3FC
100
AcDbEntity
  8
4
100
AcDbLine
 10
1.320887077893242
 20
2.074192081822957
 30
0.0
 11
1.333176091441296
 21
2.047163198981865
 31
0.0
  0
LINE
  5
45A
330
3FC
100
AcDbEntity
  8
4
100
AcDbLine
 10
1.316534240855183
 20
2.074192081822957
 30
0.0
 11
1.304245227307129
 21
2.047163198981865
 31
0.0
  0
LINE
  5
45B
330
3FC
100
AcDbEntity
  8
2
100
AcDbLine
 10
1.355422926341129
 20
1.997200517698122
 30
0.0
 11
1.355422926341129
 21
1.912967217698123
 31
0.0
  0
LINE
  5
45C
330
3FC
100
AcDbEntity
  8
2
100
AcDbLine
 10
1.355422926341129
 20
1.89196898196278
 30
0.0
 11
1.355422926341129
 21
1.80773568196278
 31
0.0
  0
LINE
  5
45D
330
3FC
100
AcDbEntity
  8
4
100
AcDbLine
 10
1.52426941772273
 20
1.904511645446078
 30
0.0
 11
1.52426941772273
 21
1.825580271467206
 31
0.0
  0
LINE
  5
45E
330
3FC
100
AcDbEntity
  8
4
100
AcDbLine
 10
1.52426941772273
 20
1.825580271467206
 30
0.0
 11
1.531
 21
1.825580271467206
 31
0.0
  0
LINE
  5
45F
330
3FC
100
AcDbEntity
  8
4
100
AcDbLine
 10
1.544852619642949
 20
1.86351921764771
 30
0.0
 11
1.514478865504616
 21
1.86351921764771
 31
0.0
  0
LINE
  5
460
330
3FC
100
AcDbEntity
  8
4
100
AcDbLine
 10
1.531
 20
1.904511645446078
 30
0.0
 11
1.52426941772273
 21
1.904511645446078
 31
0.0
  0
ARC
  5
461
330
3FC
100
AcDbEntity
  8
4
100
AcDbCircle
 10
1.352975441876668
 20
1.997200517698124
 30
0.0
 40
0.0024474844644612
100
AcDbArc
 50
335.5504979363147
 51
24.44950206368503
  0
ARC
  5
462
330
3FC
100
AcDbEntity
  8
4
100
AcDbCircle
 10
1.145459102735284
 20
2.349643320323391
 30
0.0
 40
0.0293698135735343
100
AcDbArc
 50
90.0
 51
183.5763343749981
  0
LINE
  5
463
330
3FC
100
AcDbEntity
  8
4
100
AcDbLine
 10
1.116146484568654
 20
2.347811281687974
 30
0.0
 11
1.126304529072233
 21
2.185282569630736
 31
0.0
  0
LINE
  5
464
330
3FC
100
AcDbEntity
  8
4
100
AcDbLine
 10
1.345152149821144
 20
2.513283176943547
 30
0.0
 11
1.357441163369196
 21
2.486254294102457
 31
0.0
  0
LINE
  5
465
330
3FC
100
AcDbEntity
  8
4
100
AcDbLine
 10
1.318771952602935
 20
2.506149116561552
 30
0.0
 11
1.30648293905488
 21
2.533177999402643
 31
0.0
  0
LINE
  5
466
330
3FC
100
AcDbEntity
  8
4
100
AcDbLine
 10
1.340799312783086
 20
2.513283176943547
 30
0.0
 11
1.328510299235031
 21
2.486254294102457
 31
0.0
  0
LINE
  5
467
330
3FC
100
AcDbEntity
  8
4
100
AcDbLine
 10
1.323124789640994
 20
2.506149116561552
 30
0.0
 11
1.335413803189047
 21
2.533177999402643
 31
0.0
  0
LINE
  5
468
330
3FC
100
AcDbEntity
  8
2
100
AcDbLine
 10
1.35766063808888
 20
2.569474602107938
 30
0.0
 11
1.35766063808888
 21
2.485241302107939
 31
0.0
  0
LINE
  5
469
330
3FC
100
AcDbEntity
  8
4
100
AcDbLine
 10
1.20863515170218
 20
2.513283176943547
 30
0.0
 11
1.196346138154127
 21
2.486254294102457
 31
0.0
  0
LINE
  5
46A
330
3FC
100
AcDbEntity
  8
4
100
AcDbLine
 10
1.212987988740239
 20
2.513283176943547
 30
0.0
 11
1.225277002288294
 21
2.486254294102457
 31
0.0
  0
LINE
  5
46B
330
3FC
100
AcDbEntity
  8
4
100
AcDbLine
 10
1.190960628560088
 20
2.506149116561552
 30
0.0
 11
1.203249642108143
 21
2.533177999402643
 31
0.0
  0
LINE
  5
46C
330
3FC
100
AcDbEntity
  8
4
100
AcDbLine
 10
1.186607791522029
 20
2.506149116561552
 30
0.0
 11
1.174318777973976
 21
2.533177999402643
 31
0.0
  0
LINE
  5
46D
330
3FC
100
AcDbEntity
  8
4
100
AcDbLine
 10
1.345152149821144
 20
2.457199427272327
 30
0.0
 11
1.357441163369196
 21
2.484228310113419
 31
0.0
  0
LINE
  5
46E
330
3FC
100
AcDbEntity
  8
4
100
AcDbLine
 10
1.279956245865935
 20
2.347811281687974
 30
0.0
 11
1.269798201362358
 21
2.185282569630736
 31
0.0
  0
LINE
  5
46F
330
3FC
100
AcDbEntity
  8
4
100
AcDbLine
 10
1.264668981930719
 20
2.338632023375272
 30
0.0
 11
1.256397779607717
 21
2.20631122328864
 31
0.0
  0
LINE
  5
470
330
3FC
100
AcDbEntity
  8
4
100
AcDbLine
 10
1.149472065679888
 20
2.3394613988734
 30
0.0
 11
1.171956447818694
 21
2.316977016734594
 31
0.0
  0
LINE
  5
471
330
3FC
100
AcDbEntity
  8
4
 62
   130
100
AcDbLine
 10
1.147713772250281
 20
2.336012551315049
 30
0.0
 11
1.168507600260344
 21
2.315218723304984
 31
0.0
  0
LINE
  5
472
330
3FC
100
AcDbEntity
  8
4
100
AcDbLine
 10
1.152933331403227
 20
2.342922664596738
 30
0.0
 11
1.175417713542033
 21
2.320438282457932
 31
0.0
  0
LINE
  5
473
330
3FC
100
AcDbEntity
  8
4
 62
   130
100
AcDbLine
 10
1.156353091495735
 20
2.344651870560497
 30
0.0
 11
1.177146919505798
 21
2.323858042550439
 31
0.0
  0
LINE
  5
474
330
3FC
100
AcDbEntity
  8
4
100
AcDbLine
 10
1.131433748503869
 20
2.338632023375272
 30
0.0
 11
1.139704950826872
 21
2.20629278620723
 31
0.0
  0
LINE
  5
475
330
3FC
100
AcDbEntity
  8
4
100
AcDbLine
 10
1.198051365217294
 20
2.161187016559879
 30
0.0
 11
1.244149660466558
 21
2.161187016559879
 31
0.0
  0
ARC
  5
476
330
3FC
100
AcDbEntity
  8
4
100
AcDbCircle
 10
1.236856034163298
 20
2.207532582378919
 30
0.0
 40
0.0195798757156895
100
AcDbArc
 50
270.0
 51
356.4236656250017
  0
CIRCLE
  5
477
330
3FC
100
AcDbEntity
  8
4
100
AcDbCircle
 10
1.198051365217294
 20
2.307394843497864
 30
0.0
 40
0.0042684129060203
  0
CIRCLE
  5
478
330
3FC
100
AcDbEntity
  8
4
100
AcDbCircle
 10
1.198051365217294
 20
2.221791626868867
 30
0.0
 40
0.0042684129060203
  0
CIRCLE
  5
479
330
3FC
100
AcDbEntity
  8
4
100
AcDbCircle
 10
1.198051365217294
 20
2.172200696649957
 30
0.0
 40
0.0070448392825051
  0
LINE
  5
47A
330
3FC
100
AcDbEntity
  8
4
100
AcDbLine
 10
1.198051365217294
 20
2.187952706663225
 30
0.0
 11
1.236856034163298
 21
2.18795270666323
 31
0.0
  0
LINE
  5
47B
330
3FC
100
AcDbEntity
  8
4
100
AcDbLine
 10
1.170211969894131
 20
2.325644026105834
 30
0.0
 11
1.166750704170794
 21
2.322182760382496
 31
0.0
  0
LINE
  5
47C
330
3FC
100
AcDbEntity
  8
4
100
AcDbLine
 10
1.171956447818694
 20
2.316977016734594
 30
0.0
 11
1.175417713542033
 21
2.320438282457932
 31
0.0
  0
ARC
  5
47D
330
3FC
100
AcDbEntity
  8
4
 62
   130
100
AcDbCircle
 10
1.172827259883071
 20
2.319538382927714
 30
0.0
 40
0.0061089212232951
100
AcDbArc
 50
224.9999999999999
 51
44.99999999999996
  0
ARC
  5
47E
330
3FC
100
AcDbEntity
  8
4
100
AcDbCircle
 10
1.159246696271291
 20
2.207532582378919
 30
0.0
 40
0.0195798757156895
100
AcDbArc
 50
183.5763343749981
 51
270.0
  0
CIRCLE
  5
47F
330
3FC
100
AcDbEntity
  8
4
100
AcDbCircle
 10
1.198051365217294
 20
2.264593235183364
 30
0.0
 40
0.0128492934384212
  0
LINE
  5
480
330
3FC
100
AcDbEntity
  8
4
100
AcDbLine
 10
1.198051365217294
 20
2.161187016559879
 30
0.0
 11
1.151953069968031
 21
2.161187016559879
 31
0.0
  0
LINE
  5
481
330
3FC
100
AcDbEntity
  8
4
100
AcDbLine
 10
1.198051365217294
 20
2.187952706663225
 30
0.0
 11
1.159246696271291
 21
2.18795270666323
 31
0.0
  0
LINE
  5
482
330
3FC
100
AcDbEntity
  8
2
100
AcDbLine
 10
1.210811570221211
 20
2.455871488534404
 30
0.0
 11
1.266893650761662
 21
2.455871488534404
 31
0.0
  0
LINE
  5
483
330
3FC
100
AcDbEntity
  8
4
100
AcDbLine
 10
1.198051365217294
 20
2.359433258181236
 30
0.0
 11
1.245127236486302
 21
2.359433258181236
 31
0.0
  0
LINE
  5
484
330
3FC
100
AcDbEntity
  8
4
100
AcDbLine
 10
1.198051365217294
 20
2.379013133896924
 30
0.0
 11
1.250643627699306
 21
2.379013133896924
 31
0.0
  0
LINE
  5
485
330
3FC
100
AcDbEntity
  8
4
100
AcDbLine
 10
1.212987988740239
 20
2.457199427272327
 30
0.0
 11
1.225277002288294
 21
2.484228310113419
 31
0.0
  0
LINE
  5
486
330
3FC
100
AcDbEntity
  8
4
100
AcDbLine
 10
1.20863515170218
 20
2.457199427272327
 30
0.0
 11
1.196346138154127
 21
2.484228310113419
 31
0.0
  0
ARC
  5
487
330
3FC
100
AcDbEntity
  8
4
100
AcDbCircle
 10
1.210811570221211
 20
2.458318972998866
 30
0.0
 40
0.0024474844644612
100
AcDbArc
 50
201.6777967963418
 51
338.3222032036581
  0
ARC
  5
488
330
3FC
100
AcDbEntity
  8
4
100
AcDbCircle
 10
1.223048992543516
 20
2.485241302107939
 30
0.0
 40
0.0024474844644612
100
AcDbArc
 50
335.5504979363148
 51
24.44950206368503
  0
ARC
  5
489
330
3FC
100
AcDbEntity
  8
4
100
AcDbCircle
 10
1.198574147898904
 20
2.485241302107939
 30
0.0
 40
0.0024474844644612
100
AcDbArc
 50
155.5504979363149
 51
204.4495020636849
  0
ARC
  5
48A
330
3FC
100
AcDbEntity
  8
4
100
AcDbCircle
 10
1.18878421004106
 20
2.507268662288089
 30
0.0
 40
0.0024474844644612
100
AcDbArc
 50
201.6777967963418
 51
338.3222032036581
  0
LINE
  5
48B
330
3FC
100
AcDbEntity
  8
4
100
AcDbLine
 10
1.152933331403227
 20
2.342922664596738
 30
0.0
 11
1.149472065679888
 21
2.3394613988734
 31
0.0
  0
ARC
  5
48C
330
3FC
100
AcDbEntity
  8
4
 62
   130
100
AcDbCircle
 10
1.152033431873008
 20
2.340332210937774
 30
0.0
 40
0.0061089212232951
100
AcDbArc
 50
44.99999999999996
 51
224.9999999999999
  0
LINE
  5
48D
330
3FC
100
AcDbEntity
  8
4
100
AcDbLine
 10
1.158139075051126
 20
2.337716920948841
 30
0.0
 11
1.154677809327789
 21
2.334255655225503
 31
0.0
  0
ARC
  5
48E
330
3FC
100
AcDbEntity
  8
4
100
AcDbCircle
 10
1.150975493948287
 20
2.339853382465545
 30
0.0
 40
0.0195798757156895
100
AcDbArc
 50
90.0
 51
183.5763343749981
  0
LINE
  5
48F
330
3FC
100
AcDbEntity
  8
4
100
AcDbLine
 10
1.198051365217294
 20
2.359433258181236
 30
0.0
 11
1.150975493948287
 21
2.359433258181236
 31
0.0
  0
LINE
  5
490
330
3FC
100
AcDbEntity
  8
4
100
AcDbLine
 10
1.198051365217294
 20
2.379013133896924
 30
0.0
 11
1.145459102735284
 21
2.379013133896924
 31
0.0
  0
LINE
  5
491
330
3FC
100
AcDbEntity
  8
4
100
AcDbLine
 10
1.340799312783086
 20
2.457199427272327
 30
0.0
 11
1.328510299235031
 21
2.484228310113419
 31
0.0
  0
ARC
  5
492
330
3FC
100
AcDbEntity
  8
4
100
AcDbCircle
 10
1.342975731302114
 20
2.458318972998866
 30
0.0
 40
0.0024474844644612
100
AcDbArc
 50
201.6777967963418
 51
338.3222032036581
  0
ARC
  5
493
330
3FC
100
AcDbEntity
  8
4
100
AcDbCircle
 10
1.330738308979808
 20
2.485241302107939
 30
0.0
 40
0.0024474844644612
100
AcDbArc
 50
155.5504979363149
 51
204.4495020636849
  0
ARC
  5
494
330
3FC
100
AcDbEntity
  8
4
100
AcDbCircle
 10
1.320948371121963
 20
2.507268662288089
 30
0.0
 40
0.0024474844644612
100
AcDbArc
 50
201.6777967963418
 51
338.3222032036581
  0
LINE
  5
495
330
3FC
100
AcDbEntity
  8
2
100
AcDbLine
 10
1.286893650761661
 20
2.455871488534404
 30
0.0
 11
1.342975731302114
 21
2.455871488534404
 31
0.0
  0
ARC
  5
496
330
3FC
100
AcDbEntity
  8
4
100
AcDbCircle
 10
1.250643627699306
 20
2.349643320323391
 30
0.0
 40
0.0293698135735343
100
AcDbArc
 50
356.4236656250017
 51
90.0
  0
ARC
  5
497
330
3FC
100
AcDbEntity
  8
4
100
AcDbCircle
 10
1.245127236486302
 20
2.339853382465545
 30
0.0
 40
0.0195798757156895
100
AcDbArc
 50
356.4236656250017
 51
90.0
  0
ARC
  5
498
330
3FC
100
AcDbEntity
  8
4
100
AcDbCircle
 10
1.355213153624419
 20
2.485241302107939
 30
0.0
 40
0.0024474844644612
100
AcDbArc
 50
335.5504979363148
 51
24.44950206368503
  0
LINE
  5
499
330
3FC
100
AcDbEntity
  8
4
100
AcDbLine
 10
1.345152149821144
 20
2.806981312678891
 30
0.0
 11
1.357441163369196
 21
2.779952429837801
 31
0.0
  0
LINE
  5
49A
330
3FC
100
AcDbEntity
  8
4
100
AcDbLine
 10
1.345152149821144
 20
2.750897563007671
 30
0.0
 11
1.357441163369196
 21
2.777926445848761
 31
0.0
  0
LINE
  5
49B
330
3FC
100
AcDbEntity
  8
2
100
AcDbLine
 10
1.174099303254292
 20
2.72265759139716
 30
0.0
 11
1.174099303254292
 21
2.638424291397161
 31
0.0
  0
ARC
  5
49C
330
3FC
100
AcDbEntity
  8
4
100
AcDbCircle
 10
1.210811570221211
 20
2.51216363121701
 30
0.0
 40
0.0024474844644612
100
AcDbArc
 50
21.67779679634186
 51
158.3222032036579
  0
ARC
  5
49D
330
3FC
100
AcDbEntity
  8
4
100
AcDbCircle
 10
1.201021632363365
 20
2.534190991397162
 30
0.0
 40
0.0024474844644612
100
AcDbArc
 50
335.5504979363148
 51
24.44950206368503
  0
ARC
  5
49E
330
3FC
100
AcDbEntity
  8
4
100
AcDbCircle
 10
1.18878421004106
 20
2.561113320506235
 30
0.0
 40
0.0024474844644612
100
AcDbArc
 50
21.67779679634186
 51
158.3222032036579
  0
LINE
  5
49F
330
3FC
100
AcDbEntity
  8
4
100
AcDbLine
 10
1.190960628560089
 20
2.562232866232772
 30
0.0
 11
1.203249642108143
 21
2.53520398339168
 31
0.0
  0
ARC
  5
4A0
330
3FC
100
AcDbEntity
  8
4
100
AcDbCircle
 10
1.176546787718753
 20
2.534190991397162
 30
0.0
 40
0.0024474844644612
100
AcDbArc
 50
155.5504979363149
 51
204.4495020636849
  0
LINE
  5
4A1
330
3FC
100
AcDbEntity
  8
2
100
AcDbLine
 10
1.174099303254292
 20
2.618424291397162
 30
0.0
 11
1.174099303254292
 21
2.534190991397162
 31
0.0
  0
LINE
  5
4A2
330
3FC
100
AcDbEntity
  8
4
100
AcDbLine
 10
1.186607791522031
 20
2.562232866232772
 30
0.0
 11
1.174318777973976
 21
2.53520398339168
 31
0.0
  0
LINE
  5
4A3
330
3FC
100
AcDbEntity
  8
4
100
AcDbLine
 10
1.318771952602935
 20
2.562232866232772
 30
0.0
 11
1.30648293905488
 21
2.53520398339168
 31
0.0
  0
LINE
  5
4A4
330
3FC
100
AcDbEntity
  8
4
100
AcDbLine
 10
1.323124789640994
 20
2.562232866232772
 30
0.0
 11
1.335413803189047
 21
2.53520398339168
 31
0.0
  0
ARC
  5
4A5
330
3FC
100
AcDbEntity
  8
4
100
AcDbCircle
 10
1.320948371121963
 20
2.561113320506235
 30
0.0
 40
0.0024474844644612
100
AcDbArc
 50
21.67779679634186
 51
158.3222032036579
  0
ARC
  5
4A6
330
3FC
100
AcDbEntity
  8
4
100
AcDbCircle
 10
1.342975731302114
 20
2.51216363121701
 30
0.0
 40
0.0024474844644612
100
AcDbArc
 50
21.67779679634186
 51
158.3222032036579
  0
ARC
  5
4A7
330
3FC
100
AcDbEntity
  8
4
100
AcDbCircle
 10
1.333185793444269
 20
2.534190991397162
 30
0.0
 40
0.0024474844644612
100
AcDbArc
 50
335.5504979363148
 51
24.44950206368503
  0
ARC
  5
4A8
330
3FC
100
AcDbEntity
  8
4
100
AcDbCircle
 10
1.308710948799657
 20
2.534190991397162
 30
0.0
 40
0.0024474844644612
100
AcDbArc
 50
155.5504979363149
 51
204.4495020636849
  0
LINE
  5
4A9
330
3FC
100
AcDbEntity
  8
2
100
AcDbLine
 10
1.18878421004106
 20
2.857258940706039
 30
0.0
 11
1.244866290581511
 21
2.857258940706039
 31
0.0
  0
LINE
  5
4AA
330
3FC
100
AcDbEntity
  8
4
100
AcDbLine
 10
1.20863515170218
 20
2.806981312678891
 30
0.0
 11
1.196346138154127
 21
2.779952429837801
 31
0.0
  0
LINE
  5
4AB
330
3FC
100
AcDbEntity
  8
4
100
AcDbLine
 10
1.212987988740239
 20
2.806981312678891
 30
0.0
 11
1.225277002288294
 21
2.779952429837801
 31
0.0
  0
ARC
  5
4AC
330
3FC
100
AcDbEntity
  8
4
100
AcDbCircle
 10
1.223048992543516
 20
2.778939437843281
 30
0.0
 40
0.0024474844644612
100
AcDbArc
 50
335.5504979363148
 51
24.44950206368503
  0
ARC
  5
4AD
330
3FC
100
AcDbEntity
  8
4
100
AcDbCircle
 10
1.198574147898904
 20
2.778939437843281
 30
0.0
 40
0.0024474844644612
100
AcDbArc
 50
155.5504979363149
 51
204.4495020636849
  0
ARC
  5
4AE
330
3FC
100
AcDbEntity
  8
4
100
AcDbCircle
 10
1.210811570221211
 20
2.805861766952354
 30
0.0
 40
0.0024474844644612
100
AcDbArc
 50
21.67779679634186
 51
158.3222032036579
  0
ARC
  5
4AF
330
3FC
100
AcDbEntity
  8
4
100
AcDbCircle
 10
1.201021632363365
 20
2.827889127132502
 30
0.0
 40
0.0024474844644612
100
AcDbArc
 50
335.5504979363148
 51
24.44950206368503
  0
ARC
  5
4B0
330
3FC
100
AcDbEntity
  8
4
100
AcDbCircle
 10
1.18878421004106
 20
2.800966798023431
 30
0.0
 40
0.0024474844644612
100
AcDbArc
 50
201.6777967963418
 51
338.3222032036581
  0
ARC
  5
4B1
330
3FC
100
AcDbEntity
  8
4
100
AcDbCircle
 10
1.18878421004106
 20
2.854811456241577
 30
0.0
 40
0.0024474844644612
100
AcDbArc
 50
21.67779679634186
 51
158.3222032036579
  0
LINE
  5
4B2
330
3FC
100
AcDbEntity
  8
4
100
AcDbLine
 10
1.190960628560088
 20
2.799847252296896
 30
0.0
 11
1.203249642108143
 21
2.826876135137986
 31
0.0
  0
LINE
  5
4B3
330
3FC
100
AcDbEntity
  8
4
100
AcDbLine
 10
1.190960628560089
 20
2.855931001968114
 30
0.0
 11
1.203249642108143
 21
2.828902119127022
 31
0.0
  0
ARC
  5
4B4
330
3FC
100
AcDbEntity
  8
4
100
AcDbCircle
 10
1.176546787718753
 20
2.827889127132502
 30
0.0
 40
0.0024474844644612
100
AcDbArc
 50
155.5504979363149
 51
204.4495020636849
  0
LINE
  5
4B5
330
3FC
100
AcDbEntity
  8
4
100
AcDbLine
 10
1.186607791522031
 20
2.855931001968114
 30
0.0
 11
1.174318777973976
 21
2.828902119127022
 31
0.0
  0
LINE
  5
4B6
330
3FC
100
AcDbEntity
  8
4
100
AcDbLine
 10
1.186607791522029
 20
2.799847252296896
 30
0.0
 11
1.174318777973976
 21
2.826876135137986
 31
0.0
  0
ARC
  5
4B7
330
3FC
100
AcDbEntity
  8
4
100
AcDbCircle
 10
1.210811570221211
 20
2.752017108734208
 30
0.0
 40
0.0024474844644612
100
AcDbArc
 50
201.6777967963418
 51
338.3222032036581
  0
LINE
  5
4B8
330
3FC
100
AcDbEntity
  8
2
100
AcDbLine
 10
1.174099303254292
 20
2.827889127132502
 30
0.0
 11
1.174099303254292
 21
2.743655827132503
 31
0.0
  0
LINE
  5
4B9
330
3FC
100
AcDbEntity
  8
4
100
AcDbLine
 10
1.212987988740239
 20
2.750897563007671
 30
0.0
 11
1.225277002288294
 21
2.777926445848761
 31
0.0
  0
LINE
  5
4BA
330
3FC
100
AcDbEntity
  8
4
100
AcDbLine
 10
1.20863515170218
 20
2.750897563007671
 30
0.0
 11
1.196346138154127
 21
2.777926445848761
 31
0.0
  0
LINE
  5
4BB
330
3FC
100
AcDbEntity
  8
4
100
AcDbLine
 10
1.340799312783086
 20
2.806981312678891
 30
0.0
 11
1.328510299235031
 21
2.779952429837801
 31
0.0
  0
ARC
  5
4BC
330
3FC
100
AcDbEntity
  8
4
100
AcDbCircle
 10
1.330738308979808
 20
2.778939437843281
 30
0.0
 40
0.0024474844644612
100
AcDbArc
 50
155.5504979363149
 51
204.4495020636849
  0
LINE
  5
4BD
330
3FC
100
AcDbEntity
  8
4
100
AcDbLine
 10
1.318771952602935
 20
2.855931001968114
 30
0.0
 11
1.30648293905488
 21
2.828902119127022
 31
0.0
  0
LINE
  5
4BE
330
3FC
100
AcDbEntity
  8
4
100
AcDbLine
 10
1.318771952602935
 20
2.799847252296896
 30
0.0
 11
1.30648293905488
 21
2.826876135137986
 31
0.0
  0
LINE
  5
4BF
330
3FC
100
AcDbEntity
  8
4
100
AcDbLine
 10
1.323124789640994
 20
2.855931001968114
 30
0.0
 11
1.335413803189047
 21
2.828902119127022
 31
0.0
  0
LINE
  5
4C0
330
3FC
100
AcDbEntity
  8
4
100
AcDbLine
 10
1.323124789640994
 20
2.799847252296896
 30
0.0
 11
1.335413803189047
 21
2.826876135137986
 31
0.0
  0
ARC
  5
4C1
330
3FC
100
AcDbEntity
  8
4
100
AcDbCircle
 10
1.320948371121963
 20
2.800966798023431
 30
0.0
 40
0.0024474844644612
100
AcDbArc
 50
201.6777967963418
 51
338.3222032036581
  0
ARC
  5
4C2
330
3FC
100
AcDbEntity
  8
4
100
AcDbCircle
 10
1.320948371121963
 20
2.854811456241577
 30
0.0
 40
0.0024474844644612
100
AcDbArc
 50
21.67779679634186
 51
158.3222032036579
  0
ARC
  5
4C3
330
3FC
100
AcDbEntity
  8
4
100
AcDbCircle
 10
1.342975731302114
 20
2.805861766952354
 30
0.0
 40
0.0024474844644612
100
AcDbArc
 50
21.67779679634186
 51
158.3222032036579
  0
ARC
  5
4C4
330
3FC
100
AcDbEntity
  8
4
100
AcDbCircle
 10
1.333185793444269
 20
2.827889127132502
 30
0.0
 40
0.0024474844644612
100
AcDbArc
 50
335.5504979363148
 51
24.44950206368503
  0
ARC
  5
4C5
330
3FC
100
AcDbEntity
  8
4
100
AcDbCircle
 10
1.308710948799657
 20
2.827889127132502
 30
0.0
 40
0.0024474844644612
100
AcDbArc
 50
155.5504979363149
 51
204.4495020636849
  0
LINE
  5
4C6
330
3FC
100
AcDbEntity
  8
2
100
AcDbLine
 10
1.264866290581511
 20
2.857258940706039
 30
0.0
 11
1.320948371121963
 21
2.857258940706039
 31
0.0
  0
ARC
  5
4C7
330
3FC
100
AcDbEntity
  8
4
100
AcDbCircle
 10
1.342975731302114
 20
2.752017108734208
 30
0.0
 40
0.0024474844644612
100
AcDbArc
 50
201.6777967963418
 51
338.3222032036581
  0
LINE
  5
4C8
330
3FC
100
AcDbEntity
  8
4
100
AcDbLine
 10
1.340799312783086
 20
2.750897563007671
 30
0.0
 11
1.328510299235031
 21
2.777926445848761
 31
0.0
  0
LINE
  5
4C9
330
3FC
100
AcDbEntity
  8
4
100
AcDbLine
 10
1.524269417722734
 20
2.707264855301528
 30
0.0
 11
1.52426941772273
 21
2.628333481322656
 31
0.0
  0
LINE
  5
4CA
330
3FC
100
AcDbEntity
  8
2
100
AcDbLine
 10
1.35766063808888
 20
2.673707902107937
 30
0.0
 11
1.35766063808888
 21
2.589474602107938
 31
0.0
  0
LINE
  5
4CB
330
3FC
100
AcDbEntity
  8
4
100
AcDbLine
 10
1.536633794702242
 20
2.666272427503157
 30
0.0
 11
1.516086921089397
 21
2.666272427503157
 31
0.0
  0
LINE
  5
4CC
330
3FC
100
AcDbEntity
  8
4
100
AcDbLine
 10
1.52426941772273
 20
2.628333481322656
 30
0.0
 11
1.531
 21
2.628333481322656
 31
0.0
  0
ARC
  5
4CD
330
3FC
100
AcDbEntity
  8
4
100
AcDbCircle
 10
1.355213153624419
 20
2.778939437843281
 30
0.0
 40
0.0024474844644612
100
AcDbArc
 50
335.5504979363148
 51
24.44950206368503
  0
LINE
  5
4CE
330
3FC
100
AcDbEntity
  8
2
100
AcDbLine
 10
1.35766063808888
 20
2.778939437843279
 30
0.0
 11
1.35766063808888
 21
2.69470613784328
 31
0.0
  0
LINE
  5
4CF
330
3FC
100
AcDbEntity
  8
4
100
AcDbLine
 10
1.531
 20
2.707264855301528
 30
0.0
 11
1.524269417722734
 21
2.707264855301528
 31
0.0
  0
LINE
  5
4D0
330
3FC
100
AcDbEntity
  8
4
  6
HIDDEN
100
AcDbLine
 10
1.412817828167671
 20
3.071399866726641
 30
0.0
 11
1.412817828167671
 21
4.402040069306789
 31
0.0
  0
LINE
  5
4D1
330
3FC
100
AcDbEntity
  8
4
  6
HIDDEN
100
AcDbLine
 10
1.505822237817195
 20
3.071399866726645
 30
0.0
 11
1.505822237817193
 21
4.402040069306796
 31
0.0
  0
LINE
  5
4D2
330
3FC
100
AcDbEntity
  8
4
  6
HIDDEN
100
AcDbLine
 10
1.434551490212087
 20
3.071399866726641
 30
0.0
 11
1.434551490212085
 21
4.402040069306789
 31
0.0
  0
LINE
  5
4D3
330
3FC
100
AcDbEntity
  8
4
  6
HIDDEN
100
AcDbLine
 10
1.48408857577278
 20
3.071399866726641
 30
0.0
 11
1.48408857577278
 21
4.402040069306792
 31
0.0
  0
LINE
  5
4D4
330
3FC
100
AcDbEntity
  8
2
100
AcDbLine
 10
1.174099303254292
 20
4.296867808332436
 30
0.0
 11
1.174099303254292
 21
4.212634508332437
 31
0.0
  0
LINE
  5
4D5
330
3FC
100
AcDbEntity
  8
4
100
AcDbLine
 10
1.340799312783086
 20
4.275959993878824
 30
0.0
 11
1.328510299235031
 21
4.248931111037734
 31
0.0
  0
LINE
  5
4D6
330
3FC
100
AcDbEntity
  8
4
100
AcDbLine
 10
1.345152149821144
 20
4.275959993878824
 30
0.0
 11
1.357441163369196
 21
4.248931111037734
 31
0.0
  0
LINE
  5
4D7
330
3FC
100
AcDbEntity
  8
4
100
AcDbLine
 10
1.20863515170218
 20
4.275959993878824
 30
0.0
 11
1.196346138154127
 21
4.248931111037734
 31
0.0
  0
LINE
  5
4D8
330
3FC
100
AcDbEntity
  8
4
100
AcDbLine
 10
1.212987988740239
 20
4.275959993878824
 30
0.0
 11
1.225277002288294
 21
4.248931111037734
 31
0.0
  0
LINE
  5
4D9
330
3FC
100
AcDbEntity
  8
4
100
AcDbLine
 10
1.094
 20
4.406022835090578
 30
0.0
 11
1.094
 21
3.063
 31
0.0
  0
LINE
  5
4DA
330
3FC
100
AcDbEntity
  8
4
100
AcDbLine
 10
1.531
 20
3.063021318800066
 30
0.0
 11
1.531
 21
4.406044153890643
 31
0.0
  0
LINE
  5
4DB
330
3FC
100
AcDbEntity
  8
4
100
AcDbLine
 10
0.9609118825233169
 20
3.734522076945322
 30
0.0
 11
0.585911882523317
 21
3.734522076945322
 31
0.0
  0
LINE
  5
4DC
330
3FC
100
AcDbEntity
  8
4
100
AcDbLine
 10
0.9609118825233169
 20
3.874866340648615
 30
0.0
 11
0.585911882523317
 21
3.874866340648615
 31
0.0
  0
LINE
  5
4DD
330
3FC
100
AcDbEntity
  8
4
100
AcDbLine
 10
0.585911882523317
 20
3.874866340648615
 30
0.0
 11
0.585911882523317
 21
3.936866340648614
 31
0.0
  0
LINE
  5
4DE
330
3FC
100
AcDbEntity
  8
4
100
AcDbLine
 10
0.585911882523317
 20
3.734522076945322
 30
0.0
 11
0.585911882523317
 21
3.672522076945323
 31
0.0
  0
LINE
  5
4DF
330
3FC
100
AcDbEntity
  8
4
100
AcDbLine
 10
1.531
 20
2.93706547269071
 30
0.0
 11
1.094
 21
2.937044153890644
 31
0.0
  0
LINE
  5
4E0
330
3FC
100
AcDbEntity
  8
4
100
AcDbLine
 10
1.094
 20
3.063
 30
0.0
 11
1.531
 21
3.063021318800066
 31
0.0
  0
LINE
  5
4E1
330
3FC
100
AcDbEntity
  8
4
100
AcDbLine
 10
1.062
 20
3.031044153890644
 30
0.0
 11
1.562999999999999
 21
3.031044153890644
 31
0.0
  0
LINE
  5
4E2
330
3FC
100
AcDbEntity
  8
4
100
AcDbLine
 10
1.062
 20
2.969044153890644
 30
0.0
 11
1.562999999999999
 21
2.969044153890644
 31
0.0
  0
LINE
  5
4E3
330
3FC
100
AcDbEntity
  8
2
100
AcDbLine
 10
1.355422926341129
 20
3.256714363162714
 30
0.0
 11
1.355422926341129
 21
3.172481063162714
 31
0.0
  0
LINE
  5
4E4
330
3FC
100
AcDbEntity
  8
4
100
AcDbLine
 10
1.320887077893242
 20
3.193388877616328
 30
0.0
 11
1.333176091441296
 21
3.220417760457418
 31
0.0
  0
LINE
  5
4E5
330
3FC
100
AcDbEntity
  8
4
100
AcDbLine
 10
1.316534240855183
 20
3.193388877616328
 30
0.0
 11
1.304245227307129
 21
3.220417760457418
 31
0.0
  0
LINE
  5
4E6
330
3FC
100
AcDbEntity
  8
4
100
AcDbLine
 10
1.184370079774278
 20
3.193388877616328
 30
0.0
 11
1.172081066226225
 21
3.220417760457418
 31
0.0
  0
LINE
  5
4E7
330
3FC
100
AcDbEntity
  8
4
100
AcDbLine
 10
1.188722916812337
 20
3.193388877616328
 30
0.0
 11
1.201011930360392
 21
3.220417760457418
 31
0.0
  0
LINE
  5
4E8
330
3FC
100
AcDbEntity
  8
4
100
AcDbLine
 10
1.342914438073393
 20
3.200522937998323
 30
0.0
 11
1.355203451621445
 21
3.173494055157232
 31
0.0
  0
LINE
  5
4E9
330
3FC
100
AcDbEntity
  8
4
100
AcDbLine
 10
1.342914438073393
 20
3.144439188327103
 30
0.0
 11
1.355203451621445
 21
3.171468071168195
 31
0.0
  0
CIRCLE
  5
4EA
330
3FC
100
AcDbEntity
  8
4
100
AcDbCircle
 10
1.335110495227122
 20
2.892967739042524
 30
0.0
 40
0.0026628630973338
  0
ARC
  5
4EB
330
3FC
100
AcDbEntity
  8
4
100
AcDbCircle
 10
1.261685961293286
 20
2.892967739042524
 30
0.0
 40
0.0795432450949886
100
AcDbArc
 50
347.5762104955836
 51
12.42378950441639
  0
CIRCLE
  5
4EC
330
3FC
100
AcDbEntity
  8
4
100
AcDbCircle
 10
1.261685961293286
 20
2.892967739042524
 30
0.0
 40
0.0026628630973338
  0
ARC
  5
4ED
330
3FC
100
AcDbEntity
  8
4
100
AcDbCircle
 10
1.335110495227122
 20
2.892967739042524
 30
0.0
 40
0.0795432450949886
100
AcDbArc
 50
167.5762104955836
 51
192.4237895044163
  0
ARC
  5
4EE
330
3FC
100
AcDbEntity
  8
4
100
AcDbCircle
 10
1.298398228260205
 20
2.639041225854676
 30
0.0
 40
0.274118260019653
100
AcDbArc
 50
81.40466153832003
 51
98.59533846167998
  0
ARC
  5
4EF
330
3FC
100
AcDbEntity
  8
4
100
AcDbCircle
 10
1.298398228260205
 20
3.146894252230371
 30
0.0
 40
0.274118260019653
100
AcDbArc
 50
261.40466153832
 51
278.5953384616799
  0
LINE
  5
4F0
330
3FC
100
AcDbEntity
  8
2
100
AcDbLine
 10
1.208573858473459
 20
3.14311124958918
 30
0.0
 11
1.26465593901391
 21
3.14311124958918
 31
0.0
  0
ARC
  5
4F1
330
3FC
100
AcDbEntity
  8
4
100
AcDbCircle
 10
1.186546498293309
 20
3.194508423342865
 30
0.0
 40
0.0024474844644612
100
AcDbArc
 50
201.6777967963418
 51
338.3222032036581
  0
ARC
  5
4F2
330
3FC
100
AcDbEntity
  8
4
100
AcDbCircle
 10
1.208573858473459
 20
3.199403392271786
 30
0.0
 40
0.0024474844644612
100
AcDbArc
 50
21.67779679634186
 51
158.3222032036579
  0
LINE
  5
4F3
330
3FC
100
AcDbEntity
  8
4
100
AcDbLine
 10
1.210750276992488
 20
3.200522937998323
 30
0.0
 11
1.223039290540542
 21
3.173494055157232
 31
0.0
  0
LINE
  5
4F4
330
3FC
100
AcDbEntity
  8
4
100
AcDbLine
 10
1.206397439954428
 20
3.200522937998323
 30
0.0
 11
1.194108426406375
 21
3.173494055157232
 31
0.0
  0
ARC
  5
4F5
330
3FC
100
AcDbEntity
  8
4
100
AcDbCircle
 10
1.196336436151153
 20
3.172481063162714
 30
0.0
 40
0.0024474844644612
100
AcDbArc
 50
155.5504979363149
 51
204.449502063685
  0
ARC
  5
4F6
330
3FC
100
AcDbEntity
  8
4
100
AcDbCircle
 10
1.220811280795764
 20
3.172481063162714
 30
0.0
 40
0.0024474844644612
100
AcDbArc
 50
335.5504979363148
 51
24.44950206368503
  0
ARC
  5
4F7
330
3FC
100
AcDbEntity
  8
4
100
AcDbCircle
 10
1.208573858473459
 20
3.145558734053641
 30
0.0
 40
0.0024474844644612
100
AcDbArc
 50
201.6777967963418
 51
338.3222032036581
  0
LINE
  5
4F8
330
3FC
100
AcDbEntity
  8
4
100
AcDbLine
 10
1.206397439954428
 20
3.144439188327103
 30
0.0
 11
1.194108426406375
 21
3.171468071168195
 31
0.0
  0
LINE
  5
4F9
330
3FC
100
AcDbEntity
  8
4
100
AcDbLine
 10
1.210750276992488
 20
3.144439188327103
 30
0.0
 11
1.223039290540542
 21
3.171468071168195
 31
0.0
  0
ARC
  5
4FA
330
3FC
100
AcDbEntity
  8
4
100
AcDbCircle
 10
1.340738019554362
 20
3.199403392271786
 30
0.0
 40
0.0024474844644612
100
AcDbArc
 50
21.67779679634186
 51
158.3222032036579
  0
ARC
  5
4FB
330
3FC
100
AcDbEntity
  8
4
100
AcDbCircle
 10
1.318710659374211
 20
3.194508423342865
 30
0.0
 40
0.0024474844644612
100
AcDbArc
 50
201.6777967963418
 51
338.3222032036581
  0
ARC
  5
4FC
330
3FC
100
AcDbEntity
  8
4
100
AcDbCircle
 10
1.328500597232057
 20
3.172481063162714
 30
0.0
 40
0.0024474844644612
100
AcDbArc
 50
155.5504979363149
 51
204.449502063685
  0
LINE
  5
4FD
330
3FC
100
AcDbEntity
  8
4
100
AcDbLine
 10
1.338561601035334
 20
3.200522937998323
 30
0.0
 11
1.32627258748728
 21
3.173494055157232
 31
0.0
  0
ARC
  5
4FE
330
3FC
100
AcDbEntity
  8
4
100
AcDbCircle
 10
1.340738019554362
 20
3.145558734053641
 30
0.0
 40
0.0024474844644612
100
AcDbArc
 50
201.6777967963418
 51
338.3222032036581
  0
LINE
  5
4FF
330
3FC
100
AcDbEntity
  8
4
100
AcDbLine
 10
1.338561601035334
 20
3.144439188327103
 30
0.0
 11
1.32627258748728
 21
3.171468071168195
 31
0.0
  0
LINE
  5
500
330
3FC
100
AcDbEntity
  8
2
100
AcDbLine
 10
1.28465593901391
 20
3.14311124958918
 30
0.0
 11
1.340738019554362
 21
3.14311124958918
 31
0.0
  0
LINE
  5
501
330
3FC
100
AcDbEntity
  8
4
100
AcDbLine
 10
1.505822237817193
 20
2.933061388106862
 30
0.0
 11
1.412817828167671
 21
2.933061388106855
 31
0.0
  0
LINE
  5
502
330
3FC
100
AcDbEntity
  8
4
100
AcDbLine
 10
1.505822237817195
 20
3.071399866726645
 30
0.0
 11
1.412817828167671
 21
3.071399866726641
 31
0.0
  0
ARC
  5
503
330
3FC
100
AcDbEntity
  8
4
100
AcDbCircle
 10
1.352975441876668
 20
3.172481063162714
 30
0.0
 40
0.0024474844644612
100
AcDbArc
 50
335.5504979363148
 51
24.44950206368503
  0
LINE
  5
504
330
3FC
100
AcDbEntity
  8
4
100
AcDbLine
 10
1.342914438073393
 20
3.438137324062446
 30
0.0
 11
1.355203451621445
 21
3.465166206903537
 31
0.0
  0
LINE
  5
505
330
3FC
100
AcDbEntity
  8
4
100
AcDbLine
 10
1.342914438073393
 20
3.494221073733667
 30
0.0
 11
1.355203451621445
 21
3.467192190892576
 31
0.0
  0
LINE
  5
506
330
3FC
100
AcDbEntity
  8
2
100
AcDbLine
 10
1.171861591506541
 20
3.409897352451936
 30
0.0
 11
1.171861591506541
 21
3.325664052451937
 31
0.0
  0
LINE
  5
507
330
3FC
100
AcDbEntity
  8
4
100
AcDbLine
 10
1.184370079774279
 20
3.249472627287548
 30
0.0
 11
1.172081066226225
 21
3.222443744446456
 31
0.0
  0
ARC
  5
508
330
3FC
100
AcDbEntity
  8
4
100
AcDbCircle
 10
1.174309075971002
 20
3.221430752451938
 30
0.0
 40
0.0024474844644612
100
AcDbArc
 50
155.5504979363149
 51
204.449502063685
  0
LINE
  5
509
330
3FC
100
AcDbEntity
  8
4
100
AcDbLine
 10
1.188722916812338
 20
3.249472627287548
 30
0.0
 11
1.201011930360392
 21
3.222443744446456
 31
0.0
  0
ARC
  5
50A
330
3FC
100
AcDbEntity
  8
4
100
AcDbCircle
 10
1.186546498293309
 20
3.248353081561011
 30
0.0
 40
0.0024474844644612
100
AcDbArc
 50
21.67779679634186
 51
158.3222032036579
  0
ARC
  5
50B
330
3FC
100
AcDbEntity
  8
4
100
AcDbCircle
 10
1.198783920615613
 20
3.221430752451938
 30
0.0
 40
0.0024474844644612
100
AcDbArc
 50
335.5504979363148
 51
24.44950206368503
  0
LINE
  5
50C
330
3FC
100
AcDbEntity
  8
2
100
AcDbLine
 10
1.171861591506541
 20
3.305664052451937
 30
0.0
 11
1.171861591506541
 21
3.221430752451938
 31
0.0
  0
ARC
  5
50D
330
3FC
100
AcDbEntity
  8
4
100
AcDbCircle
 10
1.306473237051906
 20
3.221430752451938
 30
0.0
 40
0.0024474844644612
100
AcDbArc
 50
155.5504979363149
 51
204.449502063685
  0
ARC
  5
50E
330
3FC
100
AcDbEntity
  8
4
100
AcDbCircle
 10
1.330948081696517
 20
3.221430752451938
 30
0.0
 40
0.0024474844644612
100
AcDbArc
 50
335.5504979363148
 51
24.44950206368503
  0
ARC
  5
50F
330
3FC
100
AcDbEntity
  8
4
100
AcDbCircle
 10
1.318710659374211
 20
3.248353081561011
 30
0.0
 40
0.0024474844644612
100
AcDbArc
 50
21.67779679634186
 51
158.3222032036579
  0
LINE
  5
510
330
3FC
100
AcDbEntity
  8
4
100
AcDbLine
 10
1.320887077893242
 20
3.249472627287548
 30
0.0
 11
1.333176091441296
 21
3.222443744446456
 31
0.0
  0
LINE
  5
511
330
3FC
100
AcDbEntity
  8
4
100
AcDbLine
 10
1.316534240855183
 20
3.249472627287548
 30
0.0
 11
1.304245227307129
 21
3.222443744446456
 31
0.0
  0
LINE
  5
512
330
3FC
100
AcDbEntity
  8
2
100
AcDbLine
 10
1.186546498293309
 20
3.544498701760815
 30
0.0
 11
1.24262857883376
 21
3.544498701760815
 31
0.0
  0
LINE
  5
513
330
3FC
100
AcDbEntity
  8
4
100
AcDbLine
 10
1.184370079774278
 20
3.487087013351672
 30
0.0
 11
1.172081066226225
 21
3.514115896192762
 31
0.0
  0
LINE
  5
514
330
3FC
100
AcDbEntity
  8
4
100
AcDbLine
 10
1.184370079774279
 20
3.54317076302289
 30
0.0
 11
1.172081066226225
 21
3.516141880181798
 31
0.0
  0
ARC
  5
515
330
3FC
100
AcDbEntity
  8
4
100
AcDbCircle
 10
1.174309075971002
 20
3.515128888187278
 30
0.0
 40
0.0024474844644612
100
AcDbArc
 50
155.5504979363149
 51
204.449502063685
  0
LINE
  5
516
330
3FC
100
AcDbEntity
  8
4
100
AcDbLine
 10
1.188722916812338
 20
3.54317076302289
 30
0.0
 11
1.201011930360392
 21
3.516141880181798
 31
0.0
  0
LINE
  5
517
330
3FC
100
AcDbEntity
  8
4
100
AcDbLine
 10
1.188722916812337
 20
3.487087013351672
 30
0.0
 11
1.201011930360392
 21
3.514115896192762
 31
0.0
  0
ARC
  5
518
330
3FC
100
AcDbEntity
  8
4
100
AcDbCircle
 10
1.186546498293309
 20
3.542051217296353
 30
0.0
 40
0.0024474844644612
100
AcDbArc
 50
21.67779679634186
 51
158.3222032036579
  0
ARC
  5
519
330
3FC
100
AcDbEntity
  8
4
100
AcDbCircle
 10
1.186546498293309
 20
3.488206559078207
 30
0.0
 40
0.0024474844644612
100
AcDbArc
 50
201.6777967963418
 51
338.3222032036581
  0
ARC
  5
51A
330
3FC
100
AcDbEntity
  8
4
100
AcDbCircle
 10
1.198783920615613
 20
3.515128888187278
 30
0.0
 40
0.0024474844644612
100
AcDbArc
 50
335.5504979363148
 51
24.44950206368503
  0
ARC
  5
51B
330
3FC
100
AcDbEntity
  8
4
100
AcDbCircle
 10
1.208573858473459
 20
3.49310152800713
 30
0.0
 40
0.0024474844644612
100
AcDbArc
 50
21.67779679634186
 51
158.3222032036579
  0
ARC
  5
51C
330
3FC
100
AcDbEntity
  8
4
100
AcDbCircle
 10
1.196336436151153
 20
3.466179198898057
 30
0.0
 40
0.0024474844644612
100
AcDbArc
 50
155.5504979363149
 51
204.449502063685
  0
ARC
  5
51D
330
3FC
100
AcDbEntity
  8
4
100
AcDbCircle
 10
1.220811280795764
 20
3.466179198898057
 30
0.0
 40
0.0024474844644612
100
AcDbArc
 50
335.5504979363148
 51
24.44950206368503
  0
ARC
  5
51E
330
3FC
100
AcDbEntity
  8
4
100
AcDbCircle
 10
1.208573858473459
 20
3.439256869788983
 30
0.0
 40
0.0024474844644612
100
AcDbArc
 50
201.6777967963418
 51
338.3222032036581
  0
LINE
  5
51F
330
3FC
100
AcDbEntity
  8
4
100
AcDbLine
 10
1.206397439954428
 20
3.438137324062446
 30
0.0
 11
1.194108426406375
 21
3.465166206903537
 31
0.0
  0
LINE
  5
520
330
3FC
100
AcDbEntity
  8
4
100
AcDbLine
 10
1.210750276992488
 20
3.438137324062446
 30
0.0
 11
1.223039290540542
 21
3.465166206903537
 31
0.0
  0
LINE
  5
521
330
3FC
100
AcDbEntity
  8
4
100
AcDbLine
 10
1.210750276992488
 20
3.494221073733667
 30
0.0
 11
1.223039290540542
 21
3.467192190892576
 31
0.0
  0
LINE
  5
522
330
3FC
100
AcDbEntity
  8
4
100
AcDbLine
 10
1.206397439954428
 20
3.494221073733667
 30
0.0
 11
1.194108426406375
 21
3.467192190892576
 31
0.0
  0
LINE
  5
523
330
3FC
100
AcDbEntity
  8
2
100
AcDbLine
 10
1.171861591506541
 20
3.515128888187278
 30
0.0
 11
1.171861591506541
 21
3.430895588187279
 31
0.0
  0
ARC
  5
524
330
3FC
100
AcDbEntity
  8
4
100
AcDbCircle
 10
1.306473237051906
 20
3.515128888187278
 30
0.0
 40
0.0024474844644612
100
AcDbArc
 50
155.5504979363149
 51
204.449502063685
  0
ARC
  5
525
330
3FC
100
AcDbEntity
  8
4
100
AcDbCircle
 10
1.330948081696517
 20
3.515128888187278
 30
0.0
 40
0.0024474844644612
100
AcDbArc
 50
335.5504979363148
 51
24.44950206368503
  0
ARC
  5
526
330
3FC
100
AcDbEntity
  8
4
100
AcDbCircle
 10
1.340738019554362
 20
3.49310152800713
 30
0.0
 40
0.0024474844644612
100
AcDbArc
 50
21.67779679634186
 51
158.3222032036579
  0
ARC
  5
527
330
3FC
100
AcDbEntity
  8
4
100
AcDbCircle
 10
1.318710659374211
 20
3.542051217296353
 30
0.0
 40
0.0024474844644612
100
AcDbArc
 50
21.67779679634186
 51
158.3222032036579
  0
ARC
  5
528
330
3FC
100
AcDbEntity
  8
4
100
AcDbCircle
 10
1.318710659374211
 20
3.488206559078207
 30
0.0
 40
0.0024474844644612
100
AcDbArc
 50
201.6777967963418
 51
338.3222032036581
  0
LINE
  5
529
330
3FC
100
AcDbEntity
  8
4
100
AcDbLine
 10
1.320887077893242
 20
3.487087013351672
 30
0.0
 11
1.333176091441296
 21
3.514115896192762
 31
0.0
  0
LINE
  5
52A
330
3FC
100
AcDbEntity
  8
4
100
AcDbLine
 10
1.320887077893242
 20
3.54317076302289
 30
0.0
 11
1.333176091441296
 21
3.516141880181798
 31
0.0
  0
LINE
  5
52B
330
3FC
100
AcDbEntity
  8
4
100
AcDbLine
 10
1.316534240855183
 20
3.487087013351672
 30
0.0
 11
1.304245227307129
 21
3.514115896192762
 31
0.0
  0
LINE
  5
52C
330
3FC
100
AcDbEntity
  8
4
100
AcDbLine
 10
1.316534240855183
 20
3.54317076302289
 30
0.0
 11
1.304245227307129
 21
3.516141880181798
 31
0.0
  0
LINE
  5
52D
330
3FC
100
AcDbEntity
  8
2
100
AcDbLine
 10
1.262628578833759
 20
3.544498701760815
 30
0.0
 11
1.318710659374211
 21
3.544498701760815
 31
0.0
  0
ARC
  5
52E
330
3FC
100
AcDbEntity
  8
4
100
AcDbCircle
 10
1.328500597232057
 20
3.466179198898057
 30
0.0
 40
0.0024474844644612
100
AcDbArc
 50
155.5504979363149
 51
204.449502063685
  0
ARC
  5
52F
330
3FC
100
AcDbEntity
  8
4
100
AcDbCircle
 10
1.340738019554362
 20
3.439256869788983
 30
0.0
 40
0.0024474844644612
100
AcDbArc
 50
201.6777967963418
 51
338.3222032036581
  0
LINE
  5
530
330
3FC
100
AcDbEntity
  8
4
100
AcDbLine
 10
1.338561601035334
 20
3.438137324062446
 30
0.0
 11
1.32627258748728
 21
3.465166206903537
 31
0.0
  0
LINE
  5
531
330
3FC
100
AcDbEntity
  8
4
100
AcDbLine
 10
1.338561601035334
 20
3.494221073733667
 30
0.0
 11
1.32627258748728
 21
3.467192190892576
 31
0.0
  0
LINE
  5
532
330
3FC
100
AcDbEntity
  8
2
100
AcDbLine
 10
1.355422926341129
 20
3.466179198898055
 30
0.0
 11
1.355422926341129
 21
3.381945898898055
 31
0.0
  0
LINE
  5
533
330
3FC
100
AcDbEntity
  8
2
100
AcDbLine
 10
1.355422926341129
 20
3.360947663162713
 30
0.0
 11
1.355422926341129
 21
3.276714363162713
 31
0.0
  0
LINE
  5
534
330
3FC
100
AcDbEntity
  8
4
100
AcDbLine
 10
1.52426941772273
 20
3.373490326646012
 30
0.0
 11
1.52426941772273
 21
3.29455895266714
 31
0.0
  0
LINE
  5
535
330
3FC
100
AcDbEntity
  8
4
100
AcDbLine
 10
1.531
 20
3.373490326646012
 30
0.0
 11
1.52426941772273
 21
3.373490326646012
 31
0.0
  0
LINE
  5
536
330
3FC
100
AcDbEntity
  8
4
100
AcDbLine
 10
1.52426941772273
 20
3.29455895266714
 30
0.0
 11
1.531
 21
3.29455895266714
 31
0.0
  0
LINE
  5
537
330
3FC
100
AcDbEntity
  8
4
100
AcDbLine
 10
1.544852619642949
 20
3.332497898847643
 30
0.0
 11
1.514478865504616
 21
3.332497898847643
 31
0.0
  0
ARC
  5
538
330
3FC
100
AcDbEntity
  8
4
100
AcDbCircle
 10
1.352975441876668
 20
3.466179198898057
 30
0.0
 40
0.0024474844644612
100
AcDbArc
 50
335.5504979363148
 51
24.44950206368503
  0
LINE
  5
539
330
3FC
100
AcDbEntity
  8
4
100
AcDbLine
 10
1.116146484568654
 20
3.816789962887908
 30
0.0
 11
1.126304529072233
 21
3.65426125083067
 31
0.0
  0
ARC
  5
53A
330
3FC
100
AcDbEntity
  8
4
100
AcDbCircle
 10
1.145459102735284
 20
3.818622001523324
 30
0.0
 40
0.0293698135735343
100
AcDbArc
 50
90.0
 51
183.5763343749981
  0
INSERT
  5
53B
330
3FC
100
AcDbEntity
  8
4
100
AcDbBlockReference
  2
ARRO
 10
0.9609118825233169
 20
3.734522076945322
 30
0.0
 50
180.0
  0
INSERT
  5
53C
330
3FC
100
AcDbEntity
  8
4
100
AcDbBlockReference
  2
ARRO
 10
0.9609118825233169
 20
3.874866340648615
 30
0.0
 50
180.0
  0
LINE
  5
53D
330
3FC
100
AcDbEntity
  8
4
100
AcDbLine
 10
1.279956245865935
 20
3.816789962887908
 30
0.0
 11
1.269798201362358
 21
3.65426125083067
 31
0.0
  0
LINE
  5
53E
330
3FC
100
AcDbEntity
  8
4
100
AcDbLine
 10
1.264668981930719
 20
3.807610704575205
 30
0.0
 11
1.256397779607717
 21
3.675289904488573
 31
0.0
  0
CIRCLE
  5
53F
330
3FC
100
AcDbEntity
  8
4
100
AcDbCircle
 10
1.198051365217294
 20
3.733571916383297
 30
0.0
 40
0.0128492934384212
  0
LINE
  5
540
330
3FC
100
AcDbEntity
  8
4
100
AcDbLine
 10
1.131433748503869
 20
3.807610704575205
 30
0.0
 11
1.139704950826872
 21
3.675271467407163
 31
0.0
  0
LINE
  5
541
330
3FC
100
AcDbEntity
  8
4
100
AcDbLine
 10
1.198051365217294
 20
3.630165697759812
 30
0.0
 11
1.244149660466558
 21
3.630165697759812
 31
0.0
  0
ARC
  5
542
330
3FC
100
AcDbEntity
  8
4
100
AcDbCircle
 10
1.236856034163298
 20
3.676511263578852
 30
0.0
 40
0.0195798757156895
100
AcDbArc
 50
270.0
 51
356.4236656250018
  0
CIRCLE
  5
543
330
3FC
100
AcDbEntity
  8
4
100
AcDbCircle
 10
1.198051365217294
 20
3.6907703080688
 30
0.0
 40
0.0042684129060203
  0
CIRCLE
  5
544
330
3FC
100
AcDbEntity
  8
4
100
AcDbCircle
 10
1.198051365217294
 20
3.64117937784989
 30
0.0
 40
0.0070448392825051
  0
LINE
  5
545
330
3FC
100
AcDbEntity
  8
4
100
AcDbLine
 10
1.198051365217294
 20
3.656931387863158
 30
0.0
 11
1.236856034163298
 21
3.656931387863163
 31
0.0
  0
ARC
  5
546
330
3FC
100
AcDbEntity
  8
4
100
AcDbCircle
 10
1.159246696271291
 20
3.676511263578852
 30
0.0
 40
0.0195798757156895
100
AcDbArc
 50
183.5763343749981
 51
270.0
  0
LINE
  5
547
330
3FC
100
AcDbEntity
  8
4
100
AcDbLine
 10
1.198051365217294
 20
3.630165697759812
 30
0.0
 11
1.151953069968031
 21
3.630165697759812
 31
0.0
  0
LINE
  5
548
330
3FC
100
AcDbEntity
  8
4
100
AcDbLine
 10
1.198051365217294
 20
3.656931387863158
 30
0.0
 11
1.159246696271291
 21
3.656931387863163
 31
0.0
  0
ARC
  5
549
330
3FC
100
AcDbEntity
  8
4
100
AcDbCircle
 10
1.151953069968031
 20
3.655864284636654
 30
0.0
 40
0.0256985868768425
100
AcDbArc
 50
183.5763343749981
 51
270.0
  0
ARC
  5
54A
330
3FC
100
AcDbEntity
  8
4
100
AcDbCircle
 10
1.244149660466558
 20
3.655864284636654
 30
0.0
 40
0.0256985868768425
100
AcDbArc
 50
270.0
 51
356.4236656250018
  0
LINE
  5
54B
330
3FC
100
AcDbEntity
  8
4
100
AcDbLine
 10
1.198051365217294
 20
3.828411939381168
 30
0.0
 11
1.245127236486302
 21
3.828411939381168
 31
0.0
  0
LINE
  5
54C
330
3FC
100
AcDbEntity
  8
4
100
AcDbLine
 10
1.198051365217294
 20
3.847991815096858
 30
0.0
 11
1.250643627699306
 21
3.847991815096858
 31
0.0
  0
CIRCLE
  5
54D
330
3FC
100
AcDbEntity
  8
4
100
AcDbCircle
 10
1.198051365217294
 20
3.776373524697797
 30
0.0
 40
0.0042684129060203
  0
LINE
  5
54E
330
3FC
100
AcDbEntity
  8
4
100
AcDbLine
 10
1.149472065679888
 20
3.808440080073333
 30
0.0
 11
1.171956447818694
 21
3.785955697934527
 31
0.0
  0
LINE
  5
54F
330
3FC
100
AcDbEntity
  8
4
100
AcDbLine
 10
1.152933331403227
 20
3.811901345796672
 30
0.0
 11
1.149472065679888
 21
3.808440080073333
 31
0.0
  0
LINE
  5
550
330
3FC
100
AcDbEntity
  8
4
 62
   130
100
AcDbLine
 10
1.147713772250281
 20
3.804991232514982
 30
0.0
 11
1.168507600260344
 21
3.784197404504917
 31
0.0
  0
ARC
  5
551
330
3FC
100
AcDbEntity
  8
4
 62
   130
100
AcDbCircle
 10
1.152033431873008
 20
3.809310892137707
 30
0.0
 40
0.0061089212232951
100
AcDbArc
 50
44.99999999999997
 51
224.9999999999999
  0
LINE
  5
552
330
3FC
100
AcDbEntity
  8
4
100
AcDbLine
 10
1.158139075051126
 20
3.806695602148775
 30
0.0
 11
1.154677809327789
 21
3.803234336425436
 31
0.0
  0
LINE
  5
553
330
3FC
100
AcDbEntity
  8
4
100
AcDbLine
 10
1.170211969894131
 20
3.794622707305768
 30
0.0
 11
1.166750704170794
 21
3.791161441582429
 31
0.0
  0
LINE
  5
554
330
3FC
100
AcDbEntity
  8
4
100
AcDbLine
 10
1.171956447818694
 20
3.785955697934527
 30
0.0
 11
1.175417713542033
 21
3.789416963657866
 31
0.0
  0
LINE
  5
555
330
3FC
100
AcDbEntity
  8
4
100
AcDbLine
 10
1.152933331403227
 20
3.811901345796672
 30
0.0
 11
1.175417713542033
 21
3.789416963657866
 31
0.0
  0
LINE
  5
556
330
3FC
100
AcDbEntity
  8
4
 62
   130
100
AcDbLine
 10
1.156353091495735
 20
3.813630551760431
 30
0.0
 11
1.177146919505798
 21
3.792836723750372
 31
0.0
  0
ARC
  5
557
330
3FC
100
AcDbEntity
  8
4
 62
   130
100
AcDbCircle
 10
1.172827259883071
 20
3.788517064127647
 30
0.0
 40
0.0061089212232951
100
AcDbArc
 50
224.9999999999999
 51
44.99999999999997
  0
LINE
  5
558
330
3FC
100
AcDbEntity
  8
4
100
AcDbLine
 10
1.198051365217294
 20
3.828411939381168
 30
0.0
 11
1.150975493948287
 21
3.828411939381168
 31
0.0
  0
LINE
  5
559
330
3FC
100
AcDbEntity
  8
4
100
AcDbLine
 10
1.198051365217294
 20
3.847991815096858
 30
0.0
 11
1.145459102735284
 21
3.847991815096858
 31
0.0
  0
ARC
  5
55A
330
3FC
100
AcDbEntity
  8
4
100
AcDbCircle
 10
1.150975493948287
 20
3.808832063665478
 30
0.0
 40
0.0195798757156895
100
AcDbArc
 50
90.0
 51
183.5763343749981
  0
ARC
  5
55B
330
3FC
100
AcDbEntity
  8
4
100
AcDbCircle
 10
1.250643627699306
 20
3.818622001523324
 30
0.0
 40
0.0293698135735343
100
AcDbArc
 50
356.4236656250018
 51
90.0
  0
ARC
  5
55C
330
3FC
100
AcDbEntity
  8
4
100
AcDbCircle
 10
1.245127236486302
 20
3.808832063665478
 30
0.0
 40
0.0195798757156895
100
AcDbArc
 50
356.4236656250018
 51
90.0
  0
LINE
  5
55D
330
3FC
100
AcDbEntity
  8
4
100
AcDbLine
 10
1.345152149821144
 20
4.219876244207604
 30
0.0
 11
1.357441163369196
 21
4.246905127048695
 31
0.0
  0
LINE
  5
55E
330
3FC
100
AcDbEntity
  8
4
100
AcDbLine
 10
1.345152149821144
 20
3.926178108472261
 30
0.0
 11
1.357441163369196
 21
3.953206991313352
 31
0.0
  0
LINE
  5
55F
330
3FC
100
AcDbEntity
  8
4
100
AcDbLine
 10
1.345152149821144
 20
3.982261858143481
 30
0.0
 11
1.357441163369196
 21
3.95523297530239
 31
0.0
  0
LINE
  5
560
330
3FC
100
AcDbEntity
  8
2
100
AcDbLine
 10
1.210811570221211
 20
3.924850169734338
 30
0.0
 11
1.266893650761662
 21
3.924850169734338
 31
0.0
  0
LINE
  5
561
330
3FC
100
AcDbEntity
  8
2
100
AcDbLine
 10
1.174099303254292
 20
4.087402972597095
 30
0.0
 11
1.174099303254292
 21
4.003169672597095
 31
0.0
  0
LINE
  5
562
330
3FC
100
AcDbEntity
  8
4
100
AcDbLine
 10
1.212987988740239
 20
3.926178108472261
 30
0.0
 11
1.225277002288294
 21
3.953206991313352
 31
0.0
  0
LINE
  5
563
330
3FC
100
AcDbEntity
  8
4
100
AcDbLine
 10
1.20863515170218
 20
3.926178108472261
 30
0.0
 11
1.196346138154127
 21
3.953206991313352
 31
0.0
  0
ARC
  5
564
330
3FC
100
AcDbEntity
  8
4
100
AcDbCircle
 10
1.210811570221211
 20
3.927297654198799
 30
0.0
 40
0.0024474844644612
100
AcDbArc
 50
201.6777967963418
 51
338.3222032036581
  0
ARC
  5
565
330
3FC
100
AcDbEntity
  8
4
100
AcDbCircle
 10
1.223048992543516
 20
3.954219983307872
 30
0.0
 40
0.0024474844644612
100
AcDbArc
 50
335.5504979363149
 51
24.449502063685
  0
ARC
  5
566
330
3FC
100
AcDbEntity
  8
4
100
AcDbCircle
 10
1.198574147898904
 20
3.954219983307872
 30
0.0
 40
0.0024474844644612
100
AcDbArc
 50
155.550497936315
 51
204.449502063685
  0
LINE
  5
567
330
3FC
100
AcDbEntity
  8
4
100
AcDbLine
 10
1.20863515170218
 20
3.982261858143481
 30
0.0
 11
1.196346138154127
 21
3.95523297530239
 31
0.0
  0
LINE
  5
568
330
3FC
100
AcDbEntity
  8
4
100
AcDbLine
 10
1.212987988740239
 20
3.982261858143481
 30
0.0
 11
1.225277002288294
 21
3.95523297530239
 31
0.0
  0
ARC
  5
569
330
3FC
100
AcDbEntity
  8
4
100
AcDbCircle
 10
1.210811570221211
 20
3.981142312416944
 30
0.0
 40
0.0024474844644612
100
AcDbArc
 50
21.67779679634183
 51
158.3222032036579
  0
ARC
  5
56A
330
3FC
100
AcDbEntity
  8
4
100
AcDbCircle
 10
1.201021632363365
 20
4.003169672597095
 30
0.0
 40
0.0024474844644612
100
AcDbArc
 50
335.5504979363149
 51
24.449502063685
  0
ARC
  5
56B
330
3FC
100
AcDbEntity
  8
4
100
AcDbCircle
 10
1.18878421004106
 20
3.976247343488022
 30
0.0
 40
0.0024474844644612
100
AcDbArc
 50
201.6777967963418
 51
338.3222032036581
  0
ARC
  5
56C
330
3FC
100
AcDbEntity
  8
4
100
AcDbCircle
 10
1.18878421004106
 20
4.030092001706169
 30
0.0
 40
0.0024474844644612
100
AcDbArc
 50
21.67779679634183
 51
158.3222032036579
  0
LINE
  5
56D
330
3FC
100
AcDbEntity
  8
4
100
AcDbLine
 10
1.190960628560088
 20
3.975127797761485
 30
0.0
 11
1.203249642108143
 21
4.002156680602576
 31
0.0
  0
LINE
  5
56E
330
3FC
100
AcDbEntity
  8
4
100
AcDbLine
 10
1.190960628560089
 20
4.031211547432706
 30
0.0
 11
1.203249642108143
 21
4.004182664591613
 31
0.0
  0
ARC
  5
56F
330
3FC
100
AcDbEntity
  8
4
100
AcDbCircle
 10
1.176546787718753
 20
4.003169672597095
 30
0.0
 40
0.0024474844644612
100
AcDbArc
 50
155.550497936315
 51
204.449502063685
  0
LINE
  5
570
330
3FC
100
AcDbEntity
  8
4
100
AcDbLine
 10
1.186607791522031
 20
4.031211547432706
 30
0.0
 11
1.174318777973976
 21
4.004182664591613
 31
0.0
  0
LINE
  5
571
330
3FC
100
AcDbEntity
  8
4
100
AcDbLine
 10
1.186607791522029
 20
3.975127797761485
 30
0.0
 11
1.174318777973976
 21
4.002156680602576
 31
0.0
  0
LINE
  5
572
330
3FC
100
AcDbEntity
  8
2
100
AcDbLine
 10
1.286893650761661
 20
3.924850169734338
 30
0.0
 11
1.342975731302114
 21
3.924850169734338
 31
0.0
  0
LINE
  5
573
330
3FC
100
AcDbEntity
  8
4
100
AcDbLine
 10
1.318771952602935
 20
4.031211547432706
 30
0.0
 11
1.30648293905488
 21
4.004182664591613
 31
0.0
  0
LINE
  5
574
330
3FC
100
AcDbEntity
  8
4
100
AcDbLine
 10
1.318771952602935
 20
3.975127797761485
 30
0.0
 11
1.30648293905488
 21
4.002156680602576
 31
0.0
  0
LINE
  5
575
330
3FC
100
AcDbEntity
  8
4
100
AcDbLine
 10
1.340799312783086
 20
3.926178108472261
 30
0.0
 11
1.328510299235031
 21
3.953206991313352
 31
0.0
  0
ARC
  5
576
330
3FC
100
AcDbEntity
  8
4
100
AcDbCircle
 10
1.342975731302114
 20
3.927297654198799
 30
0.0
 40
0.0024474844644612
100
AcDbArc
 50
201.6777967963418
 51
338.3222032036581
  0
LINE
  5
577
330
3FC
100
AcDbEntity
  8
4
100
AcDbLine
 10
1.340799312783086
 20
3.982261858143481
 30
0.0
 11
1.328510299235031
 21
3.95523297530239
 31
0.0
  0
ARC
  5
578
330
3FC
100
AcDbEntity
  8
4
100
AcDbCircle
 10
1.330738308979808
 20
3.954219983307872
 30
0.0
 40
0.0024474844644612
100
AcDbArc
 50
155.550497936315
 51
204.449502063685
  0
LINE
  5
579
330
3FC
100
AcDbEntity
  8
4
100
AcDbLine
 10
1.323124789640994
 20
4.031211547432706
 30
0.0
 11
1.335413803189047
 21
4.004182664591613
 31
0.0
  0
LINE
  5
57A
330
3FC
100
AcDbEntity
  8
4
100
AcDbLine
 10
1.323124789640994
 20
3.975127797761485
 30
0.0
 11
1.335413803189047
 21
4.002156680602576
 31
0.0
  0
ARC
  5
57B
330
3FC
100
AcDbEntity
  8
4
100
AcDbCircle
 10
1.320948371121963
 20
3.976247343488022
 30
0.0
 40
0.0024474844644612
100
AcDbArc
 50
201.6777967963418
 51
338.3222032036581
  0
ARC
  5
57C
330
3FC
100
AcDbEntity
  8
4
100
AcDbCircle
 10
1.320948371121963
 20
4.030092001706169
 30
0.0
 40
0.0024474844644612
100
AcDbArc
 50
21.67779679634183
 51
158.3222032036579
  0
ARC
  5
57D
330
3FC
100
AcDbEntity
  8
4
100
AcDbCircle
 10
1.342975731302114
 20
3.981142312416944
 30
0.0
 40
0.0024474844644612
100
AcDbArc
 50
21.67779679634183
 51
158.3222032036579
  0
ARC
  5
57E
330
3FC
100
AcDbEntity
  8
4
100
AcDbCircle
 10
1.333185793444269
 20
4.003169672597095
 30
0.0
 40
0.0024474844644612
100
AcDbArc
 50
335.5504979363149
 51
24.449502063685
  0
ARC
  5
57F
330
3FC
100
AcDbEntity
  8
4
100
AcDbCircle
 10
1.308710948799657
 20
4.003169672597095
 30
0.0
 40
0.0024474844644612
100
AcDbArc
 50
155.550497936315
 51
204.449502063685
  0
LINE
  5
580
330
3FC
100
AcDbEntity
  8
2
100
AcDbLine
 10
1.174099303254292
 20
4.191636272597094
 30
0.0
 11
1.174099303254292
 21
4.107402972597094
 31
0.0
  0
LINE
  5
581
330
3FC
100
AcDbEntity
  8
4
100
AcDbLine
 10
1.212987988740239
 20
4.219876244207604
 30
0.0
 11
1.225277002288294
 21
4.246905127048695
 31
0.0
  0
LINE
  5
582
330
3FC
100
AcDbEntity
  8
4
100
AcDbLine
 10
1.20863515170218
 20
4.219876244207604
 30
0.0
 11
1.196346138154127
 21
4.246905127048695
 31
0.0
  0
ARC
  5
583
330
3FC
100
AcDbEntity
  8
4
100
AcDbCircle
 10
1.210811570221211
 20
4.220995789934141
 30
0.0
 40
0.0024474844644612
100
AcDbArc
 50
201.6777967963418
 51
338.3222032036581
  0
ARC
  5
584
330
3FC
100
AcDbEntity
  8
4
100
AcDbCircle
 10
1.223048992543516
 20
4.247918119043214
 30
0.0
 40
0.0024474844644612
100
AcDbArc
 50
335.5504979363149
 51
24.449502063685
  0
ARC
  5
585
330
3FC
100
AcDbEntity
  8
4
100
AcDbCircle
 10
1.198574147898904
 20
4.247918119043214
 30
0.0
 40
0.0024474844644612
100
AcDbArc
 50
155.550497936315
 51
204.449502063685
  0
LINE
  5
586
330
3FC
100
AcDbEntity
  8
4
100
AcDbLine
 10
1.340799312783086
 20
4.219876244207604
 30
0.0
 11
1.328510299235031
 21
4.246905127048695
 31
0.0
  0
ARC
  5
587
330
3FC
100
AcDbEntity
  8
4
100
AcDbCircle
 10
1.342975731302114
 20
4.220995789934141
 30
0.0
 40
0.0024474844644612
100
AcDbArc
 50
201.6777967963418
 51
338.3222032036581
  0
ARC
  5
588
330
3FC
100
AcDbEntity
  8
4
100
AcDbCircle
 10
1.330738308979808
 20
4.247918119043214
 30
0.0
 40
0.0024474844644612
100
AcDbArc
 50
155.550497936315
 51
204.449502063685
  0
LINE
  5
589
330
3FC
100
AcDbEntity
  8
2
100
AcDbLine
 10
1.35766063808888
 20
4.14268658330787
 30
0.0
 11
1.35766063808888
 21
4.058453283307871
 31
0.0
  0
LINE
  5
58A
330
3FC
100
AcDbEntity
  8
2
100
AcDbLine
 10
1.35766063808888
 20
4.038453283307871
 30
0.0
 11
1.35766063808888
 21
3.954219983307872
 31
0.0
  0
ARC
  5
58B
330
3FC
100
AcDbEntity
  8
4
100
AcDbCircle
 10
1.355213153624419
 20
3.954219983307872
 30
0.0
 40
0.0024474844644612
100
AcDbArc
 50
335.5504979363149
 51
24.449502063685
  0
LINE
  5
58C
330
3FC
100
AcDbEntity
  8
2
100
AcDbLine
 10
1.35766063808888
 20
4.247918119043212
 30
0.0
 11
1.35766063808888
 21
4.163684819043213
 31
0.0
  0
ARC
  5
58D
330
3FC
100
AcDbEntity
  8
4
100
AcDbCircle
 10
1.355213153624419
 20
4.247918119043214
 30
0.0
 40
0.0024474844644612
100
AcDbArc
 50
335.5504979363149
 51
24.449502063685
  0
LINE
  5
58E
330
3FC
100
AcDbEntity
  8
4
100
AcDbLine
 10
1.536633794702242
 20
4.135251108703091
 30
0.0
 11
1.516086921089397
 21
4.135251108703091
 31
0.0
  0
LINE
  5
58F
330
3FC
100
AcDbEntity
  8
4
100
AcDbLine
 10
1.531
 20
4.176243536501461
 30
0.0
 11
1.524269417722734
 21
4.176243536501461
 31
0.0
  0
LINE
  5
590
330
3FC
100
AcDbEntity
  8
4
100
AcDbLine
 10
1.52426941772273
 20
4.097312162522589
 30
0.0
 11
1.531
 21
4.097312162522589
 31
0.0
  0
LINE
  5
591
330
3FC
100
AcDbEntity
  8
4
100
AcDbLine
 10
1.524269417722734
 20
4.176243536501461
 30
0.0
 11
1.52426941772273
 21
4.097312162522589
 31
0.0
  0
LINE
  5
592
330
3FC
100
AcDbEntity
  8
4
100
AcDbLine
 10
1.531
 20
4.406044153890643
 30
0.0
 11
1.094
 21
4.406022835090578
 31
0.0
  0
LINE
  5
593
330
3FC
100
AcDbEntity
  8
2
100
AcDbLine
 10
1.18878421004106
 20
4.326237621905972
 30
0.0
 11
1.244866290581511
 21
4.326237621905972
 31
0.0
  0
ARC
  5
594
330
3FC
100
AcDbEntity
  8
4
100
AcDbCircle
 10
1.210811570221211
 20
4.274840448152287
 30
0.0
 40
0.0024474844644612
100
AcDbArc
 50
21.67779679634183
 51
158.3222032036579
  0
ARC
  5
595
330
3FC
100
AcDbEntity
  8
4
100
AcDbCircle
 10
1.201021632363365
 20
4.296867808332436
 30
0.0
 40
0.0024474844644612
100
AcDbArc
 50
335.5504979363149
 51
24.449502063685
  0
ARC
  5
596
330
3FC
100
AcDbEntity
  8
4
100
AcDbCircle
 10
1.18878421004106
 20
4.269945479223364
 30
0.0
 40
0.0024474844644612
100
AcDbArc
 50
201.6777967963418
 51
338.3222032036581
  0
ARC
  5
597
330
3FC
100
AcDbEntity
  8
4
100
AcDbCircle
 10
1.18878421004106
 20
4.323790137441511
 30
0.0
 40
0.0024474844644612
100
AcDbArc
 50
21.67779679634183
 51
158.3222032036579
  0
LINE
  5
598
330
3FC
100
AcDbEntity
  8
4
100
AcDbLine
 10
1.190960628560088
 20
4.268825933496829
 30
0.0
 11
1.203249642108143
 21
4.29585481633792
 31
0.0
  0
LINE
  5
599
330
3FC
100
AcDbEntity
  8
4
100
AcDbLine
 10
1.190960628560089
 20
4.324909683168048
 30
0.0
 11
1.203249642108143
 21
4.297880800326955
 31
0.0
  0
ARC
  5
59A
330
3FC
100
AcDbEntity
  8
4
100
AcDbCircle
 10
1.176546787718753
 20
4.296867808332436
 30
0.0
 40
0.0024474844644612
100
AcDbArc
 50
155.550497936315
 51
204.449502063685
  0
LINE
  5
59B
330
3FC
100
AcDbEntity
  8
4
100
AcDbLine
 10
1.186607791522031
 20
4.324909683168048
 30
0.0
 11
1.174318777973976
 21
4.297880800326955
 31
0.0
  0
LINE
  5
59C
330
3FC
100
AcDbEntity
  8
4
100
AcDbLine
 10
1.186607791522029
 20
4.268825933496829
 30
0.0
 11
1.174318777973976
 21
4.29585481633792
 31
0.0
  0
LINE
  5
59D
330
3FC
100
AcDbEntity
  8
2
100
AcDbLine
 10
1.264866290581511
 20
4.326237621905972
 30
0.0
 11
1.320948371121963
 21
4.326237621905972
 31
0.0
  0
LINE
  5
59E
330
3FC
100
AcDbEntity
  8
4
100
AcDbLine
 10
1.318771952602935
 20
4.324909683168048
 30
0.0
 11
1.30648293905488
 21
4.297880800326955
 31
0.0
  0
LINE
  5
59F
330
3FC
100
AcDbEntity
  8
4
100
AcDbLine
 10
1.318771952602935
 20
4.268825933496829
 30
0.0
 11
1.30648293905488
 21
4.29585481633792
 31
0.0
  0
LINE
  5
5A0
330
3FC
100
AcDbEntity
  8
4
100
AcDbLine
 10
1.323124789640994
 20
4.324909683168048
 30
0.0
 11
1.335413803189047
 21
4.297880800326955
 31
0.0
  0
LINE
  5
5A1
330
3FC
100
AcDbEntity
  8
4
100
AcDbLine
 10
1.323124789640994
 20
4.268825933496829
 30
0.0
 11
1.335413803189047
 21
4.29585481633792
 31
0.0
  0
ARC
  5
5A2
330
3FC
100
AcDbEntity
  8
4
100
AcDbCircle
 10
1.320948371121963
 20
4.269945479223364
 30
0.0
 40
0.0024474844644612
100
AcDbArc
 50
201.6777967963418
 51
338.3222032036581
  0
ARC
  5
5A3
330
3FC
100
AcDbEntity
  8
4
100
AcDbCircle
 10
1.320948371121963
 20
4.323790137441511
 30
0.0
 40
0.0024474844644612
100
AcDbArc
 50
21.67779679634183
 51
158.3222032036579
  0
ARC
  5
5A4
330
3FC
100
AcDbEntity
  8
4
100
AcDbCircle
 10
1.342975731302114
 20
4.274840448152287
 30
0.0
 40
0.0024474844644612
100
AcDbArc
 50
21.67779679634183
 51
158.3222032036579
  0
ARC
  5
5A5
330
3FC
100
AcDbEntity
  8
4
100
AcDbCircle
 10
1.333185793444269
 20
4.296867808332436
 30
0.0
 40
0.0024474844644612
100
AcDbArc
 50
335.5504979363149
 51
24.449502063685
  0
ARC
  5
5A6
330
3FC
100
AcDbEntity
  8
4
100
AcDbCircle
 10
1.308710948799657
 20
4.296867808332436
 30
0.0
 40
0.0024474844644612
100
AcDbArc
 50
155.550497936315
 51
204.449502063685
  0
CIRCLE
  5
5A7
330
3FC
100
AcDbEntity
  8
4
100
AcDbCircle
 10
1.335110495227122
 20
4.361946420242457
 30
0.0
 40
0.0026628630973338
  0
ARC
  5
5A8
330
3FC
100
AcDbEntity
  8
4
100
AcDbCircle
 10
1.261685961293286
 20
4.361946420242457
 30
0.0
 40
0.0795432450949886
100
AcDbArc
 50
347.5762104955836
 51
12.42378950441639
  0
CIRCLE
  5
5A9
330
3FC
100
AcDbEntity
  8
4
100
AcDbCircle
 10
1.261685961293286
 20
4.361946420242457
 30
0.0
 40
0.0026628630973338
  0
ARC
  5
5AA
330
3FC
100
AcDbEntity
  8
4
100
AcDbCircle
 10
1.335110495227122
 20
4.361946420242457
 30
0.0
 40
0.0795432450949886
100
AcDbArc
 50
167.5762104955836
 51
192.4237895044163
  0
ARC
  5
5AB
330
3FC
100
AcDbEntity
  8
4
100
AcDbCircle
 10
1.298398228260205
 20
4.108019907054609
 30
0.0
 40
0.274118260019653
100
AcDbArc
 50
81.40466153832003
 51
98.59533846167998
  0
ARC
  5
5AC
330
3FC
100
AcDbEntity
  8
4
100
AcDbCircle
 10
1.298398228260205
 20
4.615872933430305
 30
0.0
 40
0.274118260019653
100
AcDbArc
 50
261.40466153832
 51
278.5953384616799
  0
LINE
  5
5AD
330
3FC
100
AcDbEntity
  8
4
100
AcDbLine
 10
1.505822237817193
 20
4.402040069306796
 30
0.0
 11
1.412817828167671
 21
4.402040069306789
 31
0.0
  0
LINE
  5
5AE
330
3FC
100
AcDbEntity
  8
4
100
AcDbLine
 10
1.687
 20
3.031044153890644
 30
0.0
 11
2.187999999999998
 21
3.031044153890644
 31
0.0
  0
LINE
  5
5AF
330
3FC
100
AcDbEntity
  8
4
100
AcDbLine
 10
1.687
 20
2.969044153890644
 30
0.0
 11
2.187999999999998
 21
2.969044153890644
 31
0.0
  0
LINE
  5
5B0
330
3FC
100
AcDbEntity
  8
4
100
AcDbLine
 10
1.905
 20
2.911084459323294
 30
0.0
 11
1.967
 21
2.911084459323294
 31
0.0
  0
LINE
  5
5B1
330
3FC
100
AcDbEntity
  8
4
100
AcDbLine
 10
2.312000000000001
 20
3.031044153890644
 30
0.0
 11
2.473968300754448
 21
3.031044153890644
 31
0.0
  0
LINE
  5
5B2
330
3FC
100
AcDbEntity
  8
4
100
AcDbLine
 10
2.312000000000001
 20
2.969044153890644
 30
0.0
 11
2.5
 21
2.969044153890644
 31
0.0
  0
LINE
  5
5B3
330
3FC
100
AcDbEntity
  8
4
100
AcDbLine
 10
2.937000000000001
 20
3.031044153890644
 30
0.0
 11
3.437999999999998
 21
3.031044153890644
 31
0.0
  0
LINE
  5
5B4
330
3FC
100
AcDbEntity
  8
4
100
AcDbLine
 10
2.937000000000001
 20
2.969044153890644
 30
0.0
 11
3.437999999999998
 21
2.969044153890644
 31
0.0
  0
LINE
  5
5B5
330
3FC
100
AcDbEntity
  8
4
100
AcDbLine
 10
2.625
 20
2.969044153890644
 30
0.0
 11
2.812999999999998
 21
2.969044153890644
 31
0.0
  0
LINE
  5
5B6
330
3FC
100
AcDbEntity
  8
4
100
AcDbLine
 10
2.625
 20
3.031044153890644
 30
0.0
 11
2.812999999999998
 21
3.031044153890644
 31
0.0
  0
LINE
  5
5B7
330
3FC
100
AcDbEntity
  8
4
100
AcDbLine
 10
3.155000000000001
 20
2.911084459323294
 30
0.0
 11
3.217
 21
2.911084459323294
 31
0.0
  0
ARC
  5
5B8
330
3FC
100
AcDbEntity
  8
4
100
AcDbCircle
 10
1.712
 20
4.343038275333514
 30
0.0
 40
0.025
100
AcDbArc
 50
180.0
 51
0.0
  0
ARC
  5
5B9
330
3FC
100
AcDbEntity
  8
4
100
AcDbCircle
 10
2.163
 20
4.343038275333514
 30
0.0
 40
0.025
100
AcDbArc
 50
180.0
 51
0.0
  0
ARC
  5
5BA
330
3FC
100
AcDbEntity
  8
4
100
AcDbCircle
 10
2.336999999999999
 20
4.343038275333514
 30
0.0
 40
0.025
100
AcDbArc
 50
180.0
 51
0.0
  0
ARC
  5
5BB
330
3FC
100
AcDbEntity
  8
4
100
AcDbCircle
 10
2.788
 20
4.343038275333514
 30
0.0
 40
0.025
100
AcDbArc
 50
180.0
 51
0.0
  0
ARC
  5
5BC
330
3FC
100
AcDbEntity
  8
4
100
AcDbCircle
 10
2.961999999999999
 20
4.343038275333514
 30
0.0
 40
0.025
100
AcDbArc
 50
180.0
 51
0.0
  0
LINE
  5
5BD
330
3FC
100
AcDbEntity
  8
4
100
AcDbLine
 10
3.155000000000001
 20
4.380038275333513
 30
0.0
 11
3.155000000000001
 21
4.318038275333513
 31
0.0
  0
LINE
  5
5BE
330
3FC
100
AcDbEntity
  8
4
100
AcDbLine
 10
3.217
 20
4.380038275333513
 30
0.0
 11
3.217
 21
4.318038275333513
 31
0.0
  0
LINE
  5
5BF
330
3FC
100
AcDbEntity
  8
4
100
AcDbLine
 10
3.155000000000001
 20
4.380038275333513
 30
0.0
 11
3.217
 21
4.380038275333513
 31
0.0
  0
ARC
  5
5C0
330
3FC
100
AcDbEntity
  8
4
100
AcDbCircle
 10
3.413
 20
4.343038275333514
 30
0.0
 40
0.025
100
AcDbArc
 50
180.0
 51
0.0
  0
LINE
  5
5C1
330
3FC
100
AcDbEntity
  8
4
100
AcDbLine
 10
7.624500000000001
 20
2.937044153890644
 30
0.0
 11
7.624500000000001
 21
1.594038275333514
 31
0.0
  0
LINE
  5
5C2
330
3FC
100
AcDbEntity
  8
4
100
AcDbLine
 10
6.375499999999998
 20
2.937044153890644
 30
0.0
 11
6.375499999999998
 21
1.594038275333514
 31
0.0
  0
LINE
  5
5C3
330
3FC
100
AcDbEntity
  8
4
100
AcDbLine
 10
5.0655
 20
2.937044153890644
 30
0.0
 11
5.0655
 21
1.594038275333514
 31
0.0
  0
LINE
  5
5C4
330
3FC
100
AcDbEntity
  8
4
100
AcDbLine
 10
4.8125
 20
4.500038275333514
 30
0.0
 11
4.8125
 21
1.562038275333514
 31
0.0
  0
LINE
  5
5C5
330
3FC
100
AcDbEntity
  8
4
100
AcDbLine
 10
5.388479890102484
 20
2.911084459323294
 30
0.0
 11
5.388479890102484
 21
2.849084459323293
 31
0.0
  0
ARC
  5
5C6
330
3FC
100
AcDbEntity
  8
4
100
AcDbCircle
 10
5.645500000000001
 20
2.874084459323295
 30
0.0
 40
0.025
100
AcDbArc
 50
180.0
 51
0.0
  0
LINE
  5
5C7
330
3FC
100
AcDbEntity
  8
4
100
AcDbLine
 10
6.698479890102484
 20
2.911084459323294
 30
0.0
 11
6.698479890102484
 21
2.849084459323293
 31
0.0
  0
ARC
  5
5C8
330
3FC
100
AcDbEntity
  8
4
100
AcDbCircle
 10
6.9555
 20
2.874084459323295
 30
0.0
 40
0.025
100
AcDbArc
 50
180.0
 51
0.0
  0
ARC
  5
5C9
330
3FC
100
AcDbEntity
  8
4
100
AcDbCircle
 10
7.044499999999999
 20
2.874084459323295
 30
0.0
 40
0.025
100
AcDbArc
 50
180.0
 51
0.0
  0
LINE
  5
5CA
330
3FC
100
AcDbEntity
  8
4
100
AcDbLine
 10
7.301520109897516
 20
2.911084459323294
 30
0.0
 11
7.301520109897516
 21
2.849084459323293
 31
0.0
  0
INSERT
  5
5CB
330
3FC
100
AcDbEntity
  8
4
100
AcDbBlockReference
  2
B1
 10
7.407185503170872
 20
1.626025903473298
 30
0.0
 50
180.0
  0
LINE
  5
5CC
330
3FC
100
AcDbEntity
  8
2
100
AcDbLine
 10
7.157185503170872
 20
1.626025903473298
 30
0.0
 11
7.407185503170872
 21
1.626025903473298
 31
0.0
  0
LINE
  5
5CD
330
3FC
100
AcDbEntity
  8
2
100
AcDbLine
 10
7.132185503170873
 20
1.969333724880907
 30
0.0
 11
7.382185503170871
 21
1.969333724880906
 31
0.0
  0
INSERT
  5
5CE
330
3FC
100
AcDbEntity
  8
4
100
AcDbBlockReference
  2
B1
 10
7.132185503170873
 20
1.969333724880907
 30
0.0
  0
LINE
  5
5CF
330
3FC
100
AcDbEntity
  8
2
100
AcDbLine
 10
7.132185503170873
 20
2.357333049545979
 30
0.0
 11
7.382185503170871
 21
2.357333049545978
 31
0.0
  0
LINE
  5
5D0
330
3FC
100
AcDbEntity
  8
2
100
AcDbLine
 10
7.157185503170872
 20
2.104725228138371
 30
0.0
 11
7.407185503170872
 21
2.104725228138371
 31
0.0
  0
INSERT
  5
5D1
330
3FC
100
AcDbEntity
  8
4
100
AcDbBlockReference
  2
B1
 10
7.132185503170873
 20
2.357333049545979
 30
0.0
  0
INSERT
  5
5D2
330
3FC
100
AcDbEntity
  8
4
100
AcDbBlockReference
  2
B1
 10
7.407185503170872
 20
2.104725228138371
 30
0.0
 50
180.0
  0
INSERT
  5
5D3
330
3FC
100
AcDbEntity
  8
4
100
AcDbBlockReference
  2
B1
 10
7.132185503170873
 20
2.843753657733547
 30
0.0
  0
LINE
  5
5D4
330
3FC
100
AcDbEntity
  8
2
100
AcDbLine
 10
7.157185503170872
 20
2.500445836325938
 30
0.0
 11
7.407185503170872
 21
2.500445836325938
 31
0.0
  0
INSERT
  5
5D5
330
3FC
100
AcDbEntity
  8
4
100
AcDbBlockReference
  2
B1
 10
7.407185503170872
 20
2.500445836325938
 30
0.0
 50
180.0
  0
LINE
  5
5D6
330
3FC
100
AcDbEntity
  8
2
100
AcDbLine
 10
7.132185503170873
 20
2.843753657733547
 30
0.0
 11
7.382185503170871
 21
2.843753657733546
 31
0.0
  0
INSERT
  5
5D7
330
3FC
100
AcDbEntity
  8
4
100
AcDbBlockReference
  2
B1
 10
5.558185503170872
 20
1.626025903473298
 30
0.0
 50
180.0
  0
LINE
  5
5D8
330
3FC
100
AcDbEntity
  8
2
100
AcDbLine
 10
5.308185503170872
 20
1.626025903473298
 30
0.0
 11
5.558185503170872
 21
1.626025903473298
 31
0.0
  0
LINE
  5
5D9
330
3FC
100
AcDbEntity
  8
2
100
AcDbLine
 10
5.283185503170873
 20
1.969333724880907
 30
0.0
 11
5.533185503170871
 21
1.969333724880906
 31
0.0
  0
INSERT
  5
5DA
330
3FC
100
AcDbEntity
  8
4
100
AcDbBlockReference
  2
B1
 10
5.283185503170873
 20
1.969333724880907
 30
0.0
  0
LINE
  5
5DB
330
3FC
100
AcDbEntity
  8
2
100
AcDbLine
 10
5.283185503170873
 20
2.357333049545979
 30
0.0
 11
5.533185503170871
 21
2.357333049545978
 31
0.0
  0
LINE
  5
5DC
330
3FC
100
AcDbEntity
  8
2
100
AcDbLine
 10
5.308185503170872
 20
2.104725228138371
 30
0.0
 11
5.558185503170872
 21
2.104725228138371
 31
0.0
  0
INSERT
  5
5DD
330
3FC
100
AcDbEntity
  8
4
100
AcDbBlockReference
  2
B1
 10
5.283185503170873
 20
2.357333049545979
 30
0.0
  0
INSERT
  5
5DE
330
3FC
100
AcDbEntity
  8
4
100
AcDbBlockReference
  2
B1
 10
5.558185503170872
 20
2.104725228138371
 30
0.0
 50
180.0
  0
INSERT
  5
5DF
330
3FC
100
AcDbEntity
  8
4
100
AcDbBlockReference
  2
B1
 10
5.283185503170873
 20
2.843753657733547
 30
0.0
  0
LINE
  5
5E0
330
3FC
100
AcDbEntity
  8
2
100
AcDbLine
 10
5.308185503170872
 20
2.500445836325938
 30
0.0
 11
5.558185503170872
 21
2.500445836325938
 31
0.0
  0
INSERT
  5
5E1
330
3FC
100
AcDbEntity
  8
4
100
AcDbBlockReference
  2
B1
 10
5.558185503170872
 20
2.500445836325938
 30
0.0
 50
180.0
  0
LINE
  5
5E2
330
3FC
100
AcDbEntity
  8
2
100
AcDbLine
 10
5.283185503170873
 20
2.843753657733547
 30
0.0
 11
5.533185503170871
 21
2.843753657733546
 31
0.0
  0
LINE
  5
5E3
330
3FC
100
AcDbEntity
  8
4
100
AcDbLine
 10
4.8125
 20
1.500038275333513
 30
0.0
 11
4.8125
 21
1.375038275333513
 31
0.0
  0
INSERT
  5
5E4
330
3FC
100
AcDbEntity
  8
4
100
AcDbBlockReference
  2
ARRO
 10
4.8125
 20
1.500038275333513
 30
0.0
 50
270.0
  0
TEXT
  5
5E5
330
3FC
100
AcDbEntity
  8
8
100
AcDbText
 10
4.750499999999998
 20
1.403587064992181
 30
0.0
 40
0.07
  1
1
 50
90.0
 72
     1
 11
4.750499999999998
 21
1.415253731658848
 31
0.0
100
AcDbText
  0
LINE
  5
5E6
330
3FC
100
AcDbEntity
  8
4
100
AcDbLine
 10
5.002500000000001
 20
1.562038275333514
 30
0.0
 11
4.8125
 21
1.562038275333514
 31
0.0
  0
INSERT
  5
5E7
330
3FC
100
AcDbEntity
  8
4
100
AcDbBlockReference
  2
ARRO
 10
4.8125
 20
1.562038275333514
 30
0.0
 50
90.0
  0
LINE
  5
5E8
330
3FC
100
AcDbEntity
  8
4
100
AcDbLine
 10
4.8125
 20
1.562038275333514
 30
0.0
 11
4.750499999999998
 21
1.562038275333514
 31
0.0
  0
LINE
  5
5E9
330
3FC
100
AcDbEntity
  8
2
100
AcDbLine
 10
5.264435503170872
 20
1.931833724880906
 30
0.0
 11
5.264435503170872
 21
1.721525903473298
 31
0.0
  0
LINE
  5
5EA
330
3FC
100
AcDbEntity
  8
4
100
AcDbLine
 10
5.0655
 20
1.594038275333514
 30
0.0
 11
5.127500000000001
 21
1.594038275333514
 31
0.0
  0
TEXT
  5
5EB
330
3FC
100
AcDbEntity
  8
8
100
AcDbText
 10
4.500499999999998
 20
2.187683215287257
 30
0.0
 40
0.07
  1
72
 50
90.0
 72
     1
 11
4.500499999999998
 21
2.24601654862059
 31
0.0
100
AcDbText
  0
INSERT
  5
5EC
330
3FC
100
AcDbEntity
  8
2
100
AcDbBlockReference
 66
     1
  2
FRACTION
 10
4.8125
 20
2.346052920565397
 30
0.0
 41
0.6000000000000001
 42
0.6000000000000001
 43
0.6
 50
90.0
  0
ATTRIB
  5
5ED
330
5EC
100
AcDbEntity
  8
8
100
AcDbText
 10
4.754000000000001
 20
2.17730638979675
 30
0.0
 40
0.075
  1
35
 50
90.0
 72
     2
 11
4.754000000000001
 21
2.30230638979675
 31
0.0
100
AcDbAttribute
  2
A
 70
     0
  0
ATTRIB
  5
5EE
330
5EC
100
AcDbEntity
  8
8
100
AcDbText
 10
4.704500000000003
 20
2.379252920565396
 30
0.0
 40
0.06
  1
1
 50
90.0
 72
     1
 11
4.704500000000003
 21
2.389252920565396
 31
0.0
100
AcDbAttribute
  2
B
 70
     0
  0
ATTRIB
  5
5EF
330
5EC
100
AcDbEntity
  8
8
100
AcDbText
 10
4.7885
 20
2.369252920565396
 30
0.0
 40
0.06
  1
2
 50
90.0
 72
     1
 11
4.7885
 21
2.389252920565396
 31
0.0
100
AcDbAttribute
  2
C
 70
     0
  0
SEQEND
  5
5F0
330
5EC
100
AcDbEntity
  8
2
  0
LINE
  5
5F1
330
3FC
100
AcDbEntity
  8
2
100
AcDbLine
 10
5.264435503170872
 20
2.319833049545979
 30
0.0
 11
5.264435503170872
 21
2.20022522813837
 31
0.0
  0
LINE
  5
5F2
330
3FC
100
AcDbEntity
  8
2
100
AcDbLine
 10
5.264435503170872
 20
2.806253657733547
 30
0.0
 11
5.264435503170872
 21
2.595945836325938
 31
0.0
  0
LINE
  5
5F3
330
3FC
100
AcDbEntity
  8
2
100
AcDbLine
 10
5.576935503170872
 20
2.261833049545979
 30
0.0
 11
5.576935503170872
 21
2.14222522813837
 31
0.0
  0
LINE
  5
5F4
330
3FC
100
AcDbEntity
  8
2
100
AcDbLine
 10
5.576935503170872
 20
1.873833724880907
 30
0.0
 11
5.576935503170872
 21
1.663525903473298
 31
0.0
  0
LINE
  5
5F5
330
3FC
100
AcDbEntity
  8
2
100
AcDbLine
 10
5.576935503170872
 20
2.748253657733547
 30
0.0
 11
5.576935503170872
 21
2.537945836325938
 31
0.0
  0
INSERT
  5
5F6
330
3FC
100
AcDbEntity
  8
4
100
AcDbBlockReference
  2
B1
 10
6.86818550317087
 20
2.104725228138371
 30
0.0
 50
180.0
  0
LINE
  5
5F7
330
3FC
100
AcDbEntity
  8
2
100
AcDbLine
 10
6.886935503170871
 20
2.261833049545979
 30
0.0
 11
6.886935503170871
 21
2.14222522813837
 31
0.0
  0
INSERT
  5
5F8
330
3FC
100
AcDbEntity
  8
4
100
AcDbBlockReference
  2
B1
 10
6.86818550317087
 20
1.626025903473298
 30
0.0
 50
180.0
  0
LINE
  5
5F9
330
3FC
100
AcDbEntity
  8
2
100
AcDbLine
 10
6.61818550317087
 20
1.626025903473298
 30
0.0
 11
6.86818550317087
 21
1.626025903473298
 31
0.0
  0
LINE
  5
5FA
330
3FC
100
AcDbEntity
  8
2
100
AcDbLine
 10
6.593185503170872
 20
1.969333724880907
 30
0.0
 11
6.843185503170872
 21
1.969333724880906
 31
0.0
  0
INSERT
  5
5FB
330
3FC
100
AcDbEntity
  8
4
100
AcDbBlockReference
  2
B1
 10
6.593185503170872
 20
1.969333724880907
 30
0.0
  0
LINE
  5
5FC
330
3FC
100
AcDbEntity
  8
2
100
AcDbLine
 10
6.61818550317087
 20
2.104725228138371
 30
0.0
 11
6.86818550317087
 21
2.104725228138371
 31
0.0
  0
LINE
  5
5FD
330
3FC
100
AcDbEntity
  8
2
100
AcDbLine
 10
6.574435503170871
 20
1.931833724880906
 30
0.0
 11
6.574435503170871
 21
1.721525903473298
 31
0.0
  0
LINE
  5
5FE
330
3FC
100
AcDbEntity
  8
4
100
AcDbLine
 10
6.375499999999998
 20
1.594038275333514
 30
0.0
 11
6.4375
 21
1.594038275333514
 31
0.0
  0
LINE
  5
5FF
330
3FC
100
AcDbEntity
  8
2
100
AcDbLine
 10
6.886935503170871
 20
1.873833724880907
 30
0.0
 11
6.886935503170871
 21
1.663525903473298
 31
0.0
  0
LINE
  5
600
330
3FC
100
AcDbEntity
  8
2
100
AcDbLine
 10
7.113435503170872
 20
1.931833724880906
 30
0.0
 11
7.113435503170872
 21
1.721525903473298
 31
0.0
  0
LINE
  5
601
330
3FC
100
AcDbEntity
  8
2
100
AcDbLine
 10
6.593185503170872
 20
2.357333049545979
 30
0.0
 11
6.843185503170872
 21
2.357333049545978
 31
0.0
  0
INSERT
  5
602
330
3FC
100
AcDbEntity
  8
4
100
AcDbBlockReference
  2
B1
 10
6.593185503170872
 20
2.357333049545979
 30
0.0
  0
INSERT
  5
603
330
3FC
100
AcDbEntity
  8
4
100
AcDbBlockReference
  2
B1
 10
6.593185503170872
 20
2.843753657733547
 30
0.0
  0
LINE
  5
604
330
3FC
100
AcDbEntity
  8
2
100
AcDbLine
 10
6.61818550317087
 20
2.500445836325938
 30
0.0
 11
6.86818550317087
 21
2.500445836325938
 31
0.0
  0
INSERT
  5
605
330
3FC
100
AcDbEntity
  8
4
100
AcDbBlockReference
  2
B1
 10
6.86818550317087
 20
2.500445836325938
 30
0.0
 50
180.0
  0
LINE
  5
606
330
3FC
100
AcDbEntity
  8
2
100
AcDbLine
 10
6.593185503170872
 20
2.843753657733547
 30
0.0
 11
6.843185503170872
 21
2.843753657733546
 31
0.0
  0
LINE
  5
607
330
3FC
100
AcDbEntity
  8
2
100
AcDbLine
 10
6.574435503170871
 20
2.319833049545979
 30
0.0
 11
6.574435503170871
 21
2.20022522813837
 31
0.0
  0
LINE
  5
608
330
3FC
100
AcDbEntity
  8
2
100
AcDbLine
 10
6.574435503170871
 20
2.806253657733547
 30
0.0
 11
6.574435503170871
 21
2.595945836325938
 31
0.0
  0
LINE
  5
609
330
3FC
100
AcDbEntity
  8
2
100
AcDbLine
 10
7.113435503170872
 20
2.319833049545979
 30
0.0
 11
7.113435503170872
 21
2.20022522813837
 31
0.0
  0
LINE
  5
60A
330
3FC
100
AcDbEntity
  8
2
100
AcDbLine
 10
6.886935503170871
 20
2.748253657733547
 30
0.0
 11
6.886935503170871
 21
2.537945836325938
 31
0.0
  0
LINE
  5
60B
330
3FC
100
AcDbEntity
  8
2
100
AcDbLine
 10
7.113435503170872
 20
2.806253657733547
 30
0.0
 11
7.113435503170872
 21
2.595945836325938
 31
0.0
  0
LINE
  5
60C
330
3FC
100
AcDbEntity
  8
2
100
AcDbLine
 10
7.425935503170872
 20
2.261833049545979
 30
0.0
 11
7.425935503170872
 21
2.14222522813837
 31
0.0
  0
LINE
  5
60D
330
3FC
100
AcDbEntity
  8
2
100
AcDbLine
 10
7.425935503170872
 20
1.873833724880907
 30
0.0
 11
7.425935503170872
 21
1.663525903473298
 31
0.0
  0
LINE
  5
60E
330
3FC
100
AcDbEntity
  8
4
100
AcDbLine
 10
7.624500000000001
 20
1.594038275333514
 30
0.0
 11
7.5625
 21
1.594038275333514
 31
0.0
  0
LINE
  5
60F
330
3FC
100
AcDbEntity
  8
2
100
AcDbLine
 10
7.425935503170872
 20
2.748253657733547
 30
0.0
 11
7.425935503170872
 21
2.537945836325938
 31
0.0
  0
LINE
  5
610
330
3FC
100
AcDbEntity
  8
4
100
AcDbLine
 10
7.486500000000001
 20
3.031044153890644
 30
0.0
 11
7.0195
 21
3.031044153890644
 31
0.0
  0
INSERT
  5
611
330
3FC
100
AcDbEntity
  8
4
100
AcDbBlockReference
  2
B1
 10
7.407185503170872
 20
3.092628279358048
 30
0.0
 50
180.0
  0
LINE
  5
612
330
3FC
100
AcDbEntity
  8
4
100
AcDbLine
 10
7.059499999999999
 20
2.969044153890644
 30
0.0
 11
7.424500000000001
 21
2.969044153890644
 31
0.0
  0
LINE
  5
613
330
3FC
100
AcDbEntity
  8
2
100
AcDbLine
 10
7.157185503170872
 20
3.092628279358048
 30
0.0
 11
7.407185503170872
 21
3.092628279358048
 31
0.0
  0
LINE
  5
614
330
3FC
100
AcDbEntity
  8
2
100
AcDbLine
 10
7.132185503170873
 20
3.435936100765656
 30
0.0
 11
7.382185503170871
 21
3.435936100765656
 31
0.0
  0
INSERT
  5
615
330
3FC
100
AcDbEntity
  8
4
100
AcDbBlockReference
  2
B1
 10
7.132185503170873
 20
3.435936100765656
 30
0.0
  0
LINE
  5
616
330
3FC
100
AcDbEntity
  8
2
100
AcDbLine
 10
7.157185503170872
 20
3.563423249650778
 30
0.0
 11
7.407185503170872
 21
3.563423249650778
 31
0.0
  0
LINE
  5
617
330
3FC
100
AcDbEntity
  8
2
100
AcDbLine
 10
7.132185503170873
 20
3.816031071058387
 30
0.0
 11
7.382185503170871
 21
3.816031071058386
 31
0.0
  0
INSERT
  5
618
330
3FC
100
AcDbEntity
  8
4
100
AcDbBlockReference
  2
B1
 10
7.132185503170873
 20
3.816031071058387
 30
0.0
  0
INSERT
  5
619
330
3FC
100
AcDbEntity
  8
4
100
AcDbBlockReference
  2
B1
 10
7.407185503170872
 20
3.563423249650778
 30
0.0
 50
180.0
  0
INSERT
  5
61A
330
3FC
100
AcDbEntity
  8
4
100
AcDbBlockReference
  2
B1
 10
7.132185503170873
 20
4.296456510038515
 30
0.0
  0
LINE
  5
61B
330
3FC
100
AcDbEntity
  8
2
100
AcDbLine
 10
7.157185503170872
 20
3.953148688630905
 30
0.0
 11
7.407185503170872
 21
3.953148688630905
 31
0.0
  0
INSERT
  5
61C
330
3FC
100
AcDbEntity
  8
4
100
AcDbBlockReference
  2
B1
 10
7.407185503170872
 20
3.953148688630905
 30
0.0
 50
180.0
  0
LINE
  5
61D
330
3FC
100
AcDbEntity
  8
2
100
AcDbLine
 10
7.132185503170873
 20
4.296456510038515
 30
0.0
 11
7.382185503170871
 21
4.296456510038513
 31
0.0
  0
LINE
  5
61E
330
3FC
100
AcDbEntity
  8
4
100
AcDbLine
 10
5.203499999999998
 20
3.031044153890644
 30
0.0
 11
5.6705
 21
3.031044153890644
 31
0.0
  0
LINE
  5
61F
330
3FC
100
AcDbEntity
  8
4
100
AcDbLine
 10
5.630499999999999
 20
2.969044153890644
 30
0.0
 11
5.265499999999999
 21
2.969044153890644
 31
0.0
  0
INSERT
  5
620
330
3FC
100
AcDbEntity
  8
4
100
AcDbBlockReference
  2
B1
 10
5.558185503170872
 20
3.092628279358048
 30
0.0
 50
180.0
  0
LINE
  5
621
330
3FC
100
AcDbEntity
  8
2
100
AcDbLine
 10
5.308185503170872
 20
3.092628279358048
 30
0.0
 11
5.558185503170872
 21
3.092628279358048
 31
0.0
  0
LINE
  5
622
330
3FC
100
AcDbEntity
  8
2
100
AcDbLine
 10
5.283185503170873
 20
3.435936100765656
 30
0.0
 11
5.533185503170871
 21
3.435936100765656
 31
0.0
  0
INSERT
  5
623
330
3FC
100
AcDbEntity
  8
4
100
AcDbBlockReference
  2
B1
 10
5.283185503170873
 20
3.435936100765656
 30
0.0
  0
LINE
  5
624
330
3FC
100
AcDbEntity
  8
2
100
AcDbLine
 10
5.308185503170872
 20
3.563423249650778
 30
0.0
 11
5.558185503170872
 21
3.563423249650778
 31
0.0
  0
LINE
  5
625
330
3FC
100
AcDbEntity
  8
2
100
AcDbLine
 10
5.283185503170873
 20
3.816031071058387
 30
0.0
 11
5.533185503170871
 21
3.816031071058386
 31
0.0
  0
INSERT
  5
626
330
3FC
100
AcDbEntity
  8
4
100
AcDbBlockReference
  2
B1
 10
5.283185503170873
 20
3.816031071058387
 30
0.0
  0
INSERT
  5
627
330
3FC
100
AcDbEntity
  8
4
100
AcDbBlockReference
  2
B1
 10
5.558185503170872
 20
3.563423249650778
 30
0.0
 50
180.0
  0
INSERT
  5
628
330
3FC
100
AcDbEntity
  8
4
100
AcDbBlockReference
  2
B1
 10
5.283185503170873
 20
4.296456510038515
 30
0.0
  0
LINE
  5
629
330
3FC
100
AcDbEntity
  8
2
100
AcDbLine
 10
5.308185503170872
 20
3.953148688630905
 30
0.0
 11
5.558185503170872
 21
3.953148688630905
 31
0.0
  0
INSERT
  5
62A
330
3FC
100
AcDbEntity
  8
4
100
AcDbBlockReference
  2
B1
 10
5.558185503170872
 20
3.953148688630905
 30
0.0
 50
180.0
  0
LINE
  5
62B
330
3FC
100
AcDbEntity
  8
2
100
AcDbLine
 10
5.283185503170873
 20
4.296456510038515
 30
0.0
 11
5.533185503170871
 21
4.296456510038513
 31
0.0
  0
LINE
  5
62C
330
3FC
100
AcDbEntity
  8
4
100
AcDbLine
 10
5.0655
 20
4.406038275333514
 30
0.0
 11
5.0655
 21
3.063
 31
0.0
  0
LINE
  5
62D
330
3FC
100
AcDbEntity
  8
4
100
AcDbLine
 10
5.002500000000001
 20
3.031044153890644
 30
0.0
 11
4.8125
 21
3.031044153890644
 31
0.0
  0
INSERT
  5
62E
330
3FC
100
AcDbEntity
  8
4
100
AcDbBlockReference
  2
ARRO2
 10
4.8125
 20
3.031044153890644
 30
0.0
 50
90.0
  0
LINE
  5
62F
330
3FC
100
AcDbEntity
  8
4
100
AcDbLine
 10
4.8125
 20
3.031044153890644
 30
0.0
 11
4.750499999999998
 21
3.031044153890644
 31
0.0
  0
LINE
  5
630
330
3FC
100
AcDbEntity
  8
2
100
AcDbLine
 10
5.264435503170872
 20
3.398436100765656
 30
0.0
 11
5.264435503170872
 21
3.188128279358048
 31
0.0
  0
LINE
  5
631
330
3FC
100
AcDbEntity
  8
4
100
AcDbLine
 10
5.0655
 20
2.937044153890644
 30
0.0
 11
5.127500000000001
 21
2.937044153890644
 31
0.0
  0
LINE
  5
632
330
3FC
100
AcDbEntity
  8
4
100
AcDbLine
 10
5.0655
 20
3.063000000000001
 30
0.0
 11
5.127499999999999
 21
3.063000000000001
 31
0.0
  0
LINE
  5
633
330
3FC
100
AcDbEntity
  8
4
100
AcDbLine
 10
5.127499999999999
 20
2.969044153890644
 30
0.0
 11
5.0655
 21
2.969044153890644
 31
0.0
  0
LINE
  5
634
330
3FC
100
AcDbEntity
  8
4
100
AcDbLine
 10
5.0655
 20
3.031044153890644
 30
0.0
 11
5.173499999999998
 21
3.031044153890644
 31
0.0
  0
LINE
  5
635
330
3FC
100
AcDbEntity
  8
4
100
AcDbLine
 10
5.188499999999999
 20
3.016044153890643
 30
0.0
 11
5.090499999999998
 21
3.016044153890643
 31
0.0
  0
LINE
  5
636
330
3FC
100
AcDbEntity
  8
4
100
AcDbLine
 10
5.0655
 20
2.969044153890644
 30
0.0
 11
5.0655
 21
3.031044153890644
 31
0.0
  0
LINE
  5
637
330
3FC
100
AcDbEntity
  8
4
100
AcDbLine
 10
5.090499999999998
 20
3.016044153890643
 30
0.0
 11
5.090499999999998
 21
2.987798011453083
 31
0.0
  0
LINE
  5
638
330
3FC
100
AcDbEntity
  8
4
100
AcDbLine
 10
5.265499999999999
 20
2.969044153890644
 30
0.0
 11
5.203499999999998
 21
3.031044153890644
 31
0.0
  0
LINE
  5
639
330
3FC
100
AcDbEntity
  8
4
100
AcDbLine
 10
5.203499999999998
 20
3.031044153890644
 30
0.0
 11
5.188499999999999
 21
3.016044153890643
 31
0.0
  0
INSERT
  5
63A
330
3FC
100
AcDbEntity
  8
2
100
AcDbBlockReference
 66
     1
  2
FRACTION
 10
4.8125
 20
3.780528133089595
 30
0.0
 41
0.6000000000000001
 42
0.6000000000000001
 43
0.6
 50
90.0
  0
ATTRIB
  5
63B
330
63A
100
AcDbEntity
  8
8
100
AcDbText
 10
4.754000000000001
 20
3.611781602320948
 30
0.0
 40
0.075
  1
35
 50
90.0
 72
     2
 11
4.754000000000001
 21
3.736781602320948
 31
0.0
100
AcDbAttribute
  2
A
 70
     0
  0
ATTRIB
  5
63C
330
63A
100
AcDbEntity
  8
8
100
AcDbText
 10
4.704500000000003
 20
3.813728133089595
 30
0.0
 40
0.06
  1
1
 50
90.0
 72
     1
 11
4.704500000000003
 21
3.823728133089595
 31
0.0
100
AcDbAttribute
  2
B
 70
     0
  0
ATTRIB
  5
63D
330
63A
100
AcDbEntity
  8
8
100
AcDbText
 10
4.7885
 20
3.803728133089594
 30
0.0
 40
0.06
  1
2
 50
90.0
 72
     1
 11
4.7885
 21
3.823728133089595
 31
0.0
100
AcDbAttribute
  2
C
 70
     0
  0
SEQEND
  5
63E
330
63A
100
AcDbEntity
  8
2
  0
LINE
  5
63F
330
3FC
100
AcDbEntity
  8
2
100
AcDbLine
 10
5.264435503170872
 20
3.778531071058387
 30
0.0
 11
5.264435503170872
 21
3.658923249650778
 31
0.0
  0
LINE
  5
640
330
3FC
100
AcDbEntity
  8
2
100
AcDbLine
 10
5.264435503170872
 20
4.258956510038514
 30
0.0
 11
5.264435503170872
 21
4.048648688630905
 31
0.0
  0
INSERT
  5
641
330
3FC
100
AcDbEntity
  8
4
100
AcDbBlockReference
  2
ARRO
 10
4.8125
 20
4.500038275333514
 30
0.0
 50
270.0
  0
LINE
  5
642
330
3FC
100
AcDbEntity
  8
4
100
AcDbLine
 10
5.0655
 20
4.406038275333514
 30
0.0
 11
5.127499999999999
 21
4.406038275333514
 31
0.0
  0
LINE
  5
643
330
3FC
100
AcDbEntity
  8
4
100
AcDbLine
 10
6.375499999999998
 20
4.406038275333514
 30
0.0
 11
6.375499999999998
 21
3.063
 31
0.0
  0
INSERT
  5
644
330
3FC
100
AcDbEntity
  8
4
100
AcDbBlockReference
  2
B1
 10
6.593185503170872
 20
4.296456510038515
 30
0.0
  0
LINE
  5
645
330
3FC
100
AcDbEntity
  8
2
100
AcDbLine
 10
5.576935503170872
 20
3.340436100765657
 30
0.0
 11
5.576935503170872
 21
3.130128279358048
 31
0.0
  0
LINE
  5
646
330
3FC
100
AcDbEntity
  8
4
100
AcDbLine
 10
5.357479890102485
 20
2.911084459323294
 30
0.0
 11
5.419479890102484
 21
2.911084459323294
 31
0.0
  0
LINE
  5
647
330
3FC
100
AcDbEntity
  8
4
100
AcDbLine
 10
5.6705
 20
2.874084459323295
 30
0.0
 11
5.6705
 21
2.924084459323294
 31
0.0
  0
LINE
  5
648
330
3FC
100
AcDbEntity
  8
4
100
AcDbLine
 10
5.6705
 20
3.031044153890644
 30
0.0
 11
5.6705
 21
2.969044153890644
 31
0.0
  0
LINE
  5
649
330
3FC
100
AcDbEntity
  8
4
100
AcDbLine
 10
5.630499999999999
 20
3.031044153890644
 30
0.0
 11
5.630499999999999
 21
2.969044153890644
 31
0.0
  0
LINE
  5
64A
330
3FC
100
AcDbEntity
  8
2
100
AcDbLine
 10
5.576935503170872
 20
3.720531071058387
 30
0.0
 11
5.576935503170872
 21
3.600923249650778
 31
0.0
  0
LINE
  5
64B
330
3FC
100
AcDbEntity
  8
2
100
AcDbLine
 10
5.576935503170872
 20
4.200956510038514
 30
0.0
 11
5.576935503170872
 21
3.990648688630905
 31
0.0
  0
LINE
  5
64C
330
3FC
100
AcDbEntity
  8
4
100
AcDbLine
 10
6.513499999999998
 20
3.031044153890644
 30
0.0
 11
6.980499999999999
 21
3.031044153890644
 31
0.0
  0
INSERT
  5
64D
330
3FC
100
AcDbEntity
  8
4
100
AcDbBlockReference
  2
B1
 10
6.86818550317087
 20
3.092628279358048
 30
0.0
 50
180.0
  0
LINE
  5
64E
330
3FC
100
AcDbEntity
  8
4
100
AcDbLine
 10
6.9405
 20
2.969044153890644
 30
0.0
 11
6.575499999999998
 21
2.969044153890644
 31
0.0
  0
LINE
  5
64F
330
3FC
100
AcDbEntity
  8
2
100
AcDbLine
 10
6.61818550317087
 20
3.092628279358048
 30
0.0
 11
6.86818550317087
 21
3.092628279358048
 31
0.0
  0
LINE
  5
650
330
3FC
100
AcDbEntity
  8
2
100
AcDbLine
 10
6.593185503170872
 20
3.435936100765656
 30
0.0
 11
6.843185503170872
 21
3.435936100765656
 31
0.0
  0
INSERT
  5
651
330
3FC
100
AcDbEntity
  8
4
100
AcDbBlockReference
  2
B1
 10
6.593185503170872
 20
3.435936100765656
 30
0.0
  0
LINE
  5
652
330
3FC
100
AcDbEntity
  8
2
100
AcDbLine
 10
6.574435503170871
 20
3.398436100765656
 30
0.0
 11
6.574435503170871
 21
3.188128279358048
 31
0.0
  0
LINE
  5
653
330
3FC
100
AcDbEntity
  8
4
100
AcDbLine
 10
6.513499999999998
 20
3.031044153890644
 30
0.0
 11
6.498499999999999
 21
3.016044153890643
 31
0.0
  0
LINE
  5
654
330
3FC
100
AcDbEntity
  8
4
100
AcDbLine
 10
6.375499999999998
 20
2.937044153890644
 30
0.0
 11
6.4375
 21
2.937044153890644
 31
0.0
  0
LINE
  5
655
330
3FC
100
AcDbEntity
  8
4
100
AcDbLine
 10
6.375499999999998
 20
3.031044153890644
 30
0.0
 11
6.483499999999999
 21
3.031044153890644
 31
0.0
  0
LINE
  5
656
330
3FC
100
AcDbEntity
  8
4
100
AcDbLine
 10
6.4375
 20
2.969044153890644
 30
0.0
 11
6.375499999999998
 21
2.969044153890644
 31
0.0
  0
LINE
  5
657
330
3FC
100
AcDbEntity
  8
4
100
AcDbLine
 10
6.375499999999998
 20
2.969044153890644
 30
0.0
 11
6.375499999999998
 21
3.031044153890644
 31
0.0
  0
LINE
  5
658
330
3FC
100
AcDbEntity
  8
4
100
AcDbLine
 10
6.498499999999999
 20
3.016044153890643
 30
0.0
 11
6.400499999999999
 21
3.016044153890643
 31
0.0
  0
LINE
  5
659
330
3FC
100
AcDbEntity
  8
4
100
AcDbLine
 10
6.400499999999999
 20
3.016044153890643
 30
0.0
 11
6.400499999999999
 21
2.987798011453083
 31
0.0
  0
LINE
  5
65A
330
3FC
100
AcDbEntity
  8
4
100
AcDbLine
 10
6.375499999999998
 20
3.063
 30
0.0
 11
6.4375
 21
3.063
 31
0.0
  0
LINE
  5
65B
330
3FC
100
AcDbEntity
  8
4
100
AcDbLine
 10
6.575499999999998
 20
2.969044153890644
 30
0.0
 11
6.513499999999998
 21
3.031044153890644
 31
0.0
  0
LINE
  5
65C
330
3FC
100
AcDbEntity
  8
4
100
AcDbLine
 10
6.667479890102484
 20
2.911084459323294
 30
0.0
 11
6.729479890102485
 21
2.911084459323294
 31
0.0
  0
LINE
  5
65D
330
3FC
100
AcDbEntity
  8
2
100
AcDbLine
 10
6.886935503170871
 20
3.340436100765657
 30
0.0
 11
6.886935503170871
 21
3.130128279358048
 31
0.0
  0
LINE
  5
65E
330
3FC
100
AcDbEntity
  8
2
100
AcDbLine
 10
7.113435503170872
 20
3.398436100765656
 30
0.0
 11
7.113435503170872
 21
3.188128279358048
 31
0.0
  0
LINE
  5
65F
330
3FC
100
AcDbEntity
  8
4
100
AcDbLine
 10
6.9405
 20
3.031044153890644
 30
0.0
 11
6.9405
 21
2.969044153890644
 31
0.0
  0
LINE
  5
660
330
3FC
100
AcDbEntity
  8
4
100
AcDbLine
 10
6.980499999999999
 20
2.874084459323295
 30
0.0
 11
6.980499999999999
 21
2.924084459323294
 31
0.0
  0
LINE
  5
661
330
3FC
100
AcDbEntity
  8
4
100
AcDbLine
 10
6.980499999999999
 20
3.031044153890644
 30
0.0
 11
6.980499999999999
 21
2.969044153890644
 31
0.0
  0
LINE
  5
662
330
3FC
100
AcDbEntity
  8
4
100
AcDbLine
 10
7.0195
 20
2.874084459323295
 30
0.0
 11
7.0195
 21
2.924084459323294
 31
0.0
  0
LINE
  5
663
330
3FC
100
AcDbEntity
  8
4
100
AcDbLine
 10
7.0195
 20
3.031044153890644
 30
0.0
 11
7.0195
 21
2.969044153890644
 31
0.0
  0
LINE
  5
664
330
3FC
100
AcDbEntity
  8
4
100
AcDbLine
 10
7.059499999999999
 20
3.031044153890644
 30
0.0
 11
7.059499999999999
 21
2.969044153890644
 31
0.0
  0
LINE
  5
665
330
3FC
100
AcDbEntity
  8
2
100
AcDbLine
 10
6.593185503170872
 20
3.816031071058387
 30
0.0
 11
6.843185503170872
 21
3.816031071058386
 31
0.0
  0
LINE
  5
666
330
3FC
100
AcDbEntity
  8
2
100
AcDbLine
 10
6.61818550317087
 20
3.563423249650778
 30
0.0
 11
6.86818550317087
 21
3.563423249650778
 31
0.0
  0
INSERT
  5
667
330
3FC
100
AcDbEntity
  8
4
100
AcDbBlockReference
  2
B1
 10
6.593185503170872
 20
3.816031071058387
 30
0.0
  0
INSERT
  5
668
330
3FC
100
AcDbEntity
  8
4
100
AcDbBlockReference
  2
B1
 10
6.86818550317087
 20
3.563423249650778
 30
0.0
 50
180.0
  0
LINE
  5
669
330
3FC
100
AcDbEntity
  8
2
100
AcDbLine
 10
6.61818550317087
 20
3.953148688630905
 30
0.0
 11
6.86818550317087
 21
3.953148688630905
 31
0.0
  0
INSERT
  5
66A
330
3FC
100
AcDbEntity
  8
4
100
AcDbBlockReference
  2
B1
 10
6.86818550317087
 20
3.953148688630905
 30
0.0
 50
180.0
  0
LINE
  5
66B
330
3FC
100
AcDbEntity
  8
2
100
AcDbLine
 10
6.574435503170871
 20
3.778531071058387
 30
0.0
 11
6.574435503170871
 21
3.658923249650778
 31
0.0
  0
LINE
  5
66C
330
3FC
100
AcDbEntity
  8
2
100
AcDbLine
 10
6.574435503170871
 20
4.258956510038514
 30
0.0
 11
6.574435503170871
 21
4.048648688630905
 31
0.0
  0
LINE
  5
66D
330
3FC
100
AcDbEntity
  8
2
100
AcDbLine
 10
6.886935503170871
 20
3.720531071058387
 30
0.0
 11
6.886935503170871
 21
3.600923249650778
 31
0.0
  0
LINE
  5
66E
330
3FC
100
AcDbEntity
  8
2
100
AcDbLine
 10
7.113435503170872
 20
3.778531071058387
 30
0.0
 11
7.113435503170872
 21
3.658923249650778
 31
0.0
  0
LINE
  5
66F
330
3FC
100
AcDbEntity
  8
2
100
AcDbLine
 10
6.886935503170871
 20
4.200956510038514
 30
0.0
 11
6.886935503170871
 21
3.990648688630905
 31
0.0
  0
LINE
  5
670
330
3FC
100
AcDbEntity
  8
2
100
AcDbLine
 10
7.113435503170872
 20
4.258956510038514
 30
0.0
 11
7.113435503170872
 21
4.048648688630905
 31
0.0
  0
LINE
  5
671
330
3FC
100
AcDbEntity
  8
4
100
AcDbLine
 10
5.388479890102484
 20
4.380038275333513
 30
0.0
 11
5.388479890102484
 21
4.318038275333513
 31
0.0
  0
LINE
  5
672
330
3FC
100
AcDbEntity
  8
4
100
AcDbLine
 10
5.357479890102485
 20
4.380038275333513
 30
0.0
 11
5.419479890102484
 21
4.380038275333513
 31
0.0
  0
LINE
  5
673
330
3FC
100
AcDbEntity
  8
4
100
AcDbLine
 10
5.6705
 20
4.343038275333515
 30
0.0
 11
5.6705
 21
4.393038275333514
 31
0.0
  0
ARC
  5
674
330
3FC
100
AcDbEntity
  8
4
100
AcDbCircle
 10
5.645500000000001
 20
4.343038275333515
 30
0.0
 40
0.025
100
AcDbArc
 50
180.0
 51
0.0
  0
LINE
  5
675
330
3FC
100
AcDbEntity
  8
2
100
AcDbLine
 10
6.593185503170872
 20
4.296456510038515
 30
0.0
 11
6.843185503170872
 21
4.296456510038513
 31
0.0
  0
LINE
  5
676
330
3FC
100
AcDbEntity
  8
4
100
AcDbLine
 10
6.375499999999998
 20
4.406038275333514
 30
0.0
 11
6.4375
 21
4.406038275333514
 31
0.0
  0
LINE
  5
677
330
3FC
100
AcDbEntity
  8
4
100
AcDbLine
 10
6.698479890102484
 20
4.380038275333513
 30
0.0
 11
6.698479890102484
 21
4.318038275333513
 31
0.0
  0
LINE
  5
678
330
3FC
100
AcDbEntity
  8
4
100
AcDbLine
 10
6.667479890102484
 20
4.380038275333513
 30
0.0
 11
6.729479890102485
 21
4.380038275333513
 31
0.0
  0
ARC
  5
679
330
3FC
100
AcDbEntity
  8
4
100
AcDbCircle
 10
6.9555
 20
4.343038275333515
 30
0.0
 40
0.025
100
AcDbArc
 50
180.0
 51
0.0
  0
LINE
  5
67A
330
3FC
100
AcDbEntity
  8
4
100
AcDbLine
 10
6.980499999999999
 20
4.343038275333515
 30
0.0
 11
6.980499999999999
 21
4.393038275333514
 31
0.0
  0
LINE
  5
67B
330
3FC
100
AcDbEntity
  8
4
100
AcDbLine
 10
7.0195
 20
4.343038275333515
 30
0.0
 11
7.0195
 21
4.393038275333514
 31
0.0
  0
ARC
  5
67C
330
3FC
100
AcDbEntity
  8
4
100
AcDbCircle
 10
7.044499999999999
 20
4.343038275333515
 30
0.0
 40
0.025
100
AcDbArc
 50
180.0
 51
0.0
  0
LINE
  5
67D
330
3FC
100
AcDbEntity
  8
4
100
AcDbLine
 10
7.624500000000001
 20
4.406038275333514
 30
0.0
 11
7.624500000000001
 21
3.063
 31
0.0
  0
LINE
  5
67E
330
3FC
100
AcDbEntity
  8
2
100
AcDbLine
 10
7.425935503170872
 20
3.340436100765657
 30
0.0
 11
7.425935503170872
 21
3.130128279358048
 31
0.0
  0
LINE
  5
67F
330
3FC
100
AcDbEntity
  8
4
100
AcDbLine
 10
7.424500000000001
 20
2.969044153890644
 30
0.0
 11
7.486500000000001
 21
3.031044153890644
 31
0.0
  0
LINE
  5
680
330
3FC
100
AcDbEntity
  8
4
100
AcDbLine
 10
7.332520109897515
 20
2.911084459323294
 30
0.0
 11
7.270520109897516
 21
2.911084459323294
 31
0.0
  0
LINE
  5
681
330
3FC
100
AcDbEntity
  8
4
100
AcDbLine
 10
7.5625
 20
2.937044153890644
 30
0.0
 11
7.624499999999999
 21
2.937044153890644
 31
0.0
  0
LINE
  5
682
330
3FC
100
AcDbEntity
  8
4
100
AcDbLine
 10
7.5625
 20
2.969044153890644
 30
0.0
 11
7.624500000000001
 21
2.969044153890644
 31
0.0
  0
LINE
  5
683
330
3FC
100
AcDbEntity
  8
4
100
AcDbLine
 10
7.624500000000001
 20
3.031044153890644
 30
0.0
 11
7.5165
 21
3.031044153890644
 31
0.0
  0
LINE
  5
684
330
3FC
100
AcDbEntity
  8
4
100
AcDbLine
 10
7.5015
 20
3.016044153890643
 30
0.0
 11
7.5995
 21
3.016044153890643
 31
0.0
  0
LINE
  5
685
330
3FC
100
AcDbEntity
  8
4
100
AcDbLine
 10
7.486500000000001
 20
3.031044153890644
 30
0.0
 11
7.5015
 21
3.016044153890643
 31
0.0
  0
LINE
  5
686
330
3FC
100
AcDbEntity
  8
4
100
AcDbLine
 10
7.624500000000001
 20
2.969044153890644
 30
0.0
 11
7.624500000000001
 21
3.031044153890644
 31
0.0
  0
LINE
  5
687
330
3FC
100
AcDbEntity
  8
4
100
AcDbLine
 10
7.5995
 20
3.016044153890643
 30
0.0
 11
7.5995
 21
2.987798011453083
 31
0.0
  0
LINE
  5
688
330
3FC
100
AcDbEntity
  8
4
100
AcDbLine
 10
7.5625
 20
3.063
 30
0.0
 11
7.624499999999999
 21
3.063
 31
0.0
  0
LINE
  5
689
330
3FC
100
AcDbEntity
  8
2
100
AcDbLine
 10
7.425935503170872
 20
3.720531071058387
 30
0.0
 11
7.425935503170872
 21
3.600923249650778
 31
0.0
  0
LINE
  5
68A
330
3FC
100
AcDbEntity
  8
2
100
AcDbLine
 10
7.425935503170872
 20
4.200956510038514
 30
0.0
 11
7.425935503170872
 21
3.990648688630905
 31
0.0
  0
LINE
  5
68B
330
3FC
100
AcDbEntity
  8
4
100
AcDbLine
 10
7.332520109897515
 20
4.380038275333513
 30
0.0
 11
7.270520109897516
 21
4.380038275333513
 31
0.0
  0
LINE
  5
68C
330
3FC
100
AcDbEntity
  8
4
100
AcDbLine
 10
7.301520109897516
 20
4.380038275333513
 30
0.0
 11
7.301520109897516
 21
4.318038275333513
 31
0.0
  0
LINE
  5
68D
330
3FC
100
AcDbEntity
  8
4
100
AcDbLine
 10
7.624500000000001
 20
4.406038275333514
 30
0.0
 11
7.5625
 21
4.406038275333514
 31
0.0
  0
ENDBLK
  5
68F
330
3FC
100
AcDbEntity
  8
0
100
AcDbBlockEnd
  0
BLOCK
  5
694
330
692
100
AcDbEntity
  8
0
100
AcDbBlockBegin
  2
LE1203
 70
     0
 10
0.0
 20
0.0
 30
0.0
  3
LE1203
  1

  0
INSERT
  5
693
330
692
100
AcDbEntity
  8
4
100
AcDbBlockReference
  2
SPL2ATHLETICDT72
 10
0.0
 20
0.0
 30
0.0
  0
ENDBLK
  5
695
330
692
100
AcDbEntity
  8
0
100
AcDbBlockEnd
  0
BLOCK
  5
A1E
330
A0A
100
AcDbEntity
  8
0
100
AcDbBlockBegin
  2
HDV hooks
 70
     0
 10
0.0
 20
0.0
 30
0.0
  3
HDV hooks
  1

  0
ARC
  5
A0B
330
A0A
100
AcDbEntity
  8
4
100
AcDbCircle
 10
0.0477506151055565
 20
-0.094959694567347
 30
0.0
 40
0.025
100
AcDbArc
 50
180.0
 51
0.0
  0
LINE
  5
A0C
330
A0A
100
AcDbEntity
  8
4
100
AcDbLine
 10
0.0227506151055561
 20
-0.094959694567347
 30
0.0
 11
0.0227506151055561
 21
0.0
 31
0.0
  0
LINE
  5
A0D
330
A0A
100
AcDbEntity
  8
4
100
AcDbLine
 10
0.218
 20
0.0005777676988341
 30
0.0
 11
0.218
 21
-0.1199596945673473
 31
0.0
  0
LINE
  5
A0E
330
A0A
100
AcDbEntity
  8
4
100
AcDbLine
 10
0.2799999999999976
 20
0.0008254941851167
 30
0.0
 11
0.2799999999999976
 21
-0.1199596945673473
 31
0.0
  0
LINE
  5
A0F
330
A0A
100
AcDbEntity
  8
4
100
AcDbLine
 10
0.4869331585908921
 20
-0.094959694567347
 30
0.0
 11
0.4869331585908921
 21
0.0
 31
0.0
  0
ARC
  5
A10
330
A0A
100
AcDbEntity
  8
4
100
AcDbCircle
 10
0.4619430241573639
 20
-0.094959694567347
 30
0.0
 40
0.025
100
AcDbArc
 50
180.0
 51
0.0
  0
ARC
  5
A11
330
A0A
100
AcDbEntity
  8
4
100
AcDbCircle
 10
0.6714820743968737
 20
-0.094959694567347
 30
0.0
 40
0.025
100
AcDbArc
 50
180.0
 51
0.0
  0
LINE
  5
A12
330
A0A
100
AcDbEntity
  8
4
100
AcDbLine
 10
0.6464820743968734
 20
-0.094959694567347
 30
0.0
 11
0.6464820743968734
 21
0.0
 31
0.0
  0
LINE
  5
A13
330
A0A
100
AcDbEntity
  8
4
100
AcDbLine
 10
1.110664617882209
 20
-0.094959694567347
 30
0.0
 11
1.110664617882209
 21
0.0
 31
0.0
  0
ARC
  5
A14
330
A0A
100
AcDbEntity
  8
4
100
AcDbCircle
 10
1.085674483448681
 20
-0.094959694567347
 30
0.0
 40
0.025
100
AcDbArc
 50
180.0
 51
0.0
  0
ARC
  5
A15
330
A0A
100
AcDbEntity
  8
4
100
AcDbCircle
 10
1.290857194253597
 20
-0.094959694567347
 30
0.0
 40
0.025
100
AcDbArc
 50
180.0
 51
0.0
  0
LINE
  5
A16
330
A0A
100
AcDbEntity
  8
4
100
AcDbLine
 10
1.265857194253596
 20
-0.094959694567347
 30
0.0
 11
1.265857194253596
 21
0.0
 31
0.0
  0
LINE
  5
A17
330
A0A
100
AcDbEntity
  8
4
100
AcDbLine
 10
1.523106579148038
 20
0.0008254941851167
 30
0.0
 11
1.523106579148038
 21
-0.1199596945673473
 31
0.0
  0
LINE
  5
A18
330
A0A
100
AcDbEntity
  8
4
100
AcDbLine
 10
1.46110657914804
 20
0.0005777676988341
 30
0.0
 11
1.46110657914804
 21
-0.1199596945673473
 31
0.0
  0
ARC
  5
A19
330
A0A
100
AcDbEntity
  8
4
100
AcDbCircle
 10
1.705049603305404
 20
-0.094959694567347
 30
0.0
 40
0.025
100
AcDbArc
 50
180.0
 51
0.0
  0
LINE
  5
A1A
330
A0A
100
AcDbEntity
  8
4
100
AcDbLine
 10
1.730039737738932
 20
-0.094959694567347
 30
0.0
 11
1.730039737738932
 21
0.0
 31
0.0
  0
LINE
  5
A1B
330
A0A
100
AcDbEntity
  8
4
100
AcDbLine
 10
3.733499999999998
 20
0.0619999999999994
 30
0.0
 11
3.733499999999998
 21
-0.1198201480656689
 31
0.0
  0
LINE
  5
A1C
330
A0A
100
AcDbEntity
  8
4
100
AcDbLine
 10
3.954876537991797
 20
-0.094959694567347
 30
0.0
 11
3.954876537991797
 21
0.0619999999999994
 31
0.0
  0
ARC
  5
A1D
330
A0A
100
AcDbEntity
  8
4
100
AcDbCircle
 10
3.929886403558269
 20
-0.094959694567347
 30
0.0
 40
0.025
100
AcDbArc
 50
180.0
 51
0.0
  0
ENDBLK
  5
A1F
330
A0A
100
AcDbEntity
  8
0
100
AcDbBlockEnd
  0
ENDSEC
  0
SECTION
  2
ENTITIES
  0
TEXT
  5
6AB
330
1F
100
AcDbEntity
  8
8
100
AcDbText
 10
6.957291806336735
 20
2.595642127164424
 30
0.0
 40
0.07
  1
DEPTH
  7
ROMANS
 72
     1
 11
7.122291806336735
 21
2.595642127164424
 31
0.0
100
AcDbText
  0
TEXT
  5
6AC
330
1F
100
AcDbEntity
  8
8
100
AcDbText
 10
8.579791806336736
 20
2.595642127164424
 30
0.0
 40
0.07
  1
DEPTH
  7
ROMANS
 72
     1
 11
8.744791806336735
 21
2.595642127164424
 31
0.0
100
AcDbText
  0
TEXT
  5
6AD
330
1F
100
AcDbEntity
  8
8
100
AcDbText
 10
8.02263029341028
 20
2.438394896044049
 30
0.0
 40
0.1
  1
SR BACK TO BACK
  7
ROMANS
 72
     1
 11
8.746439817219803
 21
2.438394896044049
 31
0.0
100
AcDbText
  0
TEXT
  5
6AE
330
1F
100
AcDbEntity
  8
8
100
AcDbText
 10
7.539181130895115
 20
2.25379388921874
 30
0.0
 40
0.1
  1
SECTIONS
  7
ROMANS
 72
     1
 11
7.891562083276067
 21
2.25379388921874
 31
0.0
100
AcDbText
  0
TEXT
  5
6AF
330
1F
100
AcDbEntity
  8
8
100
AcDbText
 10
7.046844969463692
 20
2.438394896044049
 30
0.0
 40
0.1
  1
SR
  7
ROMANS
 72
     1
 11
7.144464017082739
 21
2.438394896044049
 31
0.0
100
AcDbText
  0
LINE
  5
6B0
330
1F
100
AcDbEntity
  8
4
100
AcDbLine
 10
7.372791806336735
 20
5.94179388921874
 30
0.0
 11
7.636523409002139
 21
5.94179388921874
 31
0.0
  0
LINE
  5
6B1
330
1F
100
AcDbEntity
  8
4
100
AcDbLine
 10
7.676950618674565
 20
5.94179388921874
 30
0.0
 11
7.857414415498508
 21
5.94179388921874
 31
0.0
  0
INSERT
  5
6B2
330
1F
100
AcDbEntity
  8
4
100
AcDbBlockReference
  2
ARRO
 10
7.676950618674565
 20
5.94179388921874
 30
0.0
  0
LINE
  5
6B3
330
1F
100
AcDbEntity
  8
4
100
AcDbLine
 10
7.857414415498508
 20
5.94179388921874
 30
0.0
 11
7.857414415498508
 21
5.738806219428227
 31
0.0
  0
TEXT
  5
6B4
330
1F
100
AcDbEntity
  8
8
100
AcDbText
 10
7.892414415498508
 20
4.363472886094894
 30
0.0
 40
0.07
  1
ANCHORING BY ERECTOR
 50
90.0
  7
ROMANS
 72
     2
 11
7.892414415498508
 21
5.676806219428227
 31
0.0
100
AcDbText
  0
TEXT
  5
6B5
330
1F
100
AcDbEntity
  8
8
100
AcDbText
 10
6.245291806336735
 20
4.270127222552073
 30
0.0
 40
0.07
  1
LOCKER HEIGHT
 50
90.0
  7
ROMANS
 72
     1
 11
6.245291806336735
 21
4.69179388921874
 31
0.0
100
AcDbText
  0
TEXT
  5
6B6
330
1F
100
AcDbEntity
  8
8
100
AcDbText
 10
3.089791806336734
 20
2.75379388921874
 30
0.0
 40
0.07
  1
LOCKER WIDTH - SEE SCHEDULE
  7
ROMANS
 72
     1
 11
3.994791806336735
 21
2.75379388921874
 31
0.0
100
AcDbText
  0
TEXT
  5
6B7
330
1F
100
AcDbEntity
  8
8
100
AcDbText
 10
3.33050609205102
 20
2.25379388921874
 30
0.0
 40
0.1
  1
FRONT ELEVATION
  7
ROMANS
 72
     1
 11
3.994791806336735
 21
2.25379388921874
 31
0.0
100
AcDbText
  0
LINE
  5
6B8
330
1F
100
AcDbEntity
  8
4
100
AcDbLine
 10
9.402338728049187
 20
2.629793889218739
 30
0.0
 11
9.402338728049187
 21
2.817793889218739
 31
0.0
  0
LINE
  5
6B9
330
1F
100
AcDbEntity
  8
4
100
AcDbLine
 10
8.119791806336735
 20
2.629793889218739
 30
0.0
 11
8.119791806336735
 21
2.817793889218739
 31
0.0
  0
LINE
  5
6BA
330
1F
100
AcDbEntity
  8
4
100
AcDbLine
 10
7.494791806336735
 20
2.629793889218739
 30
0.0
 11
7.494791806336735
 21
2.817793889218739
 31
0.0
  0
LINE
  5
6BB
330
1F
100
AcDbEntity
  8
4
100
AcDbLine
 10
7.434791806336735
 20
2.629793889218739
 30
0.0
 11
7.434791806336735
 21
2.817793889218739
 31
0.0
  0
LINE
  5
6BC
330
1F
100
AcDbEntity
  8
4
100
AcDbLine
 10
6.809791806336735
 20
2.629793889218739
 30
0.0
 11
6.809791806336735
 21
2.817793889218739
 31
0.0
  0
LINE
  5
6BD
330
1F
100
AcDbEntity
  8
1
100
AcDbLine
 10
7.494791806336735
 20
3.44179388921874
 30
0.0
 11
7.682791806336735
 21
3.629793889218739
 31
0.0
  0
LINE
  5
6BE
330
1F
100
AcDbEntity
  8
1
100
AcDbLine
 10
7.494791806336735
 20
3.56679388921874
 30
0.0
 11
7.682791806336735
 21
3.754793889218739
 31
0.0
  0
LINE
  5
6BF
330
1F
100
AcDbEntity
  8
1
100
AcDbLine
 10
6.948291806336734
 20
3.25429388921874
 30
0.0
 11
6.933291806336734
 21
3.239293889218739
 31
0.0
  0
LINE
  5
6C0
330
1F
100
AcDbEntity
  8
1
100
AcDbLine
 10
6.933291806336734
 20
3.239293889218739
 30
0.0
 11
6.835291806336734
 21
3.239293889218739
 31
0.0
  0
LINE
  5
6C1
330
1F
100
AcDbEntity
  8
1
100
AcDbLine
 10
6.835291806336734
 20
3.239293889218739
 30
0.0
 11
6.835291806336734
 21
3.211047746781179
 31
0.0
  0
LINE
  5
6C2
330
1F
100
AcDbEntity
  8
1
100
AcDbLine
 10
7.010291806336734
 20
3.192293889218739
 30
0.0
 11
6.948291806336734
 21
3.25429388921874
 31
0.0
  0
LINE
  5
6C3
330
1F
100
AcDbEntity
  8
1
100
AcDbLine
 10
7.375291806336734
 20
3.192293889218739
 30
0.0
 11
7.010291806336734
 21
3.192293889218739
 31
0.0
  0
LINE
  5
6C4
330
1F
100
AcDbEntity
  8
1
100
AcDbLine
 10
7.375291806336734
 20
3.25429388921874
 30
0.0
 11
7.375291806336734
 21
3.192293889218739
 31
0.0
  0
LINE
  5
6C5
330
1F
100
AcDbEntity
  8
1
100
AcDbLine
 10
7.415291806336735
 20
3.25429388921874
 30
0.0
 11
7.415291806336735
 21
3.192293889218739
 31
0.0
  0
LINE
  5
6C6
330
1F
100
AcDbEntity
  8
1
100
AcDbLine
 10
6.810291806336734
 20
3.25429388921874
 30
0.0
 11
6.918291806336734
 21
3.25429388921874
 31
0.0
  0
LINE
  5
6C7
330
1F
100
AcDbEntity
  8
1
100
AcDbLine
 10
6.810291806336734
 20
3.192293889218739
 30
0.0
 11
6.810291806336734
 21
3.25429388921874
 31
0.0
  0
LINE
  5
6C8
330
1F
100
AcDbEntity
  8
1
100
AcDbLine
 10
6.872291806336734
 20
3.192293889218739
 30
0.0
 11
6.810291806336734
 21
3.192293889218739
 31
0.0
  0
LINE
  5
6C9
330
1F
100
AcDbEntity
  8
1
100
AcDbLine
 10
6.948291806336734
 20
3.25429388921874
 30
0.0
 11
7.415291806336735
 21
3.25429388921874
 31
0.0
  0
LINE
  5
6CA
330
1F
100
AcDbEntity
  8
1
100
AcDbLine
 10
8.258291806336734
 20
3.25429388921874
 30
0.0
 11
8.725291806336734
 21
3.25429388921874
 31
0.0
  0
LINE
  5
6CB
330
1F
100
AcDbEntity
  8
1
100
AcDbLine
 10
8.182291806336735
 20
3.192293889218739
 30
0.0
 11
8.120291806336734
 21
3.192293889218739
 31
0.0
  0
LINE
  5
6CC
330
1F
100
AcDbEntity
  8
1
100
AcDbLine
 10
8.120291806336734
 20
3.192293889218739
 30
0.0
 11
8.120291806336734
 21
3.25429388921874
 31
0.0
  0
LINE
  5
6CD
330
1F
100
AcDbEntity
  8
1
100
AcDbLine
 10
8.120291806336734
 20
3.25429388921874
 30
0.0
 11
8.228291806336734
 21
3.25429388921874
 31
0.0
  0
LINE
  5
6CE
330
1F
100
AcDbEntity
  8
1
100
AcDbLine
 10
8.725291806336734
 20
3.25429388921874
 30
0.0
 11
8.725291806336734
 21
3.192293889218739
 31
0.0
  0
LINE
  5
6CF
330
1F
100
AcDbEntity
  8
1
100
AcDbLine
 10
8.685291806336735
 20
3.25429388921874
 30
0.0
 11
8.685291806336735
 21
3.192293889218739
 31
0.0
  0
LINE
  5
6D0
330
1F
100
AcDbEntity
  8
1
100
AcDbLine
 10
8.685291806336735
 20
3.192293889218739
 30
0.0
 11
8.320291806336733
 21
3.192293889218739
 31
0.0
  0
LINE
  5
6D1
330
1F
100
AcDbEntity
  8
1
100
AcDbLine
 10
8.320291806336733
 20
3.192293889218739
 30
0.0
 11
8.258291806336734
 21
3.25429388921874
 31
0.0
  0
LINE
  5
6D2
330
1F
100
AcDbEntity
  8
1
100
AcDbLine
 10
8.145291806336734
 20
3.239293889218739
 30
0.0
 11
8.145291806336734
 21
3.211047746781179
 31
0.0
  0
LINE
  5
6D3
330
1F
100
AcDbEntity
  8
1
100
AcDbLine
 10
8.243291806336735
 20
3.239293889218739
 30
0.0
 11
8.145291806336734
 21
3.239293889218739
 31
0.0
  0
LINE
  5
6D4
330
1F
100
AcDbEntity
  8
1
100
AcDbLine
 10
8.258291806336734
 20
3.25429388921874
 30
0.0
 11
8.243291806336735
 21
3.239293889218739
 31
0.0
  0
LINE
  5
6D5
330
1F
100
AcDbEntity
  8
1
100
AcDbLine
 10
9.263291806336736
 20
3.25429388921874
 30
0.0
 11
9.278291806336735
 21
3.239293889218739
 31
0.0
  0
LINE
  5
6D6
330
1F
100
AcDbEntity
  8
1
100
AcDbLine
 10
9.278291806336735
 20
3.239293889218739
 30
0.0
 11
9.376291806336736
 21
3.239293889218739
 31
0.0
  0
LINE
  5
6D7
330
1F
100
AcDbEntity
  8
1
100
AcDbLine
 10
9.376291806336736
 20
3.239293889218739
 30
0.0
 11
9.376291806336736
 21
3.211047746781179
 31
0.0
  0
LINE
  5
6D8
330
1F
100
AcDbEntity
  8
1
100
AcDbLine
 10
9.201291806336737
 20
3.192293889218739
 30
0.0
 11
9.263291806336736
 21
3.25429388921874
 31
0.0
  0
LINE
  5
6D9
330
1F
100
AcDbEntity
  8
1
100
AcDbLine
 10
8.836291806336735
 20
3.192293889218739
 30
0.0
 11
9.201291806336737
 21
3.192293889218739
 31
0.0
  0
LINE
  5
6DA
330
1F
100
AcDbEntity
  8
1
100
AcDbLine
 10
8.836291806336735
 20
3.25429388921874
 30
0.0
 11
8.836291806336735
 21
3.192293889218739
 31
0.0
  0
LINE
  5
6DB
330
1F
100
AcDbEntity
  8
1
100
AcDbLine
 10
8.796291806336736
 20
3.25429388921874
 30
0.0
 11
8.796291806336736
 21
3.192293889218739
 31
0.0
  0
LINE
  5
6DC
330
1F
100
AcDbEntity
  8
1
100
AcDbLine
 10
9.401291806336736
 20
3.25429388921874
 30
0.0
 11
9.293291806336736
 21
3.25429388921874
 31
0.0
  0
LINE
  5
6DD
330
1F
100
AcDbEntity
  8
1
100
AcDbLine
 10
9.401291806336736
 20
3.192293889218739
 30
0.0
 11
9.401291806336736
 21
3.25429388921874
 31
0.0
  0
LINE
  5
6DE
330
1F
100
AcDbEntity
  8
1
100
AcDbLine
 10
9.339291806336735
 20
3.192293889218739
 30
0.0
 11
9.401291806336736
 21
3.192293889218739
 31
0.0
  0
LINE
  5
6DF
330
1F
100
AcDbEntity
  8
1
100
AcDbLine
 10
9.263291806336736
 20
3.25429388921874
 30
0.0
 11
8.796291806336736
 21
3.25429388921874
 31
0.0
  0
LINE
  5
6E0
330
1F
100
AcDbEntity
  8
1
100
AcDbLine
 10
9.263291806336736
 20
6.19179388921874
 30
0.0
 11
8.796291806336736
 21
6.19179388921874
 31
0.0
  0
LINE
  5
6E1
330
1F
100
AcDbEntity
  8
1
100
AcDbLine
 10
9.339291806336735
 20
6.129793889218739
 30
0.0
 11
9.401291806336736
 21
6.129793889218739
 31
0.0
  0
LINE
  5
6E2
330
1F
100
AcDbEntity
  8
1
100
AcDbLine
 10
9.401291806336736
 20
6.129793889218739
 30
0.0
 11
9.401291806336736
 21
6.19179388921874
 31
0.0
  0
LINE
  5
6E3
330
1F
100
AcDbEntity
  8
1
100
AcDbLine
 10
9.401291806336736
 20
6.19179388921874
 30
0.0
 11
9.293291806336736
 21
6.19179388921874
 31
0.0
  0
LINE
  5
6E4
330
1F
100
AcDbEntity
  8
1
100
AcDbLine
 10
8.796291806336736
 20
6.19179388921874
 30
0.0
 11
8.796291806336736
 21
6.129793889218739
 31
0.0
  0
LINE
  5
6E5
330
1F
100
AcDbEntity
  8
1
100
AcDbLine
 10
8.836291806336735
 20
6.19179388921874
 30
0.0
 11
8.836291806336735
 21
6.129793889218739
 31
0.0
  0
LINE
  5
6E6
330
1F
100
AcDbEntity
  8
1
100
AcDbLine
 10
8.836291806336735
 20
6.129793889218739
 30
0.0
 11
9.201291806336737
 21
6.129793889218739
 31
0.0
  0
LINE
  5
6E7
330
1F
100
AcDbEntity
  8
1
100
AcDbLine
 10
9.201291806336737
 20
6.129793889218739
 30
0.0
 11
9.263291806336736
 21
6.19179388921874
 31
0.0
  0
LINE
  5
6E8
330
1F
100
AcDbEntity
  8
1
100
AcDbLine
 10
9.376291806336736
 20
6.176793889218739
 30
0.0
 11
9.376291806336736
 21
6.148547746781179
 31
0.0
  0
LINE
  5
6E9
330
1F
100
AcDbEntity
  8
1
100
AcDbLine
 10
9.278291806336735
 20
6.176793889218739
 30
0.0
 11
9.376291806336736
 21
6.176793889218739
 31
0.0
  0
LINE
  5
6EA
330
1F
100
AcDbEntity
  8
1
100
AcDbLine
 10
9.263291806336736
 20
6.19179388921874
 30
0.0
 11
9.278291806336735
 21
6.176793889218739
 31
0.0
  0
LINE
  5
6EB
330
1F
100
AcDbEntity
  8
1
100
AcDbLine
 10
8.258291806336734
 20
6.19179388921874
 30
0.0
 11
8.243291806336735
 21
6.176793889218739
 31
0.0
  0
LINE
  5
6EC
330
1F
100
AcDbEntity
  8
1
100
AcDbLine
 10
8.243291806336735
 20
6.176793889218739
 30
0.0
 11
8.145291806336734
 21
6.176793889218739
 31
0.0
  0
LINE
  5
6ED
330
1F
100
AcDbEntity
  8
1
100
AcDbLine
 10
8.145291806336734
 20
6.176793889218739
 30
0.0
 11
8.145291806336734
 21
6.148547746781179
 31
0.0
  0
LINE
  5
6EE
330
1F
100
AcDbEntity
  8
1
100
AcDbLine
 10
8.320291806336733
 20
6.129793889218739
 30
0.0
 11
8.258291806336734
 21
6.19179388921874
 31
0.0
  0
LINE
  5
6EF
330
1F
100
AcDbEntity
  8
1
100
AcDbLine
 10
8.685291806336735
 20
6.129793889218739
 30
0.0
 11
8.320291806336733
 21
6.129793889218739
 31
0.0
  0
LINE
  5
6F0
330
1F
100
AcDbEntity
  8
1
100
AcDbLine
 10
8.685291806336735
 20
6.19179388921874
 30
0.0
 11
8.685291806336735
 21
6.129793889218739
 31
0.0
  0
LINE
  5
6F1
330
1F
100
AcDbEntity
  8
1
100
AcDbLine
 10
8.725291806336734
 20
6.19179388921874
 30
0.0
 11
8.725291806336734
 21
6.129793889218739
 31
0.0
  0
LINE
  5
6F2
330
1F
100
AcDbEntity
  8
1
100
AcDbLine
 10
8.120291806336734
 20
6.19179388921874
 30
0.0
 11
8.228291806336734
 21
6.19179388921874
 31
0.0
  0
LINE
  5
6F3
330
1F
100
AcDbEntity
  8
1
100
AcDbLine
 10
8.120291806336734
 20
6.129793889218739
 30
0.0
 11
8.120291806336734
 21
6.19179388921874
 31
0.0
  0
LINE
  5
6F4
330
1F
100
AcDbEntity
  8
1
100
AcDbLine
 10
8.182291806336735
 20
6.129793889218739
 30
0.0
 11
8.120291806336734
 21
6.129793889218739
 31
0.0
  0
LINE
  5
6F5
330
1F
100
AcDbEntity
  8
1
100
AcDbLine
 10
8.258291806336734
 20
6.19179388921874
 30
0.0
 11
8.725291806336734
 21
6.19179388921874
 31
0.0
  0
LINE
  5
6F6
330
1F
100
AcDbEntity
  8
1
100
AcDbLine
 10
6.948291806336734
 20
6.19179388921874
 30
0.0
 11
7.415291806336735
 21
6.19179388921874
 31
0.0
  0
LINE
  5
6F7
330
1F
100
AcDbEntity
  8
1
100
AcDbLine
 10
6.872291806336734
 20
6.129793889218739
 30
0.0
 11
6.810291806336734
 21
6.129793889218739
 31
0.0
  0
LINE
  5
6F8
330
1F
100
AcDbEntity
  8
1
100
AcDbLine
 10
6.810291806336734
 20
6.129793889218739
 30
0.0
 11
6.810291806336734
 21
6.19179388921874
 31
0.0
  0
LINE
  5
6F9
330
1F
100
AcDbEntity
  8
1
100
AcDbLine
 10
6.810291806336734
 20
6.19179388921874
 30
0.0
 11
6.918291806336734
 21
6.19179388921874
 31
0.0
  0
LINE
  5
6FA
330
1F
100
AcDbEntity
  8
1
100
AcDbLine
 10
7.415291806336735
 20
6.19179388921874
 30
0.0
 11
7.415291806336735
 21
6.129793889218739
 31
0.0
  0
LINE
  5
6FB
330
1F
100
AcDbEntity
  8
1
100
AcDbLine
 10
7.375291806336734
 20
6.19179388921874
 30
0.0
 11
7.375291806336734
 21
6.129793889218739
 31
0.0
  0
LINE
  5
6FC
330
1F
100
AcDbEntity
  8
1
100
AcDbLine
 10
7.375291806336734
 20
6.129793889218739
 30
0.0
 11
7.010291806336734
 21
6.129793889218739
 31
0.0
  0
LINE
  5
6FD
330
1F
100
AcDbEntity
  8
1
100
AcDbLine
 10
7.010291806336734
 20
6.129793889218739
 30
0.0
 11
6.948291806336734
 21
6.19179388921874
 31
0.0
  0
LINE
  5
6FE
330
1F
100
AcDbEntity
  8
1
100
AcDbLine
 10
6.835291806336734
 20
6.176793889218739
 30
0.0
 11
6.835291806336734
 21
6.148547746781179
 31
0.0
  0
LINE
  5
6FF
330
1F
100
AcDbEntity
  8
1
100
AcDbLine
 10
6.933291806336734
 20
6.176793889218739
 30
0.0
 11
6.835291806336734
 21
6.176793889218739
 31
0.0
  0
LINE
  5
700
330
1F
100
AcDbEntity
  8
1
100
AcDbLine
 10
6.948291806336734
 20
6.19179388921874
 30
0.0
 11
6.933291806336734
 21
6.176793889218739
 31
0.0
  0
LINE
  5
701
330
1F
100
AcDbEntity
  8
1
100
AcDbLine
 10
2.806791806336735
 20
3.25379388921874
 30
0.0
 11
3.307791806336735
 21
3.25379388921874
 31
0.0
  0
LINE
  5
702
330
1F
100
AcDbEntity
  8
4
100
AcDbLine
 10
3.617658516644748
 20
3.065793889218739
 30
0.0
 11
3.679658516644748
 21
3.065793889218739
 31
0.0
  0
CIRCLE
  5
703
330
1F
100
AcDbEntity
  8
4
100
AcDbCircle
 10
3.773658516644748
 20
3.065793889218739
 30
0.0
 40
0.094
  0
LINE
  5
704
330
1F
100
AcDbEntity
  8
4
100
AcDbLine
 10
3.523658516644748
 20
3.15979388921874
 30
0.0
 11
3.523658516644748
 21
3.28479388921874
 31
0.0
  0
CIRCLE
  5
705
330
1F
100
AcDbEntity
  8
4
100
AcDbCircle
 10
3.523658516644748
 20
3.065793889218739
 30
0.0
 40
0.094
  0
CIRCLE
  5
706
330
1F
100
AcDbEntity
  8
4
100
AcDbCircle
 10
3.682291806336735
 20
5.874489400051241
 30
0.0
 40
0.094
  0
LINE
  5
707
330
1F
100
AcDbEntity
  8
4
100
AcDbLine
 10
3.682291806336735
 20
5.968489400051241
 30
0.0
 11
3.682291806336735
 21
6.22279388921874
 31
0.0
  0
LINE
  5
708
330
1F
100
AcDbEntity
  8
1
100
AcDbLine
 10
4.244791806336734
 20
3.25379388921874
 30
0.0
 11
4.056791806336735
 21
3.25379388921874
 31
0.0
  0
LINE
  5
709
330
1F
100
AcDbEntity
  8
1
100
AcDbLine
 10
4.369791806336735
 20
6.12979388921874
 30
0.0
 11
4.557791806336735
 21
6.12979388921874
 31
0.0
  0
LINE
  5
70A
330
1F
100
AcDbEntity
  8
1
100
AcDbLine
 10
4.619791806336735
 20
3.19179388921874
 30
0.0
 11
4.619791806336735
 21
6.19179388921874
 31
0.0
  0
LINE
  5
70B
330
1F
100
AcDbEntity
  8
1
100
AcDbLine
 10
3.994791806336735
 20
3.19179388921874
 30
0.0
 11
3.994791806336735
 21
6.19179388921874
 31
0.0
  0
LINE
  5
70C
330
1F
100
AcDbEntity
  8
1
100
AcDbLine
 10
3.369791806336735
 20
3.19179388921874
 30
0.0
 11
3.369791806336735
 21
6.19179388921874
 31
0.0
  0
LINE
  5
70D
330
1F
100
AcDbEntity
  8
1
100
AcDbLine
 10
5.182791806336735
 20
3.25379388921874
 30
0.0
 11
4.681791806336735
 21
3.25379388921874
 31
0.0
  0
LINE
  5
70E
330
1F
100
AcDbEntity
  8
1
100
AcDbLine
 10
5.182791806336735
 20
6.12979388921874
 30
0.0
 11
5.182791806336735
 21
4.72279976777587
 31
0.0
  0
LINE
  5
70F
330
1F
100
AcDbEntity
  8
1
100
AcDbLine
 10
4.681791806336735
 20
6.12979388921874
 30
0.0
 11
5.182791806336735
 21
6.12979388921874
 31
0.0
  0
LINE
  5
710
330
1F
100
AcDbEntity
  8
1
100
AcDbLine
 10
4.681791806336735
 20
3.25379388921874
 30
0.0
 11
4.681791806336735
 21
4.66079976777587
 31
0.0
  0
LINE
  5
711
330
1F
100
AcDbEntity
  8
1
100
AcDbLine
 10
4.557791806336735
 20
3.25379388921874
 30
0.0
 11
4.369791806336735
 21
3.25379388921874
 31
0.0
  0
LINE
  5
712
330
1F
100
AcDbEntity
  8
1
100
AcDbLine
 10
4.557791806336735
 20
6.12979388921874
 30
0.0
 11
4.557791806336735
 21
4.72279976777587
 31
0.0
  0
LINE
  5
713
330
1F
100
AcDbEntity
  8
1
100
AcDbLine
 10
4.056791806336735
 20
6.12979388921874
 30
0.0
 11
4.244791806336735
 21
6.12979388921874
 31
0.0
  0
LINE
  5
714
330
1F
100
AcDbEntity
  8
1
100
AcDbLine
 10
4.056791806336735
 20
3.25379388921874
 30
0.0
 11
4.056791806336735
 21
4.66079976777587
 31
0.0
  0
LINE
  5
715
330
1F
100
AcDbEntity
  8
1
100
AcDbLine
 10
3.932791806336735
 20
3.25379388921874
 30
0.0
 11
3.431791806336735
 21
3.25379388921874
 31
0.0
  0
LINE
  5
716
330
1F
100
AcDbEntity
  8
1
100
AcDbLine
 10
3.932791806336735
 20
6.12979388921874
 30
0.0
 11
3.932791806336735
 21
4.72279976777587
 31
0.0
  0
LINE
  5
717
330
1F
100
AcDbEntity
  8
1
100
AcDbLine
 10
3.431791806336735
 20
6.12979388921874
 30
0.0
 11
3.932791806336735
 21
6.12979388921874
 31
0.0
  0
LINE
  5
718
330
1F
100
AcDbEntity
  8
1
100
AcDbLine
 10
3.431791806336735
 20
3.25379388921874
 30
0.0
 11
3.431791806336735
 21
4.66079976777587
 31
0.0
  0
LINE
  5
719
330
1F
100
AcDbEntity
  8
1
100
AcDbLine
 10
3.307791806336735
 20
6.12979388921874
 30
0.0
 11
3.307791806336735
 21
4.72279976777587
 31
0.0
  0
LINE
  5
71A
330
1F
100
AcDbEntity
  8
1
100
AcDbLine
 10
2.806791806336735
 20
6.12979388921874
 30
0.0
 11
3.307791806336735
 21
6.12979388921874
 31
0.0
  0
LINE
  5
71B
330
1F
100
AcDbEntity
  8
1
100
AcDbLine
 10
2.806791806336735
 20
3.25379388921874
 30
0.0
 11
2.806791806336735
 21
4.66079976777587
 31
0.0
  0
INSERT
  5
71C
330
1F
100
AcDbEntity
  8
4
100
AcDbBlockReference
  2
ARRO
 10
9.402338728049187
 20
2.69179388921874
 30
0.0
 50
180.0
  0
INSERT
  5
71D
330
1F
100
AcDbEntity
  8
4
100
AcDbBlockReference
  2
ARRO
 10
8.119791806336735
 20
2.69179388921874
 30
0.0
  0
INSERT
  5
71E
330
1F
100
AcDbEntity
  8
4
100
AcDbBlockReference
  2
ARRO
 10
7.494791806336735
 20
2.69179388921874
 30
0.0
  0
INSERT
  5
71F
330
1F
100
AcDbEntity
  8
4
100
AcDbBlockReference
  2
ARRO
 10
7.434791806336735
 20
2.69179388921874
 30
0.0
 50
180.0
  0
INSERT
  5
720
330
1F
100
AcDbEntity
  8
4
100
AcDbBlockReference
  2
ARRO
 10
6.809791806336735
 20
2.69179388921874
 30
0.0
  0
LINE
  5
721
330
1F
100
AcDbEntity
  8
4
100
AcDbLine
 10
8.119791806336735
 20
2.69179388921874
 30
0.0
 11
9.402338728049187
 21
2.69179388921874
 31
0.0
  0
LINE
  5
722
330
1F
100
AcDbEntity
  8
4
100
AcDbLine
 10
7.494791806336735
 20
2.69179388921874
 30
0.0
 11
7.744791806336735
 21
2.69179388921874
 31
0.0
  0
LINE
  5
723
330
1F
100
AcDbEntity
  8
4
100
AcDbLine
 10
7.434791806336735
 20
2.69179388921874
 30
0.0
 11
6.809791806336735
 21
2.69179388921874
 31
0.0
  0
INSERT
  5
724
330
1F
100
AcDbEntity
  8
4
100
AcDbBlockReference
  2
ARRO
 10
6.307291806336735
 20
3.19179388921874
 30
0.0
 50
90.0
  0
INSERT
  5
725
330
1F
100
AcDbEntity
  8
4
100
AcDbBlockReference
  2
ARRO
 10
6.307291806336735
 20
6.19179388921874
 30
0.0
 50
270.0
  0
LINE
  5
726
330
1F
100
AcDbEntity
  8
4
100
AcDbLine
 10
6.747291806336735
 20
6.19179388921874
 30
0.0
 11
6.247291806336735
 21
6.19179388921874
 31
0.0
  0
LINE
  5
727
330
1F
100
AcDbEntity
  8
4
100
AcDbLine
 10
6.307291806336735
 20
3.19179388921874
 30
0.0
 11
6.307291806336735
 21
6.19179388921874
 31
0.0
  0
LINE
  5
728
330
1F
100
AcDbEntity
  8
4
100
AcDbLine
 10
6.747291806336735
 20
3.19179388921874
 30
0.0
 11
6.247291806336735
 21
3.19179388921874
 31
0.0
  0
INSERT
  5
729
330
1F
100
AcDbEntity
  8
4
100
AcDbBlockReference
  2
ARRO
 10
5.244791806336735
 20
2.69179388921874
 30
0.0
 50
180.0
  0
INSERT
  5
72A
330
1F
100
AcDbEntity
  8
4
100
AcDbBlockReference
  2
ARRO
 10
2.744791806336735
 20
2.69179388921874
 30
0.0
  0
LINE
  5
72B
330
1F
100
AcDbEntity
  8
4
100
AcDbLine
 10
5.244791806336735
 20
2.69179388921874
 30
0.0
 11
2.744791806336735
 21
2.69179388921874
 31
0.0
  0
LINE
  5
72C
330
1F
100
AcDbEntity
  8
4
100
AcDbLine
 10
5.244791806336735
 20
3.129793889218739
 30
0.0
 11
5.244791806336735
 21
2.629793889218739
 31
0.0
  0
LINE
  5
72D
330
1F
100
AcDbEntity
  8
4
100
AcDbLine
 10
2.744791806336735
 20
3.129793889218739
 30
0.0
 11
2.744791806336735
 21
2.629793889218739
 31
0.0
  0
LINE
  5
72E
330
1F
100
AcDbEntity
  8
1
100
AcDbLine
 10
7.434791806336735
 20
3.19179388921874
 30
0.0
 11
7.434791806336735
 21
6.19179388921874
 31
0.0
  0
LINE
  5
72F
330
1F
100
AcDbEntity
  8
1
100
AcDbLine
 10
7.494791806336735
 20
6.44179388921874
 30
0.0
 11
7.619791806336735
 21
6.56679388921874
 31
0.0
  0
LINE
  5
730
330
1F
100
AcDbEntity
  8
1
100
AcDbLine
 10
7.494791806336735
 20
6.31679388921874
 30
0.0
 11
7.682791806336735
 21
6.504793889218739
 31
0.0
  0
LINE
  5
731
330
1F
100
AcDbEntity
  8
1
100
AcDbLine
 10
7.494791806336735
 20
6.19179388921874
 30
0.0
 11
7.682791806336735
 21
6.379793889218739
 31
0.0
  0
LINE
  5
732
330
1F
100
AcDbEntity
  8
1
100
AcDbLine
 10
7.494791806336735
 20
6.06679388921874
 30
0.0
 11
7.682791806336735
 21
6.254793889218739
 31
0.0
  0
LINE
  5
733
330
1F
100
AcDbEntity
  8
1
100
AcDbLine
 10
7.494791806336735
 20
5.94179388921874
 30
0.0
 11
7.682791806336735
 21
6.129793889218739
 31
0.0
  0
LINE
  5
734
330
1F
100
AcDbEntity
  8
1
100
AcDbLine
 10
7.494791806336735
 20
5.81679388921874
 30
0.0
 11
7.682791806336735
 21
6.004793889218739
 31
0.0
  0
LINE
  5
735
330
1F
100
AcDbEntity
  8
1
100
AcDbLine
 10
7.494791806336735
 20
5.69179388921874
 30
0.0
 11
7.682791806336735
 21
5.879793889218739
 31
0.0
  0
LINE
  5
736
330
1F
100
AcDbEntity
  8
1
100
AcDbLine
 10
7.494791806336735
 20
5.56679388921874
 30
0.0
 11
7.682791806336735
 21
5.754793889218739
 31
0.0
  0
LINE
  5
737
330
1F
100
AcDbEntity
  8
1
100
AcDbLine
 10
7.494791806336735
 20
5.44179388921874
 30
0.0
 11
7.682791806336735
 21
5.629793889218739
 31
0.0
  0
LINE
  5
738
330
1F
100
AcDbEntity
  8
1
100
AcDbLine
 10
7.494791806336735
 20
5.31679388921874
 30
0.0
 11
7.682791806336735
 21
5.504793889218739
 31
0.0
  0
LINE
  5
739
330
1F
100
AcDbEntity
  8
1
100
AcDbLine
 10
7.494791806336735
 20
5.19179388921874
 30
0.0
 11
7.682791806336735
 21
5.379793889218739
 31
0.0
  0
LINE
  5
73A
330
1F
100
AcDbEntity
  8
1
100
AcDbLine
 10
7.494791806336735
 20
5.06679388921874
 30
0.0
 11
7.682791806336735
 21
5.254793889218739
 31
0.0
  0
LINE
  5
73B
330
1F
100
AcDbEntity
  8
1
100
AcDbLine
 10
7.494791806336735
 20
4.94179388921874
 30
0.0
 11
7.682791806336735
 21
5.129793889218739
 31
0.0
  0
LINE
  5
73C
330
1F
100
AcDbEntity
  8
1
100
AcDbLine
 10
7.494791806336735
 20
4.81679388921874
 30
0.0
 11
7.682791806336735
 21
5.004793889218739
 31
0.0
  0
LINE
  5
73D
330
1F
100
AcDbEntity
  8
1
100
AcDbLine
 10
7.494791806336735
 20
4.69179388921874
 30
0.0
 11
7.682791806336735
 21
4.879793889218739
 31
0.0
  0
LINE
  5
73E
330
1F
100
AcDbEntity
  8
1
100
AcDbLine
 10
7.494791806336735
 20
4.56679388921874
 30
0.0
 11
7.682791806336735
 21
4.754793889218739
 31
0.0
  0
LINE
  5
73F
330
1F
100
AcDbEntity
  8
1
100
AcDbLine
 10
7.494791806336735
 20
4.44179388921874
 30
0.0
 11
7.682791806336735
 21
4.629793889218739
 31
0.0
  0
LINE
  5
740
330
1F
100
AcDbEntity
  8
1
100
AcDbLine
 10
7.494791806336735
 20
4.31679388921874
 30
0.0
 11
7.682791806336735
 21
4.504793889218739
 31
0.0
  0
LINE
  5
741
330
1F
100
AcDbEntity
  8
1
100
AcDbLine
 10
7.494791806336735
 20
4.19179388921874
 30
0.0
 11
7.682791806336735
 21
4.379793889218739
 31
0.0
  0
LINE
  5
742
330
1F
100
AcDbEntity
  8
1
100
AcDbLine
 10
7.494791806336735
 20
4.06679388921874
 30
0.0
 11
7.682791806336735
 21
4.254793889218739
 31
0.0
  0
LINE
  5
743
330
1F
100
AcDbEntity
  8
1
100
AcDbLine
 10
7.494791806336735
 20
3.94179388921874
 30
0.0
 11
7.682791806336735
 21
4.129793889218739
 31
0.0
  0
LINE
  5
744
330
1F
100
AcDbEntity
  8
1
100
AcDbLine
 10
7.494791806336735
 20
3.81679388921874
 30
0.0
 11
7.682791806336735
 21
4.004793889218739
 31
0.0
  0
LINE
  5
745
330
1F
100
AcDbEntity
  8
1
100
AcDbLine
 10
7.494791806336735
 20
3.69179388921874
 30
0.0
 11
7.682791806336735
 21
3.879793889218739
 31
0.0
  0
LINE
  5
746
330
1F
100
AcDbEntity
  8
1
100
AcDbLine
 10
7.494791806336735
 20
3.31679388921874
 30
0.0
 11
7.682791806336735
 21
3.504793889218739
 31
0.0
  0
LINE
  5
747
330
1F
100
AcDbEntity
  8
1
100
AcDbLine
 10
7.494791806336735
 20
3.19179388921874
 30
0.0
 11
7.682791806336735
 21
3.379793889218739
 31
0.0
  0
LINE
  5
748
330
1F
100
AcDbEntity
  8
1
100
AcDbLine
 10
4.369791806336735
 20
4.071768068530319
 30
0.0
 11
4.369791806336735
 21
3.06679388921874
 31
0.0
  0
LINE
  5
749
330
1F
100
AcDbEntity
  8
1
100
AcDbLine
 10
4.369791806336735
 20
4.474268068530319
 30
0.0
 11
4.369791806336735
 21
4.161768068530319
 31
0.0
  0
LINE
  5
74A
330
1F
100
AcDbEntity
  8
1
100
AcDbLine
 10
4.369791806336735
 20
5.317761593370605
 30
0.0
 11
4.369791806336735
 21
4.474268068530319
 31
0.0
  0
LINE
  5
74B
330
1F
100
AcDbEntity
  8
1
100
AcDbLine
 10
4.324791806336735
 20
5.356768068530319
 30
0.0
 11
4.414791806336735
 21
5.266768068530319
 31
0.0
  0
LINE
  5
74C
330
1F
100
AcDbEntity
  8
1
100
AcDbLine
 10
4.414791806336735
 20
5.356768068530319
 30
0.0
 11
4.324791806336735
 21
5.356768068530319
 31
0.0
  0
LINE
  5
74D
330
1F
100
AcDbEntity
  8
1
100
AcDbLine
 10
4.324791806336735
 20
5.446768068530319
 30
0.0
 11
4.414791806336735
 21
5.356768068530319
 31
0.0
  0
LINE
  5
74E
330
1F
100
AcDbEntity
  8
1
100
AcDbLine
 10
4.324791806336735
 20
4.116768068530319
 30
0.0
 11
4.414791806336735
 21
4.026768068530319
 31
0.0
  0
LINE
  5
74F
330
1F
100
AcDbEntity
  8
1
100
AcDbLine
 10
4.414791806336735
 20
4.116768068530319
 30
0.0
 11
4.324791806336735
 21
4.116768068530319
 31
0.0
  0
LINE
  5
750
330
1F
100
AcDbEntity
  8
1
100
AcDbLine
 10
4.324791806336735
 20
4.206768068530319
 30
0.0
 11
4.414791806336735
 21
4.116768068530319
 31
0.0
  0
LINE
  5
751
330
1F
100
AcDbEntity
  8
1
100
AcDbLine
 10
4.244791806336735
 20
3.446768068530319
 30
0.0
 11
4.244791806336735
 21
3.06679388921874
 31
0.0
  0
LINE
  5
752
330
1F
100
AcDbEntity
  8
1
100
AcDbLine
 10
4.244791806336735
 20
4.161768068530319
 30
0.0
 11
4.244791806336735
 21
3.536768068530319
 31
0.0
  0
LINE
  5
753
330
1F
100
AcDbEntity
  8
1
100
AcDbLine
 10
4.244791806336735
 20
4.696768068530319
 30
0.0
 11
4.244791806336735
 21
4.161768068530319
 31
0.0
  0
LINE
  5
754
330
1F
100
AcDbEntity
  8
1
100
AcDbLine
 10
4.199791806336735
 20
3.581768068530319
 30
0.0
 11
4.289791806336735
 21
3.491768068530319
 31
0.0
  0
LINE
  5
755
330
1F
100
AcDbEntity
  8
1
100
AcDbLine
 10
4.289791806336735
 20
3.491768068530319
 30
0.0
 11
4.199791806336735
 21
3.491768068530319
 31
0.0
  0
LINE
  5
756
330
1F
100
AcDbEntity
  8
1
100
AcDbLine
 10
4.199791806336735
 20
3.491768068530319
 30
0.0
 11
4.289791806336735
 21
3.401768068530319
 31
0.0
  0
LINE
  5
757
330
1F
100
AcDbEntity
  8
1
100
AcDbLine
 10
4.199791806336735
 20
4.831768068530319
 30
0.0
 11
4.289791806336735
 21
4.741768068530319
 31
0.0
  0
LINE
  5
758
330
1F
100
AcDbEntity
  8
1
100
AcDbLine
 10
4.289791806336735
 20
4.741768068530319
 30
0.0
 11
4.199791806336735
 21
4.741768068530319
 31
0.0
  0
LINE
  5
759
330
1F
100
AcDbEntity
  8
1
100
AcDbLine
 10
4.199791806336735
 20
4.741768068530319
 30
0.0
 11
4.289791806336735
 21
4.651768068530319
 31
0.0
  0
LINE
  5
75A
330
1F
100
AcDbEntity
  8
1
100
AcDbLine
 10
4.256987837163717
 20
5.934572037703337
 30
0.0
 11
4.256987837163717
 21
4.767472418366409
 31
0.0
  0
LINE
  5
75B
330
1F
100
AcDbEntity
  8
1
100
AcDbLine
 10
4.199791806336735
 20
5.991768068530319
 30
0.0
 11
4.289791806336735
 21
5.901768068530319
 31
0.0
  0
LINE
  5
75C
330
1F
100
AcDbEntity
  8
1
100
AcDbLine
 10
4.289791806336735
 20
5.991768068530319
 30
0.0
 11
4.199791806336735
 21
5.991768068530319
 31
0.0
  0
LINE
  5
75D
330
1F
100
AcDbEntity
  8
1
100
AcDbLine
 10
4.199791806336735
 20
6.081768068530319
 30
0.0
 11
4.289791806336735
 21
5.991768068530319
 31
0.0
  0
LINE
  5
75E
330
1F
100
AcDbEntity
  8
1
100
AcDbLine
 10
4.244791806336735
 20
6.31679388921874
 30
0.0
 11
4.244791806336735
 21
6.036768068530319
 31
0.0
  0
LINE
  5
75F
330
1F
100
AcDbEntity
  8
1
100
AcDbLine
 10
4.369791806336735
 20
6.31679388921874
 30
0.0
 11
4.369791806336735
 21
5.401768068530319
 31
0.0
  0
CIRCLE
  5
760
330
1F
100
AcDbEntity
  8
1
100
AcDbCircle
 10
5.869791806336735
 20
2.19179388921874
 30
0.0
 40
0.1875
  0
LINE
  5
761
330
1F
100
AcDbEntity
  8
1
100
AcDbLine
 10
7.494791806336735
 20
3.19179388921874
 30
0.0
 11
7.494791806336735
 21
6.56679388921874
 31
0.0
  0
LINE
  5
762
330
1F
100
AcDbEntity
  8
1
100
AcDbLine
 10
8.744791806336735
 20
3.19179388921874
 30
0.0
 11
8.744791806336735
 21
6.19179388921874
 31
0.0
  0
LINE
  5
763
330
1F
100
AcDbEntity
  8
1
100
AcDbLine
 10
5.244791806336735
 20
3.19179388921874
 30
0.0
 11
4.369791806336735
 21
3.19179388921874
 31
0.0
  0
LINE
  5
764
330
1F
100
AcDbEntity
  8
1
100
AcDbLine
 10
5.244791806336735
 20
6.19179388921874
 30
0.0
 11
5.244791806336735
 21
3.19179388921874
 31
0.0
  0
LINE
  5
765
330
1F
100
AcDbEntity
  8
1
100
AcDbLine
 10
4.369791806336735
 20
6.19179388921874
 30
0.0
 11
5.244791806336735
 21
6.19179388921874
 31
0.0
  0
LINE
  5
766
330
1F
100
AcDbEntity
  8
1
100
AcDbLine
 10
2.744791806336735
 20
6.19179388921874
 30
0.0
 11
4.244791806336735
 21
6.19179388921874
 31
0.0
  0
LINE
  5
767
330
1F
100
AcDbEntity
  8
1
100
AcDbLine
 10
2.744791806336735
 20
3.19179388921874
 30
0.0
 11
2.744791806336735
 21
6.19179388921874
 31
0.0
  0
LINE
  5
768
330
1F
100
AcDbEntity
  8
1
100
AcDbLine
 10
2.744791806336735
 20
3.19179388921874
 30
0.0
 11
4.244791806336735
 21
3.19179388921874
 31
0.0
  0
LINE
  5
769
330
1F
100
AcDbEntity
  8
1
100
AcDbLine
 10
1.744791806336735
 20
6.94179388921874
 30
0.0
 11
1.744791806336735
 21
1.69179388921874
 31
0.0
  0
LINE
  5
76A
330
1F
100
AcDbEntity
  8
1
100
AcDbLine
 10
9.994791806336735
 20
6.94179388921874
 30
0.0
 11
1.744791806336735
 21
6.94179388921874
 31
0.0
  0
LINE
  5
76B
330
1F
100
AcDbEntity
  8
1
100
AcDbLine
 10
9.994791806336735
 20
1.69179388921874
 30
0.0
 11
9.994791806336735
 21
6.94179388921874
 31
0.0
  0
LINE
  5
76C
330
1F
100
AcDbEntity
  8
1
100
AcDbLine
 10
1.744791806336735
 20
1.69179388921874
 30
0.0
 11
9.994791806336735
 21
1.69179388921874
 31
0.0
  0
LINE
  5
76D
330
1F
100
AcDbEntity
  8
1
100
AcDbLine
 10
2.806791806336735
 20
4.72279976777587
 30
0.0
 11
2.806791806336735
 21
6.12979388921874
 31
0.0
  0
LINE
  5
76E
330
1F
100
AcDbEntity
  8
1
100
AcDbLine
 10
3.307791806336735
 20
4.66079976777587
 30
0.0
 11
3.307791806336735
 21
3.25379388921874
 31
0.0
  0
LINE
  5
76F
330
1F
100
AcDbEntity
  8
1
100
AcDbLine
 10
3.431791806336735
 20
4.72279976777587
 30
0.0
 11
3.431791806336735
 21
6.12979388921874
 31
0.0
  0
LINE
  5
770
330
1F
100
AcDbEntity
  8
1
100
AcDbLine
 10
3.932791806336735
 20
4.66079976777587
 30
0.0
 11
3.932791806336735
 21
3.25379388921874
 31
0.0
  0
LINE
  5
771
330
1F
100
AcDbEntity
  8
1
100
AcDbLine
 10
4.056791806336735
 20
4.722799767775871
 30
0.0
 11
4.056791806336735
 21
6.12979388921874
 31
0.0
  0
LINE
  5
772
330
1F
100
AcDbEntity
  8
1
100
AcDbLine
 10
4.557791806336735
 20
4.66079976777587
 30
0.0
 11
4.557791806336735
 21
3.25379388921874
 31
0.0
  0
LINE
  5
773
330
1F
100
AcDbEntity
  8
1
100
AcDbLine
 10
4.681791806336735
 20
4.72279976777587
 30
0.0
 11
4.681791806336735
 21
6.12979388921874
 31
0.0
  0
LINE
  5
774
330
1F
100
AcDbEntity
  8
1
100
AcDbLine
 10
5.182791806336735
 20
4.66079976777587
 30
0.0
 11
5.182791806336735
 21
3.25379388921874
 31
0.0
  0
TEXT
  5
776
330
1F
100
AcDbEntity
  8
8
100
AcDbText
 10
3.167410853955782
 20
1.785832164552253
 30
0.0
 40
0.125
  1
SINGLE POINT 2 ATHLETIC LOCKER - 72" DOUBLE TIER
  7
ROMANS
 72
     1
 11
5.869791806336735
 21
1.785832164552253
 31
0.0
100
AcDbText
  0
LINE
  5
777
330
1F
100
AcDbEntity
  8
4
  6
HIDDEN
100
AcDbLine
 10
3.25061404415393
 20
3.294215074745452
 30
0.0
 11
3.250614044153929
 21
4.624855277325602
 31
0.0
  0
LINE
  5
778
330
1F
100
AcDbEntity
  8
4
  6
HIDDEN
100
AcDbLine
 10
3.179343296548823
 20
3.294215074745448
 30
0.0
 11
3.17934329654882
 21
4.624855277325595
 31
0.0
  0
LINE
  5
779
330
1F
100
AcDbEntity
  8
4
  6
HIDDEN
100
AcDbLine
 10
3.228880382109515
 20
3.294215074745448
 30
0.0
 11
3.228880382109515
 21
4.624855277325599
 31
0.0
  0
LINE
  5
77A
330
1F
100
AcDbEntity
  8
4
  6
HIDDEN
100
AcDbLine
 10
3.157609634504407
 20
3.294215074745448
 30
0.0
 11
3.157609634504407
 21
4.624855277325595
 31
0.0
  0
LINE
  5
77B
330
1F
100
AcDbEntity
  8
4
100
AcDbLine
 10
3.275791806336735
 20
3.285836526818873
 30
0.0
 11
3.275791806336735
 21
4.62885936190945
 31
0.0
  0
LINE
  5
77C
330
1F
100
AcDbEntity
  8
4
100
AcDbLine
 10
2.838791806336735
 20
4.628838043109384
 30
0.0
 11
2.838791806336735
 21
3.285815208018807
 31
0.0
  0
INSERT
  5
77D
330
1F
100
AcDbEntity
  8
8
100
AcDbBlockReference
  2
TEMP3
 10
2.330703688860052
 20
5.628660229867355
 30
0.0
  0
POINT
  5
788
330
1F
100
AcDbEntity
  8
4
100
AcDbPoint
 10
1.744791806336735
 20
1.69179388921874
 30
0.0
  0
ARC
  5
789
330
1F
100
AcDbEntity
  8
4
100
AcDbCircle
 10
2.988941466803293
 20
3.878679492655461
 30
0.0
 40
0.0256985868768425
100
AcDbArc
 50
270.0
 51
356.4236656250017
  0
ARC
  5
78A
330
1F
100
AcDbEntity
  8
4
100
AcDbCircle
 10
2.896744876304766
 20
3.878679492655461
 30
0.0
 40
0.0256985868768425
100
AcDbArc
 50
183.5763343749981
 51
270.0
  0
LINE
  5
78B
330
1F
100
AcDbEntity
  8
4
100
AcDbLine
 10
2.838791806336735
 20
3.285815208018807
 30
0.0
 11
3.275791806336735
 21
3.285836526818873
 31
0.0
  0
LINE
  5
78C
330
1F
100
AcDbEntity
  8
2
100
AcDbLine
 10
2.916653397843276
 20
3.528479260470744
 30
0.0
 11
2.916653397843276
 21
3.444245960470745
 31
0.0
  0
LINE
  5
78D
330
1F
100
AcDbEntity
  8
4
100
AcDbLine
 10
3.087706244410128
 20
3.42333814601713
 30
0.0
 11
3.09999525795818
 21
3.39630926317604
 31
0.0
  0
LINE
  5
78E
330
1F
100
AcDbEntity
  8
4
100
AcDbLine
 10
3.087706244410128
 20
3.36725439634591
 30
0.0
 11
3.09999525795818
 21
3.394283279187002
 31
0.0
  0
LINE
  5
78F
330
1F
100
AcDbEntity
  8
2
100
AcDbLine
 10
2.953365664810195
 20
3.365926457607987
 30
0.0
 11
3.009447745350646
 21
3.365926457607987
 31
0.0
  0
LINE
  5
790
330
1F
100
AcDbEntity
  8
4
100
AcDbLine
 10
2.933514723149072
 20
3.416204085635135
 30
0.0
 11
2.945803736697127
 21
3.443232968476225
 31
0.0
  0
ARC
  5
791
330
1F
100
AcDbEntity
  8
4
100
AcDbCircle
 10
2.953365664810195
 20
3.422218600290593
 30
0.0
 40
0.0024474844644612
100
AcDbArc
 50
21.67779679634186
 51
158.3222032036579
  0
LINE
  5
792
330
1F
100
AcDbEntity
  8
4
100
AcDbLine
 10
2.955542083329223
 20
3.42333814601713
 30
0.0
 11
2.967831096877278
 21
3.39630926317604
 31
0.0
  0
LINE
  5
793
330
1F
100
AcDbEntity
  8
4
100
AcDbLine
 10
2.951189246291164
 20
3.42333814601713
 30
0.0
 11
2.938900232743111
 21
3.39630926317604
 31
0.0
  0
LINE
  5
794
330
1F
100
AcDbEntity
  8
4
100
AcDbLine
 10
2.933514723149073
 20
3.472287835306355
 30
0.0
 11
2.945803736697127
 21
3.445258952465263
 31
0.0
  0
ARC
  5
795
330
1F
100
AcDbEntity
  8
4
100
AcDbCircle
 10
2.943575726952349
 20
3.444245960470745
 30
0.0
 40
0.0024474844644612
100
AcDbArc
 50
335.5504979363147
 51
24.44950206368503
  0
LINE
  5
796
330
1F
100
AcDbEntity
  8
4
100
AcDbLine
 10
2.929161886111013
 20
3.416204085635135
 30
0.0
 11
2.91687287256296
 21
3.443232968476225
 31
0.0
  0
LINE
  5
797
330
1F
100
AcDbEntity
  8
4
100
AcDbLine
 10
2.929161886111015
 20
3.472287835306355
 30
0.0
 11
2.91687287256296
 21
3.445258952465263
 31
0.0
  0
ARC
  5
798
330
1F
100
AcDbEntity
  8
4
100
AcDbCircle
 10
2.919100882307737
 20
3.444245960470745
 30
0.0
 40
0.0024474844644612
100
AcDbArc
 50
155.5504979363149
 51
204.4495020636849
  0
ARC
  5
799
330
1F
100
AcDbEntity
  8
4
100
AcDbCircle
 10
2.931338304630044
 20
3.417323631361672
 30
0.0
 40
0.0024474844644612
100
AcDbArc
 50
201.6777967963417
 51
338.3222032036581
  0
ARC
  5
79A
330
1F
100
AcDbEntity
  8
4
100
AcDbCircle
 10
2.931338304630044
 20
3.471168289579818
 30
0.0
 40
0.0024474844644612
100
AcDbArc
 50
21.67779679634186
 51
158.3222032036579
  0
ARC
  5
79B
330
1F
100
AcDbEntity
  8
4
100
AcDbCircle
 10
2.953365664810195
 20
3.368373942072449
 30
0.0
 40
0.0024474844644612
100
AcDbArc
 50
201.6777967963417
 51
338.3222032036581
  0
LINE
  5
79C
330
1F
100
AcDbEntity
  8
4
100
AcDbLine
 10
2.951189246291164
 20
3.36725439634591
 30
0.0
 11
2.938900232743111
 21
3.394283279187002
 31
0.0
  0
LINE
  5
79D
330
1F
100
AcDbEntity
  8
4
100
AcDbLine
 10
2.955542083329223
 20
3.36725439634591
 30
0.0
 11
2.967831096877278
 21
3.394283279187002
 31
0.0
  0
ARC
  5
79E
330
1F
100
AcDbEntity
  8
4
100
AcDbCircle
 10
2.941128242487888
 20
3.395296271181522
 30
0.0
 40
0.0024474844644612
100
AcDbArc
 50
155.5504979363149
 51
204.4495020636849
  0
ARC
  5
79F
330
1F
100
AcDbEntity
  8
4
100
AcDbCircle
 10
2.9656030871325
 20
3.395296271181522
 30
0.0
 40
0.0024474844644612
100
AcDbArc
 50
335.5504979363147
 51
24.44950206368503
  0
LINE
  5
7A0
330
1F
100
AcDbEntity
  8
4
100
AcDbLine
 10
3.065678884229978
 20
3.416204085635135
 30
0.0
 11
3.077967897778031
 21
3.443232968476225
 31
0.0
  0
LINE
  5
7A1
330
1F
100
AcDbEntity
  8
4
100
AcDbLine
 10
3.061326047191919
 20
3.416204085635135
 30
0.0
 11
3.049037033643864
 21
3.443232968476225
 31
0.0
  0
ARC
  5
7A2
330
1F
100
AcDbEntity
  8
4
100
AcDbCircle
 10
3.085529825891097
 20
3.422218600290593
 30
0.0
 40
0.0024474844644612
100
AcDbArc
 50
21.67779679634186
 51
158.3222032036579
  0
ARC
  5
7A3
330
1F
100
AcDbEntity
  8
4
100
AcDbCircle
 10
3.063502465710947
 20
3.417323631361672
 30
0.0
 40
0.0024474844644612
100
AcDbArc
 50
201.6777967963417
 51
338.3222032036581
  0
LINE
  5
7A4
330
1F
100
AcDbEntity
  8
4
100
AcDbLine
 10
3.08335340737207
 20
3.42333814601713
 30
0.0
 11
3.071064393824015
 21
3.39630926317604
 31
0.0
  0
ARC
  5
7A5
330
1F
100
AcDbEntity
  8
4
100
AcDbCircle
 10
3.051265043388641
 20
3.444245960470745
 30
0.0
 40
0.0024474844644612
100
AcDbArc
 50
155.5504979363149
 51
204.4495020636849
  0
ARC
  5
7A6
330
1F
100
AcDbEntity
  8
4
100
AcDbCircle
 10
3.075739888033253
 20
3.444245960470745
 30
0.0
 40
0.0024474844644612
100
AcDbArc
 50
335.5504979363147
 51
24.44950206368503
  0
ARC
  5
7A7
330
1F
100
AcDbEntity
  8
4
100
AcDbCircle
 10
3.063502465710947
 20
3.471168289579818
 30
0.0
 40
0.0024474844644612
100
AcDbArc
 50
21.67779679634186
 51
158.3222032036579
  0
LINE
  5
7A8
330
1F
100
AcDbEntity
  8
4
100
AcDbLine
 10
3.065678884229978
 20
3.472287835306355
 30
0.0
 11
3.077967897778031
 21
3.445258952465263
 31
0.0
  0
LINE
  5
7A9
330
1F
100
AcDbEntity
  8
4
100
AcDbLine
 10
3.061326047191919
 20
3.472287835306355
 30
0.0
 11
3.049037033643864
 21
3.445258952465263
 31
0.0
  0
ARC
  5
7AA
330
1F
100
AcDbEntity
  8
4
100
AcDbCircle
 10
3.085529825891097
 20
3.368373942072449
 30
0.0
 40
0.0024474844644612
100
AcDbArc
 50
201.6777967963417
 51
338.3222032036581
  0
LINE
  5
7AB
330
1F
100
AcDbEntity
  8
4
100
AcDbLine
 10
3.08335340737207
 20
3.36725439634591
 30
0.0
 11
3.071064393824015
 21
3.394283279187002
 31
0.0
  0
LINE
  5
7AC
330
1F
100
AcDbEntity
  8
2
100
AcDbLine
 10
3.029447745350645
 20
3.365926457607987
 30
0.0
 11
3.085529825891097
 21
3.365926457607987
 31
0.0
  0
ARC
  5
7AD
330
1F
100
AcDbEntity
  8
4
100
AcDbCircle
 10
3.073292403568792
 20
3.395296271181522
 30
0.0
 40
0.0024474844644612
100
AcDbArc
 50
155.5504979363149
 51
204.4495020636849
  0
LINE
  5
7AE
330
1F
100
AcDbEntity
  8
4
100
AcDbLine
 10
3.25061404415393
 20
3.294215074745452
 30
0.0
 11
3.157609634504407
 21
3.294215074745448
 31
0.0
  0
LINE
  5
7AF
330
1F
100
AcDbEntity
  8
2
100
AcDbLine
 10
3.100214732677864
 20
3.479529571181521
 30
0.0
 11
3.100214732677864
 21
3.395296271181522
 31
0.0
  0
ARC
  5
7B0
330
1F
100
AcDbEntity
  8
4
100
AcDbCircle
 10
3.097767248213403
 20
3.395296271181522
 30
0.0
 40
0.0024474844644612
100
AcDbArc
 50
335.5504979363147
 51
24.44950206368503
  0
LINE
  5
7B1
330
1F
100
AcDbEntity
  8
4
100
AcDbLine
 10
3.087706244410128
 20
3.660952532081254
 30
0.0
 11
3.09999525795818
 21
3.687981414922344
 31
0.0
  0
LINE
  5
7B2
330
1F
100
AcDbEntity
  8
4
100
AcDbLine
 10
3.087706244410128
 20
3.717036281752474
 30
0.0
 11
3.09999525795818
 21
3.690007398911383
 31
0.0
  0
LINE
  5
7B3
330
1F
100
AcDbEntity
  8
4
100
AcDbLine
 10
3.08335340737207
 20
3.660952532081254
 30
0.0
 11
3.071064393824015
 21
3.687981414922344
 31
0.0
  0
LINE
  5
7B4
330
1F
100
AcDbEntity
  8
4
100
AcDbLine
 10
2.951189246291164
 20
3.660952532081254
 30
0.0
 11
2.938900232743111
 21
3.687981414922344
 31
0.0
  0
LINE
  5
7B5
330
1F
100
AcDbEntity
  8
4
100
AcDbLine
 10
2.955542083329223
 20
3.660952532081254
 30
0.0
 11
2.967831096877278
 21
3.687981414922344
 31
0.0
  0
LINE
  5
7B6
330
1F
100
AcDbEntity
  8
2
100
AcDbLine
 10
2.916653397843276
 20
3.737944096206085
 30
0.0
 11
2.916653397843276
 21
3.653710796206086
 31
0.0
  0
ARC
  5
7B7
330
1F
100
AcDbEntity
  8
4
100
AcDbCircle
 10
2.953365664810195
 20
3.662072077807791
 30
0.0
 40
0.0024474844644612
100
AcDbArc
 50
201.6777967963417
 51
338.3222032036581
  0
LINE
  5
7B8
330
1F
100
AcDbEntity
  8
2
100
AcDbLine
 10
2.916653397843276
 20
3.632712560470743
 30
0.0
 11
2.916653397843276
 21
3.548479260470744
 31
0.0
  0
ARC
  5
7B9
330
1F
100
AcDbEntity
  8
4
100
AcDbCircle
 10
3.085529825891097
 20
3.662072077807791
 30
0.0
 40
0.0024474844644612
100
AcDbArc
 50
201.6777967963417
 51
338.3222032036581
  0
LINE
  5
7BA
330
1F
100
AcDbEntity
  8
2
100
AcDbLine
 10
2.931338304630044
 20
3.767313909779622
 30
0.0
 11
2.987420385170495
 21
3.767313909779622
 31
0.0
  0
ARC
  5
7BB
330
1F
100
AcDbEntity
  8
4
100
AcDbCircle
 10
2.931338304630044
 20
3.76486642531516
 30
0.0
 40
0.0024474844644612
100
AcDbArc
 50
21.67779679634186
 51
158.3222032036579
  0
LINE
  5
7BC
330
1F
100
AcDbEntity
  8
4
100
AcDbLine
 10
2.933514723149072
 20
3.709902221370479
 30
0.0
 11
2.945803736697127
 21
3.736931104211569
 31
0.0
  0
ARC
  5
7BD
330
1F
100
AcDbEntity
  8
4
100
AcDbCircle
 10
2.943575726952349
 20
3.737944096206085
 30
0.0
 40
0.0024474844644612
100
AcDbArc
 50
335.5504979363147
 51
24.44950206368503
  0
ARC
  5
7BE
330
1F
100
AcDbEntity
  8
4
100
AcDbCircle
 10
2.953365664810195
 20
3.715916736025937
 30
0.0
 40
0.0024474844644612
100
AcDbArc
 50
21.67779679634186
 51
158.3222032036579
  0
ARC
  5
7BF
330
1F
100
AcDbEntity
  8
4
100
AcDbCircle
 10
2.941128242487888
 20
3.688994406916864
 30
0.0
 40
0.0024474844644612
100
AcDbArc
 50
155.5504979363149
 51
204.4495020636849
  0
ARC
  5
7C0
330
1F
100
AcDbEntity
  8
4
100
AcDbCircle
 10
2.9656030871325
 20
3.688994406916864
 30
0.0
 40
0.0024474844644612
100
AcDbArc
 50
335.5504979363147
 51
24.44950206368503
  0
LINE
  5
7C1
330
1F
100
AcDbEntity
  8
4
100
AcDbLine
 10
2.955542083329223
 20
3.717036281752474
 30
0.0
 11
2.967831096877278
 21
3.690007398911383
 31
0.0
  0
LINE
  5
7C2
330
1F
100
AcDbEntity
  8
4
100
AcDbLine
 10
2.951189246291164
 20
3.717036281752474
 30
0.0
 11
2.938900232743111
 21
3.690007398911383
 31
0.0
  0
LINE
  5
7C3
330
1F
100
AcDbEntity
  8
4
100
AcDbLine
 10
2.929161886111013
 20
3.709902221370479
 30
0.0
 11
2.91687287256296
 21
3.736931104211569
 31
0.0
  0
ARC
  5
7C4
330
1F
100
AcDbEntity
  8
4
100
AcDbCircle
 10
2.919100882307737
 20
3.737944096206085
 30
0.0
 40
0.0024474844644612
100
AcDbArc
 50
155.5504979363149
 51
204.4495020636849
  0
ARC
  5
7C5
330
1F
100
AcDbEntity
  8
4
100
AcDbCircle
 10
2.931338304630044
 20
3.711021767097014
 30
0.0
 40
0.0024474844644612
100
AcDbArc
 50
201.6777967963417
 51
338.3222032036581
  0
LINE
  5
7C6
330
1F
100
AcDbEntity
  8
4
100
AcDbLine
 10
2.929161886111015
 20
3.765985971041697
 30
0.0
 11
2.91687287256296
 21
3.738957088200605
 31
0.0
  0
LINE
  5
7C7
330
1F
100
AcDbEntity
  8
4
100
AcDbLine
 10
2.933514723149073
 20
3.765985971041697
 30
0.0
 11
2.945803736697127
 21
3.738957088200605
 31
0.0
  0
ARC
  5
7C8
330
1F
100
AcDbEntity
  8
4
100
AcDbCircle
 10
3.063502465710947
 20
3.76486642531516
 30
0.0
 40
0.0024474844644612
100
AcDbArc
 50
21.67779679634186
 51
158.3222032036579
  0
LINE
  5
7C9
330
1F
100
AcDbEntity
  8
2
100
AcDbLine
 10
3.007420385170495
 20
3.767313909779622
 30
0.0
 11
3.063502465710947
 21
3.767313909779622
 31
0.0
  0
ARC
  5
7CA
330
1F
100
AcDbEntity
  8
4
100
AcDbCircle
 10
3.051265043388641
 20
3.737944096206085
 30
0.0
 40
0.0024474844644612
100
AcDbArc
 50
155.5504979363149
 51
204.4495020636849
  0
ARC
  5
7CB
330
1F
100
AcDbEntity
  8
4
100
AcDbCircle
 10
3.075739888033253
 20
3.737944096206085
 30
0.0
 40
0.0024474844644612
100
AcDbArc
 50
335.5504979363147
 51
24.44950206368503
  0
ARC
  5
7CC
330
1F
100
AcDbEntity
  8
4
100
AcDbCircle
 10
3.085529825891097
 20
3.715916736025937
 30
0.0
 40
0.0024474844644612
100
AcDbArc
 50
21.67779679634186
 51
158.3222032036579
  0
ARC
  5
7CD
330
1F
100
AcDbEntity
  8
4
100
AcDbCircle
 10
3.063502465710947
 20
3.711021767097014
 30
0.0
 40
0.0024474844644612
100
AcDbArc
 50
201.6777967963417
 51
338.3222032036581
  0
LINE
  5
7CE
330
1F
100
AcDbEntity
  8
4
100
AcDbLine
 10
3.065678884229978
 20
3.709902221370479
 30
0.0
 11
3.077967897778031
 21
3.736931104211569
 31
0.0
  0
LINE
  5
7CF
330
1F
100
AcDbEntity
  8
4
100
AcDbLine
 10
3.061326047191919
 20
3.709902221370479
 30
0.0
 11
3.049037033643864
 21
3.736931104211569
 31
0.0
  0
ARC
  5
7D0
330
1F
100
AcDbEntity
  8
4
100
AcDbCircle
 10
3.073292403568792
 20
3.688994406916864
 30
0.0
 40
0.0024474844644612
100
AcDbArc
 50
155.5504979363149
 51
204.4495020636849
  0
LINE
  5
7D1
330
1F
100
AcDbEntity
  8
4
100
AcDbLine
 10
3.08335340737207
 20
3.717036281752474
 30
0.0
 11
3.071064393824015
 21
3.690007398911383
 31
0.0
  0
LINE
  5
7D2
330
1F
100
AcDbEntity
  8
4
100
AcDbLine
 10
3.065678884229978
 20
3.765985971041697
 30
0.0
 11
3.077967897778031
 21
3.738957088200605
 31
0.0
  0
LINE
  5
7D3
330
1F
100
AcDbEntity
  8
4
100
AcDbLine
 10
3.061326047191919
 20
3.765985971041697
 30
0.0
 11
3.049037033643864
 21
3.738957088200605
 31
0.0
  0
LINE
  5
7D4
330
1F
100
AcDbEntity
  8
2
100
AcDbLine
 10
3.100214732677864
 20
3.688994406916862
 30
0.0
 11
3.100214732677864
 21
3.604761106916863
 31
0.0
  0
LINE
  5
7D5
330
1F
100
AcDbEntity
  8
2
100
AcDbLine
 10
3.100214732677864
 20
3.58376287118152
 30
0.0
 11
3.100214732677864
 21
3.499529571181521
 31
0.0
  0
LINE
  5
7D6
330
1F
100
AcDbEntity
  8
4
100
AcDbLine
 10
3.269061224059465
 20
3.596305534664818
 30
0.0
 11
3.269061224059465
 21
3.517374160685946
 31
0.0
  0
LINE
  5
7D7
330
1F
100
AcDbEntity
  8
4
100
AcDbLine
 10
3.269061224059465
 20
3.517374160685946
 30
0.0
 11
3.275791806336735
 21
3.517374160685946
 31
0.0
  0
LINE
  5
7D8
330
1F
100
AcDbEntity
  8
4
100
AcDbLine
 10
3.289644425979684
 20
3.55531310686645
 30
0.0
 11
3.259270671841352
 21
3.55531310686645
 31
0.0
  0
LINE
  5
7D9
330
1F
100
AcDbEntity
  8
4
100
AcDbLine
 10
3.275791806336735
 20
3.596305534664818
 30
0.0
 11
3.269061224059465
 21
3.596305534664818
 31
0.0
  0
ARC
  5
7DA
330
1F
100
AcDbEntity
  8
4
100
AcDbCircle
 10
3.097767248213403
 20
3.688994406916864
 30
0.0
 40
0.0024474844644612
100
AcDbArc
 50
335.5504979363147
 51
24.44950206368503
  0
ARC
  5
7DB
330
1F
100
AcDbEntity
  8
4
100
AcDbCircle
 10
2.890250909072019
 20
4.041437209542131
 30
0.0
 40
0.0293698135735343
100
AcDbArc
 50
90.0
 51
183.5763343749981
  0
LINE
  5
7DC
330
1F
100
AcDbEntity
  8
4
100
AcDbLine
 10
2.860938290905389
 20
4.039605170906714
 30
0.0
 11
2.871096335408968
 21
3.877076458849476
 31
0.0
  0
LINE
  5
7DD
330
1F
100
AcDbEntity
  8
4
100
AcDbLine
 10
3.08994395615788
 20
4.205077066162287
 30
0.0
 11
3.102232969705932
 21
4.178048183321196
 31
0.0
  0
LINE
  5
7DE
330
1F
100
AcDbEntity
  8
4
100
AcDbLine
 10
3.06356375893967
 20
4.197943005780292
 30
0.0
 11
3.051274745391616
 21
4.224971888621382
 31
0.0
  0
LINE
  5
7DF
330
1F
100
AcDbEntity
  8
4
100
AcDbLine
 10
3.085591119119821
 20
4.205077066162287
 30
0.0
 11
3.073302105571766
 21
4.178048183321196
 31
0.0
  0
LINE
  5
7E0
330
1F
100
AcDbEntity
  8
4
100
AcDbLine
 10
3.067916595977729
 20
4.197943005780292
 30
0.0
 11
3.080205609525783
 21
4.224971888621382
 31
0.0
  0
LINE
  5
7E1
330
1F
100
AcDbEntity
  8
2
100
AcDbLine
 10
3.102452444425616
 20
4.261268491326678
 30
0.0
 11
3.102452444425616
 21
4.177035191326678
 31
0.0
  0
LINE
  5
7E2
330
1F
100
AcDbEntity
  8
4
100
AcDbLine
 10
2.953426958038915
 20
4.205077066162287
 30
0.0
 11
2.941137944490862
 21
4.178048183321196
 31
0.0
  0
LINE
  5
7E3
330
1F
100
AcDbEntity
  8
4
100
AcDbLine
 10
2.957779795076974
 20
4.205077066162287
 30
0.0
 11
2.970068808625029
 21
4.178048183321196
 31
0.0
  0
LINE
  5
7E4
330
1F
100
AcDbEntity
  8
4
100
AcDbLine
 10
2.935752434896824
 20
4.197943005780292
 30
0.0
 11
2.948041448444879
 21
4.224971888621382
 31
0.0
  0
LINE
  5
7E5
330
1F
100
AcDbEntity
  8
4
100
AcDbLine
 10
2.931399597858765
 20
4.197943005780292
 30
0.0
 11
2.919110584310712
 21
4.224971888621382
 31
0.0
  0
LINE
  5
7E6
330
1F
100
AcDbEntity
  8
4
100
AcDbLine
 10
3.08994395615788
 20
4.148993316491067
 30
0.0
 11
3.102232969705932
 21
4.176022199332159
 31
0.0
  0
LINE
  5
7E7
330
1F
100
AcDbEntity
  8
4
100
AcDbLine
 10
3.02474805220267
 20
4.039605170906714
 30
0.0
 11
3.014590007699093
 21
3.877076458849476
 31
0.0
  0
LINE
  5
7E8
330
1F
100
AcDbEntity
  8
4
100
AcDbLine
 10
3.009460788267455
 20
4.030425912594012
 30
0.0
 11
3.001189585944453
 21
3.89810511250738
 31
0.0
  0
LINE
  5
7E9
330
1F
100
AcDbEntity
  8
4
100
AcDbLine
 10
2.894263872016623
 20
4.03125528809214
 30
0.0
 11
2.916748254155429
 21
4.008770905953333
 31
0.0
  0
LINE
  5
7EA
330
1F
100
AcDbEntity
  8
4
 62
   130
100
AcDbLine
 10
2.892505578587017
 20
4.027806440533789
 30
0.0
 11
2.913299406597079
 21
4.007012612523723
 31
0.0
  0
LINE
  5
7EB
330
1F
100
AcDbEntity
  8
4
100
AcDbLine
 10
2.897725137739962
 20
4.034716553815478
 30
0.0
 11
2.920209519878768
 21
4.012232171676672
 31
0.0
  0
LINE
  5
7EC
330
1F
100
AcDbEntity
  8
4
 62
   130
100
AcDbLine
 10
2.90114489783247
 20
4.036445759779237
 30
0.0
 11
2.921938725842533
 21
4.015651931769179
 31
0.0
  0
LINE
  5
7ED
330
1F
100
AcDbEntity
  8
4
100
AcDbLine
 10
2.876225554840604
 20
4.030425912594012
 30
0.0
 11
2.884496757163607
 21
3.89808667542597
 31
0.0
  0
LINE
  5
7EE
330
1F
100
AcDbEntity
  8
4
100
AcDbLine
 10
2.942843171554029
 20
3.852980905778619
 30
0.0
 11
2.988941466803293
 21
3.852980905778619
 31
0.0
  0
ARC
  5
7EF
330
1F
100
AcDbEntity
  8
4
100
AcDbCircle
 10
2.981647840500034
 20
3.899326471597659
 30
0.0
 40
0.0195798757156895
100
AcDbArc
 50
270.0
 51
356.4236656250017
  0
CIRCLE
  5
7F0
330
1F
100
AcDbEntity
  8
4
100
AcDbCircle
 10
2.942843171554029
 20
3.999188732716604
 30
0.0
 40
0.0042684129060203
  0
CIRCLE
  5
7F1
330
1F
100
AcDbEntity
  8
4
100
AcDbCircle
 10
2.942843171554029
 20
3.913585516087607
 30
0.0
 40
0.0042684129060203
  0
CIRCLE
  5
7F2
330
1F
100
AcDbEntity
  8
4
100
AcDbCircle
 10
2.942843171554029
 20
3.863994585868697
 30
0.0
 40
0.0070448392825051
  0
LINE
  5
7F3
330
1F
100
AcDbEntity
  8
4
100
AcDbLine
 10
2.942843171554029
 20
3.879746595881965
 30
0.0
 11
2.981647840500034
 21
3.87974659588197
 31
0.0
  0
LINE
  5
7F4
330
1F
100
AcDbEntity
  8
4
100
AcDbLine
 10
2.915003776230866
 20
4.017437915324574
 30
0.0
 11
2.911542510507529
 21
4.013976649601236
 31
0.0
  0
LINE
  5
7F5
330
1F
100
AcDbEntity
  8
4
100
AcDbLine
 10
2.916748254155429
 20
4.008770905953333
 30
0.0
 11
2.920209519878768
 21
4.012232171676672
 31
0.0
  0
ARC
  5
7F6
330
1F
100
AcDbEntity
  8
4
 62
   130
100
AcDbCircle
 10
2.917619066219807
 20
4.011332272146454
 30
0.0
 40
0.0061089212232951
100
AcDbArc
 50
224.9999999999999
 51
44.99999999999996
  0
ARC
  5
7F7
330
1F
100
AcDbEntity
  8
4
100
AcDbCircle
 10
2.904038502608026
 20
3.899326471597659
 30
0.0
 40
0.0195798757156895
100
AcDbArc
 50
183.5763343749981
 51
270.0
  0
CIRCLE
  5
7F8
330
1F
100
AcDbEntity
  8
4
100
AcDbCircle
 10
2.942843171554029
 20
3.956387124402104
 30
0.0
 40
0.0128492934384212
  0
LINE
  5
7F9
330
1F
100
AcDbEntity
  8
4
100
AcDbLine
 10
2.942843171554029
 20
3.852980905778619
 30
0.0
 11
2.896744876304766
 21
3.852980905778619
 31
0.0
  0
LINE
  5
7FA
330
1F
100
AcDbEntity
  8
4
100
AcDbLine
 10
2.942843171554029
 20
3.879746595881965
 30
0.0
 11
2.904038502608026
 21
3.87974659588197
 31
0.0
  0
LINE
  5
7FB
330
1F
100
AcDbEntity
  8
2
100
AcDbLine
 10
2.955603376557946
 20
4.147665377753144
 30
0.0
 11
3.011685457098397
 21
4.147665377753144
 31
0.0
  0
LINE
  5
7FC
330
1F
100
AcDbEntity
  8
4
100
AcDbLine
 10
2.942843171554029
 20
4.051227147399975
 30
0.0
 11
2.989919042823037
 21
4.051227147399975
 31
0.0
  0
LINE
  5
7FD
330
1F
100
AcDbEntity
  8
4
100
AcDbLine
 10
2.942843171554029
 20
4.070807023115664
 30
0.0
 11
2.995435434036041
 21
4.070807023115664
 31
0.0
  0
LINE
  5
7FE
330
1F
100
AcDbEntity
  8
4
100
AcDbLine
 10
2.957779795076974
 20
4.148993316491067
 30
0.0
 11
2.970068808625029
 21
4.176022199332159
 31
0.0
  0
LINE
  5
7FF
330
1F
100
AcDbEntity
  8
4
100
AcDbLine
 10
2.953426958038915
 20
4.148993316491067
 30
0.0
 11
2.941137944490862
 21
4.176022199332159
 31
0.0
  0
ARC
  5
800
330
1F
100
AcDbEntity
  8
4
100
AcDbCircle
 10
2.955603376557946
 20
4.150112862217605
 30
0.0
 40
0.0024474844644612
100
AcDbArc
 50
201.6777967963418
 51
338.3222032036581
  0
ARC
  5
801
330
1F
100
AcDbEntity
  8
4
100
AcDbCircle
 10
2.967840798880251
 20
4.177035191326678
 30
0.0
 40
0.0024474844644612
100
AcDbArc
 50
335.5504979363148
 51
24.44950206368503
  0
ARC
  5
802
330
1F
100
AcDbEntity
  8
4
100
AcDbCircle
 10
2.943365954235639
 20
4.177035191326678
 30
0.0
 40
0.0024474844644612
100
AcDbArc
 50
155.5504979363149
 51
204.4495020636849
  0
ARC
  5
803
330
1F
100
AcDbEntity
  8
4
100
AcDbCircle
 10
2.933576016377795
 20
4.199062551506829
 30
0.0
 40
0.0024474844644612
100
AcDbArc
 50
201.6777967963418
 51
338.3222032036581
  0
LINE
  5
804
330
1F
100
AcDbEntity
  8
4
100
AcDbLine
 10
2.897725137739962
 20
4.034716553815478
 30
0.0
 11
2.894263872016623
 21
4.03125528809214
 31
0.0
  0
ARC
  5
805
330
1F
100
AcDbEntity
  8
4
 62
   130
100
AcDbCircle
 10
2.896825238209744
 20
4.032126100156514
 30
0.0
 40
0.0061089212232951
100
AcDbArc
 50
44.99999999999996
 51
224.9999999999999
  0
LINE
  5
806
330
1F
100
AcDbEntity
  8
4
100
AcDbLine
 10
2.902930881387862
 20
4.029510810167581
 30
0.0
 11
2.899469615664524
 21
4.026049544444243
 31
0.0
  0
ARC
  5
807
330
1F
100
AcDbEntity
  8
4
100
AcDbCircle
 10
2.895767300285022
 20
4.031647271684285
 30
0.0
 40
0.0195798757156895
100
AcDbArc
 50
90.0
 51
183.5763343749981
  0
LINE
  5
808
330
1F
100
AcDbEntity
  8
4
100
AcDbLine
 10
2.942843171554029
 20
4.051227147399975
 30
0.0
 11
2.895767300285022
 21
4.051227147399975
 31
0.0
  0
LINE
  5
809
330
1F
100
AcDbEntity
  8
4
100
AcDbLine
 10
2.942843171554029
 20
4.070807023115664
 30
0.0
 11
2.890250909072019
 21
4.070807023115664
 31
0.0
  0
LINE
  5
80A
330
1F
100
AcDbEntity
  8
4
100
AcDbLine
 10
3.085591119119821
 20
4.148993316491067
 30
0.0
 11
3.073302105571766
 21
4.176022199332159
 31
0.0
  0
ARC
  5
80B
330
1F
100
AcDbEntity
  8
4
100
AcDbCircle
 10
3.087767537638849
 20
4.150112862217605
 30
0.0
 40
0.0024474844644612
100
AcDbArc
 50
201.6777967963418
 51
338.3222032036581
  0
ARC
  5
80C
330
1F
100
AcDbEntity
  8
4
100
AcDbCircle
 10
3.075530115316543
 20
4.177035191326678
 30
0.0
 40
0.0024474844644612
100
AcDbArc
 50
155.5504979363149
 51
204.4495020636849
  0
ARC
  5
80D
330
1F
100
AcDbEntity
  8
4
100
AcDbCircle
 10
3.065740177458698
 20
4.199062551506829
 30
0.0
 40
0.0024474844644612
100
AcDbArc
 50
201.6777967963418
 51
338.3222032036581
  0
LINE
  5
80E
330
1F
100
AcDbEntity
  8
2
100
AcDbLine
 10
3.031685457098397
 20
4.147665377753144
 30
0.0
 11
3.087767537638849
 21
4.147665377753144
 31
0.0
  0
ARC
  5
80F
330
1F
100
AcDbEntity
  8
4
100
AcDbCircle
 10
2.995435434036041
 20
4.041437209542131
 30
0.0
 40
0.0293698135735343
100
AcDbArc
 50
356.4236656250017
 51
90.0
  0
ARC
  5
810
330
1F
100
AcDbEntity
  8
4
100
AcDbCircle
 10
2.989919042823037
 20
4.031647271684285
 30
0.0
 40
0.0195798757156895
100
AcDbArc
 50
356.4236656250017
 51
90.0
  0
ARC
  5
811
330
1F
100
AcDbEntity
  8
4
100
AcDbCircle
 10
3.100004959961155
 20
4.177035191326678
 30
0.0
 40
0.0024474844644612
100
AcDbArc
 50
335.5504979363148
 51
24.44950206368503
  0
LINE
  5
812
330
1F
100
AcDbEntity
  8
4
100
AcDbLine
 10
3.08994395615788
 20
4.498775201897631
 30
0.0
 11
3.102232969705932
 21
4.47174631905654
 31
0.0
  0
LINE
  5
813
330
1F
100
AcDbEntity
  8
4
100
AcDbLine
 10
3.08994395615788
 20
4.44269145222641
 30
0.0
 11
3.102232969705932
 21
4.469720335067501
 31
0.0
  0
LINE
  5
814
330
1F
100
AcDbEntity
  8
2
100
AcDbLine
 10
2.918891109591028
 20
4.4144514806159
 30
0.0
 11
2.918891109591028
 21
4.330218180615901
 31
0.0
  0
ARC
  5
815
330
1F
100
AcDbEntity
  8
4
100
AcDbCircle
 10
2.955603376557946
 20
4.20395752043575
 30
0.0
 40
0.0024474844644612
100
AcDbArc
 50
21.67779679634186
 51
158.3222032036579
  0
ARC
  5
816
330
1F
100
AcDbEntity
  8
4
100
AcDbCircle
 10
2.9458134387001
 20
4.225984880615902
 30
0.0
 40
0.0024474844644612
100
AcDbArc
 50
335.5504979363148
 51
24.44950206368503
  0
ARC
  5
817
330
1F
100
AcDbEntity
  8
4
100
AcDbCircle
 10
2.933576016377795
 20
4.252907209724975
 30
0.0
 40
0.0024474844644612
100
AcDbArc
 50
21.67779679634186
 51
158.3222032036579
  0
LINE
  5
818
330
1F
100
AcDbEntity
  8
4
100
AcDbLine
 10
2.935752434896825
 20
4.254026755451512
 30
0.0
 11
2.948041448444879
 21
4.22699787261042
 31
0.0
  0
ARC
  5
819
330
1F
100
AcDbEntity
  8
4
100
AcDbCircle
 10
2.921338594055489
 20
4.225984880615902
 30
0.0
 40
0.0024474844644612
100
AcDbArc
 50
155.5504979363149
 51
204.4495020636849
  0
LINE
  5
81A
330
1F
100
AcDbEntity
  8
2
100
AcDbLine
 10
2.918891109591028
 20
4.310218180615901
 30
0.0
 11
2.918891109591028
 21
4.225984880615902
 31
0.0
  0
LINE
  5
81B
330
1F
100
AcDbEntity
  8
4
100
AcDbLine
 10
2.931399597858766
 20
4.254026755451512
 30
0.0
 11
2.919110584310712
 21
4.22699787261042
 31
0.0
  0
LINE
  5
81C
330
1F
100
AcDbEntity
  8
4
100
AcDbLine
 10
3.06356375893967
 20
4.254026755451512
 30
0.0
 11
3.051274745391616
 21
4.22699787261042
 31
0.0
  0
LINE
  5
81D
330
1F
100
AcDbEntity
  8
4
100
AcDbLine
 10
3.067916595977729
 20
4.254026755451512
 30
0.0
 11
3.080205609525783
 21
4.22699787261042
 31
0.0
  0
ARC
  5
81E
330
1F
100
AcDbEntity
  8
4
100
AcDbCircle
 10
3.065740177458698
 20
4.252907209724975
 30
0.0
 40
0.0024474844644612
100
AcDbArc
 50
21.67779679634186
 51
158.3222032036579
  0
ARC
  5
81F
330
1F
100
AcDbEntity
  8
4
100
AcDbCircle
 10
3.087767537638849
 20
4.20395752043575
 30
0.0
 40
0.0024474844644612
100
AcDbArc
 50
21.67779679634186
 51
158.3222032036579
  0
ARC
  5
820
330
1F
100
AcDbEntity
  8
4
100
AcDbCircle
 10
3.077977599781004
 20
4.225984880615902
 30
0.0
 40
0.0024474844644612
100
AcDbArc
 50
335.5504979363148
 51
24.44950206368503
  0
ARC
  5
821
330
1F
100
AcDbEntity
  8
4
100
AcDbCircle
 10
3.053502755136393
 20
4.225984880615902
 30
0.0
 40
0.0024474844644612
100
AcDbArc
 50
155.5504979363149
 51
204.4495020636849
  0
LINE
  5
822
330
1F
100
AcDbEntity
  8
2
100
AcDbLine
 10
2.933576016377795
 20
4.549052829924779
 30
0.0
 11
2.989658096918247
 21
4.549052829924779
 31
0.0
  0
LINE
  5
823
330
1F
100
AcDbEntity
  8
4
100
AcDbLine
 10
2.953426958038915
 20
4.498775201897631
 30
0.0
 11
2.941137944490862
 21
4.47174631905654
 31
0.0
  0
LINE
  5
824
330
1F
100
AcDbEntity
  8
4
100
AcDbLine
 10
2.957779795076974
 20
4.498775201897631
 30
0.0
 11
2.970068808625029
 21
4.47174631905654
 31
0.0
  0
ARC
  5
825
330
1F
100
AcDbEntity
  8
4
100
AcDbCircle
 10
2.967840798880251
 20
4.470733327062021
 30
0.0
 40
0.0024474844644612
100
AcDbArc
 50
335.5504979363148
 51
24.44950206368503
  0
ARC
  5
826
330
1F
100
AcDbEntity
  8
4
100
AcDbCircle
 10
2.943365954235639
 20
4.470733327062021
 30
0.0
 40
0.0024474844644612
100
AcDbArc
 50
155.5504979363149
 51
204.4495020636849
  0
ARC
  5
827
330
1F
100
AcDbEntity
  8
4
100
AcDbCircle
 10
2.955603376557946
 20
4.497655656171094
 30
0.0
 40
0.0024474844644612
100
AcDbArc
 50
21.67779679634186
 51
158.3222032036579
  0
ARC
  5
828
330
1F
100
AcDbEntity
  8
4
100
AcDbCircle
 10
2.9458134387001
 20
4.519683016351242
 30
0.0
 40
0.0024474844644612
100
AcDbArc
 50
335.5504979363148
 51
24.44950206368503
  0
ARC
  5
829
330
1F
100
AcDbEntity
  8
4
100
AcDbCircle
 10
2.933576016377795
 20
4.492760687242171
 30
0.0
 40
0.0024474844644612
100
AcDbArc
 50
201.6777967963418
 51
338.3222032036581
  0
ARC
  5
82A
330
1F
100
AcDbEntity
  8
4
100
AcDbCircle
 10
2.933576016377795
 20
4.546605345460317
 30
0.0
 40
0.0024474844644612
100
AcDbArc
 50
21.67779679634186
 51
158.3222032036579
  0
LINE
  5
82B
330
1F
100
AcDbEntity
  8
4
100
AcDbLine
 10
2.935752434896824
 20
4.491641141515636
 30
0.0
 11
2.948041448444879
 21
4.518670024356726
 31
0.0
  0
LINE
  5
82C
330
1F
100
AcDbEntity
  8
4
100
AcDbLine
 10
2.935752434896825
 20
4.547724891186854
 30
0.0
 11
2.948041448444879
 21
4.520696008345762
 31
0.0
  0
ARC
  5
82D
330
1F
100
AcDbEntity
  8
4
100
AcDbCircle
 10
2.921338594055489
 20
4.519683016351242
 30
0.0
 40
0.0024474844644612
100
AcDbArc
 50
155.5504979363149
 51
204.4495020636849
  0
LINE
  5
82E
330
1F
100
AcDbEntity
  8
4
100
AcDbLine
 10
2.931399597858766
 20
4.547724891186854
 30
0.0
 11
2.919110584310712
 21
4.520696008345762
 31
0.0
  0
LINE
  5
82F
330
1F
100
AcDbEntity
  8
4
100
AcDbLine
 10
2.931399597858765
 20
4.491641141515636
 30
0.0
 11
2.919110584310712
 21
4.518670024356726
 31
0.0
  0
ARC
  5
830
330
1F
100
AcDbEntity
  8
4
100
AcDbCircle
 10
2.955603376557946
 20
4.443810997952947
 30
0.0
 40
0.0024474844644612
100
AcDbArc
 50
201.6777967963418
 51
338.3222032036581
  0
LINE
  5
831
330
1F
100
AcDbEntity
  8
2
100
AcDbLine
 10
2.918891109591028
 20
4.519683016351242
 30
0.0
 11
2.918891109591028
 21
4.435449716351243
 31
0.0
  0
LINE
  5
832
330
1F
100
AcDbEntity
  8
4
100
AcDbLine
 10
2.957779795076974
 20
4.44269145222641
 30
0.0
 11
2.970068808625029
 21
4.469720335067501
 31
0.0
  0
LINE
  5
833
330
1F
100
AcDbEntity
  8
4
100
AcDbLine
 10
2.953426958038915
 20
4.44269145222641
 30
0.0
 11
2.941137944490862
 21
4.469720335067501
 31
0.0
  0
LINE
  5
834
330
1F
100
AcDbEntity
  8
4
100
AcDbLine
 10
3.085591119119821
 20
4.498775201897631
 30
0.0
 11
3.073302105571766
 21
4.47174631905654
 31
0.0
  0
ARC
  5
835
330
1F
100
AcDbEntity
  8
4
100
AcDbCircle
 10
3.075530115316543
 20
4.470733327062021
 30
0.0
 40
0.0024474844644612
100
AcDbArc
 50
155.5504979363149
 51
204.4495020636849
  0
LINE
  5
836
330
1F
100
AcDbEntity
  8
4
100
AcDbLine
 10
3.06356375893967
 20
4.547724891186854
 30
0.0
 11
3.051274745391616
 21
4.520696008345762
 31
0.0
  0
LINE
  5
837
330
1F
100
AcDbEntity
  8
4
100
AcDbLine
 10
3.06356375893967
 20
4.491641141515636
 30
0.0
 11
3.051274745391616
 21
4.518670024356726
 31
0.0
  0
LINE
  5
838
330
1F
100
AcDbEntity
  8
4
100
AcDbLine
 10
3.067916595977729
 20
4.547724891186854
 30
0.0
 11
3.080205609525783
 21
4.520696008345762
 31
0.0
  0
LINE
  5
839
330
1F
100
AcDbEntity
  8
4
100
AcDbLine
 10
3.067916595977729
 20
4.491641141515636
 30
0.0
 11
3.080205609525783
 21
4.518670024356726
 31
0.0
  0
ARC
  5
83A
330
1F
100
AcDbEntity
  8
4
100
AcDbCircle
 10
3.065740177458698
 20
4.492760687242171
 30
0.0
 40
0.0024474844644612
100
AcDbArc
 50
201.6777967963418
 51
338.3222032036581
  0
ARC
  5
83B
330
1F
100
AcDbEntity
  8
4
100
AcDbCircle
 10
3.065740177458698
 20
4.546605345460317
 30
0.0
 40
0.0024474844644612
100
AcDbArc
 50
21.67779679634186
 51
158.3222032036579
  0
ARC
  5
83C
330
1F
100
AcDbEntity
  8
4
100
AcDbCircle
 10
3.087767537638849
 20
4.497655656171094
 30
0.0
 40
0.0024474844644612
100
AcDbArc
 50
21.67779679634186
 51
158.3222032036579
  0
ARC
  5
83D
330
1F
100
AcDbEntity
  8
4
100
AcDbCircle
 10
3.077977599781004
 20
4.519683016351242
 30
0.0
 40
0.0024474844644612
100
AcDbArc
 50
335.5504979363148
 51
24.44950206368503
  0
ARC
  5
83E
330
1F
100
AcDbEntity
  8
4
100
AcDbCircle
 10
3.053502755136393
 20
4.519683016351242
 30
0.0
 40
0.0024474844644612
100
AcDbArc
 50
155.5504979363149
 51
204.4495020636849
  0
LINE
  5
83F
330
1F
100
AcDbEntity
  8
2
100
AcDbLine
 10
3.009658096918246
 20
4.549052829924779
 30
0.0
 11
3.065740177458698
 21
4.549052829924779
 31
0.0
  0
ARC
  5
840
330
1F
100
AcDbEntity
  8
4
100
AcDbCircle
 10
3.087767537638849
 20
4.443810997952947
 30
0.0
 40
0.0024474844644612
100
AcDbArc
 50
201.6777967963418
 51
338.3222032036581
  0
LINE
  5
841
330
1F
100
AcDbEntity
  8
4
100
AcDbLine
 10
3.085591119119821
 20
4.44269145222641
 30
0.0
 11
3.073302105571766
 21
4.469720335067501
 31
0.0
  0
LINE
  5
842
330
1F
100
AcDbEntity
  8
4
100
AcDbLine
 10
3.269061224059469
 20
4.399058744520267
 30
0.0
 11
3.269061224059465
 21
4.320127370541396
 31
0.0
  0
LINE
  5
843
330
1F
100
AcDbEntity
  8
2
100
AcDbLine
 10
3.102452444425616
 20
4.365501791326677
 30
0.0
 11
3.102452444425616
 21
4.281268491326677
 31
0.0
  0
LINE
  5
844
330
1F
100
AcDbEntity
  8
4
100
AcDbLine
 10
3.281425601038978
 20
4.358066316721897
 30
0.0
 11
3.260878727426132
 21
4.358066316721897
 31
0.0
  0
LINE
  5
845
330
1F
100
AcDbEntity
  8
4
100
AcDbLine
 10
3.269061224059465
 20
4.320127370541396
 30
0.0
 11
3.275791806336735
 21
4.320127370541396
 31
0.0
  0
ARC
  5
846
330
1F
100
AcDbEntity
  8
4
100
AcDbCircle
 10
3.100004959961155
 20
4.470733327062021
 30
0.0
 40
0.0024474844644612
100
AcDbArc
 50
335.5504979363148
 51
24.44950206368503
  0
LINE
  5
847
330
1F
100
AcDbEntity
  8
2
100
AcDbLine
 10
3.102452444425616
 20
4.470733327062019
 30
0.0
 11
3.102452444425616
 21
4.38650002706202
 31
0.0
  0
LINE
  5
848
330
1F
100
AcDbEntity
  8
4
100
AcDbLine
 10
3.275791806336735
 20
4.399058744520267
 30
0.0
 11
3.269061224059469
 21
4.399058744520267
 31
0.0
  0
LINE
  5
849
330
1F
100
AcDbEntity
  8
4
  6
HIDDEN
100
AcDbLine
 10
3.157609634504407
 20
4.763193755945382
 30
0.0
 11
3.157609634504407
 21
6.093833958525529
 31
0.0
  0
LINE
  5
84A
330
1F
100
AcDbEntity
  8
4
  6
HIDDEN
100
AcDbLine
 10
3.25061404415393
 20
4.763193755945385
 30
0.0
 11
3.250614044153929
 21
6.093833958525536
 31
0.0
  0
LINE
  5
84B
330
1F
100
AcDbEntity
  8
4
  6
HIDDEN
100
AcDbLine
 10
3.179343296548823
 20
4.763193755945382
 30
0.0
 11
3.17934329654882
 21
6.093833958525529
 31
0.0
  0
LINE
  5
84C
330
1F
100
AcDbEntity
  8
4
  6
HIDDEN
100
AcDbLine
 10
3.228880382109515
 20
4.763193755945382
 30
0.0
 11
3.228880382109515
 21
6.093833958525532
 31
0.0
  0
LINE
  5
84D
330
1F
100
AcDbEntity
  8
2
100
AcDbLine
 10
2.918891109591028
 20
5.988661697551176
 30
0.0
 11
2.918891109591028
 21
5.904428397551177
 31
0.0
  0
LINE
  5
84E
330
1F
100
AcDbEntity
  8
4
100
AcDbLine
 10
3.085591119119821
 20
5.967753883097564
 30
0.0
 11
3.073302105571766
 21
5.940725000256474
 31
0.0
  0
LINE
  5
84F
330
1F
100
AcDbEntity
  8
4
100
AcDbLine
 10
3.08994395615788
 20
5.967753883097564
 30
0.0
 11
3.102232969705932
 21
5.940725000256474
 31
0.0
  0
LINE
  5
850
330
1F
100
AcDbEntity
  8
4
100
AcDbLine
 10
2.953426958038915
 20
5.967753883097564
 30
0.0
 11
2.941137944490862
 21
5.940725000256474
 31
0.0
  0
LINE
  5
851
330
1F
100
AcDbEntity
  8
4
100
AcDbLine
 10
2.957779795076974
 20
5.967753883097564
 30
0.0
 11
2.970068808625029
 21
5.940725000256474
 31
0.0
  0
LINE
  5
852
330
1F
100
AcDbEntity
  8
4
100
AcDbLine
 10
2.838791806336735
 20
6.097816724309318
 30
0.0
 11
2.838791806336735
 21
4.75479388921874
 31
0.0
  0
LINE
  5
853
330
1F
100
AcDbEntity
  8
4
100
AcDbLine
 10
3.275791806336735
 20
4.754815208018806
 30
0.0
 11
3.275791806336735
 21
6.097838043109383
 31
0.0
  0
LINE
  5
854
330
1F
100
AcDbEntity
  8
4
100
AcDbLine
 10
2.705703688860052
 20
5.426315966164063
 30
0.0
 11
2.330703688860052
 21
5.426315966164063
 31
0.0
  0
LINE
  5
855
330
1F
100
AcDbEntity
  8
4
100
AcDbLine
 10
2.705703688860052
 20
5.566660229867355
 30
0.0
 11
2.330703688860052
 21
5.566660229867355
 31
0.0
  0
LINE
  5
856
330
1F
100
AcDbEntity
  8
4
100
AcDbLine
 10
2.330703688860052
 20
5.566660229867355
 30
0.0
 11
2.330703688860052
 21
5.628660229867355
 31
0.0
  0
LINE
  5
857
330
1F
100
AcDbEntity
  8
4
100
AcDbLine
 10
2.330703688860052
 20
5.426315966164063
 30
0.0
 11
2.330703688860052
 21
5.364315966164063
 31
0.0
  0
LINE
  5
858
330
1F
100
AcDbEntity
  8
4
100
AcDbLine
 10
3.275791806336735
 20
4.62885936190945
 30
0.0
 11
2.838791806336735
 21
4.628838043109384
 31
0.0
  0
LINE
  5
859
330
1F
100
AcDbEntity
  8
4
100
AcDbLine
 10
2.838791806336735
 20
4.75479388921874
 30
0.0
 11
3.275791806336735
 21
4.754815208018806
 31
0.0
  0
LINE
  5
85A
330
1F
100
AcDbEntity
  8
4
100
AcDbLine
 10
2.806791806336735
 20
4.722838043109383
 30
0.0
 11
3.307791806336735
 21
4.722838043109383
 31
0.0
  0
LINE
  5
85B
330
1F
100
AcDbEntity
  8
4
100
AcDbLine
 10
2.806791806336735
 20
4.660838043109384
 30
0.0
 11
3.307791806336735
 21
4.660838043109384
 31
0.0
  0
LINE
  5
85C
330
1F
100
AcDbEntity
  8
2
100
AcDbLine
 10
3.100214732677864
 20
4.948508252381454
 30
0.0
 11
3.100214732677864
 21
4.864274952381455
 31
0.0
  0
LINE
  5
85D
330
1F
100
AcDbEntity
  8
4
100
AcDbLine
 10
3.065678884229978
 20
4.885182766835068
 30
0.0
 11
3.077967897778031
 21
4.912211649676159
 31
0.0
  0
LINE
  5
85E
330
1F
100
AcDbEntity
  8
4
100
AcDbLine
 10
3.061326047191919
 20
4.885182766835068
 30
0.0
 11
3.049037033643864
 21
4.912211649676159
 31
0.0
  0
LINE
  5
85F
330
1F
100
AcDbEntity
  8
4
100
AcDbLine
 10
2.929161886111013
 20
4.885182766835068
 30
0.0
 11
2.91687287256296
 21
4.912211649676159
 31
0.0
  0
LINE
  5
860
330
1F
100
AcDbEntity
  8
4
100
AcDbLine
 10
2.933514723149072
 20
4.885182766835068
 30
0.0
 11
2.945803736697127
 21
4.912211649676159
 31
0.0
  0
LINE
  5
861
330
1F
100
AcDbEntity
  8
4
100
AcDbLine
 10
3.087706244410128
 20
4.892316827217063
 30
0.0
 11
3.09999525795818
 21
4.865287944375973
 31
0.0
  0
LINE
  5
862
330
1F
100
AcDbEntity
  8
4
100
AcDbLine
 10
3.087706244410128
 20
4.836233077545843
 30
0.0
 11
3.09999525795818
 21
4.863261960386935
 31
0.0
  0
CIRCLE
  5
863
330
1F
100
AcDbEntity
  8
4
100
AcDbCircle
 10
3.079902301563857
 20
4.584761628261263
 30
0.0
 40
0.0026628630973338
  0
ARC
  5
864
330
1F
100
AcDbEntity
  8
4
100
AcDbCircle
 10
3.006477767630022
 20
4.584761628261263
 30
0.0
 40
0.0795432450949886
100
AcDbArc
 50
347.5762104955836
 51
12.42378950441639
  0
CIRCLE
  5
865
330
1F
100
AcDbEntity
  8
4
100
AcDbCircle
 10
3.006477767630022
 20
4.584761628261263
 30
0.0
 40
0.0026628630973338
  0
ARC
  5
866
330
1F
100
AcDbEntity
  8
4
100
AcDbCircle
 10
3.079902301563857
 20
4.584761628261263
 30
0.0
 40
0.0795432450949886
100
AcDbArc
 50
167.5762104955836
 51
192.4237895044163
  0
ARC
  5
867
330
1F
100
AcDbEntity
  8
4
100
AcDbCircle
 10
3.04319003459694
 20
4.330835115073416
 30
0.0
 40
0.274118260019653
100
AcDbArc
 50
81.40466153832001
 51
98.59533846167998
  0
ARC
  5
868
330
1F
100
AcDbEntity
  8
4
100
AcDbCircle
 10
3.04319003459694
 20
4.838688141449111
 30
0.0
 40
0.274118260019653
100
AcDbArc
 50
261.40466153832
 51
278.5953384616799
  0
LINE
  5
869
330
1F
100
AcDbEntity
  8
2
100
AcDbLine
 10
2.953365664810195
 20
4.83490513880792
 30
0.0
 11
3.009447745350646
 21
4.83490513880792
 31
0.0
  0
ARC
  5
86A
330
1F
100
AcDbEntity
  8
4
100
AcDbCircle
 10
2.931338304630044
 20
4.886302312561605
 30
0.0
 40
0.0024474844644612
100
AcDbArc
 50
201.6777967963418
 51
338.3222032036581
  0
ARC
  5
86B
330
1F
100
AcDbEntity
  8
4
100
AcDbCircle
 10
2.953365664810195
 20
4.891197281490526
 30
0.0
 40
0.0024474844644612
100
AcDbArc
 50
21.67779679634186
 51
158.3222032036579
  0
LINE
  5
86C
330
1F
100
AcDbEntity
  8
4
100
AcDbLine
 10
2.955542083329223
 20
4.892316827217063
 30
0.0
 11
2.967831096877278
 21
4.865287944375973
 31
0.0
  0
LINE
  5
86D
330
1F
100
AcDbEntity
  8
4
100
AcDbLine
 10
2.951189246291164
 20
4.892316827217063
 30
0.0
 11
2.938900232743111
 21
4.865287944375973
 31
0.0
  0
ARC
  5
86E
330
1F
100
AcDbEntity
  8
4
100
AcDbCircle
 10
2.941128242487888
 20
4.864274952381455
 30
0.0
 40
0.0024474844644612
100
AcDbArc
 50
155.5504979363149
 51
204.449502063685
  0
ARC
  5
86F
330
1F
100
AcDbEntity
  8
4
100
AcDbCircle
 10
2.9656030871325
 20
4.864274952381455
 30
0.0
 40
0.0024474844644612
100
AcDbArc
 50
335.5504979363148
 51
24.44950206368503
  0
ARC
  5
870
330
1F
100
AcDbEntity
  8
4
100
AcDbCircle
 10
2.953365664810195
 20
4.837352623272382
 30
0.0
 40
0.0024474844644612
100
AcDbArc
 50
201.6777967963418
 51
338.3222032036581
  0
LINE
  5
871
330
1F
100
AcDbEntity
  8
4
100
AcDbLine
 10
2.951189246291164
 20
4.836233077545843
 30
0.0
 11
2.938900232743111
 21
4.863261960386935
 31
0.0
  0
LINE
  5
872
330
1F
100
AcDbEntity
  8
4
100
AcDbLine
 10
2.955542083329223
 20
4.836233077545843
 30
0.0
 11
2.967831096877278
 21
4.863261960386935
 31
0.0
  0
ARC
  5
873
330
1F
100
AcDbEntity
  8
4
100
AcDbCircle
 10
3.085529825891097
 20
4.891197281490526
 30
0.0
 40
0.0024474844644612
100
AcDbArc
 50
21.67779679634186
 51
158.3222032036579
  0
ARC
  5
874
330
1F
100
AcDbEntity
  8
4
100
AcDbCircle
 10
3.063502465710947
 20
4.886302312561605
 30
0.0
 40
0.0024474844644612
100
AcDbArc
 50
201.6777967963418
 51
338.3222032036581
  0
ARC
  5
875
330
1F
100
AcDbEntity
  8
4
100
AcDbCircle
 10
3.073292403568792
 20
4.864274952381455
 30
0.0
 40
0.0024474844644612
100
AcDbArc
 50
155.5504979363149
 51
204.449502063685
  0
LINE
  5
876
330
1F
100
AcDbEntity
  8
4
100
AcDbLine
 10
3.08335340737207
 20
4.892316827217063
 30
0.0
 11
3.071064393824015
 21
4.865287944375973
 31
0.0
  0
ARC
  5
877
330
1F
100
AcDbEntity
  8
4
100
AcDbCircle
 10
3.085529825891097
 20
4.837352623272382
 30
0.0
 40
0.0024474844644612
100
AcDbArc
 50
201.6777967963418
 51
338.3222032036581
  0
LINE
  5
878
330
1F
100
AcDbEntity
  8
4
100
AcDbLine
 10
3.08335340737207
 20
4.836233077545843
 30
0.0
 11
3.071064393824015
 21
4.863261960386935
 31
0.0
  0
LINE
  5
879
330
1F
100
AcDbEntity
  8
2
100
AcDbLine
 10
3.029447745350645
 20
4.83490513880792
 30
0.0
 11
3.085529825891097
 21
4.83490513880792
 31
0.0
  0
LINE
  5
87A
330
1F
100
AcDbEntity
  8
4
100
AcDbLine
 10
3.250614044153929
 20
4.624855277325602
 30
0.0
 11
3.157609634504407
 21
4.624855277325595
 31
0.0
  0
LINE
  5
87B
330
1F
100
AcDbEntity
  8
4
100
AcDbLine
 10
3.25061404415393
 20
4.763193755945385
 30
0.0
 11
3.157609634504407
 21
4.763193755945382
 31
0.0
  0
ARC
  5
87C
330
1F
100
AcDbEntity
  8
4
100
AcDbCircle
 10
3.097767248213403
 20
4.864274952381455
 30
0.0
 40
0.0024474844644612
100
AcDbArc
 50
335.5504979363148
 51
24.44950206368503
  0
LINE
  5
87D
330
1F
100
AcDbEntity
  8
4
100
AcDbLine
 10
3.087706244410128
 20
5.129931213281187
 30
0.0
 11
3.09999525795818
 21
5.156960096122277
 31
0.0
  0
LINE
  5
87E
330
1F
100
AcDbEntity
  8
4
100
AcDbLine
 10
3.087706244410128
 20
5.186014962952407
 30
0.0
 11
3.09999525795818
 21
5.158986080111317
 31
0.0
  0
LINE
  5
87F
330
1F
100
AcDbEntity
  8
2
100
AcDbLine
 10
2.916653397843276
 20
5.101691241670677
 30
0.0
 11
2.916653397843276
 21
5.017457941670677
 31
0.0
  0
LINE
  5
880
330
1F
100
AcDbEntity
  8
4
100
AcDbLine
 10
2.929161886111015
 20
4.941266516506289
 30
0.0
 11
2.91687287256296
 21
4.914237633665196
 31
0.0
  0
ARC
  5
881
330
1F
100
AcDbEntity
  8
4
100
AcDbCircle
 10
2.919100882307737
 20
4.913224641670678
 30
0.0
 40
0.0024474844644612
100
AcDbArc
 50
155.5504979363149
 51
204.449502063685
  0
LINE
  5
882
330
1F
100
AcDbEntity
  8
4
100
AcDbLine
 10
2.933514723149073
 20
4.941266516506289
 30
0.0
 11
2.945803736697127
 21
4.914237633665196
 31
0.0
  0
ARC
  5
883
330
1F
100
AcDbEntity
  8
4
100
AcDbCircle
 10
2.931338304630044
 20
4.940146970779752
 30
0.0
 40
0.0024474844644612
100
AcDbArc
 50
21.67779679634186
 51
158.3222032036579
  0
ARC
  5
884
330
1F
100
AcDbEntity
  8
4
100
AcDbCircle
 10
2.943575726952349
 20
4.913224641670678
 30
0.0
 40
0.0024474844644612
100
AcDbArc
 50
335.5504979363148
 51
24.44950206368503
  0
LINE
  5
885
330
1F
100
AcDbEntity
  8
2
100
AcDbLine
 10
2.916653397843276
 20
4.997457941670678
 30
0.0
 11
2.916653397843276
 21
4.913224641670678
 31
0.0
  0
ARC
  5
886
330
1F
100
AcDbEntity
  8
4
100
AcDbCircle
 10
3.051265043388641
 20
4.913224641670678
 30
0.0
 40
0.0024474844644612
100
AcDbArc
 50
155.5504979363149
 51
204.449502063685
  0
ARC
  5
887
330
1F
100
AcDbEntity
  8
4
100
AcDbCircle
 10
3.075739888033253
 20
4.913224641670678
 30
0.0
 40
0.0024474844644612
100
AcDbArc
 50
335.5504979363148
 51
24.44950206368503
  0
ARC
  5
888
330
1F
100
AcDbEntity
  8
4
100
AcDbCircle
 10
3.063502465710947
 20
4.940146970779752
 30
0.0
 40
0.0024474844644612
100
AcDbArc
 50
21.67779679634186
 51
158.3222032036579
  0
LINE
  5
889
330
1F
100
AcDbEntity
  8
4
100
AcDbLine
 10
3.065678884229978
 20
4.941266516506289
 30
0.0
 11
3.077967897778031
 21
4.914237633665196
 31
0.0
  0
LINE
  5
88A
330
1F
100
AcDbEntity
  8
4
100
AcDbLine
 10
3.061326047191919
 20
4.941266516506289
 30
0.0
 11
3.049037033643864
 21
4.914237633665196
 31
0.0
  0
LINE
  5
88B
330
1F
100
AcDbEntity
  8
2
100
AcDbLine
 10
2.931338304630044
 20
5.236292590979555
 30
0.0
 11
2.987420385170495
 21
5.236292590979555
 31
0.0
  0
LINE
  5
88C
330
1F
100
AcDbEntity
  8
4
100
AcDbLine
 10
2.929161886111013
 20
5.178880902570412
 30
0.0
 11
2.91687287256296
 21
5.205909785411503
 31
0.0
  0
LINE
  5
88D
330
1F
100
AcDbEntity
  8
4
100
AcDbLine
 10
2.929161886111015
 20
5.234964652241631
 30
0.0
 11
2.91687287256296
 21
5.207935769400538
 31
0.0
  0
ARC
  5
88E
330
1F
100
AcDbEntity
  8
4
100
AcDbCircle
 10
2.919100882307737
 20
5.206922777406019
 30
0.0
 40
0.0024474844644612
100
AcDbArc
 50
155.5504979363149
 51
204.449502063685
  0
LINE
  5
88F
330
1F
100
AcDbEntity
  8
4
100
AcDbLine
 10
2.933514723149073
 20
5.234964652241631
 30
0.0
 11
2.945803736697127
 21
5.207935769400538
 31
0.0
  0
LINE
  5
890
330
1F
100
AcDbEntity
  8
4
100
AcDbLine
 10
2.933514723149072
 20
5.178880902570412
 30
0.0
 11
2.945803736697127
 21
5.205909785411503
 31
0.0
  0
ARC
  5
891
330
1F
100
AcDbEntity
  8
4
100
AcDbCircle
 10
2.931338304630044
 20
5.233845106515094
 30
0.0
 40
0.0024474844644612
100
AcDbArc
 50
21.67779679634186
 51
158.3222032036579
  0
ARC
  5
892
330
1F
100
AcDbEntity
  8
4
100
AcDbCircle
 10
2.931338304630044
 20
5.180000448296947
 30
0.0
 40
0.0024474844644612
100
AcDbArc
 50
201.6777967963418
 51
338.3222032036581
  0
ARC
  5
893
330
1F
100
AcDbEntity
  8
4
100
AcDbCircle
 10
2.943575726952349
 20
5.206922777406019
 30
0.0
 40
0.0024474844644612
100
AcDbArc
 50
335.5504979363148
 51
24.44950206368503
  0
ARC
  5
894
330
1F
100
AcDbEntity
  8
4
100
AcDbCircle
 10
2.953365664810195
 20
5.18489541722587
 30
0.0
 40
0.0024474844644612
100
AcDbArc
 50
21.67779679634186
 51
158.3222032036579
  0
ARC
  5
895
330
1F
100
AcDbEntity
  8
4
100
AcDbCircle
 10
2.941128242487888
 20
5.157973088116797
 30
0.0
 40
0.0024474844644612
100
AcDbArc
 50
155.5504979363149
 51
204.449502063685
  0
ARC
  5
896
330
1F
100
AcDbEntity
  8
4
100
AcDbCircle
 10
2.9656030871325
 20
5.157973088116797
 30
0.0
 40
0.0024474844644612
100
AcDbArc
 50
335.5504979363148
 51
24.44950206368503
  0
ARC
  5
897
330
1F
100
AcDbEntity
  8
4
100
AcDbCircle
 10
2.953365664810195
 20
5.131050759007724
 30
0.0
 40
0.0024474844644612
100
AcDbArc
 50
201.6777967963418
 51
338.3222032036581
  0
LINE
  5
898
330
1F
100
AcDbEntity
  8
4
100
AcDbLine
 10
2.951189246291164
 20
5.129931213281187
 30
0.0
 11
2.938900232743111
 21
5.156960096122277
 31
0.0
  0
LINE
  5
899
330
1F
100
AcDbEntity
  8
4
100
AcDbLine
 10
2.955542083329223
 20
5.129931213281187
 30
0.0
 11
2.967831096877278
 21
5.156960096122277
 31
0.0
  0
LINE
  5
89A
330
1F
100
AcDbEntity
  8
4
100
AcDbLine
 10
2.955542083329223
 20
5.186014962952407
 30
0.0
 11
2.967831096877278
 21
5.158986080111317
 31
0.0
  0
LINE
  5
89B
330
1F
100
AcDbEntity
  8
4
100
AcDbLine
 10
2.951189246291164
 20
5.186014962952407
 30
0.0
 11
2.938900232743111
 21
5.158986080111317
 31
0.0
  0
LINE
  5
89C
330
1F
100
AcDbEntity
  8
2
100
AcDbLine
 10
2.916653397843276
 20
5.206922777406019
 30
0.0
 11
2.916653397843276
 21
5.122689477406019
 31
0.0
  0
ARC
  5
89D
330
1F
100
AcDbEntity
  8
4
100
AcDbCircle
 10
3.051265043388641
 20
5.206922777406019
 30
0.0
 40
0.0024474844644612
100
AcDbArc
 50
155.5504979363149
 51
204.449502063685
  0
ARC
  5
89E
330
1F
100
AcDbEntity
  8
4
100
AcDbCircle
 10
3.075739888033253
 20
5.206922777406019
 30
0.0
 40
0.0024474844644612
100
AcDbArc
 50
335.5504979363148
 51
24.44950206368503
  0
ARC
  5
89F
330
1F
100
AcDbEntity
  8
4
100
AcDbCircle
 10
3.085529825891097
 20
5.18489541722587
 30
0.0
 40
0.0024474844644612
100
AcDbArc
 50
21.67779679634186
 51
158.3222032036579
  0
ARC
  5
8A0
330
1F
100
AcDbEntity
  8
4
100
AcDbCircle
 10
3.063502465710947
 20
5.233845106515094
 30
0.0
 40
0.0024474844644612
100
AcDbArc
 50
21.67779679634186
 51
158.3222032036579
  0
ARC
  5
8A1
330
1F
100
AcDbEntity
  8
4
100
AcDbCircle
 10
3.063502465710947
 20
5.180000448296947
 30
0.0
 40
0.0024474844644612
100
AcDbArc
 50
201.6777967963418
 51
338.3222032036581
  0
LINE
  5
8A2
330
1F
100
AcDbEntity
  8
4
100
AcDbLine
 10
3.065678884229978
 20
5.178880902570412
 30
0.0
 11
3.077967897778031
 21
5.205909785411503
 31
0.0
  0
LINE
  5
8A3
330
1F
100
AcDbEntity
  8
4
100
AcDbLine
 10
3.065678884229978
 20
5.234964652241631
 30
0.0
 11
3.077967897778031
 21
5.207935769400538
 31
0.0
  0
LINE
  5
8A4
330
1F
100
AcDbEntity
  8
4
100
AcDbLine
 10
3.061326047191919
 20
5.178880902570412
 30
0.0
 11
3.049037033643864
 21
5.205909785411503
 31
0.0
  0
LINE
  5
8A5
330
1F
100
AcDbEntity
  8
4
100
AcDbLine
 10
3.061326047191919
 20
5.234964652241631
 30
0.0
 11
3.049037033643864
 21
5.207935769400538
 31
0.0
  0
LINE
  5
8A6
330
1F
100
AcDbEntity
  8
2
100
AcDbLine
 10
3.007420385170495
 20
5.236292590979555
 30
0.0
 11
3.063502465710947
 21
5.236292590979555
 31
0.0
  0
ARC
  5
8A7
330
1F
100
AcDbEntity
  8
4
100
AcDbCircle
 10
3.073292403568792
 20
5.157973088116797
 30
0.0
 40
0.0024474844644612
100
AcDbArc
 50
155.5504979363149
 51
204.449502063685
  0
ARC
  5
8A8
330
1F
100
AcDbEntity
  8
4
100
AcDbCircle
 10
3.085529825891097
 20
5.131050759007724
 30
0.0
 40
0.0024474844644612
100
AcDbArc
 50
201.6777967963418
 51
338.3222032036581
  0
LINE
  5
8A9
330
1F
100
AcDbEntity
  8
4
100
AcDbLine
 10
3.08335340737207
 20
5.129931213281187
 30
0.0
 11
3.071064393824015
 21
5.156960096122277
 31
0.0
  0
LINE
  5
8AA
330
1F
100
AcDbEntity
  8
4
100
AcDbLine
 10
3.08335340737207
 20
5.186014962952407
 30
0.0
 11
3.071064393824015
 21
5.158986080111317
 31
0.0
  0
LINE
  5
8AB
330
1F
100
AcDbEntity
  8
2
100
AcDbLine
 10
3.100214732677864
 20
5.157973088116795
 30
0.0
 11
3.100214732677864
 21
5.073739788116796
 31
0.0
  0
LINE
  5
8AC
330
1F
100
AcDbEntity
  8
2
100
AcDbLine
 10
3.100214732677864
 20
5.052741552381453
 30
0.0
 11
3.100214732677864
 21
4.968508252381454
 31
0.0
  0
LINE
  5
8AD
330
1F
100
AcDbEntity
  8
4
100
AcDbLine
 10
3.269061224059465
 20
5.065284215864751
 30
0.0
 11
3.269061224059465
 21
4.98635284188588
 31
0.0
  0
LINE
  5
8AE
330
1F
100
AcDbEntity
  8
4
100
AcDbLine
 10
3.275791806336735
 20
5.065284215864751
 30
0.0
 11
3.269061224059465
 21
5.065284215864751
 31
0.0
  0
LINE
  5
8AF
330
1F
100
AcDbEntity
  8
4
100
AcDbLine
 10
3.269061224059465
 20
4.98635284188588
 30
0.0
 11
3.275791806336735
 21
4.98635284188588
 31
0.0
  0
LINE
  5
8B0
330
1F
100
AcDbEntity
  8
4
100
AcDbLine
 10
3.289644425979684
 20
5.024291788066383
 30
0.0
 11
3.259270671841352
 21
5.024291788066383
 31
0.0
  0
ARC
  5
8B1
330
1F
100
AcDbEntity
  8
4
100
AcDbCircle
 10
3.097767248213403
 20
5.157973088116797
 30
0.0
 40
0.0024474844644612
100
AcDbArc
 50
335.5504979363148
 51
24.44950206368503
  0
LINE
  5
8B2
330
1F
100
AcDbEntity
  8
4
100
AcDbLine
 10
2.860938290905389
 20
5.508583852106648
 30
0.0
 11
2.871096335408968
 21
5.34605514004941
 31
0.0
  0
ARC
  5
8B3
330
1F
100
AcDbEntity
  8
4
100
AcDbCircle
 10
2.890250909072019
 20
5.510415890742065
 30
0.0
 40
0.0293698135735343
100
AcDbArc
 50
90.0
 51
183.5763343749981
  0
INSERT
  5
8B4
330
1F
100
AcDbEntity
  8
4
100
AcDbBlockReference
  2
ARRO
 10
2.705703688860052
 20
5.426315966164063
 30
0.0
 50
180.0
  0
INSERT
  5
8B5
330
1F
100
AcDbEntity
  8
4
100
AcDbBlockReference
  2
ARRO
 10
2.705703688860052
 20
5.566660229867355
 30
0.0
 50
180.0
  0
LINE
  5
8B6
330
1F
100
AcDbEntity
  8
4
100
AcDbLine
 10
3.02474805220267
 20
5.508583852106648
 30
0.0
 11
3.014590007699093
 21
5.34605514004941
 31
0.0
  0
LINE
  5
8B7
330
1F
100
AcDbEntity
  8
4
100
AcDbLine
 10
3.009460788267455
 20
5.499404593793945
 30
0.0
 11
3.001189585944453
 21
5.367083793707314
 31
0.0
  0
CIRCLE
  5
8B8
330
1F
100
AcDbEntity
  8
4
100
AcDbCircle
 10
2.942843171554029
 20
5.425365805602037
 30
0.0
 40
0.0128492934384212
  0
LINE
  5
8B9
330
1F
100
AcDbEntity
  8
4
100
AcDbLine
 10
2.876225554840604
 20
5.499404593793945
 30
0.0
 11
2.884496757163607
 21
5.367065356625904
 31
0.0
  0
LINE
  5
8BA
330
1F
100
AcDbEntity
  8
4
100
AcDbLine
 10
2.942843171554029
 20
5.321959586978552
 30
0.0
 11
2.988941466803293
 21
5.321959586978552
 31
0.0
  0
ARC
  5
8BB
330
1F
100
AcDbEntity
  8
4
100
AcDbCircle
 10
2.981647840500034
 20
5.368305152797592
 30
0.0
 40
0.0195798757156895
100
AcDbArc
 50
270.0
 51
356.4236656250018
  0
CIRCLE
  5
8BC
330
1F
100
AcDbEntity
  8
4
100
AcDbCircle
 10
2.942843171554029
 20
5.382564197287541
 30
0.0
 40
0.0042684129060203
  0
CIRCLE
  5
8BD
330
1F
100
AcDbEntity
  8
4
100
AcDbCircle
 10
2.942843171554029
 20
5.332973267068631
 30
0.0
 40
0.0070448392825051
  0
LINE
  5
8BE
330
1F
100
AcDbEntity
  8
4
100
AcDbLine
 10
2.942843171554029
 20
5.348725277081898
 30
0.0
 11
2.981647840500034
 21
5.348725277081904
 31
0.0
  0
ARC
  5
8BF
330
1F
100
AcDbEntity
  8
4
100
AcDbCircle
 10
2.904038502608026
 20
5.368305152797592
 30
0.0
 40
0.0195798757156895
100
AcDbArc
 50
183.5763343749981
 51
270.0
  0
LINE
  5
8C0
330
1F
100
AcDbEntity
  8
4
100
AcDbLine
 10
2.942843171554029
 20
5.321959586978552
 30
0.0
 11
2.896744876304766
 21
5.321959586978552
 31
0.0
  0
LINE
  5
8C1
330
1F
100
AcDbEntity
  8
4
100
AcDbLine
 10
2.942843171554029
 20
5.348725277081898
 30
0.0
 11
2.904038502608026
 21
5.348725277081904
 31
0.0
  0
ARC
  5
8C2
330
1F
100
AcDbEntity
  8
4
100
AcDbCircle
 10
2.896744876304766
 20
5.347658173855394
 30
0.0
 40
0.0256985868768425
100
AcDbArc
 50
183.5763343749981
 51
270.0
  0
ARC
  5
8C3
330
1F
100
AcDbEntity
  8
4
100
AcDbCircle
 10
2.988941466803293
 20
5.347658173855394
 30
0.0
 40
0.0256985868768425
100
AcDbArc
 50
270.0
 51
356.4236656250018
  0
LINE
  5
8C4
330
1F
100
AcDbEntity
  8
4
100
AcDbLine
 10
2.942843171554029
 20
5.520205828599909
 30
0.0
 11
2.989919042823037
 21
5.520205828599909
 31
0.0
  0
LINE
  5
8C5
330
1F
100
AcDbEntity
  8
4
100
AcDbLine
 10
2.942843171554029
 20
5.539785704315598
 30
0.0
 11
2.995435434036041
 21
5.539785704315598
 31
0.0
  0
CIRCLE
  5
8C6
330
1F
100
AcDbEntity
  8
4
100
AcDbCircle
 10
2.942843171554029
 20
5.468167413916537
 30
0.0
 40
0.0042684129060203
  0
LINE
  5
8C7
330
1F
100
AcDbEntity
  8
4
100
AcDbLine
 10
2.894263872016623
 20
5.500233969292073
 30
0.0
 11
2.916748254155429
 21
5.477749587153267
 31
0.0
  0
LINE
  5
8C8
330
1F
100
AcDbEntity
  8
4
100
AcDbLine
 10
2.897725137739962
 20
5.503695235015412
 30
0.0
 11
2.894263872016623
 21
5.500233969292073
 31
0.0
  0
LINE
  5
8C9
330
1F
100
AcDbEntity
  8
4
 62
   130
100
AcDbLine
 10
2.892505578587017
 20
5.496785121733722
 30
0.0
 11
2.913299406597079
 21
5.475991293723657
 31
0.0
  0
ARC
  5
8CA
330
1F
100
AcDbEntity
  8
4
 62
   130
100
AcDbCircle
 10
2.896825238209744
 20
5.501104781356447
 30
0.0
 40
0.0061089212232951
100
AcDbArc
 50
44.99999999999996
 51
224.9999999999999
  0
LINE
  5
8CB
330
1F
100
AcDbEntity
  8
4
100
AcDbLine
 10
2.902930881387862
 20
5.498489491367514
 30
0.0
 11
2.899469615664524
 21
5.495028225644176
 31
0.0
  0
LINE
  5
8CC
330
1F
100
AcDbEntity
  8
4
100
AcDbLine
 10
2.915003776230866
 20
5.486416596524508
 30
0.0
 11
2.911542510507529
 21
5.48295533080117
 31
0.0
  0
LINE
  5
8CD
330
1F
100
AcDbEntity
  8
4
100
AcDbLine
 10
2.916748254155429
 20
5.477749587153267
 30
0.0
 11
2.920209519878768
 21
5.481210852876605
 31
0.0
  0
LINE
  5
8CE
330
1F
100
AcDbEntity
  8
4
100
AcDbLine
 10
2.897725137739962
 20
5.503695235015412
 30
0.0
 11
2.920209519878768
 21
5.481210852876605
 31
0.0
  0
LINE
  5
8CF
330
1F
100
AcDbEntity
  8
4
 62
   130
100
AcDbLine
 10
2.90114489783247
 20
5.505424440979171
 30
0.0
 11
2.921938725842533
 21
5.484630612969112
 31
0.0
  0
ARC
  5
8D0
330
1F
100
AcDbEntity
  8
4
 62
   130
100
AcDbCircle
 10
2.917619066219807
 20
5.480310953346387
 30
0.0
 40
0.0061089212232951
100
AcDbArc
 50
224.9999999999999
 51
44.99999999999996
  0
LINE
  5
8D1
330
1F
100
AcDbEntity
  8
4
100
AcDbLine
 10
2.942843171554029
 20
5.520205828599909
 30
0.0
 11
2.895767300285022
 21
5.520205828599909
 31
0.0
  0
LINE
  5
8D2
330
1F
100
AcDbEntity
  8
4
100
AcDbLine
 10
2.942843171554029
 20
5.539785704315598
 30
0.0
 11
2.890250909072019
 21
5.539785704315598
 31
0.0
  0
ARC
  5
8D3
330
1F
100
AcDbEntity
  8
4
100
AcDbCircle
 10
2.895767300285022
 20
5.500625952884218
 30
0.0
 40
0.0195798757156895
100
AcDbArc
 50
90.0
 51
183.5763343749981
  0
ARC
  5
8D4
330
1F
100
AcDbEntity
  8
4
100
AcDbCircle
 10
2.995435434036041
 20
5.510415890742065
 30
0.0
 40
0.0293698135735343
100
AcDbArc
 50
356.4236656250018
 51
90.0
  0
ARC
  5
8D5
330
1F
100
AcDbEntity
  8
4
100
AcDbCircle
 10
2.989919042823037
 20
5.500625952884218
 30
0.0
 40
0.0195798757156895
100
AcDbArc
 50
356.4236656250018
 51
90.0
  0
LINE
  5
8D6
330
1F
100
AcDbEntity
  8
4
100
AcDbLine
 10
3.08994395615788
 20
5.911670133426344
 30
0.0
 11
3.102232969705932
 21
5.938699016267435
 31
0.0
  0
LINE
  5
8D7
330
1F
100
AcDbEntity
  8
4
100
AcDbLine
 10
3.08994395615788
 20
5.617971997691
 30
0.0
 11
3.102232969705932
 21
5.645000880532093
 31
0.0
  0
LINE
  5
8D8
330
1F
100
AcDbEntity
  8
4
100
AcDbLine
 10
3.08994395615788
 20
5.674055747362221
 30
0.0
 11
3.102232969705932
 21
5.64702686452113
 31
0.0
  0
LINE
  5
8D9
330
1F
100
AcDbEntity
  8
2
100
AcDbLine
 10
2.955603376557946
 20
5.616644058953077
 30
0.0
 11
3.011685457098397
 21
5.616644058953077
 31
0.0
  0
LINE
  5
8DA
330
1F
100
AcDbEntity
  8
2
100
AcDbLine
 10
2.918891109591028
 20
5.779196861815835
 30
0.0
 11
2.918891109591028
 21
5.694963561815836
 31
0.0
  0
LINE
  5
8DB
330
1F
100
AcDbEntity
  8
4
100
AcDbLine
 10
2.957779795076974
 20
5.617971997691
 30
0.0
 11
2.970068808625029
 21
5.645000880532093
 31
0.0
  0
LINE
  5
8DC
330
1F
100
AcDbEntity
  8
4
100
AcDbLine
 10
2.953426958038915
 20
5.617971997691
 30
0.0
 11
2.941137944490862
 21
5.645000880532093
 31
0.0
  0
ARC
  5
8DD
330
1F
100
AcDbEntity
  8
4
100
AcDbCircle
 10
2.955603376557946
 20
5.619091543417539
 30
0.0
 40
0.0024474844644612
100
AcDbArc
 50
201.6777967963418
 51
338.3222032036581
  0
ARC
  5
8DE
330
1F
100
AcDbEntity
  8
4
100
AcDbCircle
 10
2.967840798880251
 20
5.646013872526612
 30
0.0
 40
0.0024474844644612
100
AcDbArc
 50
335.5504979363149
 51
24.44950206368501
  0
ARC
  5
8DF
330
1F
100
AcDbEntity
  8
4
100
AcDbCircle
 10
2.943365954235639
 20
5.646013872526612
 30
0.0
 40
0.0024474844644612
100
AcDbArc
 50
155.5504979363149
 51
204.449502063685
  0
LINE
  5
8E0
330
1F
100
AcDbEntity
  8
4
100
AcDbLine
 10
2.953426958038915
 20
5.674055747362221
 30
0.0
 11
2.941137944490862
 21
5.64702686452113
 31
0.0
  0
LINE
  5
8E1
330
1F
100
AcDbEntity
  8
4
100
AcDbLine
 10
2.957779795076974
 20
5.674055747362221
 30
0.0
 11
2.970068808625029
 21
5.64702686452113
 31
0.0
  0
ARC
  5
8E2
330
1F
100
AcDbEntity
  8
4
100
AcDbCircle
 10
2.955603376557946
 20
5.672936201635684
 30
0.0
 40
0.0024474844644612
100
AcDbArc
 50
21.67779679634183
 51
158.3222032036579
  0
ARC
  5
8E3
330
1F
100
AcDbEntity
  8
4
100
AcDbCircle
 10
2.9458134387001
 20
5.694963561815836
 30
0.0
 40
0.0024474844644612
100
AcDbArc
 50
335.5504979363149
 51
24.44950206368501
  0
ARC
  5
8E4
330
1F
100
AcDbEntity
  8
4
100
AcDbCircle
 10
2.933576016377795
 20
5.668041232706762
 30
0.0
 40
0.0024474844644612
100
AcDbArc
 50
201.6777967963418
 51
338.3222032036581
  0
ARC
  5
8E5
330
1F
100
AcDbEntity
  8
4
100
AcDbCircle
 10
2.933576016377795
 20
5.721885890924909
 30
0.0
 40
0.0024474844644612
100
AcDbArc
 50
21.67779679634183
 51
158.3222032036579
  0
LINE
  5
8E6
330
1F
100
AcDbEntity
  8
4
100
AcDbLine
 10
2.935752434896824
 20
5.666921686980225
 30
0.0
 11
2.948041448444879
 21
5.693950569821316
 31
0.0
  0
LINE
  5
8E7
330
1F
100
AcDbEntity
  8
4
100
AcDbLine
 10
2.935752434896825
 20
5.723005436651446
 30
0.0
 11
2.948041448444879
 21
5.695976553810353
 31
0.0
  0
ARC
  5
8E8
330
1F
100
AcDbEntity
  8
4
100
AcDbCircle
 10
2.921338594055489
 20
5.694963561815836
 30
0.0
 40
0.0024474844644612
100
AcDbArc
 50
155.5504979363149
 51
204.449502063685
  0
LINE
  5
8E9
330
1F
100
AcDbEntity
  8
4
100
AcDbLine
 10
2.931399597858766
 20
5.723005436651446
 30
0.0
 11
2.919110584310712
 21
5.695976553810353
 31
0.0
  0
LINE
  5
8EA
330
1F
100
AcDbEntity
  8
4
100
AcDbLine
 10
2.931399597858765
 20
5.666921686980225
 30
0.0
 11
2.919110584310712
 21
5.693950569821316
 31
0.0
  0
LINE
  5
8EB
330
1F
100
AcDbEntity
  8
2
100
AcDbLine
 10
3.031685457098397
 20
5.616644058953077
 30
0.0
 11
3.087767537638849
 21
5.616644058953077
 31
0.0
  0
LINE
  5
8EC
330
1F
100
AcDbEntity
  8
4
100
AcDbLine
 10
3.06356375893967
 20
5.723005436651446
 30
0.0
 11
3.051274745391616
 21
5.695976553810353
 31
0.0
  0
LINE
  5
8ED
330
1F
100
AcDbEntity
  8
4
100
AcDbLine
 10
3.06356375893967
 20
5.666921686980225
 30
0.0
 11
3.051274745391616
 21
5.693950569821316
 31
0.0
  0
LINE
  5
8EE
330
1F
100
AcDbEntity
  8
4
100
AcDbLine
 10
3.085591119119821
 20
5.617971997691
 30
0.0
 11
3.073302105571766
 21
5.645000880532093
 31
0.0
  0
ARC
  5
8EF
330
1F
100
AcDbEntity
  8
4
100
AcDbCircle
 10
3.087767537638849
 20
5.619091543417539
 30
0.0
 40
0.0024474844644612
100
AcDbArc
 50
201.6777967963418
 51
338.3222032036581
  0
LINE
  5
8F0
330
1F
100
AcDbEntity
  8
4
100
AcDbLine
 10
3.085591119119821
 20
5.674055747362221
 30
0.0
 11
3.073302105571766
 21
5.64702686452113
 31
0.0
  0
ARC
  5
8F1
330
1F
100
AcDbEntity
  8
4
100
AcDbCircle
 10
3.075530115316543
 20
5.646013872526612
 30
0.0
 40
0.0024474844644612
100
AcDbArc
 50
155.5504979363149
 51
204.449502063685
  0
LINE
  5
8F2
330
1F
100
AcDbEntity
  8
4
100
AcDbLine
 10
3.067916595977729
 20
5.723005436651446
 30
0.0
 11
3.080205609525783
 21
5.695976553810353
 31
0.0
  0
LINE
  5
8F3
330
1F
100
AcDbEntity
  8
4
100
AcDbLine
 10
3.067916595977729
 20
5.666921686980225
 30
0.0
 11
3.080205609525783
 21
5.693950569821316
 31
0.0
  0
ARC
  5
8F4
330
1F
100
AcDbEntity
  8
4
100
AcDbCircle
 10
3.065740177458698
 20
5.668041232706762
 30
0.0
 40
0.0024474844644612
100
AcDbArc
 50
201.6777967963418
 51
338.3222032036581
  0
ARC
  5
8F5
330
1F
100
AcDbEntity
  8
4
100
AcDbCircle
 10
3.065740177458698
 20
5.721885890924909
 30
0.0
 40
0.0024474844644612
100
AcDbArc
 50
21.67779679634183
 51
158.3222032036579
  0
ARC
  5
8F6
330
1F
100
AcDbEntity
  8
4
100
AcDbCircle
 10
3.087767537638849
 20
5.672936201635684
 30
0.0
 40
0.0024474844644612
100
AcDbArc
 50
21.67779679634183
 51
158.3222032036579
  0
ARC
  5
8F7
330
1F
100
AcDbEntity
  8
4
100
AcDbCircle
 10
3.077977599781004
 20
5.694963561815836
 30
0.0
 40
0.0024474844644612
100
AcDbArc
 50
335.5504979363149
 51
24.44950206368501
  0
ARC
  5
8F8
330
1F
100
AcDbEntity
  8
4
100
AcDbCircle
 10
3.053502755136393
 20
5.694963561815836
 30
0.0
 40
0.0024474844644612
100
AcDbArc
 50
155.5504979363149
 51
204.449502063685
  0
LINE
  5
8F9
330
1F
100
AcDbEntity
  8
2
100
AcDbLine
 10
2.918891109591028
 20
5.883430161815834
 30
0.0
 11
2.918891109591028
 21
5.799196861815834
 31
0.0
  0
LINE
  5
8FA
330
1F
100
AcDbEntity
  8
4
100
AcDbLine
 10
2.957779795076974
 20
5.911670133426344
 30
0.0
 11
2.970068808625029
 21
5.938699016267435
 31
0.0
  0
LINE
  5
8FB
330
1F
100
AcDbEntity
  8
4
100
AcDbLine
 10
2.953426958038915
 20
5.911670133426344
 30
0.0
 11
2.941137944490862
 21
5.938699016267435
 31
0.0
  0
ARC
  5
8FC
330
1F
100
AcDbEntity
  8
4
100
AcDbCircle
 10
2.955603376557946
 20
5.912789679152881
 30
0.0
 40
0.0024474844644612
100
AcDbArc
 50
201.6777967963418
 51
338.3222032036581
  0
ARC
  5
8FD
330
1F
100
AcDbEntity
  8
4
100
AcDbCircle
 10
2.967840798880251
 20
5.939712008261954
 30
0.0
 40
0.0024474844644612
100
AcDbArc
 50
335.5504979363149
 51
24.44950206368501
  0
ARC
  5
8FE
330
1F
100
AcDbEntity
  8
4
100
AcDbCircle
 10
2.943365954235639
 20
5.939712008261954
 30
0.0
 40
0.0024474844644612
100
AcDbArc
 50
155.5504979363149
 51
204.449502063685
  0
LINE
  5
8FF
330
1F
100
AcDbEntity
  8
4
100
AcDbLine
 10
3.085591119119821
 20
5.911670133426344
 30
0.0
 11
3.073302105571766
 21
5.938699016267435
 31
0.0
  0
ARC
  5
900
330
1F
100
AcDbEntity
  8
4
100
AcDbCircle
 10
3.087767537638849
 20
5.912789679152881
 30
0.0
 40
0.0024474844644612
100
AcDbArc
 50
201.6777967963418
 51
338.3222032036581
  0
ARC
  5
901
330
1F
100
AcDbEntity
  8
4
100
AcDbCircle
 10
3.075530115316543
 20
5.939712008261954
 30
0.0
 40
0.0024474844644612
100
AcDbArc
 50
155.5504979363149
 51
204.449502063685
  0
LINE
  5
902
330
1F
100
AcDbEntity
  8
2
100
AcDbLine
 10
3.102452444425616
 20
5.83448047252661
 30
0.0
 11
3.102452444425616
 21
5.750247172526611
 31
0.0
  0
LINE
  5
903
330
1F
100
AcDbEntity
  8
2
100
AcDbLine
 10
3.102452444425616
 20
5.730247172526611
 30
0.0
 11
3.102452444425616
 21
5.646013872526612
 31
0.0
  0
ARC
  5
904
330
1F
100
AcDbEntity
  8
4
100
AcDbCircle
 10
3.100004959961155
 20
5.646013872526612
 30
0.0
 40
0.0024474844644612
100
AcDbArc
 50
335.5504979363149
 51
24.44950206368501
  0
LINE
  5
905
330
1F
100
AcDbEntity
  8
2
100
AcDbLine
 10
3.102452444425616
 20
5.939712008261953
 30
0.0
 11
3.102452444425616
 21
5.855478708261953
 31
0.0
  0
ARC
  5
906
330
1F
100
AcDbEntity
  8
4
100
AcDbCircle
 10
3.100004959961155
 20
5.939712008261954
 30
0.0
 40
0.0024474844644612
100
AcDbArc
 50
335.5504979363149
 51
24.44950206368501
  0
LINE
  5
907
330
1F
100
AcDbEntity
  8
4
100
AcDbLine
 10
3.281425601038978
 20
5.827044997921831
 30
0.0
 11
3.260878727426132
 21
5.827044997921831
 31
0.0
  0
LINE
  5
908
330
1F
100
AcDbEntity
  8
4
100
AcDbLine
 10
3.275791806336735
 20
5.868037425720201
 30
0.0
 11
3.269061224059469
 21
5.868037425720201
 31
0.0
  0
LINE
  5
909
330
1F
100
AcDbEntity
  8
4
100
AcDbLine
 10
3.269061224059465
 20
5.789106051741329
 30
0.0
 11
3.275791806336735
 21
5.789106051741329
 31
0.0
  0
LINE
  5
90A
330
1F
100
AcDbEntity
  8
4
100
AcDbLine
 10
3.269061224059469
 20
5.868037425720201
 30
0.0
 11
3.269061224059465
 21
5.789106051741329
 31
0.0
  0
LINE
  5
90B
330
1F
100
AcDbEntity
  8
4
100
AcDbLine
 10
3.275791806336735
 20
6.097838043109383
 30
0.0
 11
2.838791806336735
 21
6.097816724309318
 31
0.0
  0
LINE
  5
90C
330
1F
100
AcDbEntity
  8
2
100
AcDbLine
 10
2.933576016377795
 20
6.018031511124712
 30
0.0
 11
2.989658096918247
 21
6.018031511124712
 31
0.0
  0
ARC
  5
90D
330
1F
100
AcDbEntity
  8
4
100
AcDbCircle
 10
2.955603376557946
 20
5.966634337371027
 30
0.0
 40
0.0024474844644612
100
AcDbArc
 50
21.67779679634183
 51
158.3222032036579
  0
ARC
  5
90E
330
1F
100
AcDbEntity
  8
4
100
AcDbCircle
 10
2.9458134387001
 20
5.988661697551176
 30
0.0
 40
0.0024474844644612
100
AcDbArc
 50
335.5504979363149
 51
24.44950206368501
  0
ARC
  5
90F
330
1F
100
AcDbEntity
  8
4
100
AcDbCircle
 10
2.933576016377795
 20
5.961739368442104
 30
0.0
 40
0.0024474844644612
100
AcDbArc
 50
201.6777967963418
 51
338.3222032036581
  0
ARC
  5
910
330
1F
100
AcDbEntity
  8
4
100
AcDbCircle
 10
2.933576016377795
 20
6.015584026660251
 30
0.0
 40
0.0024474844644612
100
AcDbArc
 50
21.67779679634183
 51
158.3222032036579
  0
LINE
  5
911
330
1F
100
AcDbEntity
  8
4
100
AcDbLine
 10
2.935752434896824
 20
5.960619822715569
 30
0.0
 11
2.948041448444879
 21
5.98764870555666
 31
0.0
  0
LINE
  5
912
330
1F
100
AcDbEntity
  8
4
100
AcDbLine
 10
2.935752434896825
 20
6.016703572386788
 30
0.0
 11
2.948041448444879
 21
5.989674689545696
 31
0.0
  0
ARC
  5
913
330
1F
100
AcDbEntity
  8
4
100
AcDbCircle
 10
2.921338594055489
 20
5.988661697551176
 30
0.0
 40
0.0024474844644612
100
AcDbArc
 50
155.5504979363149
 51
204.449502063685
  0
LINE
  5
914
330
1F
100
AcDbEntity
  8
4
100
AcDbLine
 10
2.931399597858766
 20
6.016703572386788
 30
0.0
 11
2.919110584310712
 21
5.989674689545696
 31
0.0
  0
LINE
  5
915
330
1F
100
AcDbEntity
  8
4
100
AcDbLine
 10
2.931399597858765
 20
5.960619822715569
 30
0.0
 11
2.919110584310712
 21
5.98764870555666
 31
0.0
  0
LINE
  5
916
330
1F
100
AcDbEntity
  8
2
100
AcDbLine
 10
3.009658096918246
 20
6.018031511124712
 30
0.0
 11
3.065740177458698
 21
6.018031511124712
 31
0.0
  0
LINE
  5
917
330
1F
100
AcDbEntity
  8
4
100
AcDbLine
 10
3.06356375893967
 20
6.016703572386788
 30
0.0
 11
3.051274745391616
 21
5.989674689545696
 31
0.0
  0
LINE
  5
918
330
1F
100
AcDbEntity
  8
4
100
AcDbLine
 10
3.06356375893967
 20
5.960619822715569
 30
0.0
 11
3.051274745391616
 21
5.98764870555666
 31
0.0
  0
LINE
  5
919
330
1F
100
AcDbEntity
  8
4
100
AcDbLine
 10
3.067916595977729
 20
6.016703572386788
 30
0.0
 11
3.080205609525783
 21
5.989674689545696
 31
0.0
  0
LINE
  5
91A
330
1F
100
AcDbEntity
  8
4
100
AcDbLine
 10
3.067916595977729
 20
5.960619822715569
 30
0.0
 11
3.080205609525783
 21
5.98764870555666
 31
0.0
  0
ARC
  5
91B
330
1F
100
AcDbEntity
  8
4
100
AcDbCircle
 10
3.065740177458698
 20
5.961739368442104
 30
0.0
 40
0.0024474844644612
100
AcDbArc
 50
201.6777967963418
 51
338.3222032036581
  0
ARC
  5
91C
330
1F
100
AcDbEntity
  8
4
100
AcDbCircle
 10
3.065740177458698
 20
6.015584026660251
 30
0.0
 40
0.0024474844644612
100
AcDbArc
 50
21.67779679634183
 51
158.3222032036579
  0
ARC
  5
91D
330
1F
100
AcDbEntity
  8
4
100
AcDbCircle
 10
3.087767537638849
 20
5.966634337371027
 30
0.0
 40
0.0024474844644612
100
AcDbArc
 50
21.67779679634183
 51
158.3222032036579
  0
ARC
  5
91E
330
1F
100
AcDbEntity
  8
4
100
AcDbCircle
 10
3.077977599781004
 20
5.988661697551176
 30
0.0
 40
0.0024474844644612
100
AcDbArc
 50
335.5504979363149
 51
24.44950206368501
  0
ARC
  5
91F
330
1F
100
AcDbEntity
  8
4
100
AcDbCircle
 10
3.053502755136393
 20
5.988661697551176
 30
0.0
 40
0.0024474844644612
100
AcDbArc
 50
155.5504979363149
 51
204.449502063685
  0
CIRCLE
  5
920
330
1F
100
AcDbEntity
  8
4
100
AcDbCircle
 10
3.079902301563857
 20
6.053740309461197
 30
0.0
 40
0.0026628630973338
  0
ARC
  5
921
330
1F
100
AcDbEntity
  8
4
100
AcDbCircle
 10
3.006477767630022
 20
6.053740309461197
 30
0.0
 40
0.0795432450949886
100
AcDbArc
 50
347.5762104955836
 51
12.42378950441639
  0
CIRCLE
  5
922
330
1F
100
AcDbEntity
  8
4
100
AcDbCircle
 10
3.006477767630022
 20
6.053740309461197
 30
0.0
 40
0.0026628630973338
  0
ARC
  5
923
330
1F
100
AcDbEntity
  8
4
100
AcDbCircle
 10
3.079902301563857
 20
6.053740309461197
 30
0.0
 40
0.0795432450949886
100
AcDbArc
 50
167.5762104955836
 51
192.4237895044163
  0
ARC
  5
924
330
1F
100
AcDbEntity
  8
4
100
AcDbCircle
 10
3.04319003459694
 20
5.799813796273349
 30
0.0
 40
0.274118260019653
100
AcDbArc
 50
81.40466153832001
 51
98.59533846167998
  0
ARC
  5
925
330
1F
100
AcDbEntity
  8
4
100
AcDbCircle
 10
3.04319003459694
 20
6.307666822649045
 30
0.0
 40
0.274118260019653
100
AcDbArc
 50
261.40466153832
 51
278.5953384616799
  0
LINE
  5
926
330
1F
100
AcDbEntity
  8
4
100
AcDbLine
 10
3.250614044153929
 20
6.093833958525536
 30
0.0
 11
3.157609634504407
 21
6.093833958525529
 31
0.0
  0
LINE
  5
927
330
1F
100
AcDbEntity
  8
4
100
AcDbLine
 10
3.431791806336735
 20
4.722838043109383
 30
0.0
 11
3.932791806336734
 21
4.722838043109383
 31
0.0
  0
LINE
  5
928
330
1F
100
AcDbEntity
  8
4
100
AcDbLine
 10
3.431791806336735
 20
4.660838043109384
 30
0.0
 11
3.932791806336734
 21
4.660838043109384
 31
0.0
  0
LINE
  5
92A
330
1F
100
AcDbEntity
  8
4
100
AcDbLine
 10
4.056791806336736
 20
4.722838043109383
 30
0.0
 11
4.218760107091183
 21
4.722838043109383
 31
0.0
  0
LINE
  5
92B
330
1F
100
AcDbEntity
  8
4
100
AcDbLine
 10
4.056791806336736
 20
4.660838043109384
 30
0.0
 11
4.244791806336735
 21
4.660838043109384
 31
0.0
  0
LINE
  5
92C
330
1F
100
AcDbEntity
  8
4
100
AcDbLine
 10
4.681791806336736
 20
4.722838043109383
 30
0.0
 11
5.182791806336734
 21
4.722838043109383
 31
0.0
  0
LINE
  5
92D
330
1F
100
AcDbEntity
  8
4
100
AcDbLine
 10
4.681791806336736
 20
4.660838043109384
 30
0.0
 11
5.182791806336734
 21
4.660838043109384
 31
0.0
  0
LINE
  5
92E
330
1F
100
AcDbEntity
  8
4
100
AcDbLine
 10
4.369791806336735
 20
4.660838043109384
 30
0.0
 11
4.557791806336734
 21
4.660838043109384
 31
0.0
  0
LINE
  5
92F
330
1F
100
AcDbEntity
  8
4
100
AcDbLine
 10
4.369791806336735
 20
4.722838043109383
 30
0.0
 11
4.557791806336734
 21
4.722838043109383
 31
0.0
  0
LINE
  5
93A
330
1F
100
AcDbEntity
  8
4
100
AcDbLine
 10
9.401291806336736
 20
4.628838043109384
 30
0.0
 11
9.401291806336736
 21
3.285832164552254
 31
0.0
  0
LINE
  5
93B
330
1F
100
AcDbEntity
  8
4
100
AcDbLine
 10
8.120291806336734
 20
4.628838043109384
 30
0.0
 11
8.120291806336734
 21
3.285832164552254
 31
0.0
  0
LINE
  5
93C
330
1F
100
AcDbEntity
  8
4
100
AcDbLine
 10
6.810291806336735
 20
4.628838043109384
 30
0.0
 11
6.810291806336735
 21
3.285832164552254
 31
0.0
  0
LINE
  5
93D
330
1F
100
AcDbEntity
  8
4
100
AcDbLine
 10
6.557291806336735
 20
6.191832164552254
 30
0.0
 11
6.557291806336735
 21
3.253832164552254
 31
0.0
  0
INSERT
  5
944
330
1F
100
AcDbEntity
  8
4
100
AcDbBlockReference
  2
B1
 10
9.183977309507607
 20
3.317819792692038
 30
0.0
 50
180.0
  0
LINE
  5
945
330
1F
100
AcDbEntity
  8
2
100
AcDbLine
 10
8.933977309507607
 20
3.317819792692038
 30
0.0
 11
9.183977309507607
 21
3.317819792692038
 31
0.0
  0
INSERT
  5
950
330
1F
100
AcDbEntity
  8
4
100
AcDbBlockReference
  2
B1
 10
7.302977309507607
 20
3.317819792692038
 30
0.0
 50
180.0
  0
LINE
  5
951
330
1F
100
AcDbEntity
  8
2
100
AcDbLine
 10
7.052977309507607
 20
3.317819792692038
 30
0.0
 11
7.302977309507607
 21
3.317819792692038
 31
0.0
  0
LINE
  5
95C
330
1F
100
AcDbEntity
  8
4
100
AcDbLine
 10
6.557291806336735
 20
3.191832164552253
 30
0.0
 11
6.557291806336735
 21
3.066832164552253
 31
0.0
  0
INSERT
  5
95D
330
1F
100
AcDbEntity
  8
4
100
AcDbBlockReference
  2
ARRO
 10
6.557291806336735
 20
3.191832164552253
 30
0.0
 50
270.0
  0
TEXT
  5
95E
330
1F
100
AcDbEntity
  8
8
100
AcDbText
 10
6.495291806336734
 20
3.095380954210921
 30
0.0
 40
0.07
  1
1
 50
90.0
 72
     1
 11
6.495291806336734
 21
3.107047620877588
 31
0.0
100
AcDbText
  0
LINE
  5
95F
330
1F
100
AcDbEntity
  8
4
100
AcDbLine
 10
6.747291806336736
 20
3.253832164552254
 30
0.0
 11
6.557291806336735
 21
3.253832164552254
 31
0.0
  0
INSERT
  5
960
330
1F
100
AcDbEntity
  8
4
100
AcDbBlockReference
  2
ARRO
 10
6.557291806336735
 20
3.253832164552254
 30
0.0
 50
90.0
  0
LINE
  5
961
330
1F
100
AcDbEntity
  8
4
100
AcDbLine
 10
6.557291806336735
 20
3.253832164552254
 30
0.0
 11
6.495291806336734
 21
3.253832164552254
 31
0.0
  0
LINE
  5
963
330
1F
100
AcDbEntity
  8
4
100
AcDbLine
 10
6.810291806336735
 20
3.285832164552254
 30
0.0
 11
6.872291806336736
 21
3.285832164552254
 31
0.0
  0
TEXT
  5
964
330
1F
100
AcDbEntity
  8
8
100
AcDbText
 10
6.245291806336734
 20
3.879477104505997
 30
0.0
 40
0.07
  1
72
 50
90.0
 72
     1
 11
6.245291806336734
 21
3.93781043783933
 31
0.0
100
AcDbText
  0
INSERT
  5
965
330
1F
100
AcDbEntity
  8
2
100
AcDbBlockReference
 66
     1
  2
FRACTION
 10
6.557291806336735
 20
4.037846809784138
 30
0.0
 41
0.6000000000000001
 42
0.6000000000000001
 43
0.6
 50
90.0
  0
ATTRIB
  5
966
330
965
100
AcDbEntity
  8
8
100
AcDbText
 10
6.498791806336736
 20
3.86910027901549
 30
0.0
 40
0.075
  1
35
 50
90.0
 72
     2
 11
6.498791806336736
 21
3.99410027901549
 31
0.0
100
AcDbAttribute
  2
A
 70
     0
  0
ATTRIB
  5
967
330
965
100
AcDbEntity
  8
8
100
AcDbText
 10
6.449291806336738
 20
4.071046809784137
 30
0.0
 40
0.06
  1
1
 50
90.0
 72
     1
 11
6.449291806336738
 21
4.081046809784137
 31
0.0
100
AcDbAttribute
  2
B
 70
     0
  0
ATTRIB
  5
968
330
965
100
AcDbEntity
  8
8
100
AcDbText
 10
6.533291806336736
 20
4.061046809784137
 30
0.0
 40
0.06
  1
2
 50
90.0
 72
     1
 11
6.533291806336736
 21
4.081046809784137
 31
0.0
100
AcDbAttribute
  2
C
 70
     0
  0
SEQEND
  5
969
330
965
100
AcDbEntity
  8
2
  0
INSERT
  5
971
330
1F
100
AcDbEntity
  8
4
100
AcDbBlockReference
  2
B1
 10
8.612977309507606
 20
3.317819792692038
 30
0.0
 50
180.0
  0
LINE
  5
972
330
1F
100
AcDbEntity
  8
2
100
AcDbLine
 10
8.362977309507606
 20
3.317819792692038
 30
0.0
 11
8.612977309507606
 21
3.317819792692038
 31
0.0
  0
LINE
  5
977
330
1F
100
AcDbEntity
  8
4
100
AcDbLine
 10
8.120291806336734
 20
3.285832164552254
 30
0.0
 11
8.182291806336735
 21
3.285832164552254
 31
0.0
  0
LINE
  5
987
330
1F
100
AcDbEntity
  8
4
100
AcDbLine
 10
9.401291806336736
 20
3.285832164552254
 30
0.0
 11
9.339291806336735
 21
3.285832164552254
 31
0.0
  0
LINE
  5
989
330
1F
100
AcDbEntity
  8
4
100
AcDbLine
 10
9.263291806336736
 20
4.722838043109383
 30
0.0
 11
8.796291806336736
 21
4.722838043109383
 31
0.0
  0
LINE
  5
98B
330
1F
100
AcDbEntity
  8
4
100
AcDbLine
 10
8.836291806336735
 20
4.660838043109384
 30
0.0
 11
9.201291806336737
 21
4.660838043109384
 31
0.0
  0
INSERT
  5
993
330
1F
100
AcDbEntity
  8
4
100
AcDbBlockReference
  2
B1
 10
8.908977309507609
 20
5.988250399257255
 30
0.0
  0
LINE
  5
996
330
1F
100
AcDbEntity
  8
2
100
AcDbLine
 10
8.908977309507609
 20
5.988250399257255
 30
0.0
 11
9.158977309507607
 21
5.988250399257253
 31
0.0
  0
LINE
  5
997
330
1F
100
AcDbEntity
  8
4
100
AcDbLine
 10
6.948291806336733
 20
4.722838043109383
 30
0.0
 11
7.415291806336735
 21
4.722838043109383
 31
0.0
  0
LINE
  5
998
330
1F
100
AcDbEntity
  8
4
100
AcDbLine
 10
7.375291806336734
 20
4.660838043109384
 30
0.0
 11
7.010291806336734
 21
4.660838043109384
 31
0.0
  0
INSERT
  5
9A1
330
1F
100
AcDbEntity
  8
4
100
AcDbBlockReference
  2
B1
 10
7.027977309507608
 20
5.988250399257255
 30
0.0
  0
LINE
  5
9A4
330
1F
100
AcDbEntity
  8
2
100
AcDbLine
 10
7.027977309507608
 20
5.988250399257255
 30
0.0
 11
7.277977309507607
 21
5.988250399257253
 31
0.0
  0
LINE
  5
9A5
330
1F
100
AcDbEntity
  8
4
100
AcDbLine
 10
6.810291806336735
 20
6.097832164552254
 30
0.0
 11
6.810291806336735
 21
4.75479388921874
 31
0.0
  0
LINE
  5
9A6
330
1F
100
AcDbEntity
  8
4
100
AcDbLine
 10
6.747291806336736
 20
4.722838043109383
 30
0.0
 11
6.557291806336735
 21
4.722838043109383
 31
0.0
  0
INSERT
  5
9A7
330
1F
100
AcDbEntity
  8
4
100
AcDbBlockReference
  2
ARRO2
 10
6.557291806336735
 20
4.722838043109383
 30
0.0
 50
90.0
  0
LINE
  5
9A8
330
1F
100
AcDbEntity
  8
4
100
AcDbLine
 10
6.557291806336735
 20
4.722838043109383
 30
0.0
 11
6.495291806336734
 21
4.722838043109383
 31
0.0
  0
LINE
  5
9AA
330
1F
100
AcDbEntity
  8
4
100
AcDbLine
 10
6.810291806336735
 20
4.628838043109384
 30
0.0
 11
6.872291806336736
 21
4.628838043109384
 31
0.0
  0
LINE
  5
9AB
330
1F
100
AcDbEntity
  8
4
100
AcDbLine
 10
6.810291806336735
 20
4.75479388921874
 30
0.0
 11
6.872291806336734
 21
4.75479388921874
 31
0.0
  0
LINE
  5
9AC
330
1F
100
AcDbEntity
  8
4
100
AcDbLine
 10
6.872291806336734
 20
4.660838043109384
 30
0.0
 11
6.810291806336735
 21
4.660838043109384
 31
0.0
  0
LINE
  5
9AD
330
1F
100
AcDbEntity
  8
4
100
AcDbLine
 10
6.810291806336735
 20
4.722838043109383
 30
0.0
 11
6.918291806336734
 21
4.722838043109383
 31
0.0
  0
LINE
  5
9AE
330
1F
100
AcDbEntity
  8
4
100
AcDbLine
 10
6.933291806336734
 20
4.707838043109383
 30
0.0
 11
6.835291806336734
 21
4.707838043109383
 31
0.0
  0
LINE
  5
9AF
330
1F
100
AcDbEntity
  8
4
100
AcDbLine
 10
6.810291806336735
 20
4.660838043109384
 30
0.0
 11
6.810291806336735
 21
4.722838043109383
 31
0.0
  0
LINE
  5
9B0
330
1F
100
AcDbEntity
  8
4
100
AcDbLine
 10
6.835291806336734
 20
4.707838043109383
 30
0.0
 11
6.835291806336734
 21
4.679591900671823
 31
0.0
  0
LINE
  5
9B1
330
1F
100
AcDbEntity
  8
4
100
AcDbLine
 10
7.010291806336734
 20
4.660838043109384
 30
0.0
 11
6.948291806336733
 21
4.722838043109383
 31
0.0
  0
LINE
  5
9B2
330
1F
100
AcDbEntity
  8
4
100
AcDbLine
 10
6.948291806336733
 20
4.722838043109383
 30
0.0
 11
6.933291806336734
 21
4.707838043109383
 31
0.0
  0
INSERT
  5
9B3
330
1F
100
AcDbEntity
  8
2
100
AcDbBlockReference
 66
     1
  2
FRACTION
 10
6.557291806336735
 20
5.472322022308334
 30
0.0
 41
0.6000000000000001
 42
0.6000000000000001
 43
0.6
 50
90.0
  0
ATTRIB
  5
9B4
330
9B3
100
AcDbEntity
  8
8
100
AcDbText
 10
6.498791806336736
 20
5.303575491539689
 30
0.0
 40
0.075
  1
35
 50
90.0
 72
     2
 11
6.498791806336736
 21
5.428575491539689
 31
0.0
100
AcDbAttribute
  2
A
 70
     0
  0
ATTRIB
  5
9B5
330
9B3
100
AcDbEntity
  8
8
100
AcDbText
 10
6.449291806336738
 20
5.505522022308335
 30
0.0
 40
0.06
  1
1
 50
90.0
 72
     1
 11
6.449291806336738
 21
5.515522022308335
 31
0.0
100
AcDbAttribute
  2
B
 70
     0
  0
ATTRIB
  5
9B6
330
9B3
100
AcDbEntity
  8
8
100
AcDbText
 10
6.533291806336736
 20
5.495522022308335
 30
0.0
 40
0.06
  1
2
 50
90.0
 72
     1
 11
6.533291806336736
 21
5.515522022308335
 31
0.0
100
AcDbAttribute
  2
C
 70
     0
  0
SEQEND
  5
9B7
330
9B3
100
AcDbEntity
  8
2
  0
LINE
  5
9B9
330
1F
100
AcDbEntity
  8
2
100
AcDbLine
 10
7.009227309507608
 20
5.950750399257254
 30
0.0
 11
7.009227309507607
 21
3.413319792692039
 31
0.0
  0
INSERT
  5
9BA
330
1F
100
AcDbEntity
  8
4
100
AcDbBlockReference
  2
ARRO
 10
6.557291806336735
 20
6.191832164552254
 30
0.0
 50
270.0
  0
LINE
  5
9BB
330
1F
100
AcDbEntity
  8
4
100
AcDbLine
 10
6.810291806336735
 20
6.097832164552254
 30
0.0
 11
6.872291806336734
 21
6.097832164552254
 31
0.0
  0
LINE
  5
9BC
330
1F
100
AcDbEntity
  8
4
100
AcDbLine
 10
8.120291806336734
 20
6.097832164552254
 30
0.0
 11
8.120291806336734
 21
4.75479388921874
 31
0.0
  0
INSERT
  5
9BD
330
1F
100
AcDbEntity
  8
4
100
AcDbBlockReference
  2
B1
 10
8.337977309507607
 20
5.988250399257255
 30
0.0
  0
LINE
  5
9C1
330
1F
100
AcDbEntity
  8
4
100
AcDbLine
 10
7.415291806336735
 20
4.722838043109383
 30
0.0
 11
7.415291806336735
 21
4.660838043109384
 31
0.0
  0
LINE
  5
9C2
330
1F
100
AcDbEntity
  8
4
100
AcDbLine
 10
7.375291806336734
 20
4.722838043109383
 30
0.0
 11
7.375291806336734
 21
4.660838043109384
 31
0.0
  0
LINE
  5
9C4
330
1F
100
AcDbEntity
  8
2
100
AcDbLine
 10
7.321727309507608
 20
5.892750399257254
 30
0.0
 11
7.321727309507607
 21
3.355319792692039
 31
0.0
  0
LINE
  5
9C5
330
1F
100
AcDbEntity
  8
4
100
AcDbLine
 10
8.258291806336734
 20
4.722838043109383
 30
0.0
 11
8.725291806336734
 21
4.722838043109383
 31
0.0
  0
LINE
  5
9C7
330
1F
100
AcDbEntity
  8
4
100
AcDbLine
 10
8.685291806336735
 20
4.660838043109384
 30
0.0
 11
8.320291806336733
 21
4.660838043109384
 31
0.0
  0
LINE
  5
9CC
330
1F
100
AcDbEntity
  8
4
100
AcDbLine
 10
8.258291806336734
 20
4.722838043109383
 30
0.0
 11
8.243291806336735
 21
4.707838043109383
 31
0.0
  0
LINE
  5
9CD
330
1F
100
AcDbEntity
  8
4
100
AcDbLine
 10
8.120291806336734
 20
4.628838043109384
 30
0.0
 11
8.182291806336735
 21
4.628838043109384
 31
0.0
  0
LINE
  5
9CE
330
1F
100
AcDbEntity
  8
4
100
AcDbLine
 10
8.120291806336734
 20
4.722838043109383
 30
0.0
 11
8.228291806336734
 21
4.722838043109383
 31
0.0
  0
LINE
  5
9CF
330
1F
100
AcDbEntity
  8
4
100
AcDbLine
 10
8.182291806336735
 20
4.660838043109384
 30
0.0
 11
8.120291806336734
 21
4.660838043109384
 31
0.0
  0
LINE
  5
9D0
330
1F
100
AcDbEntity
  8
4
100
AcDbLine
 10
8.120291806336734
 20
4.660838043109384
 30
0.0
 11
8.120291806336734
 21
4.722838043109383
 31
0.0
  0
LINE
  5
9D1
330
1F
100
AcDbEntity
  8
4
100
AcDbLine
 10
8.243291806336735
 20
4.707838043109383
 30
0.0
 11
8.145291806336734
 21
4.707838043109383
 31
0.0
  0
LINE
  5
9D2
330
1F
100
AcDbEntity
  8
4
100
AcDbLine
 10
8.145291806336734
 20
4.707838043109383
 30
0.0
 11
8.145291806336734
 21
4.679591900671823
 31
0.0
  0
LINE
  5
9D3
330
1F
100
AcDbEntity
  8
4
100
AcDbLine
 10
8.120291806336734
 20
4.75479388921874
 30
0.0
 11
8.182291806336735
 21
4.75479388921874
 31
0.0
  0
LINE
  5
9D4
330
1F
100
AcDbEntity
  8
4
100
AcDbLine
 10
8.320291806336733
 20
4.660838043109384
 30
0.0
 11
8.258291806336734
 21
4.722838043109383
 31
0.0
  0
LINE
  5
9D8
330
1F
100
AcDbEntity
  8
4
100
AcDbLine
 10
8.685291806336735
 20
4.722838043109383
 30
0.0
 11
8.685291806336735
 21
4.660838043109384
 31
0.0
  0
LINE
  5
9DA
330
1F
100
AcDbEntity
  8
4
100
AcDbLine
 10
8.725291806336734
 20
4.722838043109383
 30
0.0
 11
8.725291806336734
 21
4.660838043109384
 31
0.0
  0
LINE
  5
9DC
330
1F
100
AcDbEntity
  8
4
100
AcDbLine
 10
8.796291806336736
 20
4.722838043109383
 30
0.0
 11
8.796291806336736
 21
4.660838043109384
 31
0.0
  0
LINE
  5
9DD
330
1F
100
AcDbEntity
  8
4
100
AcDbLine
 10
8.836291806336735
 20
4.722838043109383
 30
0.0
 11
8.836291806336735
 21
4.660838043109384
 31
0.0
  0
LINE
  5
9E5
330
1F
100
AcDbEntity
  8
2
100
AcDbLine
 10
8.319227309507606
 20
5.950750399257254
 30
0.0
 11
8.319227309507606
 21
3.413319792692039
 31
0.0
  0
LINE
  5
9E8
330
1F
100
AcDbEntity
  8
2
100
AcDbLine
 10
8.631727309507606
 20
5.892750399257254
 30
0.0
 11
8.631727309507606
 21
3.355319792692039
 31
0.0
  0
LINE
  5
9E9
330
1F
100
AcDbEntity
  8
2
100
AcDbLine
 10
8.890227309507608
 20
5.950750399257254
 30
0.0
 11
8.890227309507608
 21
3.413319792692039
 31
0.0
  0
LINE
  5
9EE
330
1F
100
AcDbEntity
  8
2
100
AcDbLine
 10
8.337977309507607
 20
5.988250399257255
 30
0.0
 11
8.587977309507607
 21
5.988250399257253
 31
0.0
  0
LINE
  5
9EF
330
1F
100
AcDbEntity
  8
4
100
AcDbLine
 10
8.120291806336734
 20
6.097832164552254
 30
0.0
 11
8.182291806336735
 21
6.097832164552254
 31
0.0
  0
LINE
  5
9F6
330
1F
100
AcDbEntity
  8
4
100
AcDbLine
 10
9.401291806336736
 20
6.097832164552254
 30
0.0
 11
9.401291806336736
 21
4.75479388921874
 31
0.0
  0
LINE
  5
9F8
330
1F
100
AcDbEntity
  8
4
100
AcDbLine
 10
9.201291806336737
 20
4.660838043109384
 30
0.0
 11
9.263291806336736
 21
4.722838043109383
 31
0.0
  0
LINE
  5
9FA
330
1F
100
AcDbEntity
  8
4
100
AcDbLine
 10
9.339291806336735
 20
4.628838043109384
 30
0.0
 11
9.401291806336734
 21
4.628838043109384
 31
0.0
  0
LINE
  5
9FB
330
1F
100
AcDbEntity
  8
4
100
AcDbLine
 10
9.339291806336735
 20
4.660838043109384
 30
0.0
 11
9.401291806336736
 21
4.660838043109384
 31
0.0
  0
LINE
  5
9FC
330
1F
100
AcDbEntity
  8
4
100
AcDbLine
 10
9.401291806336736
 20
4.722838043109383
 30
0.0
 11
9.293291806336736
 21
4.722838043109383
 31
0.0
  0
LINE
  5
9FD
330
1F
100
AcDbEntity
  8
4
100
AcDbLine
 10
9.278291806336735
 20
4.707838043109383
 30
0.0
 11
9.376291806336736
 21
4.707838043109383
 31
0.0
  0
LINE
  5
9FE
330
1F
100
AcDbEntity
  8
4
100
AcDbLine
 10
9.263291806336736
 20
4.722838043109383
 30
0.0
 11
9.278291806336735
 21
4.707838043109383
 31
0.0
  0
LINE
  5
9FF
330
1F
100
AcDbEntity
  8
4
100
AcDbLine
 10
9.401291806336736
 20
4.660838043109384
 30
0.0
 11
9.401291806336736
 21
4.722838043109383
 31
0.0
  0
LINE
  5
A00
330
1F
100
AcDbEntity
  8
4
100
AcDbLine
 10
9.376291806336736
 20
4.707838043109383
 30
0.0
 11
9.376291806336736
 21
4.679591900671823
 31
0.0
  0
LINE
  5
A01
330
1F
100
AcDbEntity
  8
4
100
AcDbLine
 10
9.339291806336735
 20
4.75479388921874
 30
0.0
 11
9.401291806336734
 21
4.75479388921874
 31
0.0
  0
LINE
  5
A03
330
1F
100
AcDbEntity
  8
2
100
AcDbLine
 10
9.202727309507608
 20
5.892750399257254
 30
0.0
 11
9.202727309507608
 21
3.355319792692039
 31
0.0
  0
LINE
  5
A06
330
1F
100
AcDbEntity
  8
4
100
AcDbLine
 10
9.401291806336736
 20
6.097832164552254
 30
0.0
 11
9.339291806336735
 21
6.097832164552254
 31
0.0
  0
LINE
  5
A07
330
1F
100
AcDbEntity
  8
1
100
AcDbLine
 10
8.776791806336735
 20
3.19179388921874
 30
0.0
 11
8.776791806336735
 21
6.19179388921874
 31
0.0
  0
LINE
  5
A33
330
1F
100
AcDbEntity
  8
4
100
AcDbLine
 10
8.475291806336734
 20
6.19179388921874
 30
0.0
 11
8.475291806336734
 21
6.009973741153071
 31
0.0
  0
LINE
  5
A34
330
1F
100
AcDbEntity
  8
4
100
AcDbLine
 10
8.696668344328532
 20
6.034834194651393
 30
0.0
 11
8.696668344328532
 21
6.19179388921874
 31
0.0
  0
ARC
  5
A35
330
1F
100
AcDbEntity
  8
4
100
AcDbCircle
 10
8.671678209895004
 20
6.034834194651393
 30
0.0
 40
0.025
100
AcDbArc
 50
180.0
 51
0.0
  0
INSERT
  5
A36
330
1F
100
AcDbEntity
  8
0
100
AcDbBlockReference
  2
HDV hooks
 10
3.431791806336734
 20
4.66079976777587
 30
0.0
  0
ARC
  5
A37
330
1F
100
AcDbEntity
  8
4
100
AcDbCircle
 10
3.479542421442292
 20
6.034834194651393
 30
0.0
 40
0.025
100
AcDbArc
 50
180.0
 51
0.0
  0
LINE
  5
A38
330
1F
100
AcDbEntity
  8
4
100
AcDbLine
 10
3.454542421442291
 20
6.034834194651393
 30
0.0
 11
3.454542421442291
 21
6.12979388921874
 31
0.0
  0
LINE
  5
A39
330
1F
100
AcDbEntity
  8
4
100
AcDbLine
 10
3.649791806336735
 20
6.130371656917574
 30
0.0
 11
3.649791806336735
 21
6.009834194651393
 31
0.0
  0
LINE
  5
A3A
330
1F
100
AcDbEntity
  8
4
100
AcDbLine
 10
3.711791806336733
 20
6.130619383403857
 30
0.0
 11
3.711791806336733
 21
6.009834194651393
 31
0.0
  0
LINE
  5
A3B
330
1F
100
AcDbEntity
  8
4
100
AcDbLine
 10
3.918724964927627
 20
6.034834194651393
 30
0.0
 11
3.918724964927627
 21
6.12979388921874
 31
0.0
  0
ARC
  5
A3C
330
1F
100
AcDbEntity
  8
4
100
AcDbCircle
 10
3.893734830494099
 20
6.034834194651393
 30
0.0
 40
0.025
100
AcDbArc
 50
180.0
 51
0.0
  0
ARC
  5
A3D
330
1F
100
AcDbEntity
  8
4
100
AcDbCircle
 10
4.103273880733609
 20
6.034834194651393
 30
0.0
 40
0.025
100
AcDbArc
 50
180.0
 51
0.0
  0
LINE
  5
A3E
330
1F
100
AcDbEntity
  8
4
100
AcDbLine
 10
4.078273880733608
 20
6.034834194651393
 30
0.0
 11
4.078273880733608
 21
6.12979388921874
 31
0.0
  0
LINE
  5
A3F
330
1F
100
AcDbEntity
  8
4
100
AcDbLine
 10
4.542456424218944
 20
6.034834194651393
 30
0.0
 11
4.542456424218944
 21
6.12979388921874
 31
0.0
  0
ARC
  5
A40
330
1F
100
AcDbEntity
  8
4
100
AcDbCircle
 10
4.517466289785416
 20
6.034834194651393
 30
0.0
 40
0.025
100
AcDbArc
 50
180.0
 51
0.0
  0
ARC
  5
A41
330
1F
100
AcDbEntity
  8
4
100
AcDbCircle
 10
4.722649000590332
 20
6.034834194651393
 30
0.0
 40
0.025
100
AcDbArc
 50
180.0
 51
0.0
  0
LINE
  5
A42
330
1F
100
AcDbEntity
  8
4
100
AcDbLine
 10
4.697649000590332
 20
6.034834194651393
 30
0.0
 11
4.697649000590332
 21
6.12979388921874
 31
0.0
  0
LINE
  5
A43
330
1F
100
AcDbEntity
  8
4
100
AcDbLine
 10
4.954898385484773
 20
6.130619383403857
 30
0.0
 11
4.954898385484773
 21
6.009834194651393
 31
0.0
  0
LINE
  5
A44
330
1F
100
AcDbEntity
  8
4
100
AcDbLine
 10
4.892898385484776
 20
6.130371656917574
 30
0.0
 11
4.892898385484776
 21
6.009834194651393
 31
0.0
  0
ARC
  5
A45
330
1F
100
AcDbEntity
  8
4
100
AcDbCircle
 10
5.13684140964214
 20
6.034834194651393
 30
0.0
 40
0.025
100
AcDbArc
 50
180.0
 51
0.0
  0
LINE
  5
A46
330
1F
100
AcDbEntity
  8
4
100
AcDbLine
 10
5.161831544075668
 20
6.034834194651393
 30
0.0
 11
5.161831544075668
 21
6.12979388921874
 31
0.0
  0
LINE
  5
A47
330
1F
100
AcDbEntity
  8
4
100
AcDbLine
 10
7.165291806336734
 20
6.19179388921874
 30
0.0
 11
7.165291806336734
 21
6.009973741153071
 31
0.0
  0
LINE
  5
A48
330
1F
100
AcDbEntity
  8
4
100
AcDbLine
 10
7.386668344328533
 20
6.034834194651393
 30
0.0
 11
7.386668344328533
 21
6.19179388921874
 31
0.0
  0
ARC
  5
A49
330
1F
100
AcDbEntity
  8
4
100
AcDbCircle
 10
7.361678209895004
 20
6.034834194651393
 30
0.0
 40
0.025
100
AcDbArc
 50
180.0
 51
0.0
  0
LINE
  5
A4A
330
1F
100
AcDbEntity
  8
4
100
AcDbLine
 10
8.821874486505404
 20
6.034834194651393
 30
0.0
 11
8.821874486505404
 21
6.19179388921874
 31
0.0
  0
ARC
  5
A4B
330
1F
100
AcDbEntity
  8
4
100
AcDbCircle
 10
8.846864620938932
 20
6.034834194651393
 30
0.0
 40
0.025
100
AcDbArc
 50
180.0
 51
360.0
  0
LINE
  5
A4C
330
1F
100
AcDbEntity
  8
4
100
AcDbLine
 10
9.043251024497202
 20
6.19179388921874
 30
0.0
 11
9.043251024497202
 21
6.009973741153071
 31
0.0
  0
LINE
  5
A4D
330
1F
100
AcDbEntity
  8
4
100
AcDbLine
 10
9.043251024497202
 20
4.722838043109383
 30
0.0
 11
9.043251024497202
 21
4.541017895043715
 31
0.0
  0
ARC
  5
A4E
330
1F
100
AcDbEntity
  8
4
100
AcDbCircle
 10
8.846864620938932
 20
4.565878348542037
 30
0.0
 40
0.025
100
AcDbArc
 50
180.0
 51
360.0
  0
LINE
  5
A4F
330
1F
100
AcDbEntity
  8
4
100
AcDbLine
 10
8.821874486505404
 20
4.565878348542037
 30
0.0
 11
8.821874486505404
 21
4.722838043109383
 31
0.0
  0
LINE
  5
A50
330
1F
100
AcDbEntity
  8
4
100
AcDbLine
 10
8.696668344328532
 20
4.565878348542037
 30
0.0
 11
8.696668344328532
 21
4.722838043109383
 31
0.0
  0
ARC
  5
A51
330
1F
100
AcDbEntity
  8
4
100
AcDbCircle
 10
8.671678209895004
 20
4.565878348542037
 30
0.0
 40
0.025
100
AcDbArc
 50
180.0
 51
0.0
  0
LINE
  5
A52
330
1F
100
AcDbEntity
  8
4
100
AcDbLine
 10
8.475291806336734
 20
4.722838043109383
 30
0.0
 11
8.475291806336734
 21
4.541017895043715
 31
0.0
  0
VIEWPORT
  5
69B
102
{ACAD_XDICTIONARY
360
AA5
102
}
330
1B
100
AcDbEntity
 67
     1
  8
0
100
AcDbViewport
 10
5.249999639556163
 20
3.999999883606677
 30
0.0
 40
18.82780997001893
 41
8.992999745766947
 68
     1
 69
     1
 12
5.249999639556163
 22
3.999999883606677
 13
0.0
 23
0.0
 14
0.5
 24
0.5
 15
0.5
 25
0.5
 16
0.0
 26
0.0
 36
1.0
 17
0.0
 27
0.0
 37
0.0
 42
50.0
 43
0.0
 44
0.0
 45
8.992999745766947
 50
0.0
 51
0.0
 72
   100
 90
    32800
  1

281
     0
 71
     1
 74
     0
110
0.0
120
0.0
130
0.0
111
1.0
121
0.0
131
0.0
112
0.0
122
1.0
132
0.0
 79
     0
146
0.0
  0
VIEWPORT
  5
69D
102
{ACAD_XDICTIONARY
360
AA7
102
}
330
1B
100
AcDbEntity
 67
     1
  8
VP-1
100
AcDbViewport
 10
5.321783238576831
 20
3.91805912011122
 30
0.0
 40
10.00868328532046
 41
7.456610302866103
 68
     2
 69
     2
 12
5.869791806336735
 22
4.31679388921874
 13
0.0
 23
0.0
 14
0.5
 24
0.5
 15
0.5
 25
0.5
 16
0.0
 26
0.0
 36
1.0
 17
0.0
 27
0.0
 37
0.0
 42
50.0
 43
0.0
 44
0.0
 45
7.456610302866103
 50
0.0
 51
0.0
 72
   100
 90
    32864
  1

281
     0
 71
     1
 74
     0
110
0.0
120
0.0
130
0.0
111
1.0
121
0.0
131
0.0
112
0.0
122
1.0
132
0.0
 79
     0
146
0.0
  0
ENDSEC
  0
SECTION
  2
OBJECTS
  0
DICTIONARY
  5
C
330
0
100
AcDbDictionary
281
     1
  3
ACAD_COLOR
350
6A7
  3
ACAD_GROUP
350
D
  3
ACAD_LAYOUT
350
1A
  3
ACAD_MATERIAL
350
6A6
  3
ACAD_MLINESTYLE
350
17
  3
ACAD_PLOTSETTINGS
350
19
  3
ACAD_PLOTSTYLENAME
350
E
  3
ACDBHEADERROUNDTRIPXREC
350
A9C
  3
AcDbVariableDictionary
350
A93
  3
DWGPROPS
350
A9B
  0
DICTIONARY
  5
A08
330
2
100
AcDbDictionary
280
     1
281
     1
  3
ACAD_LAYERSTATES
360
A09
  0
DICTIONARY
  5
AA5
330
69B
100
AcDbDictionary
280
     1
281
     1
  3
ACAD_XREC_ROUNDTRIP
360
AA6
  0
DICTIONARY
  5
AA7
330
69D
100
AcDbDictionary
280
     1
281
     1
  3
ACAD_XREC_ROUNDTRIP
360
AA8
  0
DICTIONARY
  5
6A7
102
{ACAD_REACTORS
330
C
102
}
330
C
100
AcDbDictionary
281
     1
  0
DICTIONARY
  5
D
102
{ACAD_REACTORS
330
C
102
}
330
C
100
AcDbDictionary
281
     1
  0
DICTIONARY
  5
1A
102
{ACAD_REACTORS
330
C
102
}
330
C
100
AcDbDictionary
281
     1
  3
Layout1
350
1E
  3
Layout2
350
26
  3
Model
350
22
  0
DICTIONARY
  5
6A6
102
{ACAD_REACTORS
330
C
102
}
330
C
100
AcDbDictionary
281
     1
  0
DICTIONARY
  5
17
102
{ACAD_REACTORS
330
C
102
}
330
C
100
AcDbDictionary
281
     1
  3
Standard
350
18
  0
DICTIONARY
  5
19
102
{ACAD_REACTORS
330
C
102
}
330
C
100
AcDbDictionary
281
     1
  0
ACDBDICTIONARYWDFLT
  5
E
102
{ACAD_REACTORS
330
C
102
}
330
C
100
AcDbDictionary
281
     1
  3
Normal
350
F
100
AcDbDictionaryWithDefault
340
F
  0
DICTIONARY
  5
A9C
102
{ACAD_REACTORS
330
C
102
}
330
C
100
AcDbDictionary
281
     1
  3
COLORDICT
350
A9E
  3
MATERIALDICT
350
A9D
  0
DICTIONARY
  5
A93
102
{ACAD_REACTORS
330
C
102
}
330
C
100
AcDbDictionary
281
     1
  3
DIMASSOC
350
A94
  3
PROJECTNAME
350
A95
  0
XRECORD
  5
A9B
102
{ACAD_REACTORS
330
C
102
}
330
C
100
AcDbXrecord
280
     1
  1
DWGPROPS COOKIE
  2

  3

  4

  6

  7

  8
dbabbo
  9

300
=
301
=
302
=
303
=
304
=
305
=
306
=
307
=
308
=
309
=
 40
0.2457438078703704
 41
2452632.731050579
 42
2454728.618497535
  1

 90
        0
  0
DICTIONARY
  5
A09
102
{ACAD_REACTORS
330
A08
102
}
330
A08
100
AcDbDictionary
281
     1
  0
XRECORD
  5
AA6
102
{ACAD_REACTORS
330
AA5
102
}
330
AA5
100
AcDbXrecord
280
     1
102
SHADEPLOT
 70
     0
  0
XRECORD
  5
AA8
102
{ACAD_REACTORS
330
AA7
102
}
330
AA7
100
AcDbXrecord
280
     1
102
SHADEPLOT
 70
     0
  0
LAYOUT
  5
1E
102
{ACAD_XDICTIONARY
360
A9F
102
}
102
{ACAD_REACTORS
330
1A
102
}
330
1A
100
AcDbPlotSettings
  1

  2
none_device
  4
Letter_(8.50_x_11.00_Inches)
  6

 40
6.349999904632568
 41
6.349999904632568
 42
6.350006103515625
 43
6.350006103515625
 44
215.8999938964844
 45
279.3999938964844
 46
0.0
 47
0.0
 48
0.0
 49
0.0
140
0.0
141
0.0
142
1.0
143
1.0
 70
   688
 72
     0
 73
     1
 74
     5
  7
monochrome.ctb
 75
    16
147
1.0
148
0.0
149
0.0
100
AcDbLayout
  1
Layout1
 70
     1
 71
     1
 10
-0.2500002402958907
 20
-0.2499999962453767
 11
10.74999951940821
 21
8.249999763458731
 12
0.0
 22
0.0
 32
0.0
 14
0.3173218056528384
 24
0.1892395231281867
 34
-0.0015258207003583
 15
10.32678225255429
 25
7.646896381684225
 35
0.0000000349246037
146
0.0
 13
0.0
 23
0.0
 33
0.0
 16
1.0
 26
0.0
 36
0.0
 17
0.0
 27
1.0
 37
0.0
 76
     0
330
1B
331
69B
  0
LAYOUT
  5
26
102
{ACAD_XDICTIONARY
360
AA3
102
}
102
{ACAD_REACTORS
330
1A
102
}
330
1A
100
AcDbPlotSettings
  1

  2
Lexmark E210
  4

  6

 40
0.0
 41
0.0
 42
0.0
 43
0.0
 44
0.0
 45
0.0
 46
0.0
 47
0.0
 48
0.0
 49
0.0
140
0.0
141
0.0
142
1.0
143
1.0
 70
   688
 72
     0
 73
     0
 74
     5
  7
monochrome.ctb
 75
    16
147
1.0
148
0.0
149
0.0
100
AcDbLayout
  1
Layout2
 70
     1
 71
     2
 10
0.0
 20
0.0
 11
12.0
 21
9.0
 12
0.0
 22
0.0
 32
0.0
 14
0.0
 24
0.0
 34
0.0
 15
0.0
 25
0.0
 35
0.0
146
0.0
 13
0.0
 23
0.0
 33
0.0
 16
1.0
 26
0.0
 36
0.0
 17
0.0
 27
1.0
 37
0.0
 76
     0
330
23
  0
LAYOUT
  5
22
102
{ACAD_XDICTIONARY
360
AA1
102
}
102
{ACAD_REACTORS
330
1A
102
}
330
1A
100
AcDbPlotSettings
  1

  2
true.pc3
  4
Letter
  6

 40
4.233333110809326
 41
4.233341693878173
 42
8.466659545898437
 43
4.23333740234375
 44
215.8999938964844
 45
279.3999938964844
 46
15.494
 47
0.0
 48
0.0
 49
0.0
140
0.0
141
0.0
142
1.0
143
0.7735062170529281
 70
 11956
 72
     0
 73
     1
 74
     1
  7
monochrome.ctb
 75
     0
147
1.292814431162579
148
-44.31357498000559
149
-42.96714535766181
100
AcDbLayout
  1
Model
 70
     1
 71
     0
 10
0.0
 20
0.0
 11
12.0
 21
9.0
 12
0.0
 22
0.0
 32
0.0
 14
0.0
 24
0.0
 34
0.0
 15
0.0
 25
0.0
 35
0.0
146
0.0
 13
0.0
 23
0.0
 33
0.0
 16
1.0
 26
0.0
 36
0.0
 17
0.0
 27
1.0
 37
0.0
 76
     0
330
1F
  0
MLINESTYLE
  5
18
102
{ACAD_REACTORS
330
17
102
}
330
17
100
AcDbMlineStyle
  2
STANDARD
 70
     0
  3

 62
   256
 51
90.0
 52
90.0
 71
     2
 49
0.5
 62
   256
  6
BYLAYER
 49
-0.5
 62
   256
  6
BYLAYER
  0
ACDBPLACEHOLDER
  5
F
102
{ACAD_REACTORS
330
E
102
}
330
E
  0
XRECORD
  5
A9E
102
{ACAD_REACTORS
330
A9C
102
}
330
A9C
100
AcDbXrecord
280
     1
340
6A7
  0
XRECORD
  5
A9D
102
{ACAD_REACTORS
330
A9C
102
}
330
A9C
100
AcDbXrecord
280
     1
340
6A6
  0
DICTIONARYVAR
  5
A94
102
{ACAD_REACTORS
330
A93
102
}
330
A93
100
DictionaryVariables
280
     0
  1
1
  0
DICTIONARYVAR
  5
A95
102
{ACAD_REACTORS
330
A93
102
}
330
A93
100
DictionaryVariables
280
     0
  1

  0
DICTIONARY
  5
A9F
330
1E
100
AcDbDictionary
280
     1
281
     1
  3
ACAD_XREC_ROUNDTRIP
360
AA0
  0
DICTIONARY
  5
AA3
330
26
100
AcDbDictionary
280
     1
281
     1
  3
ACAD_XREC_ROUNDTRIP
360
AA4
  0
DICTIONARY
  5
AA1
330
22
100
AcDbDictionary
280
     1
281
     1
  3
ACAD_XREC_ROUNDTRIP
360
AA2
  0
XRECORD
  5
AA0
102
{ACAD_REACTORS
330
A9F
102
}
330
A9F
100
AcDbXrecord
280
     1
102
SHADEPLOT
 70
     0
102
SHADEPLOTRESLEVEL
 70
     2
102
SHADEPLOTCUSTOMDPI
 70
   300
  0
XRECORD
  5
AA4
102
{ACAD_REACTORS
330
AA3
102
}
330
AA3
100
AcDbXrecord
280
     1
102
SHADEPLOT
 70
     0
102
SHADEPLOTRESLEVEL
 70
     2
102
SHADEPLOTCUSTOMDPI
 70
   300
  0
XRECORD
  5
AA2
102
{ACAD_REACTORS
330
AA1
102
}
330
AA1
100
AcDbXrecord
280
     1
102
SHADEPLOT
 70
     0
102
SHADEPLOTRESLEVEL
 70
     2
102
SHADEPLOTCUSTOMDPI
 70
   300
  0
ENDSEC
  0
EOF
