  0
SECTION
  2
HEADER
  9
$ACADVER
  1
AC1015
  9
$ACADMAINTVER
 70
    20
  9
$DWGCODEPAGE
  3
ANSI_1252
  9
$INSBASE
 10
0.0
 20
0.0
 30
0.0
  9
$EXTMIN
 10
3.593994172748637
 20
2.302734398635493
 30
-0.0000000349181948
  9
$EXTMAX
 10
11.84472659025891
 20
7.553512592513012
 30
0.0000000814935746
  9
$LIMMIN
 10
0.0
 20
0.0
  9
$LIMMAX
 10
12.0
 20
9.0
  9
$ORTHOMODE
 70
     1
  9
$REGENMODE
 70
     1
  9
$FILLMODE
 70
     1
  9
$QTEXTMODE
 70
     0
  9
$MIRRTEXT
 70
     1
  9
$LTSCALE
 40
1.0
  9
$ATTMODE
 70
     1
  9
$TEXTSIZE
 40
0.2
  9
$TRACEWID
 40
0.05
  9
$TEXTSTYLE
  7
Standard
  9
$CLAYER
  8
0
  9
$CELTYPE
  6
ByLayer
  9
$CECOLOR
 62
   256
  9
$CELTSCALE
 40
1.0
  9
$DISPSILH
 70
     0
  9
$DIMSCALE
 40
1.0
  9
$DIMASZ
 40
0.18
  9
$DIMEXO
 40
0.0625
  9
$DIMDLI
 40
0.38
  9
$DIMRND
 40
0.0
  9
$DIMDLE
 40
0.0
  9
$DIMEXE
 40
0.18
  9
$DIMTP
 40
0.0
  9
$DIMTM
 40
0.0
  9
$DIMTXT
 40
0.18
  9
$DIMCEN
 40
0.09
  9
$DIMTSZ
 40
0.0
  9
$DIMTOL
 70
     0
  9
$DIMLIM
 70
     0
  9
$DIMTIH
 70
     1
  9
$DIMTOH
 70
     1
  9
$DIMSE1
 70
     0
  9
$DIMSE2
 70
     0
  9
$DIMTAD
 70
     0
  9
$DIMZIN
 70
     0
  9
$DIMBLK
  1

  9
$DIMASO
 70
     1
  9
$DIMSHO
 70
     1
  9
$DIMPOST
  1

  9
$DIMAPOST
  1

  9
$DIMALT
 70
     0
  9
$DIMALTD
 70
     2
  9
$DIMALTF
 40
25.4
  9
$DIMLFAC
 40
1.0
  9
$DIMTOFL
 70
     0
  9
$DIMTVP
 40
0.0
  9
$DIMTIX
 70
     0
  9
$DIMSOXD
 70
     0
  9
$DIMSAH
 70
     0
  9
$DIMBLK1
  1

  9
$DIMBLK2
  1

  9
$DIMSTYLE
  2
Standard
  9
$DIMCLRD
 70
     0
  9
$DIMCLRE
 70
     0
  9
$DIMCLRT
 70
     0
  9
$DIMTFAC
 40
1.0
  9
$DIMGAP
 40
0.09
  9
$DIMJUST
 70
     0
  9
$DIMSD1
 70
     0
  9
$DIMSD2
 70
     0
  9
$DIMTOLJ
 70
     1
  9
$DIMTZIN
 70
     0
  9
$DIMALTZ
 70
     0
  9
$DIMALTTZ
 70
     0
  9
$DIMUPT
 70
     0
  9
$DIMDEC
 70
     4
  9
$DIMTDEC
 70
     4
  9
$DIMALTU
 70
     2
  9
$DIMALTTD
 70
     2
  9
$DIMTXSTY
  7
Standard
  9
$DIMAUNIT
 70
     0
  9
$DIMADEC
 70
     0
  9
$DIMALTRND
 40
0.0
  9
$DIMAZIN
 70
     0
  9
$DIMDSEP
 70
    46
  9
$DIMATFIT
 70
     3
  9
$DIMFRAC
 70
     0
  9
$DIMLDRBLK
  1

  9
$DIMLUNIT
 70
     2
  9
$DIMLWD
 70
    -2
  9
$DIMLWE
 70
    -2
  9
$DIMTMOVE
 70
     0
  9
$LUNITS
 70
     2
  9
$LUPREC
 70
     4
  9
$SKETCHINC
 40
0.1
  9
$FILLETRAD
 40
0.5
  9
$AUNITS
 70
     0
  9
$AUPREC
 70
     0
  9
$MENU
  1
.
  9
$ELEVATION
 40
0.0
  9
$PELEVATION
 40
0.0
  9
$THICKNESS
 40
0.0
  9
$LIMCHECK
 70
     0
  9
$CHAMFERA
 40
0.5
  9
$CHAMFERB
 40
0.5
  9
$CHAMFERC
 40
1.0
  9
$CHAMFERD
 40
0.0
  9
$SKPOLY
 70
     0
  9
$TDCREATE
 40
2452994.398152547
  9
$TDUCREATE
 40
2452994.606485880
  9
$TDUPDATE
 40
2454728.609258345
  9
$TDUUPDATE
 40
2454728.817591679
  9
$TDINDWG
 40
0.0070961806
  9
$TDUSRTIMER
 40
0.0070783565
  9
$USRTIMER
 70
     1
  9
$ANGBASE
 50
0.0
  9
$ANGDIR
 70
     0
  9
$PDMODE
 70
     0
  9
$PDSIZE
 40
0.0
  9
$PLINEWID
 40
0.0
  9
$SPLFRAME
 70
     0
  9
$SPLINETYPE
 70
     6
  9
$SPLINESEGS
 70
     8
  9
$HANDSEED
  5
64C
  9
$SURFTAB1
 70
     6
  9
$SURFTAB2
 70
     6
  9
$SURFTYPE
 70
     6
  9
$SURFU
 70
     6
  9
$SURFV
 70
     6
  9
$UCSBASE
  2

  9
$UCSNAME
  2

  9
$UCSORG
 10
0.0
 20
0.0
 30
0.0
  9
$UCSXDIR
 10
1.0
 20
0.0
 30
0.0
  9
$UCSYDIR
 10
0.0
 20
1.0
 30
0.0
  9
$UCSORTHOREF
  2

  9
$UCSORTHOVIEW
 70
     0
  9
$UCSORGTOP
 10
0.0
 20
0.0
 30
0.0
  9
$UCSORGBOTTOM
 10
0.0
 20
0.0
 30
0.0
  9
$UCSORGLEFT
 10
0.0
 20
0.0
 30
0.0
  9
$UCSORGRIGHT
 10
0.0
 20
0.0
 30
0.0
  9
$UCSORGFRONT
 10
0.0
 20
0.0
 30
0.0
  9
$UCSORGBACK
 10
0.0
 20
0.0
 30
0.0
  9
$PUCSBASE
  2

  9
$PUCSNAME
  2

  9
$PUCSORG
 10
0.0
 20
0.0
 30
0.0
  9
$PUCSXDIR
 10
1.0
 20
0.0
 30
0.0
  9
$PUCSYDIR
 10
0.0
 20
1.0
 30
0.0
  9
$PUCSORTHOREF
  2

  9
$PUCSORTHOVIEW
 70
     0
  9
$PUCSORGTOP
 10
0.0
 20
0.0
 30
0.0
  9
$PUCSORGBOTTOM
 10
0.0
 20
0.0
 30
0.0
  9
$PUCSORGLEFT
 10
0.0
 20
0.0
 30
0.0
  9
$PUCSORGRIGHT
 10
0.0
 20
0.0
 30
0.0
  9
$PUCSORGFRONT
 10
0.0
 20
0.0
 30
0.0
  9
$PUCSORGBACK
 10
0.0
 20
0.0
 30
0.0
  9
$USERI1
 70
     0
  9
$USERI2
 70
     0
  9
$USERI3
 70
     0
  9
$USERI4
 70
     0
  9
$USERI5
 70
     0
  9
$USERR1
 40
0.0
  9
$USERR2
 40
0.0
  9
$USERR3
 40
0.0
  9
$USERR4
 40
0.0
  9
$USERR5
 40
0.0
  9
$WORLDVIEW
 70
     1
  9
$SHADEDGE
 70
     3
  9
$SHADEDIF
 70
    70
  9
$TILEMODE
 70
     1
  9
$MAXACTVP
 70
    64
  9
$PINSBASE
 10
0.0
 20
0.0
 30
0.0
  9
$PLIMCHECK
 70
     0
  9
$PEXTMIN
 10
1.000000000000000E+20
 20
1.000000000000000E+20
 30
1.000000000000000E+20
  9
$PEXTMAX
 10
-1.000000000000000E+20
 20
-1.000000000000000E+20
 30
-1.000000000000000E+20
  9
$PLIMMIN
 10
0.0
 20
0.0
  9
$PLIMMAX
 10
12.0
 20
9.0
  9
$UNITMODE
 70
     0
  9
$VISRETAIN
 70
     1
  9
$PLINEGEN
 70
     0
  9
$PSLTSCALE
 70
     1
  9
$TREEDEPTH
 70
  3020
  9
$CMLSTYLE
  2
Standard
  9
$CMLJUST
 70
     0
  9
$CMLSCALE
 40
1.0
  9
$PROXYGRAPHICS
 70
     1
  9
$MEASUREMENT
 70
     0
  9
$CELWEIGHT
370
    -1
  9
$ENDCAPS
280
     0
  9
$JOINSTYLE
280
     0
  9
$LWDISPLAY
290
     0
  9
$INSUNITS
 70
     1
  9
$HYPERLINKBASE
  1

  9
$STYLESHEET
  1

  9
$XEDIT
290
     1
  9
$CEPSNTYPE
380
     0
  9
$PSTYLEMODE
290
     1
  9
$FINGERPRINTGUID
  2
{8AF59900-32CF-11D8-8CE1-F4C5890AA422}
  9
$VERSIONGUID
  2
{421FE038-273E-4288-9301-D607A09B0BDF}
  9
$EXTNAMES
290
     1
  9
$PSVPSCALE
 40
0.0
  9
$OLESTARTUP
290
     0
  0
ENDSEC
  0
SECTION
  2
CLASSES
  0
CLASS
  1
ACDBDICTIONARYWDFLT
  2
AcDbDictionaryWithDefault
  3
ObjectDBX Classes
 90
        0
280
     0
281
     0
  0
CLASS
  1
ACDBPLACEHOLDER
  2
AcDbPlaceHolder
  3
ObjectDBX Classes
 90
        0
280
     0
281
     0
  0
CLASS
  1
LAYOUT
  2
AcDbLayout
  3
ObjectDBX Classes
 90
        0
280
     0
281
     0
  0
CLASS
  1
DICTIONARYVAR
  2
AcDbDictionaryVar
  3
ObjectDBX Classes
 90
        0
280
     0
281
     0
  0
ENDSEC
  0
SECTION
  2
TABLES
  0
TABLE
  2
VPORT
  5
8
330
0
100
AcDbSymbolTable
 70
     2
  0
VPORT
  5
642
330
8
100
AcDbSymbolTableRecord
100
AcDbViewportTableRecord
  2
*Active
 70
     0
 10
0.0
 20
0.0
 11
1.0
 21
1.0
 12
7.719360381503776
 22
4.928123495574252
 13
0.0
 23
0.0
 14
0.5
 24
0.5
 15
0.5
 25
0.5
 16
0.0
 26
0.0
 36
1.0
 17
0.0
 27
0.0
 37
0.0
 40
5.545189497268501
 41
1.495145631067961
 42
50.0
 43
0.0
 44
0.0
 50
0.0
 51
0.0
 71
     0
 72
   100
 73
     1
 74
     3
 75
     0
 76
     0
 77
     0
 78
     0
281
     0
 65
     1
110
0.0
120
0.0
130
0.0
111
1.0
121
0.0
131
0.0
112
0.0
122
1.0
132
0.0
 79
     0
146
0.0
  0
ENDTAB
  0
TABLE
  2
LTYPE
  5
5
330
0
100
AcDbSymbolTable
 70
     2
  0
LTYPE
  5
14
330
5
100
AcDbSymbolTableRecord
100
AcDbLinetypeTableRecord
  2
ByBlock
 70
     0
  3

 72
    65
 73
     0
 40
0.0
  0
LTYPE
  5
15
330
5
100
AcDbSymbolTableRecord
100
AcDbLinetypeTableRecord
  2
ByLayer
 70
     0
  3

 72
    65
 73
     0
 40
0.0
  0
LTYPE
  5
16
330
5
100
AcDbSymbolTableRecord
100
AcDbLinetypeTableRecord
  2
Continuous
 70
     0
  3
Solid line
 72
    65
 73
     0
 40
0.0
  0
LTYPE
  5
200
330
5
100
AcDbSymbolTableRecord
100
AcDbLinetypeTableRecord
  2
HIDDEN
 70
     0
  3
_ _ _ _ _ _ _ _ _ _ _ _ _ _ _ _ _ _ _ _ _ _ _
 72
    65
 73
     2
 40
0.375
 49
0.25
 74
     0
 49
-0.125
 74
     0
  0
ENDTAB
  0
TABLE
  2
LAYER
  5
2
330
0
100
AcDbSymbolTable
 70
     5
  0
LAYER
  5
10
330
2
100
AcDbSymbolTableRecord
100
AcDbLayerTableRecord
  2
0
 70
     0
 62
     7
  6
Continuous
370
    -3
390
F
  0
LAYER
  5
33
330
2
100
AcDbSymbolTableRecord
100
AcDbLayerTableRecord
  2
1
 70
     0
 62
     1
  6
Continuous
370
    -3
390
F
  0
LAYER
  5
34
330
2
100
AcDbSymbolTableRecord
100
AcDbLayerTableRecord
  2
4
 70
     0
 62
     4
  6
Continuous
370
    -3
390
F
  0
LAYER
  5
35
330
2
100
AcDbSymbolTableRecord
100
AcDbLayerTableRecord
  2
8
 70
     0
 62
     2
  6
Continuous
370
    -3
390
F
  0
LAYER
  5
201
330
2
100
AcDbSymbolTableRecord
100
AcDbLayerTableRecord
  2
2
 70
     0
 62
     2
  6
HIDDEN
370
    -3
390
F
  0
ENDTAB
  0
TABLE
  2
STYLE
  5
3
330
0
100
AcDbSymbolTable
 70
     2
  0
STYLE
  5
11
330
3
100
AcDbSymbolTableRecord
100
AcDbTextStyleTableRecord
  2
Standard
 70
     0
 40
0.0
 41
1.0
 50
0.0
 71
     0
 42
0.2
  3
txt
  4

  0
STYLE
  5
36
330
3
100
AcDbSymbolTableRecord
100
AcDbTextStyleTableRecord
  2
ROMANS
 70
     0
 40
0.0
 41
1.0
 50
0.0
 71
     0
 42
0.07
  3
ROMANS
  4

  0
ENDTAB
  0
TABLE
  2
VIEW
  5
6
330
0
100
AcDbSymbolTable
 70
     0
  0
ENDTAB
  0
TABLE
  2
UCS
  5
7
330
0
100
AcDbSymbolTable
 70
     0
  0
ENDTAB
  0
TABLE
  2
APPID
  5
9
330
0
100
AcDbSymbolTable
 70
     1
  0
APPID
  5
12
330
9
100
AcDbSymbolTableRecord
100
AcDbRegAppTableRecord
  2
ACAD
 70
     0
  0
ENDTAB
  0
TABLE
  2
DIMSTYLE
  5
A
330
0
100
AcDbSymbolTable
 70
     1
100
AcDbDimStyleTable
 71
     0
  0
DIMSTYLE
105
27
330
A
100
AcDbSymbolTableRecord
100
AcDbDimStyleTableRecord
  2
Standard
 70
     0
340
11
  0
ENDTAB
  0
TABLE
  2
BLOCK_RECORD
  5
1
330
0
100
AcDbSymbolTable
 70
    11
  0
BLOCK_RECORD
  5
1F
330
1
100
AcDbSymbolTableRecord
100
AcDbBlockTableRecord
  2
*Model_Space
340
22
  0
BLOCK_RECORD
  5
1B
330
1
100
AcDbSymbolTableRecord
100
AcDbBlockTableRecord
  2
*Paper_Space
340
1E
  0
BLOCK_RECORD
  5
23
330
1
100
AcDbSymbolTableRecord
100
AcDbBlockTableRecord
  2
*Paper_Space0
340
26
  0
BLOCK_RECORD
  5
2B
330
1
100
AcDbSymbolTableRecord
100
AcDbBlockTableRecord
  2
ARRO
340
0
102
{BLKREFS
331
3F
331
A2
331
A3
331
A4
331
A5
331
A6
331
AA
331
AB
331
AF
331
B0
331
11B
331
11C
331
139
331
16D
331
16E
331
234
331
232
331
233
331
299
331
2F3
331
2F4
331
253
331
254
331
38F
331
390
331
3EA
331
3EB
331
41A
331
472
331
4D5
331
4D6
331
4D7
331
4D8
331
4D9
331
4DD
331
4DE
331
4E2
331
4E3
331
563
331
564
331
5BE
331
5BF
331
5EE
102
}
  0
BLOCK_RECORD
  5
37
330
1
100
AcDbSymbolTableRecord
100
AcDbBlockTableRecord
  2
Le1001
340
0
  0
BLOCK_RECORD
  5
F7
330
1
100
AcDbSymbolTableRecord
100
AcDbBlockTableRecord
  2
ARRO2
340
0
102
{BLKREFS
331
12A
331
203
331
272
331
28A
331
394
331
41D
331
434
331
568
331
5F1
331
608
102
}
  0
BLOCK_RECORD
  5
104
330
1
100
AcDbSymbolTableRecord
100
AcDbBlockTableRecord
  2
TEMP1
340
0
102
{BLKREFS
331
116
102
}
  0
BLOCK_RECORD
  5
109
330
1
100
AcDbSymbolTableRecord
100
AcDbBlockTableRecord
  2
TEMP2
340
0
102
{BLKREFS
331
115
331
239
331
249
331
3E4
331
5B8
102
}
  0
BLOCK_RECORD
  5
10D
330
1
100
AcDbSymbolTableRecord
100
AcDbBlockTableRecord
  2
Le1009
340
0
  0
BLOCK_RECORD
  5
202
330
1
100
AcDbSymbolTableRecord
100
AcDbBlockTableRecord
  2
Le1007
340
0
  0
BLOCK_RECORD
  5
23E
330
1
100
AcDbSymbolTableRecord
100
AcDbBlockTableRecord
  2
TEMP3
340
0
102
{BLKREFS
331
24A
331
37F
331
553
102
}
  0
BLOCK_RECORD
  5
243
330
1
100
AcDbSymbolTableRecord
100
AcDbBlockTableRecord
  2
Le1021
340
0
  0
BLOCK_RECORD
  5
351
330
1
100
AcDbSymbolTableRecord
100
AcDbBlockTableRecord
  2
Le1022
340
0
  0
ENDTAB
  0
ENDSEC
  0
SECTION
  2
BLOCKS
  0
BLOCK
  5
20
330
1F
100
AcDbEntity
  8
0
100
AcDbBlockBegin
  2
*Model_Space
 70
     0
 10
0.0
 20
0.0
 30
0.0
  3
*Model_Space
  1

  0
ENDBLK
  5
21
330
1F
100
AcDbEntity
  8
0
100
AcDbBlockEnd
  0
BLOCK
  5
1C
330
1B
100
AcDbEntity
 67
     1
  8
0
100
AcDbBlockBegin
  2
*Paper_Space
 70
     0
 10
0.0
 20
0.0
 30
0.0
  3
*Paper_Space
  1

  0
ENDBLK
  5
1D
330
1B
100
AcDbEntity
 67
     1
  8
0
100
AcDbBlockEnd
  0
BLOCK
  5
24
330
23
100
AcDbEntity
  8
0
100
AcDbBlockBegin
  2
*Paper_Space0
 70
     0
 10
0.0
 20
0.0
 30
0.0
  3
*Paper_Space0
  1

  0
ENDBLK
  5
25
330
23
100
AcDbEntity
  8
0
100
AcDbBlockEnd
  0
BLOCK
  5
31
330
2B
100
AcDbEntity
  8
4
100
AcDbBlockBegin
  2
ARRO
 70
     0
 10
0.0
 20
0.0
 30
0.0
  3
ARRO
  1

  0
LINE
  5
2C
330
2B
100
AcDbEntity
  8
4
100
AcDbLine
 10
0.1250000000000018
 20
0.0199999999999996
 30
0.0
 11
0.1250000000000018
 21
-0.0200000000000005
 31
0.0
  0
LINE
  5
2D
330
2B
100
AcDbEntity
  8
4
100
AcDbLine
 10
0.1250000000000018
 20
-0.0100000000000007
 30
0.0
 11
0.0000000000000009
 21
0.0
 31
0.0
  0
LINE
  5
2E
330
2B
100
AcDbEntity
  8
4
100
AcDbLine
 10
0.1250000000000018
 20
0.0099999999999989
 30
0.0
 11
0.0000000000000018
 21
0.0
 31
0.0
  0
LINE
  5
2F
330
2B
100
AcDbEntity
  8
4
100
AcDbLine
 10
0.0000000000000018
 20
0.0
 30
0.0
 11
0.1250000000000018
 21
-0.0200000000000005
 31
0.0
  0
LINE
  5
30
330
2B
100
AcDbEntity
  8
4
100
AcDbLine
 10
0.1250000000000018
 20
0.0199999999999996
 30
0.0
 11
0.0000000000000018
 21
0.0
 31
0.0
  0
ENDBLK
  5
32
330
2B
100
AcDbEntity
  8
4
100
AcDbBlockEnd
  0
BLOCK
  5
F3
330
37
100
AcDbEntity
  8
0
100
AcDbBlockBegin
  2
Le1001
 70
     0
 10
0.0
 20
0.0
 30
0.0
  3
Le1001
  1

  0
TEXT
  5
38
330
37
100
AcDbEntity
  8
8
100
AcDbText
 10
5.2125
 20
1.691660711643185
 30
0.0
 40
0.07
  1
DEPTH
  7
ROMANS
 72
     1
 11
5.3775
 21
1.691660711643185
 31
0.0
100
AcDbText
  0
TEXT
  5
39
330
37
100
AcDbEntity
  8
8
100
AcDbText
 10
6.834999999999999
 20
1.691660711643185
 30
0.0
 40
0.07
  1
DEPTH
  7
ROMANS
 72
     1
 11
7.0
 21
1.691660711643185
 31
0.0
100
AcDbText
  0
TEXT
  5
3A
330
37
100
AcDbEntity
  8
8
100
AcDbText
 10
6.899267058502116
 20
0.7466010068253098
 30
0.0
 40
0.1
  1
DR
  7
ROMANS
 72
     1
 11
7.001648010883068
 21
0.7466010068253098
 31
0.0
100
AcDbText
  0
TEXT
  5
3B
330
37
100
AcDbEntity
  8
8
100
AcDbText
 10
5.794389324558379
 20
0.5620000000000003
 30
0.0
 40
0.1
  1
SECTIONS
  7
ROMANS
 72
     1
 11
6.146770276939331
 21
0.5620000000000003
 31
0.0
100
AcDbText
  0
TEXT
  5
3C
330
37
100
AcDbEntity
  8
8
100
AcDbText
 10
5.302053163126957
 20
0.7466010068253098
 30
0.0
 40
0.1
  1
SR
  7
ROMANS
 72
     1
 11
5.399672210746004
 21
0.7466010068253098
 31
0.0
100
AcDbText
  0
LINE
  5
3D
330
37
100
AcDbEntity
  8
4
100
AcDbLine
 10
5.628
 20
4.25
 30
0.0
 11
5.891731602665403
 21
4.25
 31
0.0
  0
LINE
  5
3E
330
37
100
AcDbEntity
  8
4
100
AcDbLine
 10
5.93215881233783
 20
4.25
 30
0.0
 11
6.112622609161773
 21
4.25
 31
0.0
  0
INSERT
  5
3F
330
37
100
AcDbEntity
  8
4
100
AcDbBlockReference
  2
ARRO
 10
5.93215881233783
 20
4.25
 30
0.0
  0
LINE
  5
40
330
37
100
AcDbEntity
  8
4
100
AcDbLine
 10
6.112622609161773
 20
4.25
 30
0.0
 11
6.112622609161773
 21
4.047012330209487
 31
0.0
  0
TEXT
  5
41
330
37
100
AcDbEntity
  8
8
100
AcDbText
 10
6.147622609161773
 20
2.671678996876154
 30
0.0
 40
0.07
  1
ANCHORING BY ERECTOR
 50
90.0
  7
ROMANS
 72
     2
 11
6.147622609161773
 21
3.985012330209487
 31
0.0
100
AcDbText
  0
TEXT
  5
42
330
37
100
AcDbEntity
  8
8
100
AcDbText
 10
4.500499999999999
 20
2.578333333333333
 30
0.0
 40
0.07
  1
LOCKER HEIGHT
 50
90.0
  7
ROMANS
 72
     1
 11
4.500499999999999
 21
3.0
 31
0.0
100
AcDbText
  0
TEXT
  5
43
330
37
100
AcDbEntity
  8
8
100
AcDbText
 10
1.344999999999998
 20
1.062
 30
0.0
 40
0.07
  1
LOCKER WIDTH - SEE SCHEDULE
  7
ROMANS
 72
     1
 11
2.249999999999999
 21
1.062
 31
0.0
100
AcDbText
  0
TEXT
  5
44
330
37
100
AcDbEntity
  8
8
100
AcDbText
 10
1.585714285714285
 20
0.5620000000000003
 30
0.0
 40
0.1
  1
FRONT ELEVATION
  7
ROMANS
 72
     1
 11
2.249999999999999
 21
0.5620000000000003
 31
0.0
100
AcDbText
  0
LINE
  5
45
330
37
100
AcDbEntity
  8
1
100
AcDbLine
 10
5.203499999999999
 20
1.5625
 30
0.0
 11
5.188499999999999
 21
1.547499999999999
 31
0.0
  0
LINE
  5
46
330
37
100
AcDbEntity
  8
1
100
AcDbLine
 10
5.188499999999999
 20
1.547499999999999
 30
0.0
 11
5.090499999999999
 21
1.547499999999999
 31
0.0
  0
LINE
  5
47
330
37
100
AcDbEntity
  8
1
100
AcDbLine
 10
5.090499999999999
 20
1.547499999999999
 30
0.0
 11
5.090499999999999
 21
1.519253857562439
 31
0.0
  0
LINE
  5
48
330
37
100
AcDbEntity
  8
1
100
AcDbLine
 10
5.265499999999999
 20
1.500499999999999
 30
0.0
 11
5.203499999999999
 21
1.5625
 31
0.0
  0
LINE
  5
49
330
37
100
AcDbEntity
  8
1
100
AcDbLine
 10
5.630499999999999
 20
1.500499999999999
 30
0.0
 11
5.265499999999999
 21
1.500499999999999
 31
0.0
  0
LINE
  5
4A
330
37
100
AcDbEntity
  8
1
100
AcDbLine
 10
5.630499999999999
 20
1.5625
 30
0.0
 11
5.630499999999999
 21
1.500499999999999
 31
0.0
  0
LINE
  5
4B
330
37
100
AcDbEntity
  8
1
100
AcDbLine
 10
5.670499999999999
 20
1.5625
 30
0.0
 11
5.670499999999999
 21
1.500499999999999
 31
0.0
  0
LINE
  5
4C
330
37
100
AcDbEntity
  8
1
100
AcDbLine
 10
5.065499999999999
 20
1.5625
 30
0.0
 11
5.173499999999998
 21
1.5625
 31
0.0
  0
LINE
  5
4D
330
37
100
AcDbEntity
  8
1
100
AcDbLine
 10
5.065499999999999
 20
1.500499999999999
 30
0.0
 11
5.065499999999999
 21
1.5625
 31
0.0
  0
LINE
  5
4E
330
37
100
AcDbEntity
  8
1
100
AcDbLine
 10
5.127499999999999
 20
1.500499999999999
 30
0.0
 11
5.065499999999999
 21
1.500499999999999
 31
0.0
  0
LINE
  5
4F
330
37
100
AcDbEntity
  8
1
100
AcDbLine
 10
5.203499999999999
 20
1.5625
 30
0.0
 11
5.670499999999999
 21
1.5625
 31
0.0
  0
LINE
  5
50
330
37
100
AcDbEntity
  8
1
100
AcDbLine
 10
6.513499999999998
 20
1.5625
 30
0.0
 11
6.980499999999999
 21
1.5625
 31
0.0
  0
LINE
  5
51
330
37
100
AcDbEntity
  8
1
100
AcDbLine
 10
6.437499999999999
 20
1.500499999999999
 30
0.0
 11
6.375499999999998
 21
1.500499999999999
 31
0.0
  0
LINE
  5
52
330
37
100
AcDbEntity
  8
1
100
AcDbLine
 10
6.375499999999998
 20
1.500499999999999
 30
0.0
 11
6.375499999999998
 21
1.5625
 31
0.0
  0
LINE
  5
53
330
37
100
AcDbEntity
  8
1
100
AcDbLine
 10
6.375499999999998
 20
1.5625
 30
0.0
 11
6.483499999999998
 21
1.5625
 31
0.0
  0
LINE
  5
54
330
37
100
AcDbEntity
  8
1
100
AcDbLine
 10
6.980499999999999
 20
1.5625
 30
0.0
 11
6.980499999999999
 21
1.500499999999999
 31
0.0
  0
LINE
  5
55
330
37
100
AcDbEntity
  8
1
100
AcDbLine
 10
6.940499999999999
 20
1.5625
 30
0.0
 11
6.940499999999999
 21
1.500499999999999
 31
0.0
  0
LINE
  5
56
330
37
100
AcDbEntity
  8
1
100
AcDbLine
 10
6.940499999999999
 20
1.500499999999999
 30
0.0
 11
6.575499999999999
 21
1.500499999999999
 31
0.0
  0
LINE
  5
57
330
37
100
AcDbEntity
  8
1
100
AcDbLine
 10
6.575499999999999
 20
1.500499999999999
 30
0.0
 11
6.513499999999998
 21
1.5625
 31
0.0
  0
LINE
  5
58
330
37
100
AcDbEntity
  8
1
100
AcDbLine
 10
6.400499999999999
 20
1.547499999999999
 30
0.0
 11
6.400499999999999
 21
1.519253857562439
 31
0.0
  0
LINE
  5
59
330
37
100
AcDbEntity
  8
1
100
AcDbLine
 10
6.498499999999999
 20
1.547499999999999
 30
0.0
 11
6.400499999999999
 21
1.547499999999999
 31
0.0
  0
LINE
  5
5A
330
37
100
AcDbEntity
  8
1
100
AcDbLine
 10
6.513499999999998
 20
1.5625
 30
0.0
 11
6.498499999999999
 21
1.547499999999999
 31
0.0
  0
LINE
  5
5B
330
37
100
AcDbEntity
  8
1
100
AcDbLine
 10
7.486500000000001
 20
1.5625
 30
0.0
 11
7.5015
 21
1.547499999999999
 31
0.0
  0
LINE
  5
5C
330
37
100
AcDbEntity
  8
1
100
AcDbLine
 10
7.5015
 20
1.547499999999999
 30
0.0
 11
7.5995
 21
1.547499999999999
 31
0.0
  0
LINE
  5
5D
330
37
100
AcDbEntity
  8
1
100
AcDbLine
 10
7.5995
 20
1.547499999999999
 30
0.0
 11
7.5995
 21
1.519253857562439
 31
0.0
  0
LINE
  5
5E
330
37
100
AcDbEntity
  8
1
100
AcDbLine
 10
7.4245
 20
1.500499999999999
 30
0.0
 11
7.486500000000001
 21
1.5625
 31
0.0
  0
LINE
  5
5F
330
37
100
AcDbEntity
  8
1
100
AcDbLine
 10
7.0595
 20
1.500499999999999
 30
0.0
 11
7.4245
 21
1.500499999999999
 31
0.0
  0
LINE
  5
60
330
37
100
AcDbEntity
  8
1
100
AcDbLine
 10
7.0595
 20
1.5625
 30
0.0
 11
7.0595
 21
1.500499999999999
 31
0.0
  0
LINE
  5
61
330
37
100
AcDbEntity
  8
1
100
AcDbLine
 10
7.0195
 20
1.5625
 30
0.0
 11
7.0195
 21
1.500499999999999
 31
0.0
  0
LINE
  5
62
330
37
100
AcDbEntity
  8
1
100
AcDbLine
 10
7.624500000000001
 20
1.5625
 30
0.0
 11
7.516500000000001
 21
1.5625
 31
0.0
  0
LINE
  5
63
330
37
100
AcDbEntity
  8
1
100
AcDbLine
 10
7.624500000000001
 20
1.500499999999999
 30
0.0
 11
7.624500000000001
 21
1.5625
 31
0.0
  0
LINE
  5
64
330
37
100
AcDbEntity
  8
1
100
AcDbLine
 10
7.5625
 20
1.500499999999999
 30
0.0
 11
7.624500000000001
 21
1.500499999999999
 31
0.0
  0
LINE
  5
65
330
37
100
AcDbEntity
  8
1
100
AcDbLine
 10
7.486500000000001
 20
1.5625
 30
0.0
 11
7.0195
 21
1.5625
 31
0.0
  0
LINE
  5
66
330
37
100
AcDbEntity
  8
1
100
AcDbLine
 10
7.486500000000001
 20
4.5
 30
0.0
 11
7.0195
 21
4.5
 31
0.0
  0
LINE
  5
67
330
37
100
AcDbEntity
  8
1
100
AcDbLine
 10
7.5625
 20
4.437999999999999
 30
0.0
 11
7.624500000000001
 21
4.437999999999999
 31
0.0
  0
LINE
  5
68
330
37
100
AcDbEntity
  8
1
100
AcDbLine
 10
7.624500000000001
 20
4.437999999999999
 30
0.0
 11
7.624500000000001
 21
4.5
 31
0.0
  0
LINE
  5
69
330
37
100
AcDbEntity
  8
1
100
AcDbLine
 10
7.624500000000001
 20
4.5
 30
0.0
 11
7.516500000000001
 21
4.5
 31
0.0
  0
LINE
  5
6A
330
37
100
AcDbEntity
  8
1
100
AcDbLine
 10
7.0195
 20
4.5
 30
0.0
 11
7.0195
 21
4.437999999999999
 31
0.0
  0
LINE
  5
6B
330
37
100
AcDbEntity
  8
1
100
AcDbLine
 10
7.0595
 20
4.5
 30
0.0
 11
7.0595
 21
4.437999999999999
 31
0.0
  0
LINE
  5
6C
330
37
100
AcDbEntity
  8
1
100
AcDbLine
 10
7.0595
 20
4.437999999999999
 30
0.0
 11
7.4245
 21
4.437999999999999
 31
0.0
  0
LINE
  5
6D
330
37
100
AcDbEntity
  8
1
100
AcDbLine
 10
7.4245
 20
4.437999999999999
 30
0.0
 11
7.486500000000001
 21
4.5
 31
0.0
  0
LINE
  5
6E
330
37
100
AcDbEntity
  8
1
100
AcDbLine
 10
7.5995
 20
4.484999999999999
 30
0.0
 11
7.5995
 21
4.456753857562439
 31
0.0
  0
LINE
  5
6F
330
37
100
AcDbEntity
  8
1
100
AcDbLine
 10
7.5015
 20
4.484999999999999
 30
0.0
 11
7.5995
 21
4.484999999999999
 31
0.0
  0
LINE
  5
70
330
37
100
AcDbEntity
  8
1
100
AcDbLine
 10
7.486500000000001
 20
4.5
 30
0.0
 11
7.5015
 21
4.484999999999999
 31
0.0
  0
LINE
  5
71
330
37
100
AcDbEntity
  8
1
100
AcDbLine
 10
6.513499999999998
 20
4.5
 30
0.0
 11
6.498499999999999
 21
4.484999999999999
 31
0.0
  0
LINE
  5
72
330
37
100
AcDbEntity
  8
1
100
AcDbLine
 10
6.498499999999999
 20
4.484999999999999
 30
0.0
 11
6.400499999999999
 21
4.484999999999999
 31
0.0
  0
LINE
  5
73
330
37
100
AcDbEntity
  8
1
100
AcDbLine
 10
6.400499999999999
 20
4.484999999999999
 30
0.0
 11
6.400499999999999
 21
4.456753857562439
 31
0.0
  0
LINE
  5
74
330
37
100
AcDbEntity
  8
1
100
AcDbLine
 10
6.575499999999999
 20
4.437999999999999
 30
0.0
 11
6.513499999999998
 21
4.5
 31
0.0
  0
LINE
  5
75
330
37
100
AcDbEntity
  8
1
100
AcDbLine
 10
6.940499999999999
 20
4.437999999999999
 30
0.0
 11
6.575499999999999
 21
4.437999999999999
 31
0.0
  0
LINE
  5
76
330
37
100
AcDbEntity
  8
1
100
AcDbLine
 10
6.940499999999999
 20
4.5
 30
0.0
 11
6.940499999999999
 21
4.437999999999999
 31
0.0
  0
LINE
  5
77
330
37
100
AcDbEntity
  8
1
100
AcDbLine
 10
6.980499999999999
 20
4.5
 30
0.0
 11
6.980499999999999
 21
4.437999999999999
 31
0.0
  0
LINE
  5
78
330
37
100
AcDbEntity
  8
1
100
AcDbLine
 10
6.375499999999998
 20
4.5
 30
0.0
 11
6.483499999999998
 21
4.5
 31
0.0
  0
LINE
  5
79
330
37
100
AcDbEntity
  8
1
100
AcDbLine
 10
6.375499999999998
 20
4.437999999999999
 30
0.0
 11
6.375499999999998
 21
4.5
 31
0.0
  0
LINE
  5
7A
330
37
100
AcDbEntity
  8
1
100
AcDbLine
 10
6.437499999999999
 20
4.437999999999999
 30
0.0
 11
6.375499999999998
 21
4.437999999999999
 31
0.0
  0
LINE
  5
7B
330
37
100
AcDbEntity
  8
1
100
AcDbLine
 10
6.513499999999998
 20
4.5
 30
0.0
 11
6.980499999999999
 21
4.5
 31
0.0
  0
LINE
  5
7C
330
37
100
AcDbEntity
  8
1
100
AcDbLine
 10
5.203499999999999
 20
4.5
 30
0.0
 11
5.670499999999999
 21
4.5
 31
0.0
  0
LINE
  5
7D
330
37
100
AcDbEntity
  8
1
100
AcDbLine
 10
5.127499999999999
 20
4.437999999999999
 30
0.0
 11
5.065499999999999
 21
4.437999999999999
 31
0.0
  0
LINE
  5
7E
330
37
100
AcDbEntity
  8
1
100
AcDbLine
 10
5.065499999999999
 20
4.437999999999999
 30
0.0
 11
5.065499999999999
 21
4.5
 31
0.0
  0
LINE
  5
7F
330
37
100
AcDbEntity
  8
1
100
AcDbLine
 10
5.065499999999999
 20
4.5
 30
0.0
 11
5.173499999999998
 21
4.5
 31
0.0
  0
LINE
  5
80
330
37
100
AcDbEntity
  8
1
100
AcDbLine
 10
5.670499999999999
 20
4.5
 30
0.0
 11
5.670499999999999
 21
4.437999999999999
 31
0.0
  0
LINE
  5
81
330
37
100
AcDbEntity
  8
1
100
AcDbLine
 10
5.630499999999999
 20
4.5
 30
0.0
 11
5.630499999999999
 21
4.437999999999999
 31
0.0
  0
LINE
  5
82
330
37
100
AcDbEntity
  8
1
100
AcDbLine
 10
5.630499999999999
 20
4.437999999999999
 30
0.0
 11
5.265499999999999
 21
4.437999999999999
 31
0.0
  0
LINE
  5
83
330
37
100
AcDbEntity
  8
1
100
AcDbLine
 10
5.265499999999999
 20
4.437999999999999
 30
0.0
 11
5.203499999999999
 21
4.5
 31
0.0
  0
LINE
  5
84
330
37
100
AcDbEntity
  8
1
100
AcDbLine
 10
5.090499999999999
 20
4.484999999999999
 30
0.0
 11
5.090499999999999
 21
4.456753857562439
 31
0.0
  0
LINE
  5
85
330
37
100
AcDbEntity
  8
1
100
AcDbLine
 10
5.188499999999999
 20
4.484999999999999
 30
0.0
 11
5.090499999999999
 21
4.484999999999999
 31
0.0
  0
LINE
  5
86
330
37
100
AcDbEntity
  8
1
100
AcDbLine
 10
5.203499999999999
 20
4.5
 30
0.0
 11
5.188499999999999
 21
4.484999999999999
 31
0.0
  0
LINE
  5
87
330
37
100
AcDbEntity
  8
1
100
AcDbLine
 10
1.062
 20
1.562
 30
0.0
 11
1.562999999999999
 21
1.562
 31
0.0
  0
LINE
  5
88
330
37
100
AcDbEntity
  8
4
100
AcDbLine
 10
1.872866710308013
 20
1.373999999999999
 30
0.0
 11
1.934866710308013
 21
1.373999999999999
 31
0.0
  0
CIRCLE
  5
89
330
37
100
AcDbEntity
  8
4
100
AcDbCircle
 10
2.028866710308013
 20
1.373999999999999
 30
0.0
 40
0.094
  0
LINE
  5
8A
330
37
100
AcDbEntity
  8
4
100
AcDbLine
 10
1.778866710308013
 20
1.467999999999999
 30
0.0
 11
1.778866710308013
 21
1.592999999999999
 31
0.0
  0
CIRCLE
  5
8B
330
37
100
AcDbEntity
  8
4
100
AcDbCircle
 10
1.778866710308013
 20
1.373999999999999
 30
0.0
 40
0.094
  0
CIRCLE
  5
8C
330
37
100
AcDbEntity
  8
4
100
AcDbCircle
 10
1.9375
 20
4.312
 30
0.0
 40
0.094
  0
LINE
  5
8D
330
37
100
AcDbEntity
  8
4
100
AcDbLine
 10
1.9375
 20
4.406
 30
0.0
 11
1.9375
 21
4.531
 31
0.0
  0
LINE
  5
8E
330
37
100
AcDbEntity
  8
1
100
AcDbLine
 10
2.499999999999999
 20
1.562
 30
0.0
 11
2.312
 21
1.562
 31
0.0
  0
LINE
  5
8F
330
37
100
AcDbEntity
  8
1
100
AcDbLine
 10
2.625
 20
4.438
 30
0.0
 11
2.813
 21
4.438
 31
0.0
  0
LINE
  5
90
330
37
100
AcDbEntity
  8
1
100
AcDbLine
 10
2.875
 20
1.5
 30
0.0
 11
2.875
 21
4.5
 31
0.0
  0
LINE
  5
91
330
37
100
AcDbEntity
  8
1
100
AcDbLine
 10
2.25
 20
1.5
 30
0.0
 11
2.25
 21
4.5
 31
0.0
  0
LINE
  5
92
330
37
100
AcDbEntity
  8
1
100
AcDbLine
 10
1.625
 20
1.5
 30
0.0
 11
1.625
 21
4.5
 31
0.0
  0
LINE
  5
93
330
37
100
AcDbEntity
  8
1
100
AcDbLine
 10
3.437999999999999
 20
1.562
 30
0.0
 11
2.937
 21
1.562
 31
0.0
  0
LINE
  5
94
330
37
100
AcDbEntity
  8
1
100
AcDbLine
 10
3.438
 20
4.438
 30
0.0
 11
3.437999999999999
 21
1.562
 31
0.0
  0
LINE
  5
95
330
37
100
AcDbEntity
  8
1
100
AcDbLine
 10
2.937
 20
4.438
 30
0.0
 11
3.438
 21
4.438
 31
0.0
  0
LINE
  5
96
330
37
100
AcDbEntity
  8
1
100
AcDbLine
 10
2.937
 20
1.562
 30
0.0
 11
2.937
 21
4.438
 31
0.0
  0
LINE
  5
97
330
37
100
AcDbEntity
  8
1
100
AcDbLine
 10
2.812999999999999
 20
1.562
 30
0.0
 11
2.625
 21
1.562
 31
0.0
  0
LINE
  5
98
330
37
100
AcDbEntity
  8
1
100
AcDbLine
 10
2.813
 20
4.438
 30
0.0
 11
2.812999999999999
 21
1.562
 31
0.0
  0
LINE
  5
99
330
37
100
AcDbEntity
  8
1
100
AcDbLine
 10
2.312
 20
4.438
 30
0.0
 11
2.5
 21
4.438
 31
0.0
  0
LINE
  5
9A
330
37
100
AcDbEntity
  8
1
100
AcDbLine
 10
2.312
 20
1.562
 30
0.0
 11
2.312
 21
4.438
 31
0.0
  0
LINE
  5
9B
330
37
100
AcDbEntity
  8
1
100
AcDbLine
 10
2.187999999999999
 20
1.562
 30
0.0
 11
1.687
 21
1.562
 31
0.0
  0
LINE
  5
9C
330
37
100
AcDbEntity
  8
1
100
AcDbLine
 10
2.188
 20
4.438
 30
0.0
 11
2.187999999999999
 21
1.562
 31
0.0
  0
LINE
  5
9D
330
37
100
AcDbEntity
  8
1
100
AcDbLine
 10
1.687
 20
4.438
 30
0.0
 11
2.188
 21
4.438
 31
0.0
  0
LINE
  5
9E
330
37
100
AcDbEntity
  8
1
100
AcDbLine
 10
1.687
 20
1.562
 30
0.0
 11
1.687
 21
4.438
 31
0.0
  0
LINE
  5
9F
330
37
100
AcDbEntity
  8
1
100
AcDbLine
 10
1.563
 20
4.438
 30
0.0
 11
1.562999999999999
 21
1.562
 31
0.0
  0
LINE
  5
A0
330
37
100
AcDbEntity
  8
1
100
AcDbLine
 10
1.062
 20
4.438
 30
0.0
 11
1.563
 21
4.438
 31
0.0
  0
LINE
  5
A1
330
37
100
AcDbEntity
  8
1
100
AcDbLine
 10
1.062
 20
1.562
 30
0.0
 11
1.062
 21
4.438
 31
0.0
  0
INSERT
  5
A2
330
37
100
AcDbEntity
  8
4
100
AcDbBlockReference
  2
ARRO
 10
7.625
 20
1.8125
 30
0.0
 50
180.0
  0
INSERT
  5
A3
330
37
100
AcDbEntity
  8
4
100
AcDbBlockReference
  2
ARRO
 10
6.375
 20
1.8125
 30
0.0
  0
INSERT
  5
A4
330
37
100
AcDbEntity
  8
4
100
AcDbBlockReference
  2
ARRO
 10
5.75
 20
1.8125
 30
0.0
  0
INSERT
  5
A5
330
37
100
AcDbEntity
  8
4
100
AcDbBlockReference
  2
ARRO
 10
5.69
 20
1.8125
 30
0.0
 50
180.0
  0
INSERT
  5
A6
330
37
100
AcDbEntity
  8
4
100
AcDbBlockReference
  2
ARRO
 10
5.065
 20
1.8125
 30
0.0
  0
LINE
  5
A7
330
37
100
AcDbEntity
  8
4
100
AcDbLine
 10
6.375
 20
1.8125
 30
0.0
 11
7.625
 21
1.8125
 31
0.0
  0
LINE
  5
A8
330
37
100
AcDbEntity
  8
4
100
AcDbLine
 10
5.75
 20
1.8125
 30
0.0
 11
6.0
 21
1.8125
 31
0.0
  0
LINE
  5
A9
330
37
100
AcDbEntity
  8
4
100
AcDbLine
 10
5.69
 20
1.8125
 30
0.0
 11
5.065
 21
1.8125
 31
0.0
  0
INSERT
  5
AA
330
37
100
AcDbEntity
  8
4
100
AcDbBlockReference
  2
ARRO
 10
4.5625
 20
1.5
 30
0.0
 50
90.0
  0
INSERT
  5
AB
330
37
100
AcDbEntity
  8
4
100
AcDbBlockReference
  2
ARRO
 10
4.5625
 20
4.5
 30
0.0
 50
270.0
  0
LINE
  5
AC
330
37
100
AcDbEntity
  8
4
100
AcDbLine
 10
5.0025
 20
4.5
 30
0.0
 11
4.5025
 21
4.5
 31
0.0
  0
LINE
  5
AD
330
37
100
AcDbEntity
  8
4
100
AcDbLine
 10
4.5625
 20
1.5
 30
0.0
 11
4.5625
 21
4.5
 31
0.0
  0
LINE
  5
AE
330
37
100
AcDbEntity
  8
4
100
AcDbLine
 10
5.0025
 20
1.5
 30
0.0
 11
4.5025
 21
1.5
 31
0.0
  0
INSERT
  5
AF
330
37
100
AcDbEntity
  8
4
100
AcDbBlockReference
  2
ARRO
 10
3.499999999999999
 20
0.9999999999999998
 30
0.0
 50
180.0
  0
INSERT
  5
B0
330
37
100
AcDbEntity
  8
4
100
AcDbBlockReference
  2
ARRO
 10
0.9999999999999998
 20
1.0
 30
0.0
  0
LINE
  5
B1
330
37
100
AcDbEntity
  8
4
100
AcDbLine
 10
3.499999999999999
 20
1.0
 30
0.0
 11
0.9999999999999998
 21
1.0
 31
0.0
  0
LINE
  5
B2
330
37
100
AcDbEntity
  8
4
100
AcDbLine
 10
3.499999999999999
 20
1.437999999999999
 30
0.0
 11
3.499999999999999
 21
0.9379999999999999
 31
0.0
  0
LINE
  5
B3
330
37
100
AcDbEntity
  8
4
100
AcDbLine
 10
1.0
 20
1.437999999999999
 30
0.0
 11
0.9999999999999998
 21
0.9379999999999999
 31
0.0
  0
LINE
  5
B4
330
37
100
AcDbEntity
  8
1
100
AcDbLine
 10
5.69
 20
1.5
 30
0.0
 11
5.69
 21
4.5
 31
0.0
  0
LINE
  5
B5
330
37
100
AcDbEntity
  8
1
100
AcDbLine
 10
5.75
 20
4.75
 30
0.0
 11
5.875
 21
4.875
 31
0.0
  0
LINE
  5
B6
330
37
100
AcDbEntity
  8
1
100
AcDbLine
 10
5.75
 20
4.625
 30
0.0
 11
5.937999999999999
 21
4.812999999999999
 31
0.0
  0
LINE
  5
B7
330
37
100
AcDbEntity
  8
1
100
AcDbLine
 10
5.75
 20
4.5
 30
0.0
 11
5.937999999999999
 21
4.687999999999999
 31
0.0
  0
LINE
  5
B8
330
37
100
AcDbEntity
  8
1
100
AcDbLine
 10
5.75
 20
4.375
 30
0.0
 11
5.937999999999999
 21
4.562999999999999
 31
0.0
  0
LINE
  5
B9
330
37
100
AcDbEntity
  8
1
100
AcDbLine
 10
5.75
 20
4.25
 30
0.0
 11
5.937999999999999
 21
4.437999999999999
 31
0.0
  0
LINE
  5
BA
330
37
100
AcDbEntity
  8
1
100
AcDbLine
 10
5.75
 20
4.125
 30
0.0
 11
5.937999999999999
 21
4.312999999999999
 31
0.0
  0
LINE
  5
BB
330
37
100
AcDbEntity
  8
1
100
AcDbLine
 10
5.75
 20
4.0
 30
0.0
 11
5.937999999999999
 21
4.187999999999999
 31
0.0
  0
LINE
  5
BC
330
37
100
AcDbEntity
  8
1
100
AcDbLine
 10
5.75
 20
3.875
 30
0.0
 11
5.937999999999999
 21
4.062999999999999
 31
0.0
  0
LINE
  5
BD
330
37
100
AcDbEntity
  8
1
100
AcDbLine
 10
5.75
 20
3.75
 30
0.0
 11
5.937999999999999
 21
3.937999999999999
 31
0.0
  0
LINE
  5
BE
330
37
100
AcDbEntity
  8
1
100
AcDbLine
 10
5.75
 20
3.625
 30
0.0
 11
5.937999999999999
 21
3.812999999999999
 31
0.0
  0
LINE
  5
BF
330
37
100
AcDbEntity
  8
1
100
AcDbLine
 10
5.75
 20
3.5
 30
0.0
 11
5.937999999999999
 21
3.687999999999999
 31
0.0
  0
LINE
  5
C0
330
37
100
AcDbEntity
  8
1
100
AcDbLine
 10
5.75
 20
3.375
 30
0.0
 11
5.937999999999999
 21
3.562999999999999
 31
0.0
  0
LINE
  5
C1
330
37
100
AcDbEntity
  8
1
100
AcDbLine
 10
5.75
 20
3.25
 30
0.0
 11
5.937999999999999
 21
3.437999999999999
 31
0.0
  0
LINE
  5
C2
330
37
100
AcDbEntity
  8
1
100
AcDbLine
 10
5.75
 20
3.125
 30
0.0
 11
5.937999999999999
 21
3.312999999999999
 31
0.0
  0
LINE
  5
C3
330
37
100
AcDbEntity
  8
1
100
AcDbLine
 10
5.75
 20
3.0
 30
0.0
 11
5.937999999999999
 21
3.187999999999999
 31
0.0
  0
LINE
  5
C4
330
37
100
AcDbEntity
  8
1
100
AcDbLine
 10
5.75
 20
2.875
 30
0.0
 11
5.937999999999999
 21
3.062999999999999
 31
0.0
  0
LINE
  5
C5
330
37
100
AcDbEntity
  8
1
100
AcDbLine
 10
5.75
 20
2.75
 30
0.0
 11
5.937999999999999
 21
2.937999999999999
 31
0.0
  0
LINE
  5
C6
330
37
100
AcDbEntity
  8
1
100
AcDbLine
 10
5.75
 20
2.625
 30
0.0
 11
5.937999999999999
 21
2.812999999999999
 31
0.0
  0
LINE
  5
C7
330
37
100
AcDbEntity
  8
1
100
AcDbLine
 10
5.75
 20
2.5
 30
0.0
 11
5.937999999999999
 21
2.687999999999999
 31
0.0
  0
LINE
  5
C8
330
37
100
AcDbEntity
  8
1
100
AcDbLine
 10
5.75
 20
2.375
 30
0.0
 11
5.937999999999999
 21
2.562999999999999
 31
0.0
  0
LINE
  5
C9
330
37
100
AcDbEntity
  8
1
100
AcDbLine
 10
5.75
 20
2.25
 30
0.0
 11
5.937999999999999
 21
2.437999999999999
 31
0.0
  0
LINE
  5
CA
330
37
100
AcDbEntity
  8
1
100
AcDbLine
 10
5.75
 20
2.125
 30
0.0
 11
5.937999999999999
 21
2.312999999999999
 31
0.0
  0
LINE
  5
CB
330
37
100
AcDbEntity
  8
1
100
AcDbLine
 10
5.75
 20
2.0
 30
0.0
 11
5.937999999999999
 21
2.187999999999999
 31
0.0
  0
LINE
  5
CC
330
37
100
AcDbEntity
  8
1
100
AcDbLine
 10
5.75
 20
1.625
 30
0.0
 11
5.937999999999999
 21
1.812999999999999
 31
0.0
  0
LINE
  5
CD
330
37
100
AcDbEntity
  8
1
100
AcDbLine
 10
5.75
 20
1.5
 30
0.0
 11
5.937999999999999
 21
1.687999999999999
 31
0.0
  0
LINE
  5
CE
330
37
100
AcDbEntity
  8
1
100
AcDbLine
 10
2.625
 20
2.379974179311579
 30
0.0
 11
2.624999999999999
 21
1.375
 31
0.0
  0
LINE
  5
CF
330
37
100
AcDbEntity
  8
1
100
AcDbLine
 10
2.625
 20
2.782474179311579
 30
0.0
 11
2.625
 21
2.469974179311579
 31
0.0
  0
LINE
  5
D0
330
37
100
AcDbEntity
  8
1
100
AcDbLine
 10
2.625
 20
3.625967704151865
 30
0.0
 11
2.625
 21
2.782474179311579
 31
0.0
  0
LINE
  5
D1
330
37
100
AcDbEntity
  8
1
100
AcDbLine
 10
2.58
 20
3.664974179311579
 30
0.0
 11
2.669999999999999
 21
3.574974179311579
 31
0.0
  0
LINE
  5
D2
330
37
100
AcDbEntity
  8
1
100
AcDbLine
 10
2.669999999999999
 20
3.664974179311579
 30
0.0
 11
2.58
 21
3.664974179311579
 31
0.0
  0
LINE
  5
D3
330
37
100
AcDbEntity
  8
1
100
AcDbLine
 10
2.58
 20
3.754974179311579
 30
0.0
 11
2.669999999999999
 21
3.664974179311579
 31
0.0
  0
LINE
  5
D4
330
37
100
AcDbEntity
  8
1
100
AcDbLine
 10
2.579999999999999
 20
2.424974179311579
 30
0.0
 11
2.669999999999999
 21
2.334974179311579
 31
0.0
  0
LINE
  5
D5
330
37
100
AcDbEntity
  8
1
100
AcDbLine
 10
2.669999999999999
 20
2.424974179311579
 30
0.0
 11
2.579999999999999
 21
2.424974179311579
 31
0.0
  0
LINE
  5
D6
330
37
100
AcDbEntity
  8
1
100
AcDbLine
 10
2.579999999999999
 20
2.514974179311579
 30
0.0
 11
2.669999999999999
 21
2.424974179311579
 31
0.0
  0
LINE
  5
D7
330
37
100
AcDbEntity
  8
1
100
AcDbLine
 10
2.499999999999999
 20
1.754974179311579
 30
0.0
 11
2.499999999999999
 21
1.375
 31
0.0
  0
LINE
  5
D8
330
37
100
AcDbEntity
  8
1
100
AcDbLine
 10
2.5
 20
2.469974179311579
 30
0.0
 11
2.499999999999999
 21
1.844974179311579
 31
0.0
  0
LINE
  5
D9
330
37
100
AcDbEntity
  8
1
100
AcDbLine
 10
2.5
 20
3.004974179311579
 30
0.0
 11
2.5
 21
2.469974179311579
 31
0.0
  0
LINE
  5
DA
330
37
100
AcDbEntity
  8
1
100
AcDbLine
 10
2.454999999999999
 20
1.889974179311579
 30
0.0
 11
2.544999999999999
 21
1.799974179311579
 31
0.0
  0
LINE
  5
DB
330
37
100
AcDbEntity
  8
1
100
AcDbLine
 10
2.544999999999999
 20
1.799974179311579
 30
0.0
 11
2.454999999999999
 21
1.799974179311579
 31
0.0
  0
LINE
  5
DC
330
37
100
AcDbEntity
  8
1
100
AcDbLine
 10
2.454999999999999
 20
1.799974179311579
 30
0.0
 11
2.544999999999999
 21
1.709974179311579
 31
0.0
  0
LINE
  5
DD
330
37
100
AcDbEntity
  8
1
100
AcDbLine
 10
2.454999999999999
 20
3.139974179311579
 30
0.0
 11
2.544999999999999
 21
3.049974179311579
 31
0.0
  0
LINE
  5
DE
330
37
100
AcDbEntity
  8
1
100
AcDbLine
 10
2.544999999999999
 20
3.049974179311579
 30
0.0
 11
2.454999999999999
 21
3.049974179311579
 31
0.0
  0
LINE
  5
DF
330
37
100
AcDbEntity
  8
1
100
AcDbLine
 10
2.454999999999999
 20
3.049974179311579
 30
0.0
 11
2.544999999999999
 21
2.959974179311579
 31
0.0
  0
LINE
  5
E0
330
37
100
AcDbEntity
  8
1
100
AcDbLine
 10
2.512196030826982
 20
4.242778148484597
 30
0.0
 11
2.512196030826982
 21
3.07567852914767
 31
0.0
  0
LINE
  5
E1
330
37
100
AcDbEntity
  8
1
100
AcDbLine
 10
2.455
 20
4.299974179311579
 30
0.0
 11
2.544999999999999
 21
4.209974179311579
 31
0.0
  0
LINE
  5
E2
330
37
100
AcDbEntity
  8
1
100
AcDbLine
 10
2.544999999999999
 20
4.299974179311579
 30
0.0
 11
2.455
 21
4.299974179311579
 31
0.0
  0
LINE
  5
E3
330
37
100
AcDbEntity
  8
1
100
AcDbLine
 10
2.455
 20
4.389974179311579
 30
0.0
 11
2.544999999999999
 21
4.299974179311579
 31
0.0
  0
LINE
  5
E4
330
37
100
AcDbEntity
  8
1
100
AcDbLine
 10
2.5
 20
4.625
 30
0.0
 11
2.5
 21
4.344974179311579
 31
0.0
  0
LINE
  5
E5
330
37
100
AcDbEntity
  8
1
100
AcDbLine
 10
2.625
 20
4.625
 30
0.0
 11
2.625
 21
3.709974179311579
 31
0.0
  0
CIRCLE
  5
E6
330
37
100
AcDbEntity
  8
1
100
AcDbCircle
 10
4.125
 20
0.5
 30
0.0
 40
0.1875
  0
LINE
  5
E7
330
37
100
AcDbEntity
  8
1
100
AcDbLine
 10
5.75
 20
1.5
 30
0.0
 11
5.75
 21
4.875
 31
0.0
  0
LINE
  5
E8
330
37
100
AcDbEntity
  8
1
100
AcDbLine
 10
7.0
 20
1.5
 30
0.0
 11
7.0
 21
4.5
 31
0.0
  0
LINE
  5
E9
330
37
100
AcDbEntity
  8
1
100
AcDbLine
 10
3.499999999999999
 20
1.5
 30
0.0
 11
2.624999999999999
 21
1.5
 31
0.0
  0
LINE
  5
EA
330
37
100
AcDbEntity
  8
1
100
AcDbLine
 10
3.5
 20
4.5
 30
0.0
 11
3.499999999999999
 21
1.5
 31
0.0
  0
LINE
  5
EB
330
37
100
AcDbEntity
  8
1
100
AcDbLine
 10
2.625
 20
4.5
 30
0.0
 11
3.5
 21
4.5
 31
0.0
  0
LINE
  5
EC
330
37
100
AcDbEntity
  8
1
100
AcDbLine
 10
1.0
 20
4.5
 30
0.0
 11
2.5
 21
4.5
 31
0.0
  0
LINE
  5
ED
330
37
100
AcDbEntity
  8
1
100
AcDbLine
 10
1.0
 20
1.5
 30
0.0
 11
1.0
 21
4.5
 31
0.0
  0
LINE
  5
EE
330
37
100
AcDbEntity
  8
1
100
AcDbLine
 10
1.0
 20
1.5
 30
0.0
 11
2.5
 21
1.5
 31
0.0
  0
LINE
  5
EF
330
37
100
AcDbEntity
  8
1
100
AcDbLine
 10
0.0
 20
5.25
 30
0.0
 11
0.0
 21
0.0
 31
0.0
  0
LINE
  5
F0
330
37
100
AcDbEntity
  8
1
100
AcDbLine
 10
8.25
 20
5.25
 30
0.0
 11
0.0
 21
5.25
 31
0.0
  0
LINE
  5
F1
330
37
100
AcDbEntity
  8
1
100
AcDbLine
 10
8.25
 20
0.0
 30
0.0
 11
8.25
 21
5.25
 31
0.0
  0
LINE
  5
F2
330
37
100
AcDbEntity
  8
1
100
AcDbLine
 10
0.0
 20
0.0
 30
0.0
 11
8.25
 21
0.0
 31
0.0
  0
ENDBLK
  5
F4
330
37
100
AcDbEntity
  8
0
100
AcDbBlockEnd
  0
BLOCK
  5
102
330
F7
100
AcDbEntity
  8
8
100
AcDbBlockBegin
  2
ARRO2
 70
     0
 10
0.0
 20
0.0
 30
0.0
  3
ARRO2
  1

  0
LINE
  5
F8
330
F7
100
AcDbEntity
  8
4
100
AcDbLine
 10
-0.124999999999992
 20
-0.0200000000000005
 30
0.0
 11
0.000000000000008
 21
-0.0000000000000009
 31
0.0
  0
LINE
  5
F9
330
F7
100
AcDbEntity
  8
4
100
AcDbLine
 10
0.000000000000008
 20
-0.0000000000000009
 30
0.0
 11
-0.124999999999992
 21
0.0199999999999996
 31
0.0
  0
LINE
  5
FA
330
F7
100
AcDbEntity
  8
4
100
AcDbLine
 10
-0.124999999999992
 20
-0.0099999999999998
 30
0.0
 11
0.000000000000008
 21
-0.0000000000000009
 31
0.0
  0
LINE
  5
FB
330
F7
100
AcDbEntity
  8
4
100
AcDbLine
 10
-0.124999999999992
 20
0.0099999999999998
 30
0.0
 11
0.0000000000000089
 21
-0.0000000000000009
 31
0.0
  0
LINE
  5
FC
330
F7
100
AcDbEntity
  8
4
100
AcDbLine
 10
-0.124999999999992
 20
-0.0200000000000005
 30
0.0
 11
-0.124999999999992
 21
0.0199999999999996
 31
0.0
  0
LINE
  5
FD
330
F7
100
AcDbEntity
  8
4
100
AcDbLine
 10
0.1250000000000124
 20
0.0199999999999987
 30
0.0
 11
0.1250000000000124
 21
-0.0200000000000014
 31
0.0
  0
LINE
  5
FE
330
F7
100
AcDbEntity
  8
4
100
AcDbLine
 10
0.1250000000000124
 20
-0.0100000000000016
 30
0.0
 11
0.0000000000000115
 21
-0.0000000000000009
 31
0.0
  0
LINE
  5
FF
330
F7
100
AcDbEntity
  8
4
100
AcDbLine
 10
0.1250000000000124
 20
0.009999999999998
 30
0.0
 11
0.0000000000000124
 21
-0.0000000000000009
 31
0.0
  0
LINE
  5
100
330
F7
100
AcDbEntity
  8
4
100
AcDbLine
 10
0.0000000000000124
 20
-0.0000000000000009
 30
0.0
 11
0.1250000000000124
 21
-0.0200000000000014
 31
0.0
  0
LINE
  5
101
330
F7
100
AcDbEntity
  8
4
100
AcDbLine
 10
0.1250000000000124
 20
0.0199999999999987
 30
0.0
 11
0.0000000000000124
 21
-0.0000000000000009
 31
0.0
  0
ENDBLK
  5
103
330
F7
100
AcDbEntity
  8
8
100
AcDbBlockEnd
  0
BLOCK
  5
107
330
104
100
AcDbEntity
  8
8
100
AcDbBlockBegin
  2
TEMP1
 70
     0
 10
0.0
 20
0.0
 30
0.0
  3
TEMP1
  1

  0
TEXT
  5
105
330
104
100
AcDbEntity
  8
8
100
AcDbText
 10
0.03
 20
0.0619999999999998
 30
0.0
 40
0.07
  1
LOCK ESCUTCHEON
 50
90.0
  7
ROMANS
100
AcDbText
  0
TEXT
  5
106
330
104
100
AcDbEntity
  8
8
100
AcDbText
 10
0.03
 20
-1.196833333333332
 30
0.0
 40
0.07
  1
HANDLE & P/A
 50
90.0
  7
ROMANS
 72
     2
 11
0.03
 21
-0.3734999999999995
 31
0.0
100
AcDbText
  0
ENDBLK
  5
108
330
104
100
AcDbEntity
  8
8
100
AcDbBlockEnd
  0
BLOCK
  5
10B
330
109
100
AcDbEntity
  8
8
100
AcDbBlockBegin
  2
TEMP2
 70
     0
 10
0.0
 20
0.0
 30
0.0
  3
TEMP2
  1

  0
TEXT
  5
10A
330
109
100
AcDbEntity
  8
8
100
AcDbText
 10
-0.0620000000000003
 20
0.1763333333333335
 30
0.0
 40
0.07
  1
1
 50
90.0
 72
     1
 11
-0.0620000000000003
 21
0.1880000000000002
 31
0.0
100
AcDbText
  0
ENDBLK
  5
10C
330
109
100
AcDbEntity
  8
8
100
AcDbBlockEnd
  0
BLOCK
  5
1FC
330
10D
100
AcDbEntity
  8
0
100
AcDbBlockBegin
  2
Le1009
 70
     0
 10
0.0
 20
0.0
 30
0.0
  3
Le1009
  1

  0
LWPOLYLINE
  5
10E
330
10D
100
AcDbEntity
  8
4
100
AcDbPolyline
 90
        2
 70
     1
 43
0.01
 10
1.181
 20
2.400483801611808
 42
1.0
 10
1.191
 20
2.400483801611808
 42
1.0
  0
LWPOLYLINE
  5
10F
330
10D
100
AcDbEntity
  8
4
100
AcDbPolyline
 90
        2
 70
     1
 43
0.01
 10
1.181
 20
2.505483801611808
 42
1.0
 10
1.191
 20
2.505483801611808
 42
1.0
  0
CIRCLE
  5
110
330
10D
100
AcDbEntity
  8
4
100
AcDbCircle
 10
1.186
 20
2.452983801611809
 30
0.0
 40
0.023
  0
LWPOLYLINE
  5
111
330
10D
100
AcDbEntity
  8
4
100
AcDbPolyline
 90
        2
 70
     1
 43
0.01
 10
1.181
 20
3.869483801611808
 42
1.0
 10
1.191
 20
3.869483801611808
 42
1.0
  0
LWPOLYLINE
  5
112
330
10D
100
AcDbEntity
  8
4
100
AcDbPolyline
 90
        2
 70
     1
 43
0.01
 10
1.181
 20
3.974483801611808
 42
1.0
 10
1.191
 20
3.974483801611808
 42
1.0
  0
CIRCLE
  5
113
330
10D
100
AcDbEntity
  8
4
100
AcDbCircle
 10
1.186
 20
3.921983801611808
 30
0.0
 40
0.023
  0
TEXT
  5
114
330
10D
100
AcDbEntity
  8
8
100
AcDbText
 10
2.062499999999999
 20
0.094
 30
0.0
 40
0.125
  1
STANDARD LOCKER -     " DOUBLE TIER
  7
ROMANS
 72
     1
 11
4.125
 21
0.094
 31
0.0
100
AcDbText
  0
INSERT
  5
115
330
10D
100
AcDbEntity
  8
8
100
AcDbBlockReference
  2
TEMP2
 10
4.8125
 20
1.562
 30
0.0
  0
INSERT
  5
116
330
10D
100
AcDbEntity
  8
8
100
AcDbBlockReference
  2
TEMP1
 10
0.5859118825233172
 20
3.983983801611808
 30
0.0
  0
LINE
  5
117
330
10D
100
AcDbEntity
  8
8
100
AcDbLine
 10
4.228470283689762
 20
0.0686649506663671
 30
0.0
 11
4.728470283689762
 21
0.0686649506663671
 31
0.0
  0
LINE
  5
118
330
10D
100
AcDbEntity
  8
4
100
AcDbLine
 10
7.6245
 20
1.594
 30
0.0
 11
7.5625
 21
1.594
 31
0.0
  0
LINE
  5
119
330
10D
100
AcDbEntity
  8
4
100
AcDbLine
 10
6.375499999999999
 20
1.594
 30
0.0
 11
6.4375
 21
1.594
 31
0.0
  0
LINE
  5
11A
330
10D
100
AcDbEntity
  8
4
100
AcDbLine
 10
5.0655
 20
1.594
 30
0.0
 11
5.1275
 21
1.594
 31
0.0
  0
INSERT
  5
11B
330
10D
100
AcDbEntity
  8
4
100
AcDbBlockReference
  2
ARRO
 10
4.8125
 20
1.5
 30
0.0
 50
270.0
  0
INSERT
  5
11C
330
10D
100
AcDbEntity
  8
4
100
AcDbBlockReference
  2
ARRO
 10
4.8125
 20
1.562
 30
0.0
 50
90.0
  0
LINE
  5
11D
330
10D
100
AcDbEntity
  8
4
100
AcDbLine
 10
4.8125
 20
1.562
 30
0.0
 11
4.750499999999999
 21
1.562
 31
0.0
  0
LINE
  5
11E
330
10D
100
AcDbEntity
  8
4
100
AcDbLine
 10
5.0025
 20
1.562
 30
0.0
 11
4.8125
 21
1.562
 31
0.0
  0
LINE
  5
11F
330
10D
100
AcDbEntity
  8
4
100
AcDbLine
 10
4.8125
 20
1.5
 30
0.0
 11
4.8125
 21
1.375
 31
0.0
  0
LINE
  5
120
330
10D
100
AcDbEntity
  8
4
100
AcDbLine
 10
7.6245
 20
2.93700587855713
 30
0.0
 11
7.6245
 21
1.594
 31
0.0
  0
LINE
  5
121
330
10D
100
AcDbEntity
  8
4
100
AcDbLine
 10
6.375499999999999
 20
2.93700587855713
 30
0.0
 11
6.375499999999999
 21
1.594
 31
0.0
  0
LINE
  5
122
330
10D
100
AcDbEntity
  8
4
100
AcDbLine
 10
5.0655
 20
2.93700587855713
 30
0.0
 11
5.0655
 21
1.594
 31
0.0
  0
LINE
  5
123
330
10D
100
AcDbEntity
  8
4
100
AcDbLine
 10
4.8125
 20
4.5
 30
0.0
 11
4.8125
 21
1.562
 31
0.0
  0
LINE
  5
124
330
10D
100
AcDbEntity
  8
4
100
AcDbLine
 10
5.0655
 20
4.406
 30
0.0
 11
5.0655
 21
3.062961724666486
 31
0.0
  0
LINE
  5
125
330
10D
100
AcDbEntity
  8
4
100
AcDbLine
 10
6.375499999999999
 20
4.406
 30
0.0
 11
6.375499999999999
 21
3.062961724666486
 31
0.0
  0
LINE
  5
126
330
10D
100
AcDbEntity
  8
4
100
AcDbLine
 10
7.6245
 20
4.406
 30
0.0
 11
7.6245
 21
3.062961724666486
 31
0.0
  0
LINE
  5
127
330
10D
100
AcDbEntity
  8
4
100
AcDbLine
 10
7.624500000000001
 20
4.406
 30
0.0
 11
7.5625
 21
4.406
 31
0.0
  0
LINE
  5
128
330
10D
100
AcDbEntity
  8
4
100
AcDbLine
 10
6.375499999999998
 20
4.406
 30
0.0
 11
6.437499999999999
 21
4.406
 31
0.0
  0
LINE
  5
129
330
10D
100
AcDbEntity
  8
4
100
AcDbLine
 10
5.065499999999999
 20
4.406
 30
0.0
 11
5.127499999999999
 21
4.406
 31
0.0
  0
INSERT
  5
12A
330
10D
100
AcDbEntity
  8
4
100
AcDbBlockReference
  2
ARRO2
 10
4.8125
 20
3.03100587855713
 30
0.0
 50
90.0
  0
LINE
  5
12B
330
10D
100
AcDbEntity
  8
4
100
AcDbLine
 10
4.8125
 20
3.03100587855713
 30
0.0
 11
4.750499999999999
 21
3.03100587855713
 31
0.0
  0
LINE
  5
12C
330
10D
100
AcDbEntity
  8
4
100
AcDbLine
 10
5.0025
 20
3.03100587855713
 30
0.0
 11
4.8125
 21
3.03100587855713
 31
0.0
  0
LINE
  5
12D
330
10D
100
AcDbEntity
  8
4
100
AcDbLine
 10
7.301520109897515
 20
4.38
 30
0.0
 11
7.301520109897515
 21
4.318000000000001
 31
0.0
  0
LINE
  5
12E
330
10D
100
AcDbEntity
  8
4
100
AcDbLine
 10
7.332520109897515
 20
4.38
 30
0.0
 11
7.270520109897516
 21
4.38
 31
0.0
  0
LINE
  5
12F
330
10D
100
AcDbEntity
  8
4
100
AcDbLine
 10
7.0195
 20
4.343000000000001
 30
0.0
 11
7.0195
 21
4.393
 31
0.0
  0
ARC
  5
130
330
10D
100
AcDbEntity
  8
4
100
AcDbCircle
 10
7.0445
 20
4.343000000000001
 30
0.0
 40
0.025
100
AcDbArc
 50
180.0
 51
0.0
  0
ARC
  5
131
330
10D
100
AcDbEntity
  8
4
100
AcDbCircle
 10
6.9555
 20
4.343000000000001
 30
0.0
 40
0.025
100
AcDbArc
 50
180.0
 51
0.0
  0
LINE
  5
132
330
10D
100
AcDbEntity
  8
4
100
AcDbLine
 10
6.9805
 20
4.343000000000001
 30
0.0
 11
6.9805
 21
4.393
 31
0.0
  0
LINE
  5
133
330
10D
100
AcDbEntity
  8
4
100
AcDbLine
 10
6.667479890102485
 20
4.38
 30
0.0
 11
6.729479890102484
 21
4.38
 31
0.0
  0
LINE
  5
134
330
10D
100
AcDbEntity
  8
4
100
AcDbLine
 10
6.698479890102484
 20
4.38
 30
0.0
 11
6.698479890102484
 21
4.318000000000001
 31
0.0
  0
LINE
  5
135
330
10D
100
AcDbEntity
  8
4
100
AcDbLine
 10
5.388479890102485
 20
4.38
 30
0.0
 11
5.388479890102485
 21
4.318000000000001
 31
0.0
  0
LINE
  5
136
330
10D
100
AcDbEntity
  8
4
100
AcDbLine
 10
5.357479890102485
 20
4.38
 30
0.0
 11
5.419479890102484
 21
4.38
 31
0.0
  0
LINE
  5
137
330
10D
100
AcDbEntity
  8
4
100
AcDbLine
 10
5.6705
 20
4.343000000000001
 30
0.0
 11
5.6705
 21
4.393
 31
0.0
  0
ARC
  5
138
330
10D
100
AcDbEntity
  8
4
100
AcDbCircle
 10
5.645500000000001
 20
4.343000000000001
 30
0.0
 40
0.025
100
AcDbArc
 50
180.0
 51
0.0
  0
INSERT
  5
139
330
10D
100
AcDbEntity
  8
4
100
AcDbBlockReference
  2
ARRO
 10
4.8125
 20
4.5
 30
0.0
 50
270.0
  0
LINE
  5
13A
330
10D
100
AcDbEntity
  8
4
100
AcDbLine
 10
5.203499999999999
 20
3.03100587855713
 30
0.0
 11
5.188499999999999
 21
3.016005878557129
 31
0.0
  0
LINE
  5
13B
330
10D
100
AcDbEntity
  8
4
100
AcDbLine
 10
5.188499999999999
 20
3.016005878557129
 30
0.0
 11
5.090499999999999
 21
3.016005878557129
 31
0.0
  0
LINE
  5
13C
330
10D
100
AcDbEntity
  8
4
100
AcDbLine
 10
5.090499999999999
 20
3.016005878557129
 30
0.0
 11
5.090499999999999
 21
2.98775973611957
 31
0.0
  0
LINE
  5
13D
330
10D
100
AcDbEntity
  8
4
100
AcDbLine
 10
5.265499999999999
 20
2.96900587855713
 30
0.0
 11
5.203499999999999
 21
3.03100587855713
 31
0.0
  0
LINE
  5
13E
330
10D
100
AcDbEntity
  8
4
100
AcDbLine
 10
5.630499999999999
 20
2.96900587855713
 30
0.0
 11
5.265499999999999
 21
2.96900587855713
 31
0.0
  0
LINE
  5
13F
330
10D
100
AcDbEntity
  8
4
100
AcDbLine
 10
5.630499999999999
 20
3.03100587855713
 30
0.0
 11
5.630499999999999
 21
2.96900587855713
 31
0.0
  0
LINE
  5
140
330
10D
100
AcDbEntity
  8
4
100
AcDbLine
 10
5.670499999999999
 20
3.03100587855713
 30
0.0
 11
5.670499999999999
 21
2.96900587855713
 31
0.0
  0
LINE
  5
141
330
10D
100
AcDbEntity
  8
4
100
AcDbLine
 10
5.065499999999999
 20
3.03100587855713
 30
0.0
 11
5.173499999999998
 21
3.03100587855713
 31
0.0
  0
LINE
  5
142
330
10D
100
AcDbEntity
  8
4
100
AcDbLine
 10
5.065499999999999
 20
2.96900587855713
 30
0.0
 11
5.065499999999999
 21
3.03100587855713
 31
0.0
  0
LINE
  5
143
330
10D
100
AcDbEntity
  8
4
100
AcDbLine
 10
5.127499999999999
 20
2.96900587855713
 30
0.0
 11
5.065499999999999
 21
2.96900587855713
 31
0.0
  0
LINE
  5
144
330
10D
100
AcDbEntity
  8
4
100
AcDbLine
 10
5.203499999999999
 20
3.03100587855713
 30
0.0
 11
5.670499999999999
 21
3.03100587855713
 31
0.0
  0
LINE
  5
145
330
10D
100
AcDbEntity
  8
4
100
AcDbLine
 10
6.513499999999998
 20
3.03100587855713
 30
0.0
 11
6.980499999999999
 21
3.03100587855713
 31
0.0
  0
LINE
  5
146
330
10D
100
AcDbEntity
  8
4
100
AcDbLine
 10
6.437499999999999
 20
2.96900587855713
 30
0.0
 11
6.375499999999998
 21
2.96900587855713
 31
0.0
  0
LINE
  5
147
330
10D
100
AcDbEntity
  8
4
100
AcDbLine
 10
6.375499999999998
 20
2.96900587855713
 30
0.0
 11
6.375499999999998
 21
3.03100587855713
 31
0.0
  0
LINE
  5
148
330
10D
100
AcDbEntity
  8
4
100
AcDbLine
 10
6.375499999999998
 20
3.03100587855713
 30
0.0
 11
6.483499999999998
 21
3.03100587855713
 31
0.0
  0
LINE
  5
149
330
10D
100
AcDbEntity
  8
4
100
AcDbLine
 10
6.980499999999999
 20
3.03100587855713
 30
0.0
 11
6.980499999999999
 21
2.96900587855713
 31
0.0
  0
LINE
  5
14A
330
10D
100
AcDbEntity
  8
4
100
AcDbLine
 10
6.940499999999999
 20
3.03100587855713
 30
0.0
 11
6.940499999999999
 21
2.96900587855713
 31
0.0
  0
LINE
  5
14B
330
10D
100
AcDbEntity
  8
4
100
AcDbLine
 10
6.940499999999999
 20
2.96900587855713
 30
0.0
 11
6.575499999999999
 21
2.96900587855713
 31
0.0
  0
LINE
  5
14C
330
10D
100
AcDbEntity
  8
4
100
AcDbLine
 10
6.575499999999999
 20
2.96900587855713
 30
0.0
 11
6.513499999999998
 21
3.03100587855713
 31
0.0
  0
LINE
  5
14D
330
10D
100
AcDbEntity
  8
4
100
AcDbLine
 10
6.400499999999999
 20
3.016005878557129
 30
0.0
 11
6.400499999999999
 21
2.98775973611957
 31
0.0
  0
LINE
  5
14E
330
10D
100
AcDbEntity
  8
4
100
AcDbLine
 10
6.498499999999999
 20
3.016005878557129
 30
0.0
 11
6.400499999999999
 21
3.016005878557129
 31
0.0
  0
LINE
  5
14F
330
10D
100
AcDbEntity
  8
4
100
AcDbLine
 10
6.513499999999998
 20
3.03100587855713
 30
0.0
 11
6.498499999999999
 21
3.016005878557129
 31
0.0
  0
LINE
  5
150
330
10D
100
AcDbEntity
  8
4
100
AcDbLine
 10
7.486500000000001
 20
3.03100587855713
 30
0.0
 11
7.5015
 21
3.016005878557129
 31
0.0
  0
LINE
  5
151
330
10D
100
AcDbEntity
  8
4
100
AcDbLine
 10
7.5015
 20
3.016005878557129
 30
0.0
 11
7.5995
 21
3.016005878557129
 31
0.0
  0
LINE
  5
152
330
10D
100
AcDbEntity
  8
4
100
AcDbLine
 10
7.5995
 20
3.016005878557129
 30
0.0
 11
7.5995
 21
2.98775973611957
 31
0.0
  0
LINE
  5
153
330
10D
100
AcDbEntity
  8
4
100
AcDbLine
 10
7.4245
 20
2.96900587855713
 30
0.0
 11
7.486500000000001
 21
3.03100587855713
 31
0.0
  0
LINE
  5
154
330
10D
100
AcDbEntity
  8
4
100
AcDbLine
 10
7.0595
 20
2.96900587855713
 30
0.0
 11
7.4245
 21
2.96900587855713
 31
0.0
  0
LINE
  5
155
330
10D
100
AcDbEntity
  8
4
100
AcDbLine
 10
7.0595
 20
3.03100587855713
 30
0.0
 11
7.0595
 21
2.96900587855713
 31
0.0
  0
LINE
  5
156
330
10D
100
AcDbEntity
  8
4
100
AcDbLine
 10
7.0195
 20
3.03100587855713
 30
0.0
 11
7.0195
 21
2.96900587855713
 31
0.0
  0
LINE
  5
157
330
10D
100
AcDbEntity
  8
4
100
AcDbLine
 10
7.624500000000001
 20
3.03100587855713
 30
0.0
 11
7.516500000000001
 21
3.03100587855713
 31
0.0
  0
LINE
  5
158
330
10D
100
AcDbEntity
  8
4
100
AcDbLine
 10
7.624500000000001
 20
2.96900587855713
 30
0.0
 11
7.624500000000001
 21
3.03100587855713
 31
0.0
  0
LINE
  5
159
330
10D
100
AcDbEntity
  8
4
100
AcDbLine
 10
7.5625
 20
2.96900587855713
 30
0.0
 11
7.624500000000001
 21
2.96900587855713
 31
0.0
  0
LINE
  5
15A
330
10D
100
AcDbEntity
  8
4
100
AcDbLine
 10
7.486500000000001
 20
3.03100587855713
 30
0.0
 11
7.0195
 21
3.03100587855713
 31
0.0
  0
LINE
  5
15B
330
10D
100
AcDbEntity
  8
4
100
AcDbLine
 10
5.0655
 20
3.062961724666487
 30
0.0
 11
5.127499999999999
 21
3.062961724666487
 31
0.0
  0
LINE
  5
15C
330
10D
100
AcDbEntity
  8
4
100
AcDbLine
 10
5.0655
 20
2.93700587855713
 30
0.0
 11
5.1275
 21
2.93700587855713
 31
0.0
  0
LINE
  5
15D
330
10D
100
AcDbEntity
  8
4
100
AcDbLine
 10
6.375499999999998
 20
3.062961724666486
 30
0.0
 11
6.437499999999999
 21
3.062961724666486
 31
0.0
  0
LINE
  5
15E
330
10D
100
AcDbEntity
  8
4
100
AcDbLine
 10
7.5625
 20
3.062961724666486
 30
0.0
 11
7.624499999999999
 21
3.062961724666486
 31
0.0
  0
LINE
  5
15F
330
10D
100
AcDbEntity
  8
4
100
AcDbLine
 10
7.5625
 20
2.93700587855713
 30
0.0
 11
7.624499999999999
 21
2.93700587855713
 31
0.0
  0
LINE
  5
160
330
10D
100
AcDbEntity
  8
4
100
AcDbLine
 10
6.375499999999999
 20
2.93700587855713
 30
0.0
 11
6.437499999999999
 21
2.93700587855713
 31
0.0
  0
ARC
  5
161
330
10D
100
AcDbEntity
  8
4
100
AcDbCircle
 10
5.645500000000001
 20
2.874046183989781
 30
0.0
 40
0.025
100
AcDbArc
 50
180.0
 51
0.0
  0
LINE
  5
162
330
10D
100
AcDbEntity
  8
4
100
AcDbLine
 10
5.6705
 20
2.874046183989781
 30
0.0
 11
5.6705
 21
2.92404618398978
 31
0.0
  0
LINE
  5
163
330
10D
100
AcDbEntity
  8
4
100
AcDbLine
 10
5.357479890102485
 20
2.91104618398978
 30
0.0
 11
5.419479890102484
 21
2.91104618398978
 31
0.0
  0
LINE
  5
164
330
10D
100
AcDbEntity
  8
4
100
AcDbLine
 10
5.388479890102485
 20
2.91104618398978
 30
0.0
 11
5.388479890102485
 21
2.849046183989781
 31
0.0
  0
LINE
  5
165
330
10D
100
AcDbEntity
  8
4
100
AcDbLine
 10
6.698479890102484
 20
2.91104618398978
 30
0.0
 11
6.698479890102484
 21
2.849046183989781
 31
0.0
  0
LINE
  5
166
330
10D
100
AcDbEntity
  8
4
100
AcDbLine
 10
6.667479890102485
 20
2.91104618398978
 30
0.0
 11
6.729479890102484
 21
2.91104618398978
 31
0.0
  0
LINE
  5
167
330
10D
100
AcDbEntity
  8
4
100
AcDbLine
 10
6.9805
 20
2.874046183989781
 30
0.0
 11
6.9805
 21
2.92404618398978
 31
0.0
  0
ARC
  5
168
330
10D
100
AcDbEntity
  8
4
100
AcDbCircle
 10
6.9555
 20
2.874046183989781
 30
0.0
 40
0.025
100
AcDbArc
 50
180.0
 51
0.0
  0
ARC
  5
169
330
10D
100
AcDbEntity
  8
4
100
AcDbCircle
 10
7.0445
 20
2.874046183989781
 30
0.0
 40
0.025
100
AcDbArc
 50
180.0
 51
0.0
  0
LINE
  5
16A
330
10D
100
AcDbEntity
  8
4
100
AcDbLine
 10
7.0195
 20
2.874046183989781
 30
0.0
 11
7.0195
 21
2.92404618398978
 31
0.0
  0
LINE
  5
16B
330
10D
100
AcDbEntity
  8
4
100
AcDbLine
 10
7.332520109897515
 20
2.91104618398978
 30
0.0
 11
7.270520109897516
 21
2.91104618398978
 31
0.0
  0
LINE
  5
16C
330
10D
100
AcDbEntity
  8
4
100
AcDbLine
 10
7.301520109897515
 20
2.91104618398978
 30
0.0
 11
7.301520109897515
 21
2.849046183989781
 31
0.0
  0
INSERT
  5
16D
330
10D
100
AcDbEntity
  8
4
100
AcDbBlockReference
  2
ARRO
 10
0.9609118825233171
 20
3.734483801611808
 30
0.0
 50
180.0
  0
INSERT
  5
16E
330
10D
100
AcDbEntity
  8
4
100
AcDbBlockReference
  2
ARRO
 10
0.9609118825233171
 20
3.921983801611808
 30
0.0
 50
180.0
  0
LINE
  5
16F
330
10D
100
AcDbEntity
  8
4
100
AcDbLine
 10
0.5859118825233172
 20
3.734483801611808
 30
0.0
 11
0.5859118825233172
 21
3.672483801611809
 31
0.0
  0
LINE
  5
170
330
10D
100
AcDbEntity
  8
4
100
AcDbLine
 10
0.9609118825233171
 20
3.734483801611808
 30
0.0
 11
0.5859118825233172
 21
3.734483801611808
 31
0.0
  0
LINE
  5
171
330
10D
100
AcDbEntity
  8
4
100
AcDbLine
 10
0.5859118825233172
 20
3.921983801611808
 30
0.0
 11
0.5859118825233172
 21
3.983983801611808
 31
0.0
  0
LINE
  5
172
330
10D
100
AcDbEntity
  8
4
100
AcDbLine
 10
0.9609118825233171
 20
3.921983801611808
 30
0.0
 11
0.5859118825233172
 21
3.921983801611808
 31
0.0
  0
CIRCLE
  5
173
330
10D
100
AcDbEntity
  8
4
100
AcDbCircle
 10
1.186
 20
3.921983801611808
 30
0.0
 40
0.023
  0
LINE
  5
174
330
10D
100
AcDbEntity
  8
4
100
AcDbLine
 10
1.165
 20
3.686483801611808
 30
0.0
 11
1.124
 21
3.686483801611808
 31
0.0
  0
LINE
  5
175
330
10D
100
AcDbEntity
  8
4
100
AcDbLine
 10
1.165
 20
3.780483801611808
 30
0.0
 11
1.124
 21
3.780483801611808
 31
0.0
  0
LINE
  5
176
330
10D
100
AcDbEntity
  8
4
100
AcDbLine
 10
1.165
 20
3.812483801611808
 30
0.0
 11
1.124
 21
3.812483801611808
 31
0.0
  0
LINE
  5
177
330
10D
100
AcDbEntity
  8
4
100
AcDbLine
 10
1.165
 20
3.656483801611808
 30
0.0
 11
1.165
 21
3.812483801611808
 31
0.0
  0
LINE
  5
178
330
10D
100
AcDbEntity
  8
4
100
AcDbLine
 10
1.124
 20
3.656483801611808
 30
0.0
 11
1.165
 21
3.656483801611808
 31
0.0
  0
LINE
  5
179
330
10D
100
AcDbEntity
  8
4
100
AcDbLine
 10
1.124
 20
3.812483801611808
 30
0.0
 11
1.124
 21
3.656483801611808
 31
0.0
  0
LINE
  5
17A
330
10D
100
AcDbEntity
  8
4
100
AcDbLine
 10
1.540999999999999
 20
3.436961724666486
 30
0.0
 11
1.540999999999999
 21
3.311961724666486
 31
0.0
  0
LINE
  5
17B
330
10D
100
AcDbEntity
  8
4
100
AcDbLine
 10
1.541
 20
4.15600587855713
 30
0.0
 11
1.541
 21
4.03100587855713
 31
0.0
  0
LINE
  5
17C
330
10D
100
AcDbEntity
  8
4
100
AcDbLine
 10
1.2625
 20
4.331344519608852
 30
0.0
 11
1.2625
 21
4.378344519608853
 31
0.0
  0
LINE
  5
17D
330
10D
100
AcDbEntity
  8
4
100
AcDbLine
 10
1.3625
 20
4.331344519608852
 30
0.0
 11
1.2625
 21
4.331344519608852
 31
0.0
  0
LINE
  5
17E
330
10D
100
AcDbEntity
  8
4
100
AcDbLine
 10
1.3625
 20
4.378344519608853
 30
0.0
 11
1.3625
 21
4.331344519608852
 31
0.0
  0
LINE
  5
17F
330
10D
100
AcDbEntity
  8
4
100
AcDbLine
 10
1.2625
 20
4.378344519608853
 30
0.0
 11
1.3625
 21
4.378344519608853
 31
0.0
  0
LINE
  5
180
330
10D
100
AcDbEntity
  8
4
100
AcDbLine
 10
1.187799999999999
 20
3.437461724666486
 30
0.0
 11
1.437799999999999
 21
3.437461724666486
 31
0.0
  0
LINE
  5
181
330
10D
100
AcDbEntity
  8
4
100
AcDbLine
 10
1.437799999999999
 20
3.437461724666486
 30
0.0
 11
1.417799999999999
 21
3.457461724666486
 31
0.0
  0
LINE
  5
182
330
10D
100
AcDbEntity
  8
4
100
AcDbLine
 10
1.187799999999999
 20
3.437461724666486
 30
0.0
 11
1.207799999999999
 21
3.457461724666486
 31
0.0
  0
LINE
  5
183
330
10D
100
AcDbEntity
  8
4
100
AcDbLine
 10
1.187799999999999
 20
3.387461724666486
 30
0.0
 11
1.207799999999999
 21
3.407461724666486
 31
0.0
  0
LINE
  5
184
330
10D
100
AcDbEntity
  8
4
100
AcDbLine
 10
1.437799999999999
 20
3.387461724666486
 30
0.0
 11
1.417799999999999
 21
3.407461724666486
 31
0.0
  0
LINE
  5
185
330
10D
100
AcDbEntity
  8
4
100
AcDbLine
 10
1.187799999999999
 20
3.387461724666486
 30
0.0
 11
1.437799999999999
 21
3.387461724666486
 31
0.0
  0
LINE
  5
186
330
10D
100
AcDbEntity
  8
4
100
AcDbLine
 10
1.187799999999999
 20
3.337461724666487
 30
0.0
 11
1.207799999999999
 21
3.357461724666486
 31
0.0
  0
LINE
  5
187
330
10D
100
AcDbEntity
  8
4
100
AcDbLine
 10
1.437799999999999
 20
3.337461724666487
 30
0.0
 11
1.417799999999999
 21
3.357461724666486
 31
0.0
  0
LINE
  5
188
330
10D
100
AcDbEntity
  8
4
100
AcDbLine
 10
1.187799999999999
 20
3.337461724666487
 30
0.0
 11
1.437799999999999
 21
3.337461724666487
 31
0.0
  0
LINE
  5
189
330
10D
100
AcDbEntity
  8
4
100
AcDbLine
 10
1.187799999999999
 20
3.287461724666486
 30
0.0
 11
1.207799999999999
 21
3.307461724666485
 31
0.0
  0
LINE
  5
18A
330
10D
100
AcDbEntity
  8
4
100
AcDbLine
 10
1.437799999999999
 20
3.287461724666486
 30
0.0
 11
1.417799999999999
 21
3.307461724666485
 31
0.0
  0
LINE
  5
18B
330
10D
100
AcDbEntity
  8
4
100
AcDbLine
 10
1.187799999999999
 20
3.287461724666486
 30
0.0
 11
1.437799999999999
 21
3.287461724666486
 31
0.0
  0
LINE
  5
18C
330
10D
100
AcDbEntity
  8
4
100
AcDbLine
 10
1.187799999999999
 20
3.237461724666486
 30
0.0
 11
1.207799999999999
 21
3.257461724666486
 31
0.0
  0
LINE
  5
18D
330
10D
100
AcDbEntity
  8
4
100
AcDbLine
 10
1.437799999999999
 20
3.237461724666486
 30
0.0
 11
1.417799999999999
 21
3.257461724666486
 31
0.0
  0
LINE
  5
18E
330
10D
100
AcDbEntity
  8
4
100
AcDbLine
 10
1.187799999999999
 20
3.237461724666486
 30
0.0
 11
1.437799999999999
 21
3.237461724666486
 31
0.0
  0
LINE
  5
18F
330
10D
100
AcDbEntity
  8
4
100
AcDbLine
 10
1.187799999999999
 20
3.187461724666486
 30
0.0
 11
1.207799999999999
 21
3.207461724666486
 31
0.0
  0
LINE
  5
190
330
10D
100
AcDbEntity
  8
4
100
AcDbLine
 10
1.437799999999999
 20
3.187461724666486
 30
0.0
 11
1.417799999999999
 21
3.207461724666486
 31
0.0
  0
LINE
  5
191
330
10D
100
AcDbEntity
  8
4
100
AcDbLine
 10
1.187799999999999
 20
3.187461724666486
 30
0.0
 11
1.437799999999999
 21
3.187461724666486
 31
0.0
  0
LINE
  5
192
330
10D
100
AcDbEntity
  8
4
100
AcDbLine
 10
1.1878
 20
4.03100587855713
 30
0.0
 11
1.4378
 21
4.03100587855713
 31
0.0
  0
LINE
  5
193
330
10D
100
AcDbEntity
  8
4
100
AcDbLine
 10
1.4378
 20
4.03100587855713
 30
0.0
 11
1.4178
 21
4.05100587855713
 31
0.0
  0
LINE
  5
194
330
10D
100
AcDbEntity
  8
4
100
AcDbLine
 10
1.1878
 20
4.03100587855713
 30
0.0
 11
1.2078
 21
4.05100587855713
 31
0.0
  0
LINE
  5
195
330
10D
100
AcDbEntity
  8
4
100
AcDbLine
 10
1.1878
 20
4.08100587855713
 30
0.0
 11
1.4378
 21
4.08100587855713
 31
0.0
  0
LINE
  5
196
330
10D
100
AcDbEntity
  8
4
100
AcDbLine
 10
1.4378
 20
4.08100587855713
 30
0.0
 11
1.4178
 21
4.101005878557129
 31
0.0
  0
LINE
  5
197
330
10D
100
AcDbEntity
  8
4
100
AcDbLine
 10
1.1878
 20
4.08100587855713
 30
0.0
 11
1.2078
 21
4.101005878557129
 31
0.0
  0
LINE
  5
198
330
10D
100
AcDbEntity
  8
4
100
AcDbLine
 10
1.1878
 20
4.13100587855713
 30
0.0
 11
1.4378
 21
4.13100587855713
 31
0.0
  0
LINE
  5
199
330
10D
100
AcDbEntity
  8
4
100
AcDbLine
 10
1.4378
 20
4.13100587855713
 30
0.0
 11
1.4178
 21
4.151005878557129
 31
0.0
  0
LINE
  5
19A
330
10D
100
AcDbEntity
  8
4
100
AcDbLine
 10
1.1878
 20
4.13100587855713
 30
0.0
 11
1.2078
 21
4.151005878557129
 31
0.0
  0
LINE
  5
19B
330
10D
100
AcDbEntity
  8
4
100
AcDbLine
 10
1.1878
 20
4.18100587855713
 30
0.0
 11
1.4378
 21
4.18100587855713
 31
0.0
  0
LINE
  5
19C
330
10D
100
AcDbEntity
  8
4
100
AcDbLine
 10
1.4378
 20
4.18100587855713
 30
0.0
 11
1.4178
 21
4.20100587855713
 31
0.0
  0
LINE
  5
19D
330
10D
100
AcDbEntity
  8
4
100
AcDbLine
 10
1.1878
 20
4.18100587855713
 30
0.0
 11
1.2078
 21
4.20100587855713
 31
0.0
  0
LINE
  5
19E
330
10D
100
AcDbEntity
  8
4
100
AcDbLine
 10
1.1878
 20
4.23100587855713
 30
0.0
 11
1.4378
 21
4.23100587855713
 31
0.0
  0
LINE
  5
19F
330
10D
100
AcDbEntity
  8
4
100
AcDbLine
 10
1.4378
 20
4.23100587855713
 30
0.0
 11
1.4178
 21
4.25100587855713
 31
0.0
  0
LINE
  5
1A0
330
10D
100
AcDbEntity
  8
4
100
AcDbLine
 10
1.1878
 20
4.23100587855713
 30
0.0
 11
1.2078
 21
4.25100587855713
 31
0.0
  0
LINE
  5
1A1
330
10D
100
AcDbEntity
  8
4
100
AcDbLine
 10
1.1878
 20
4.28100587855713
 30
0.0
 11
1.2078
 21
4.30100587855713
 31
0.0
  0
LINE
  5
1A2
330
10D
100
AcDbEntity
  8
4
100
AcDbLine
 10
1.4378
 20
4.28100587855713
 30
0.0
 11
1.4178
 21
4.30100587855713
 31
0.0
  0
LINE
  5
1A3
330
10D
100
AcDbEntity
  8
4
100
AcDbLine
 10
1.1878
 20
4.28100587855713
 30
0.0
 11
1.4378
 21
4.28100587855713
 31
0.0
  0
LINE
  5
1A4
330
10D
100
AcDbEntity
  8
4
100
AcDbLine
 10
1.530999999999999
 20
3.062961724666487
 30
0.0
 11
1.094
 21
3.062961724666486
 31
0.0
  0
LINE
  5
1A5
330
10D
100
AcDbEntity
  8
4
100
AcDbLine
 10
1.531
 20
4.40600587855713
 30
0.0
 11
1.530999999999999
 21
3.062961724666487
 31
0.0
  0
LINE
  5
1A6
330
10D
100
AcDbEntity
  8
4
100
AcDbLine
 10
1.094
 20
4.40600587855713
 30
0.0
 11
1.531
 21
4.40600587855713
 31
0.0
  0
LINE
  5
1A7
330
10D
100
AcDbEntity
  8
4
100
AcDbLine
 10
1.094
 20
3.062961724666486
 30
0.0
 11
1.094
 21
4.40600587855713
 31
0.0
  0
LINE
  5
1A8
330
10D
100
AcDbEntity
  8
4
100
AcDbLine
 10
1.093999999999999
 20
1.593961724666486
 30
0.0
 11
1.094
 21
2.93700587855713
 31
0.0
  0
LINE
  5
1A9
330
10D
100
AcDbEntity
  8
4
100
AcDbLine
 10
1.094
 20
2.93700587855713
 30
0.0
 11
1.531
 21
2.93700587855713
 31
0.0
  0
LINE
  5
1AA
330
10D
100
AcDbEntity
  8
4
100
AcDbLine
 10
1.531
 20
2.93700587855713
 30
0.0
 11
1.530999999999999
 21
1.593961724666487
 31
0.0
  0
LINE
  5
1AB
330
10D
100
AcDbEntity
  8
4
100
AcDbLine
 10
1.530999999999999
 20
1.593961724666487
 30
0.0
 11
1.093999999999999
 21
1.593961724666486
 31
0.0
  0
LINE
  5
1AC
330
10D
100
AcDbEntity
  8
4
100
AcDbLine
 10
1.187799999999999
 20
2.81200587855713
 30
0.0
 11
1.4378
 21
2.81200587855713
 31
0.0
  0
LINE
  5
1AD
330
10D
100
AcDbEntity
  8
4
100
AcDbLine
 10
1.4378
 20
2.81200587855713
 30
0.0
 11
1.417799999999999
 21
2.83200587855713
 31
0.0
  0
LINE
  5
1AE
330
10D
100
AcDbEntity
  8
4
100
AcDbLine
 10
1.187799999999999
 20
2.81200587855713
 30
0.0
 11
1.207799999999999
 21
2.83200587855713
 31
0.0
  0
LINE
  5
1AF
330
10D
100
AcDbEntity
  8
4
100
AcDbLine
 10
1.187799999999999
 20
2.76200587855713
 30
0.0
 11
1.207799999999999
 21
2.78200587855713
 31
0.0
  0
LINE
  5
1B0
330
10D
100
AcDbEntity
  8
4
100
AcDbLine
 10
1.4378
 20
2.76200587855713
 30
0.0
 11
1.417799999999999
 21
2.78200587855713
 31
0.0
  0
LINE
  5
1B1
330
10D
100
AcDbEntity
  8
4
100
AcDbLine
 10
1.187799999999999
 20
2.76200587855713
 30
0.0
 11
1.4378
 21
2.76200587855713
 31
0.0
  0
LINE
  5
1B2
330
10D
100
AcDbEntity
  8
4
100
AcDbLine
 10
1.187799999999999
 20
2.712005878557131
 30
0.0
 11
1.207799999999999
 21
2.73200587855713
 31
0.0
  0
LINE
  5
1B3
330
10D
100
AcDbEntity
  8
4
100
AcDbLine
 10
1.4378
 20
2.712005878557131
 30
0.0
 11
1.417799999999999
 21
2.73200587855713
 31
0.0
  0
LINE
  5
1B4
330
10D
100
AcDbEntity
  8
4
100
AcDbLine
 10
1.187799999999999
 20
2.712005878557131
 30
0.0
 11
1.4378
 21
2.712005878557131
 31
0.0
  0
LINE
  5
1B5
330
10D
100
AcDbEntity
  8
4
100
AcDbLine
 10
1.187799999999999
 20
2.66200587855713
 30
0.0
 11
1.207799999999999
 21
2.682005878557129
 31
0.0
  0
LINE
  5
1B6
330
10D
100
AcDbEntity
  8
4
100
AcDbLine
 10
1.4378
 20
2.66200587855713
 30
0.0
 11
1.417799999999999
 21
2.682005878557129
 31
0.0
  0
LINE
  5
1B7
330
10D
100
AcDbEntity
  8
4
100
AcDbLine
 10
1.187799999999999
 20
2.66200587855713
 30
0.0
 11
1.4378
 21
2.66200587855713
 31
0.0
  0
LINE
  5
1B8
330
10D
100
AcDbEntity
  8
4
100
AcDbLine
 10
1.187799999999999
 20
2.61200587855713
 30
0.0
 11
1.207799999999999
 21
2.63200587855713
 31
0.0
  0
LINE
  5
1B9
330
10D
100
AcDbEntity
  8
4
100
AcDbLine
 10
1.4378
 20
2.61200587855713
 30
0.0
 11
1.417799999999999
 21
2.63200587855713
 31
0.0
  0
LINE
  5
1BA
330
10D
100
AcDbEntity
  8
4
100
AcDbLine
 10
1.187799999999999
 20
2.61200587855713
 30
0.0
 11
1.4378
 21
2.61200587855713
 31
0.0
  0
LINE
  5
1BB
330
10D
100
AcDbEntity
  8
4
100
AcDbLine
 10
1.187799999999999
 20
2.56200587855713
 30
0.0
 11
1.207799999999999
 21
2.58200587855713
 31
0.0
  0
LINE
  5
1BC
330
10D
100
AcDbEntity
  8
4
100
AcDbLine
 10
1.4378
 20
2.56200587855713
 30
0.0
 11
1.417799999999999
 21
2.58200587855713
 31
0.0
  0
LINE
  5
1BD
330
10D
100
AcDbEntity
  8
4
100
AcDbLine
 10
1.187799999999999
 20
2.56200587855713
 30
0.0
 11
1.4378
 21
2.56200587855713
 31
0.0
  0
LINE
  5
1BE
330
10D
100
AcDbEntity
  8
4
100
AcDbLine
 10
1.187799999999999
 20
1.718461724666486
 30
0.0
 11
1.437799999999999
 21
1.718461724666486
 31
0.0
  0
LINE
  5
1BF
330
10D
100
AcDbEntity
  8
4
100
AcDbLine
 10
1.437799999999999
 20
1.718461724666486
 30
0.0
 11
1.417799999999999
 21
1.738461724666486
 31
0.0
  0
LINE
  5
1C0
330
10D
100
AcDbEntity
  8
4
100
AcDbLine
 10
1.187799999999999
 20
1.718461724666486
 30
0.0
 11
1.207799999999999
 21
1.738461724666486
 31
0.0
  0
LINE
  5
1C1
330
10D
100
AcDbEntity
  8
4
100
AcDbLine
 10
1.187799999999999
 20
1.768461724666486
 30
0.0
 11
1.437799999999999
 21
1.768461724666486
 31
0.0
  0
LINE
  5
1C2
330
10D
100
AcDbEntity
  8
4
100
AcDbLine
 10
1.437799999999999
 20
1.768461724666486
 30
0.0
 11
1.417799999999999
 21
1.788461724666486
 31
0.0
  0
LINE
  5
1C3
330
10D
100
AcDbEntity
  8
4
100
AcDbLine
 10
1.187799999999999
 20
1.768461724666486
 30
0.0
 11
1.207799999999999
 21
1.788461724666486
 31
0.0
  0
LINE
  5
1C4
330
10D
100
AcDbEntity
  8
4
100
AcDbLine
 10
1.187799999999999
 20
1.818461724666486
 30
0.0
 11
1.437799999999999
 21
1.818461724666486
 31
0.0
  0
LINE
  5
1C5
330
10D
100
AcDbEntity
  8
4
100
AcDbLine
 10
1.437799999999999
 20
1.818461724666486
 30
0.0
 11
1.417799999999999
 21
1.838461724666485
 31
0.0
  0
LINE
  5
1C6
330
10D
100
AcDbEntity
  8
4
100
AcDbLine
 10
1.187799999999999
 20
1.818461724666486
 30
0.0
 11
1.207799999999999
 21
1.838461724666485
 31
0.0
  0
LINE
  5
1C7
330
10D
100
AcDbEntity
  8
4
100
AcDbLine
 10
1.187799999999999
 20
1.868461724666487
 30
0.0
 11
1.437799999999999
 21
1.868461724666487
 31
0.0
  0
LINE
  5
1C8
330
10D
100
AcDbEntity
  8
4
100
AcDbLine
 10
1.437799999999999
 20
1.868461724666487
 30
0.0
 11
1.417799999999999
 21
1.888461724666486
 31
0.0
  0
LINE
  5
1C9
330
10D
100
AcDbEntity
  8
4
100
AcDbLine
 10
1.187799999999999
 20
1.868461724666487
 30
0.0
 11
1.207799999999999
 21
1.888461724666486
 31
0.0
  0
LINE
  5
1CA
330
10D
100
AcDbEntity
  8
4
100
AcDbLine
 10
1.187799999999999
 20
1.918461724666487
 30
0.0
 11
1.437799999999999
 21
1.918461724666487
 31
0.0
  0
LINE
  5
1CB
330
10D
100
AcDbEntity
  8
4
100
AcDbLine
 10
1.437799999999999
 20
1.918461724666487
 30
0.0
 11
1.417799999999999
 21
1.938461724666486
 31
0.0
  0
LINE
  5
1CC
330
10D
100
AcDbEntity
  8
4
100
AcDbLine
 10
1.187799999999999
 20
1.918461724666487
 30
0.0
 11
1.207799999999999
 21
1.938461724666486
 31
0.0
  0
LINE
  5
1CD
330
10D
100
AcDbEntity
  8
4
100
AcDbLine
 10
1.187799999999999
 20
1.968461724666486
 30
0.0
 11
1.207799999999999
 21
1.988461724666486
 31
0.0
  0
LINE
  5
1CE
330
10D
100
AcDbEntity
  8
4
100
AcDbLine
 10
1.437799999999999
 20
1.968461724666486
 30
0.0
 11
1.417799999999999
 21
1.988461724666486
 31
0.0
  0
LINE
  5
1CF
330
10D
100
AcDbEntity
  8
4
100
AcDbLine
 10
1.187799999999999
 20
1.968461724666486
 30
0.0
 11
1.437799999999999
 21
1.968461724666486
 31
0.0
  0
LINE
  5
1D0
330
10D
100
AcDbEntity
  8
4
100
AcDbLine
 10
1.2625
 20
2.909344519608853
 30
0.0
 11
1.3625
 21
2.909344519608853
 31
0.0
  0
LINE
  5
1D1
330
10D
100
AcDbEntity
  8
4
100
AcDbLine
 10
1.3625
 20
2.909344519608853
 30
0.0
 11
1.3625
 21
2.862344519608852
 31
0.0
  0
LINE
  5
1D2
330
10D
100
AcDbEntity
  8
4
100
AcDbLine
 10
1.3625
 20
2.862344519608852
 30
0.0
 11
1.2625
 21
2.862344519608852
 31
0.0
  0
LINE
  5
1D3
330
10D
100
AcDbEntity
  8
4
100
AcDbLine
 10
1.2625
 20
2.862344519608852
 30
0.0
 11
1.2625
 21
2.909344519608853
 31
0.0
  0
LINE
  5
1D4
330
10D
100
AcDbEntity
  8
4
100
AcDbLine
 10
1.541
 20
2.68700587855713
 30
0.0
 11
1.541
 21
2.56200587855713
 31
0.0
  0
LINE
  5
1D5
330
10D
100
AcDbEntity
  8
4
100
AcDbLine
 10
1.540999999999999
 20
1.967961724666487
 30
0.0
 11
1.540999999999999
 21
1.842961724666487
 31
0.0
  0
LINE
  5
1D6
330
10D
100
AcDbEntity
  8
4
100
AcDbLine
 10
1.124
 20
2.343483801611808
 30
0.0
 11
1.124
 21
2.187483801611808
 31
0.0
  0
LINE
  5
1D7
330
10D
100
AcDbEntity
  8
4
100
AcDbLine
 10
1.124
 20
2.187483801611808
 30
0.0
 11
1.165
 21
2.187483801611808
 31
0.0
  0
LINE
  5
1D8
330
10D
100
AcDbEntity
  8
4
100
AcDbLine
 10
1.165
 20
2.187483801611808
 30
0.0
 11
1.165
 21
2.343483801611808
 31
0.0
  0
LINE
  5
1D9
330
10D
100
AcDbEntity
  8
4
100
AcDbLine
 10
1.165
 20
2.343483801611808
 30
0.0
 11
1.124
 21
2.343483801611808
 31
0.0
  0
LINE
  5
1DA
330
10D
100
AcDbEntity
  8
4
100
AcDbLine
 10
1.165
 20
2.311483801611808
 30
0.0
 11
1.124
 21
2.311483801611808
 31
0.0
  0
LINE
  5
1DB
330
10D
100
AcDbEntity
  8
4
100
AcDbLine
 10
1.165
 20
2.217483801611809
 30
0.0
 11
1.124
 21
2.217483801611809
 31
0.0
  0
CIRCLE
  5
1DC
330
10D
100
AcDbEntity
  8
4
100
AcDbCircle
 10
1.186
 20
2.452983801611809
 30
0.0
 40
0.023
  0
LINE
  5
1DD
330
10D
100
AcDbEntity
  8
4
100
AcDbLine
 10
1.062
 20
2.96900587855713
 30
0.0
 11
1.562999999999999
 21
2.96900587855713
 31
0.0
  0
LINE
  5
1DE
330
10D
100
AcDbEntity
  8
4
100
AcDbLine
 10
1.062
 20
3.03100587855713
 30
0.0
 11
1.562999999999999
 21
3.03100587855713
 31
0.0
  0
LINE
  5
1DF
330
10D
100
AcDbEntity
  8
4
100
AcDbLine
 10
1.687
 20
2.96900587855713
 30
0.0
 11
2.187999999999999
 21
2.96900587855713
 31
0.0
  0
LINE
  5
1E0
330
10D
100
AcDbEntity
  8
4
100
AcDbLine
 10
1.687
 20
3.03100587855713
 30
0.0
 11
2.187999999999999
 21
3.03100587855713
 31
0.0
  0
LINE
  5
1E1
330
10D
100
AcDbEntity
  8
4
100
AcDbLine
 10
2.312
 20
2.96900587855713
 30
0.0
 11
2.499999999999999
 21
2.96900587855713
 31
0.0
  0
LINE
  5
1E2
330
10D
100
AcDbEntity
  8
4
100
AcDbLine
 10
2.312
 20
3.03100587855713
 30
0.0
 11
2.473968300754448
 21
3.03100587855713
 31
0.0
  0
LINE
  5
1E3
330
10D
100
AcDbEntity
  8
4
100
AcDbLine
 10
2.937
 20
2.96900587855713
 30
0.0
 11
3.437999999999999
 21
2.96900587855713
 31
0.0
  0
LINE
  5
1E4
330
10D
100
AcDbEntity
  8
4
100
AcDbLine
 10
2.937
 20
3.03100587855713
 30
0.0
 11
3.437999999999999
 21
3.03100587855713
 31
0.0
  0
LINE
  5
1E5
330
10D
100
AcDbEntity
  8
4
100
AcDbLine
 10
2.625
 20
3.03100587855713
 30
0.0
 11
2.812999999999999
 21
3.03100587855713
 31
0.0
  0
LINE
  5
1E6
330
10D
100
AcDbEntity
  8
4
100
AcDbLine
 10
2.625
 20
2.96900587855713
 30
0.0
 11
2.812999999999999
 21
2.96900587855713
 31
0.0
  0
ARC
  5
1E7
330
10D
100
AcDbEntity
  8
4
100
AcDbCircle
 10
3.412999999999999
 20
4.343
 30
0.0
 40
0.025
100
AcDbArc
 50
180.0
 51
0.0
  0
ARC
  5
1E8
330
10D
100
AcDbEntity
  8
4
100
AcDbCircle
 10
2.962
 20
4.343
 30
0.0
 40
0.025
100
AcDbArc
 50
180.0
 51
0.0
  0
ARC
  5
1E9
330
10D
100
AcDbEntity
  8
4
100
AcDbCircle
 10
2.787999999999999
 20
4.343
 30
0.0
 40
0.025
100
AcDbArc
 50
180.0
 51
0.0
  0
ARC
  5
1EA
330
10D
100
AcDbEntity
  8
4
100
AcDbCircle
 10
2.337
 20
4.343
 30
0.0
 40
0.025
100
AcDbArc
 50
180.0
 51
0.0
  0
ARC
  5
1EB
330
10D
100
AcDbEntity
  8
4
100
AcDbCircle
 10
2.163
 20
4.343
 30
0.0
 40
0.025
100
AcDbArc
 50
180.0
 51
0.0
  0
ARC
  5
1EC
330
10D
100
AcDbEntity
  8
4
100
AcDbCircle
 10
1.712
 20
4.343
 30
0.0
 40
0.025
100
AcDbArc
 50
180.0
 51
0.0
  0
LINE
  5
1ED
330
10D
100
AcDbEntity
  8
4
100
AcDbLine
 10
3.155
 20
4.38
 30
0.0
 11
3.217
 21
4.38
 31
0.0
  0
LINE
  5
1EE
330
10D
100
AcDbEntity
  8
4
100
AcDbLine
 10
3.217
 20
4.38
 30
0.0
 11
3.217
 21
4.318000000000001
 31
0.0
  0
LINE
  5
1EF
330
10D
100
AcDbEntity
  8
4
100
AcDbLine
 10
3.155
 20
4.38
 30
0.0
 11
3.155
 21
4.318000000000001
 31
0.0
  0
LINE
  5
1F0
330
10D
100
AcDbEntity
  8
4
100
AcDbLine
 10
1.905
 20
2.91104618398978
 30
0.0
 11
1.967
 21
2.91104618398978
 31
0.0
  0
LINE
  5
1F1
330
10D
100
AcDbEntity
  8
4
100
AcDbLine
 10
1.967
 20
2.91104618398978
 30
0.0
 11
1.967
 21
2.849046183989781
 31
0.0
  0
LINE
  5
1F2
330
10D
100
AcDbEntity
  8
4
100
AcDbLine
 10
1.905
 20
2.91104618398978
 30
0.0
 11
1.905
 21
2.849046183989781
 31
0.0
  0
LINE
  5
1F3
330
10D
100
AcDbEntity
  8
4
100
AcDbLine
 10
3.155
 20
2.91104618398978
 30
0.0
 11
3.155
 21
2.849046183989781
 31
0.0
  0
LINE
  5
1F4
330
10D
100
AcDbEntity
  8
4
100
AcDbLine
 10
3.217
 20
2.91104618398978
 30
0.0
 11
3.217
 21
2.849046183989781
 31
0.0
  0
LINE
  5
1F5
330
10D
100
AcDbEntity
  8
4
100
AcDbLine
 10
3.155
 20
2.91104618398978
 30
0.0
 11
3.217
 21
2.91104618398978
 31
0.0
  0
ARC
  5
1F6
330
10D
100
AcDbEntity
  8
4
100
AcDbCircle
 10
1.712
 20
2.874046183989781
 30
0.0
 40
0.025
100
AcDbArc
 50
180.0
 51
0.0
  0
ARC
  5
1F7
330
10D
100
AcDbEntity
  8
4
100
AcDbCircle
 10
2.163
 20
2.874046183989781
 30
0.0
 40
0.025
100
AcDbArc
 50
180.0
 51
0.0
  0
ARC
  5
1F8
330
10D
100
AcDbEntity
  8
4
100
AcDbCircle
 10
2.337
 20
2.874046183989781
 30
0.0
 40
0.025
100
AcDbArc
 50
180.0
 51
0.0
  0
ARC
  5
1F9
330
10D
100
AcDbEntity
  8
4
100
AcDbCircle
 10
2.787999999999999
 20
2.874046183989781
 30
0.0
 40
0.025
100
AcDbArc
 50
180.0
 51
0.0
  0
ARC
  5
1FA
330
10D
100
AcDbEntity
  8
4
100
AcDbCircle
 10
2.962
 20
2.874046183989781
 30
0.0
 40
0.025
100
AcDbArc
 50
180.0
 51
0.0
  0
ARC
  5
1FB
330
10D
100
AcDbEntity
  8
4
100
AcDbCircle
 10
3.412999999999999
 20
2.874046183989781
 30
0.0
 40
0.025
100
AcDbArc
 50
180.0
 51
0.0
  0
ENDBLK
  5
1FD
330
10D
100
AcDbEntity
  8
0
100
AcDbBlockEnd
  0
BLOCK
  5
23A
330
202
100
AcDbEntity
  8
0
100
AcDbBlockBegin
  2
Le1007
 70
     0
 10
0.0
 20
0.0
 30
0.0
  3
Le1007
  1

  0
INSERT
  5
203
330
202
100
AcDbEntity
  8
4
100
AcDbBlockReference
  2
ARRO2
 10
4.8125
 20
4.125
 30
0.0
 50
90.0
  0
LINE
  5
204
330
202
100
AcDbEntity
  8
4
100
AcDbLine
 10
4.8125
 20
4.125
 30
0.0
 11
4.750499999999999
 21
4.125
 31
0.0
  0
LINE
  5
205
330
202
100
AcDbEntity
  8
4
100
AcDbLine
 10
5.0025
 20
4.125
 30
0.0
 11
4.8125
 21
4.125
 31
0.0
  0
LINE
  5
206
330
202
100
AcDbEntity
  8
4
100
AcDbLine
 10
7.5195
 20
4.063
 30
0.0
 11
7.488500000000001
 21
4.094
 31
0.0
  0
LINE
  5
207
330
202
100
AcDbEntity
  8
4
100
AcDbLine
 10
7.5195
 20
4.125
 30
0.0
 11
7.5195
 21
4.063
 31
0.0
  0
LINE
  5
208
330
202
100
AcDbEntity
  8
4
100
AcDbLine
 10
7.0195
 20
4.125
 30
0.0
 11
7.5195
 21
4.125
 31
0.0
  0
LINE
  5
209
330
202
100
AcDbEntity
  8
4
100
AcDbLine
 10
7.0195
 20
4.063
 30
0.0
 11
7.0195
 21
4.125
 31
0.0
  0
LINE
  5
20A
330
202
100
AcDbEntity
  8
4
100
AcDbLine
 10
7.301520109897515
 20
3.975
 30
0.0
 11
7.301520109897515
 21
3.913
 31
0.0
  0
LINE
  5
20B
330
202
100
AcDbEntity
  8
4
100
AcDbLine
 10
7.332520109897515
 20
3.975
 30
0.0
 11
7.270520109897516
 21
3.975
 31
0.0
  0
LINE
  5
20C
330
202
100
AcDbEntity
  8
4
100
AcDbLine
 10
7.0195
 20
3.938
 30
0.0
 11
7.0195
 21
3.988
 31
0.0
  0
ARC
  5
20D
330
202
100
AcDbEntity
  8
4
100
AcDbCircle
 10
7.0445
 20
3.938
 30
0.0
 40
0.025
100
AcDbArc
 50
180.0
 51
0.0
  0
ARC
  5
20E
330
202
100
AcDbEntity
  8
4
100
AcDbCircle
 10
6.9555
 20
3.938
 30
0.0
 40
0.025
100
AcDbArc
 50
180.0
 51
0.0
  0
LINE
  5
20F
330
202
100
AcDbEntity
  8
4
100
AcDbLine
 10
6.9805
 20
3.938
 30
0.0
 11
6.9805
 21
3.988
 31
0.0
  0
LINE
  5
210
330
202
100
AcDbEntity
  8
4
100
AcDbLine
 10
6.667479890102485
 20
3.975
 30
0.0
 11
6.729479890102484
 21
3.975
 31
0.0
  0
LINE
  5
211
330
202
100
AcDbEntity
  8
4
100
AcDbLine
 10
6.698479890102484
 20
3.975
 30
0.0
 11
6.698479890102484
 21
3.913
 31
0.0
  0
LINE
  5
212
330
202
100
AcDbEntity
  8
4
100
AcDbLine
 10
6.9805
 20
4.063
 30
0.0
 11
6.9805
 21
4.125
 31
0.0
  0
LINE
  5
213
330
202
100
AcDbEntity
  8
4
100
AcDbLine
 10
6.9805
 20
4.125
 30
0.0
 11
6.4805
 21
4.125
 31
0.0
  0
LINE
  5
214
330
202
100
AcDbEntity
  8
4
100
AcDbLine
 10
6.4805
 20
4.125
 30
0.0
 11
6.4805
 21
4.063
 31
0.0
  0
LINE
  5
215
330
202
100
AcDbEntity
  8
4
100
AcDbLine
 10
6.4805
 20
4.063
 30
0.0
 11
6.511499999999999
 21
4.094
 31
0.0
  0
LINE
  5
216
330
202
100
AcDbEntity
  8
4
100
AcDbLine
 10
5.1705
 20
4.063
 30
0.0
 11
5.2015
 21
4.094
 31
0.0
  0
LINE
  5
217
330
202
100
AcDbEntity
  8
4
100
AcDbLine
 10
5.1705
 20
4.125
 30
0.0
 11
5.1705
 21
4.063
 31
0.0
  0
LINE
  5
218
330
202
100
AcDbEntity
  8
4
100
AcDbLine
 10
5.6705
 20
4.125
 30
0.0
 11
5.1705
 21
4.125
 31
0.0
  0
LINE
  5
219
330
202
100
AcDbEntity
  8
4
100
AcDbLine
 10
5.6705
 20
4.063
 30
0.0
 11
5.6705
 21
4.125
 31
0.0
  0
LINE
  5
21A
330
202
100
AcDbEntity
  8
4
100
AcDbLine
 10
5.388479890102485
 20
3.975
 30
0.0
 11
5.388479890102485
 21
3.913
 31
0.0
  0
LINE
  5
21B
330
202
100
AcDbEntity
  8
4
100
AcDbLine
 10
5.357479890102485
 20
3.975
 30
0.0
 11
5.419479890102484
 21
3.975
 31
0.0
  0
LINE
  5
21C
330
202
100
AcDbEntity
  8
4
100
AcDbLine
 10
5.6705
 20
3.938
 30
0.0
 11
5.6705
 21
3.988
 31
0.0
  0
ARC
  5
21D
330
202
100
AcDbEntity
  8
4
100
AcDbCircle
 10
5.645500000000001
 20
3.938
 30
0.0
 40
0.025
100
AcDbArc
 50
180.0
 51
0.0
  0
ARC
  5
21E
330
202
100
AcDbEntity
  8
4
100
AcDbCircle
 10
3.412999999999999
 20
3.938
 30
0.0
 40
0.025
100
AcDbArc
 50
180.0
 51
0.0
  0
ARC
  5
21F
330
202
100
AcDbEntity
  8
4
100
AcDbCircle
 10
2.962
 20
3.938
 30
0.0
 40
0.025
100
AcDbArc
 50
180.0
 51
0.0
  0
ARC
  5
220
330
202
100
AcDbEntity
  8
4
100
AcDbCircle
 10
2.787999999999999
 20
3.938
 30
0.0
 40
0.025
100
AcDbArc
 50
180.0
 51
0.0
  0
ARC
  5
221
330
202
100
AcDbEntity
  8
4
100
AcDbCircle
 10
2.337
 20
3.938
 30
0.0
 40
0.025
100
AcDbArc
 50
180.0
 51
0.0
  0
ARC
  5
222
330
202
100
AcDbEntity
  8
4
100
AcDbCircle
 10
2.163
 20
3.938
 30
0.0
 40
0.025
100
AcDbArc
 50
180.0
 51
0.0
  0
ARC
  5
223
330
202
100
AcDbEntity
  8
4
100
AcDbCircle
 10
1.712
 20
3.938
 30
0.0
 40
0.025
100
AcDbArc
 50
180.0
 51
0.0
  0
LINE
  5
224
330
202
100
AcDbEntity
  8
4
100
AcDbLine
 10
3.155
 20
3.975
 30
0.0
 11
3.217
 21
3.975
 31
0.0
  0
LINE
  5
225
330
202
100
AcDbEntity
  8
4
100
AcDbLine
 10
3.217
 20
3.975
 30
0.0
 11
3.217
 21
3.913
 31
0.0
  0
LINE
  5
226
330
202
100
AcDbEntity
  8
4
100
AcDbLine
 10
3.155
 20
3.975
 30
0.0
 11
3.155
 21
3.913
 31
0.0
  0
LINE
  5
227
330
202
100
AcDbEntity
  8
4
100
AcDbLine
 10
1.905
 20
3.975
 30
0.0
 11
1.905
 21
3.913
 31
0.0
  0
LINE
  5
228
330
202
100
AcDbEntity
  8
4
100
AcDbLine
 10
1.967
 20
3.975
 30
0.0
 11
1.967
 21
3.913
 31
0.0
  0
LINE
  5
229
330
202
100
AcDbEntity
  8
4
100
AcDbLine
 10
1.905
 20
3.975
 30
0.0
 11
1.967
 21
3.975
 31
0.0
  0
LINE
  5
22A
330
202
100
AcDbEntity
  8
4
100
AcDbLine
 10
2.937
 20
4.125
 30
0.0
 11
3.437999999999999
 21
4.125
 31
0.0
  0
LINE
  5
22B
330
202
100
AcDbEntity
  8
4
100
AcDbLine
 10
2.625
 20
4.125
 30
0.0
 11
2.812999999999999
 21
4.125
 31
0.0
  0
LINE
  5
22C
330
202
100
AcDbEntity
  8
4
100
AcDbLine
 10
2.312
 20
4.125
 30
0.0
 11
2.5
 21
4.125
 31
0.0
  0
LINE
  5
22D
330
202
100
AcDbEntity
  8
4
100
AcDbLine
 10
1.687
 20
4.125
 30
0.0
 11
2.188
 21
4.125
 31
0.0
  0
LINE
  5
22E
330
202
100
AcDbEntity
  8
4
100
AcDbLine
 10
2.625
 20
4.063
 30
0.0
 11
2.812999999999999
 21
4.063
 31
0.0
  0
LINE
  5
22F
330
202
100
AcDbEntity
  8
4
100
AcDbLine
 10
2.312
 20
4.063
 30
0.0
 11
2.5
 21
4.063
 31
0.0
  0
LINE
  5
230
330
202
100
AcDbEntity
  8
4
100
AcDbLine
 10
2.937
 20
4.063
 30
0.0
 11
3.437999999999999
 21
4.063
 31
0.0
  0
LINE
  5
231
330
202
100
AcDbEntity
  8
4
100
AcDbLine
 10
1.687
 20
4.063
 30
0.0
 11
2.188
 21
4.063
 31
0.0
  0
INSERT
  5
232
330
202
100
AcDbEntity
  8
4
100
AcDbBlockReference
  2
ARRO
 10
4.8125
 20
4.5
 30
0.0
 50
270.0
  0
INSERT
  5
233
330
202
100
AcDbEntity
  8
4
100
AcDbBlockReference
  2
ARRO
 10
4.8125
 20
1.5
 30
0.0
 50
270.0
  0
INSERT
  5
234
330
202
100
AcDbEntity
  8
4
100
AcDbBlockReference
  2
ARRO
 10
4.8125
 20
1.562
 30
0.0
 50
90.0
  0
LINE
  5
235
330
202
100
AcDbEntity
  8
4
100
AcDbLine
 10
4.8125
 20
1.562
 30
0.0
 11
4.750499999999999
 21
1.562
 31
0.0
  0
LINE
  5
236
330
202
100
AcDbEntity
  8
4
100
AcDbLine
 10
5.0025
 20
1.562
 30
0.0
 11
4.8125
 21
1.562
 31
0.0
  0
LINE
  5
237
330
202
100
AcDbEntity
  8
4
100
AcDbLine
 10
4.8125
 20
1.5
 30
0.0
 11
4.8125
 21
1.375
 31
0.0
  0
LINE
  5
238
330
202
100
AcDbEntity
  8
4
100
AcDbLine
 10
4.8125
 20
4.5
 30
0.0
 11
4.8125
 21
1.562
 31
0.0
  0
INSERT
  5
239
330
202
100
AcDbEntity
  8
8
100
AcDbBlockReference
  2
TEMP2
 10
4.8125
 20
1.562
 30
0.0
  0
ENDBLK
  5
23B
330
202
100
AcDbEntity
  8
0
100
AcDbBlockEnd
  0
BLOCK
  5
241
330
23E
100
AcDbEntity
  8
4
100
AcDbBlockBegin
  2
TEMP3
 70
     0
 10
0.0
 20
0.0
 30
0.0
  3
TEMP3
  1

  0
TEXT
  5
23F
330
23E
100
AcDbEntity
  8
8
100
AcDbText
 10
0.03
 20
0.0619999999999998
 30
0.0
 40
0.07
  1
HANDLE & P/A
 50
90.0
  7
ROMANS
100
AcDbText
  0
TEXT
  5
240
330
23E
100
AcDbEntity
  8
8
100
AcDbText
 10
0.03
 20
-1.33310960351371
 30
0.0
 40
0.07
  1
LOCK ESCUTCHEON
 50
90.0
  7
ROMANS
 72
     2
 11
0.03
 21
-0.3264429368470441
 31
0.0
100
AcDbText
  0
ENDBLK
  5
242
330
23E
100
AcDbEntity
  8
4
100
AcDbBlockEnd
  0
BLOCK
  5
34D
330
243
100
AcDbEntity
  8
0
100
AcDbBlockBegin
  2
Le1021
 70
     0
 10
0.0
 20
0.0
 30
0.0
  3
Le1021
  1

  0
CIRCLE
  5
244
330
243
100
AcDbEntity
  8
4
100
AcDbCircle
 10
1.207234055463451
 20
3.979483801611808
 30
0.0
 40
0.023
  0
LWPOLYLINE
  5
245
330
243
100
AcDbEntity
  8
4
100
AcDbPolyline
 90
        2
 70
     1
 43
0.01
 10
1.202234055463451
 20
4.031983801611808
 42
1.0
 10
1.212234055463451
 20
4.031983801611808
 42
1.0
  0
LWPOLYLINE
  5
246
330
243
100
AcDbEntity
  8
4
100
AcDbPolyline
 90
        2
 70
     1
 43
0.01
 10
1.202234055463451
 20
3.926983801611808
 42
1.0
 10
1.212234055463451
 20
3.926983801611808
 42
1.0
  0
LINE
  5
247
330
243
100
AcDbEntity
  8
8
100
AcDbLine
 10
4.090501183976541
 20
0.0654300755549915
 30
0.0
 11
4.580501183976541
 21
0.0654300755549915
 31
0.0
  0
TEXT
  5
248
330
243
100
AcDbEntity
  8
8
100
AcDbText
 10
2.330357142857143
 20
0.094
 30
0.0
 40
0.125
  1
QUIET LOCKER -     " TRIPLE TIER
  7
ROMANS
 72
     1
 11
4.125
 21
0.094
 31
0.0
100
AcDbText
  0
INSERT
  5
249
330
243
100
AcDbEntity
  8
4
100
AcDbBlockReference
  2
TEMP2
 10
4.8125
 20
1.562
 30
0.0
  0
INSERT
  5
24A
330
243
100
AcDbEntity
  8
4
100
AcDbBlockReference
  2
TEMP3
 10
0.5859118825233172
 20
3.20866888180704
 30
0.0
  0
CIRCLE
  5
24B
330
243
100
AcDbEntity
  8
4
100
AcDbCircle
 10
1.20723405546345
 20
2.021483801611808
 30
0.0
 40
0.023
  0
LWPOLYLINE
  5
24C
330
243
100
AcDbEntity
  8
4
100
AcDbPolyline
 90
        2
 70
     1
 43
0.01
 10
1.20223405546345
 20
2.073983801611808
 42
1.0
 10
1.21223405546345
 20
2.073983801611808
 42
1.0
  0
LWPOLYLINE
  5
24D
330
243
100
AcDbEntity
  8
4
100
AcDbPolyline
 90
        2
 70
     1
 43
0.01
 10
1.20223405546345
 20
1.968983801611808
 42
1.0
 10
1.21223405546345
 20
1.968983801611808
 42
1.0
  0
CIRCLE
  5
24E
330
243
100
AcDbEntity
  8
4
100
AcDbCircle
 10
1.207234055463451
 20
3.000483801611808
 30
0.0
 40
0.023
  0
LWPOLYLINE
  5
24F
330
243
100
AcDbEntity
  8
4
100
AcDbPolyline
 90
        2
 70
     1
 43
0.01
 10
1.202234055463451
 20
3.052983801611808
 42
1.0
 10
1.21223405546345
 20
3.052983801611808
 42
1.0
  0
LWPOLYLINE
  5
250
330
243
100
AcDbEntity
  8
4
100
AcDbPolyline
 90
        2
 70
     1
 43
0.01
 10
1.202234055463451
 20
2.947983801611808
 42
1.0
 10
1.21223405546345
 20
2.947983801611808
 42
1.0
  0
LINE
  5
251
330
243
100
AcDbEntity
  8
4
100
AcDbLine
 10
6.375499999999999
 20
1.594
 30
0.0
 11
6.4375
 21
1.594
 31
0.0
  0
LINE
  5
252
330
243
100
AcDbEntity
  8
4
100
AcDbLine
 10
5.0655
 20
1.594
 30
0.0
 11
5.1275
 21
1.594
 31
0.0
  0
INSERT
  5
253
330
243
100
AcDbEntity
  8
4
100
AcDbBlockReference
  2
ARRO
 10
4.8125
 20
1.5
 30
0.0
 50
270.0
  0
INSERT
  5
254
330
243
100
AcDbEntity
  8
4
100
AcDbBlockReference
  2
ARRO
 10
4.8125
 20
1.562
 30
0.0
 50
90.0
  0
LINE
  5
255
330
243
100
AcDbEntity
  8
4
100
AcDbLine
 10
4.8125
 20
1.562
 30
0.0
 11
4.750499999999999
 21
1.562
 31
0.0
  0
LINE
  5
256
330
243
100
AcDbEntity
  8
4
100
AcDbLine
 10
5.0025
 20
1.562
 30
0.0
 11
4.8125
 21
1.562
 31
0.0
  0
LINE
  5
257
330
243
100
AcDbEntity
  8
4
100
AcDbLine
 10
4.8125
 20
1.5
 30
0.0
 11
4.8125
 21
1.375
 31
0.0
  0
LINE
  5
258
330
243
100
AcDbEntity
  8
4
100
AcDbLine
 10
7.301520109897514
 20
2.422046183989779
 30
0.0
 11
7.301520109897514
 21
2.360046183989779
 31
0.0
  0
LINE
  5
259
330
243
100
AcDbEntity
  8
4
100
AcDbLine
 10
7.332520109897513
 20
2.422046183989779
 30
0.0
 11
7.270520109897514
 21
2.422046183989779
 31
0.0
  0
LINE
  5
25A
330
243
100
AcDbEntity
  8
4
100
AcDbLine
 10
7.019499999999998
 20
2.38504618398978
 30
0.0
 11
7.019499999999998
 21
2.43504618398978
 31
0.0
  0
ARC
  5
25B
330
243
100
AcDbEntity
  8
4
100
AcDbCircle
 10
7.044499999999998
 20
2.38504618398978
 30
0.0
 40
0.025
100
AcDbArc
 50
180.0
 51
0.0
  0
LINE
  5
25C
330
243
100
AcDbEntity
  8
4
100
AcDbLine
 10
7.019499999999999
 20
2.54200587855713
 30
0.0
 11
7.019499999999999
 21
2.480005878557129
 31
0.0
  0
LINE
  5
25D
330
243
100
AcDbEntity
  8
4
100
AcDbLine
 10
7.059499999999999
 20
2.54200587855713
 30
0.0
 11
7.059499999999999
 21
2.480005878557129
 31
0.0
  0
LINE
  5
25E
330
243
100
AcDbEntity
  8
4
100
AcDbLine
 10
7.059499999999999
 20
2.480005878557129
 30
0.0
 11
7.4245
 21
2.480005878557129
 31
0.0
  0
LINE
  5
25F
330
243
100
AcDbEntity
  8
4
100
AcDbLine
 10
6.513499999999999
 20
2.54200587855713
 30
0.0
 11
6.498499999999999
 21
2.527005878557129
 31
0.0
  0
LINE
  5
260
330
243
100
AcDbEntity
  8
4
100
AcDbLine
 10
6.498499999999999
 20
2.527005878557129
 30
0.0
 11
6.4005
 21
2.527005878557129
 31
0.0
  0
LINE
  5
261
330
243
100
AcDbEntity
  8
4
100
AcDbLine
 10
6.4005
 20
2.527005878557129
 30
0.0
 11
6.4005
 21
2.498759736119569
 31
0.0
  0
LINE
  5
262
330
243
100
AcDbEntity
  8
4
100
AcDbLine
 10
6.575499999999999
 20
2.480005878557129
 30
0.0
 11
6.513499999999999
 21
2.54200587855713
 31
0.0
  0
LINE
  5
263
330
243
100
AcDbEntity
  8
4
100
AcDbLine
 10
6.9405
 20
2.480005878557129
 30
0.0
 11
6.575499999999999
 21
2.480005878557129
 31
0.0
  0
LINE
  5
264
330
243
100
AcDbEntity
  8
4
100
AcDbLine
 10
6.9405
 20
2.54200587855713
 30
0.0
 11
6.9405
 21
2.480005878557129
 31
0.0
  0
LINE
  5
265
330
243
100
AcDbEntity
  8
4
100
AcDbLine
 10
6.9805
 20
2.54200587855713
 30
0.0
 11
6.9805
 21
2.480005878557129
 31
0.0
  0
LINE
  5
266
330
243
100
AcDbEntity
  8
4
100
AcDbLine
 10
6.375499999999999
 20
2.54200587855713
 30
0.0
 11
6.483499999999999
 21
2.54200587855713
 31
0.0
  0
LINE
  5
267
330
243
100
AcDbEntity
  8
4
100
AcDbLine
 10
6.375499999999999
 20
2.480005878557129
 30
0.0
 11
6.375499999999999
 21
2.54200587855713
 31
0.0
  0
LINE
  5
268
330
243
100
AcDbEntity
  8
4
100
AcDbLine
 10
6.4375
 20
2.480005878557129
 30
0.0
 11
6.375499999999999
 21
2.480005878557129
 31
0.0
  0
LINE
  5
269
330
243
100
AcDbEntity
  8
4
100
AcDbLine
 10
6.513499999999999
 20
2.54200587855713
 30
0.0
 11
6.9805
 21
2.54200587855713
 31
0.0
  0
LINE
  5
26A
330
243
100
AcDbEntity
  8
4
100
AcDbLine
 10
6.3755
 20
2.573961724666486
 30
0.0
 11
6.4375
 21
2.573961724666486
 31
0.0
  0
LINE
  5
26B
330
243
100
AcDbEntity
  8
4
100
AcDbLine
 10
6.3755
 20
2.448005878557129
 30
0.0
 11
6.4375
 21
2.448005878557129
 31
0.0
  0
ARC
  5
26C
330
243
100
AcDbEntity
  8
4
100
AcDbCircle
 10
6.955500000000001
 20
2.38504618398978
 30
0.0
 40
0.025
100
AcDbArc
 50
180.0
 51
0.0
  0
LINE
  5
26D
330
243
100
AcDbEntity
  8
4
100
AcDbLine
 10
6.980500000000001
 20
2.38504618398978
 30
0.0
 11
6.980500000000001
 21
2.43504618398978
 31
0.0
  0
LINE
  5
26E
330
243
100
AcDbEntity
  8
4
100
AcDbLine
 10
6.667479890102486
 20
2.422046183989779
 30
0.0
 11
6.729479890102485
 21
2.422046183989779
 31
0.0
  0
LINE
  5
26F
330
243
100
AcDbEntity
  8
4
100
AcDbLine
 10
6.698479890102485
 20
2.422046183989779
 30
0.0
 11
6.698479890102485
 21
2.360046183989779
 31
0.0
  0
LINE
  5
270
330
243
100
AcDbEntity
  8
4
100
AcDbLine
 10
5.002500000000002
 20
2.54200587855713
 30
0.0
 11
4.812500000000001
 21
2.54200587855713
 31
0.0
  0
LINE
  5
271
330
243
100
AcDbEntity
  8
4
100
AcDbLine
 10
4.812500000000001
 20
2.54200587855713
 30
0.0
 11
4.750500000000001
 21
2.54200587855713
 31
0.0
  0
INSERT
  5
272
330
243
100
AcDbEntity
  8
4
100
AcDbBlockReference
  2
ARRO2
 10
4.812500000000001
 20
2.54200587855713
 30
0.0
 50
90.0
  0
LINE
  5
273
330
243
100
AcDbEntity
  8
4
100
AcDbLine
 10
5.388479890102487
 20
2.422046183989779
 30
0.0
 11
5.388479890102487
 21
2.360046183989779
 31
0.0
  0
LINE
  5
274
330
243
100
AcDbEntity
  8
4
100
AcDbLine
 10
5.357479890102487
 20
2.422046183989779
 30
0.0
 11
5.419479890102486
 21
2.422046183989779
 31
0.0
  0
LINE
  5
275
330
243
100
AcDbEntity
  8
4
100
AcDbLine
 10
5.670500000000002
 20
2.38504618398978
 30
0.0
 11
5.670500000000002
 21
2.43504618398978
 31
0.0
  0
ARC
  5
276
330
243
100
AcDbEntity
  8
4
100
AcDbCircle
 10
5.645500000000002
 20
2.38504618398978
 30
0.0
 40
0.025
100
AcDbArc
 50
180.0
 51
0.0
  0
LINE
  5
277
330
243
100
AcDbEntity
  8
4
100
AcDbLine
 10
5.065500000000001
 20
2.448005878557129
 30
0.0
 11
5.127500000000002
 21
2.448005878557129
 31
0.0
  0
LINE
  5
278
330
243
100
AcDbEntity
  8
4
100
AcDbLine
 10
5.065500000000001
 20
2.573961724666486
 30
0.0
 11
5.127500000000001
 21
2.573961724666486
 31
0.0
  0
LINE
  5
279
330
243
100
AcDbEntity
  8
4
100
AcDbLine
 10
5.2035
 20
2.54200587855713
 30
0.0
 11
5.670500000000001
 21
2.54200587855713
 31
0.0
  0
LINE
  5
27A
330
243
100
AcDbEntity
  8
4
100
AcDbLine
 10
5.127500000000001
 20
2.480005878557129
 30
0.0
 11
5.065500000000001
 21
2.480005878557129
 31
0.0
  0
LINE
  5
27B
330
243
100
AcDbEntity
  8
4
100
AcDbLine
 10
5.065500000000001
 20
2.480005878557129
 30
0.0
 11
5.065500000000001
 21
2.54200587855713
 31
0.0
  0
LINE
  5
27C
330
243
100
AcDbEntity
  8
4
100
AcDbLine
 10
5.065500000000001
 20
2.54200587855713
 30
0.0
 11
5.1735
 21
2.54200587855713
 31
0.0
  0
LINE
  5
27D
330
243
100
AcDbEntity
  8
4
100
AcDbLine
 10
5.670500000000001
 20
2.54200587855713
 30
0.0
 11
5.670500000000001
 21
2.480005878557129
 31
0.0
  0
LINE
  5
27E
330
243
100
AcDbEntity
  8
4
100
AcDbLine
 10
5.630500000000001
 20
2.54200587855713
 30
0.0
 11
5.630500000000001
 21
2.480005878557129
 31
0.0
  0
LINE
  5
27F
330
243
100
AcDbEntity
  8
4
100
AcDbLine
 10
5.630500000000001
 20
2.480005878557129
 30
0.0
 11
5.265500000000001
 21
2.480005878557129
 31
0.0
  0
LINE
  5
280
330
243
100
AcDbEntity
  8
4
100
AcDbLine
 10
5.265500000000001
 20
2.480005878557129
 30
0.0
 11
5.2035
 21
2.54200587855713
 31
0.0
  0
LINE
  5
281
330
243
100
AcDbEntity
  8
4
100
AcDbLine
 10
5.090500000000001
 20
2.527005878557129
 30
0.0
 11
5.090500000000001
 21
2.498759736119569
 31
0.0
  0
LINE
  5
282
330
243
100
AcDbEntity
  8
4
100
AcDbLine
 10
5.188500000000001
 20
2.527005878557129
 30
0.0
 11
5.090500000000001
 21
2.527005878557129
 31
0.0
  0
LINE
  5
283
330
243
100
AcDbEntity
  8
4
100
AcDbLine
 10
5.2035
 20
2.54200587855713
 30
0.0
 11
5.188500000000001
 21
2.527005878557129
 31
0.0
  0
LINE
  5
284
330
243
100
AcDbEntity
  8
4
100
AcDbLine
 10
6.375499999999999
 20
3.42700587855713
 30
0.0
 11
6.375499999999999
 21
2.573961724666486
 31
0.0
  0
LINE
  5
285
330
243
100
AcDbEntity
  8
4
100
AcDbLine
 10
5.065500000000001
 20
3.42700587855713
 30
0.0
 11
5.065500000000001
 21
2.573961724666486
 31
0.0
  0
LINE
  5
286
330
243
100
AcDbEntity
  8
4
100
AcDbLine
 10
5.0655
 20
4.406
 30
0.0
 11
5.065500000000001
 21
3.552961724666487
 31
0.0
  0
LINE
  5
287
330
243
100
AcDbEntity
  8
4
100
AcDbLine
 10
6.375499999999999
 20
4.406
 30
0.0
 11
6.375499999999999
 21
3.552961724666486
 31
0.0
  0
LINE
  5
288
330
243
100
AcDbEntity
  8
4
100
AcDbLine
 10
6.375499999999998
 20
4.406
 30
0.0
 11
6.437499999999999
 21
4.406
 31
0.0
  0
LINE
  5
289
330
243
100
AcDbEntity
  8
4
100
AcDbLine
 10
5.065499999999999
 20
4.406
 30
0.0
 11
5.127499999999999
 21
4.406
 31
0.0
  0
INSERT
  5
28A
330
243
100
AcDbEntity
  8
4
100
AcDbBlockReference
  2
ARRO2
 10
4.8125
 20
3.52100587855713
 30
0.0
 50
90.0
  0
LINE
  5
28B
330
243
100
AcDbEntity
  8
4
100
AcDbLine
 10
4.8125
 20
3.52100587855713
 30
0.0
 11
4.7505
 21
3.52100587855713
 31
0.0
  0
LINE
  5
28C
330
243
100
AcDbEntity
  8
4
100
AcDbLine
 10
5.002500000000001
 20
3.52100587855713
 30
0.0
 11
4.8125
 21
3.52100587855713
 31
0.0
  0
LINE
  5
28D
330
243
100
AcDbEntity
  8
4
100
AcDbLine
 10
7.301520109897515
 20
4.379999999999999
 30
0.0
 11
7.301520109897515
 21
4.318
 31
0.0
  0
LINE
  5
28E
330
243
100
AcDbEntity
  8
4
100
AcDbLine
 10
7.332520109897515
 20
4.379999999999999
 30
0.0
 11
7.270520109897516
 21
4.379999999999999
 31
0.0
  0
LINE
  5
28F
330
243
100
AcDbEntity
  8
4
100
AcDbLine
 10
7.0195
 20
4.343000000000001
 30
0.0
 11
7.0195
 21
4.393
 31
0.0
  0
ARC
  5
290
330
243
100
AcDbEntity
  8
4
100
AcDbCircle
 10
7.0445
 20
4.343000000000001
 30
0.0
 40
0.025
100
AcDbArc
 50
180.0
 51
0.0
  0
ARC
  5
291
330
243
100
AcDbEntity
  8
4
100
AcDbCircle
 10
6.9555
 20
4.343000000000001
 30
0.0
 40
0.025
100
AcDbArc
 50
180.0
 51
0.0
  0
LINE
  5
292
330
243
100
AcDbEntity
  8
4
100
AcDbLine
 10
6.9805
 20
4.343000000000001
 30
0.0
 11
6.9805
 21
4.393
 31
0.0
  0
LINE
  5
293
330
243
100
AcDbEntity
  8
4
100
AcDbLine
 10
6.667479890102485
 20
4.379999999999999
 30
0.0
 11
6.729479890102484
 21
4.379999999999999
 31
0.0
  0
LINE
  5
294
330
243
100
AcDbEntity
  8
4
100
AcDbLine
 10
6.698479890102484
 20
4.379999999999999
 30
0.0
 11
6.698479890102484
 21
4.318
 31
0.0
  0
LINE
  5
295
330
243
100
AcDbEntity
  8
4
100
AcDbLine
 10
5.388479890102485
 20
4.379999999999999
 30
0.0
 11
5.388479890102485
 21
4.318
 31
0.0
  0
LINE
  5
296
330
243
100
AcDbEntity
  8
4
100
AcDbLine
 10
5.357479890102485
 20
4.379999999999999
 30
0.0
 11
5.419479890102484
 21
4.379999999999999
 31
0.0
  0
LINE
  5
297
330
243
100
AcDbEntity
  8
4
100
AcDbLine
 10
5.6705
 20
4.343000000000001
 30
0.0
 11
5.6705
 21
4.393
 31
0.0
  0
ARC
  5
298
330
243
100
AcDbEntity
  8
4
100
AcDbCircle
 10
5.645500000000001
 20
4.343000000000001
 30
0.0
 40
0.025
100
AcDbArc
 50
180.0
 51
0.0
  0
INSERT
  5
299
330
243
100
AcDbEntity
  8
4
100
AcDbBlockReference
  2
ARRO
 10
4.8125
 20
4.5
 30
0.0
 50
270.0
  0
LINE
  5
29A
330
243
100
AcDbEntity
  8
4
100
AcDbLine
 10
5.2035
 20
3.52100587855713
 30
0.0
 11
5.1885
 21
3.50600587855713
 31
0.0
  0
LINE
  5
29B
330
243
100
AcDbEntity
  8
4
100
AcDbLine
 10
5.1885
 20
3.50600587855713
 30
0.0
 11
5.0905
 21
3.50600587855713
 31
0.0
  0
LINE
  5
29C
330
243
100
AcDbEntity
  8
4
100
AcDbLine
 10
5.0905
 20
3.50600587855713
 30
0.0
 11
5.0905
 21
3.47775973611957
 31
0.0
  0
LINE
  5
29D
330
243
100
AcDbEntity
  8
4
100
AcDbLine
 10
5.2655
 20
3.45900587855713
 30
0.0
 11
5.2035
 21
3.52100587855713
 31
0.0
  0
LINE
  5
29E
330
243
100
AcDbEntity
  8
4
100
AcDbLine
 10
5.6305
 20
3.45900587855713
 30
0.0
 11
5.2655
 21
3.45900587855713
 31
0.0
  0
LINE
  5
29F
330
243
100
AcDbEntity
  8
4
100
AcDbLine
 10
5.6305
 20
3.52100587855713
 30
0.0
 11
5.6305
 21
3.45900587855713
 31
0.0
  0
LINE
  5
2A0
330
243
100
AcDbEntity
  8
4
100
AcDbLine
 10
5.6705
 20
3.52100587855713
 30
0.0
 11
5.6705
 21
3.45900587855713
 31
0.0
  0
LINE
  5
2A1
330
243
100
AcDbEntity
  8
4
100
AcDbLine
 10
5.0655
 20
3.52100587855713
 30
0.0
 11
5.173499999999999
 21
3.52100587855713
 31
0.0
  0
LINE
  5
2A2
330
243
100
AcDbEntity
  8
4
100
AcDbLine
 10
5.0655
 20
3.45900587855713
 30
0.0
 11
5.0655
 21
3.52100587855713
 31
0.0
  0
LINE
  5
2A3
330
243
100
AcDbEntity
  8
4
100
AcDbLine
 10
5.1275
 20
3.45900587855713
 30
0.0
 11
5.0655
 21
3.45900587855713
 31
0.0
  0
LINE
  5
2A4
330
243
100
AcDbEntity
  8
4
100
AcDbLine
 10
5.2035
 20
3.52100587855713
 30
0.0
 11
5.6705
 21
3.52100587855713
 31
0.0
  0
LINE
  5
2A5
330
243
100
AcDbEntity
  8
4
100
AcDbLine
 10
6.513499999999998
 20
3.52100587855713
 30
0.0
 11
6.980499999999999
 21
3.52100587855713
 31
0.0
  0
LINE
  5
2A6
330
243
100
AcDbEntity
  8
4
100
AcDbLine
 10
6.437499999999999
 20
3.45900587855713
 30
0.0
 11
6.375499999999998
 21
3.45900587855713
 31
0.0
  0
LINE
  5
2A7
330
243
100
AcDbEntity
  8
4
100
AcDbLine
 10
6.375499999999998
 20
3.45900587855713
 30
0.0
 11
6.375499999999998
 21
3.52100587855713
 31
0.0
  0
LINE
  5
2A8
330
243
100
AcDbEntity
  8
4
100
AcDbLine
 10
6.375499999999998
 20
3.52100587855713
 30
0.0
 11
6.483499999999998
 21
3.52100587855713
 31
0.0
  0
LINE
  5
2A9
330
243
100
AcDbEntity
  8
4
100
AcDbLine
 10
6.980499999999999
 20
3.52100587855713
 30
0.0
 11
6.980499999999999
 21
3.45900587855713
 31
0.0
  0
LINE
  5
2AA
330
243
100
AcDbEntity
  8
4
100
AcDbLine
 10
6.940499999999999
 20
3.52100587855713
 30
0.0
 11
6.940499999999999
 21
3.45900587855713
 31
0.0
  0
LINE
  5
2AB
330
243
100
AcDbEntity
  8
4
100
AcDbLine
 10
6.940499999999999
 20
3.45900587855713
 30
0.0
 11
6.575499999999999
 21
3.45900587855713
 31
0.0
  0
LINE
  5
2AC
330
243
100
AcDbEntity
  8
4
100
AcDbLine
 10
6.575499999999999
 20
3.45900587855713
 30
0.0
 11
6.513499999999998
 21
3.52100587855713
 31
0.0
  0
LINE
  5
2AD
330
243
100
AcDbEntity
  8
4
100
AcDbLine
 10
6.400499999999999
 20
3.50600587855713
 30
0.0
 11
6.400499999999999
 21
3.47775973611957
 31
0.0
  0
LINE
  5
2AE
330
243
100
AcDbEntity
  8
4
100
AcDbLine
 10
6.498499999999999
 20
3.50600587855713
 30
0.0
 11
6.400499999999999
 21
3.50600587855713
 31
0.0
  0
LINE
  5
2AF
330
243
100
AcDbEntity
  8
4
100
AcDbLine
 10
6.513499999999998
 20
3.52100587855713
 30
0.0
 11
6.498499999999999
 21
3.50600587855713
 31
0.0
  0
LINE
  5
2B0
330
243
100
AcDbEntity
  8
4
100
AcDbLine
 10
7.0595
 20
3.45900587855713
 30
0.0
 11
7.4245
 21
3.45900587855713
 31
0.0
  0
LINE
  5
2B1
330
243
100
AcDbEntity
  8
4
100
AcDbLine
 10
7.0595
 20
3.52100587855713
 30
0.0
 11
7.0595
 21
3.45900587855713
 31
0.0
  0
LINE
  5
2B2
330
243
100
AcDbEntity
  8
4
100
AcDbLine
 10
7.0195
 20
3.52100587855713
 30
0.0
 11
7.0195
 21
3.45900587855713
 31
0.0
  0
LINE
  5
2B3
330
243
100
AcDbEntity
  8
4
100
AcDbLine
 10
5.065500000000001
 20
3.552961724666487
 30
0.0
 11
5.1275
 21
3.552961724666487
 31
0.0
  0
LINE
  5
2B4
330
243
100
AcDbEntity
  8
4
100
AcDbLine
 10
5.065500000000001
 20
3.42700587855713
 30
0.0
 11
5.127500000000001
 21
3.42700587855713
 31
0.0
  0
LINE
  5
2B5
330
243
100
AcDbEntity
  8
4
100
AcDbLine
 10
6.375499999999998
 20
3.552961724666487
 30
0.0
 11
6.437499999999999
 21
3.552961724666487
 31
0.0
  0
LINE
  5
2B6
330
243
100
AcDbEntity
  8
4
100
AcDbLine
 10
6.375499999999999
 20
3.42700587855713
 30
0.0
 11
6.437499999999999
 21
3.42700587855713
 31
0.0
  0
ARC
  5
2B7
330
243
100
AcDbEntity
  8
4
100
AcDbCircle
 10
5.645500000000001
 20
3.364046183989781
 30
0.0
 40
0.025
100
AcDbArc
 50
180.0
 51
0.0
  0
LINE
  5
2B8
330
243
100
AcDbEntity
  8
4
100
AcDbLine
 10
5.670500000000001
 20
3.364046183989781
 30
0.0
 11
5.670500000000001
 21
3.414046183989781
 31
0.0
  0
LINE
  5
2B9
330
243
100
AcDbEntity
  8
4
100
AcDbLine
 10
5.357479890102486
 20
3.40104618398978
 30
0.0
 11
5.419479890102485
 21
3.40104618398978
 31
0.0
  0
LINE
  5
2BA
330
243
100
AcDbEntity
  8
4
100
AcDbLine
 10
5.388479890102486
 20
3.40104618398978
 30
0.0
 11
5.388479890102486
 21
3.33904618398978
 31
0.0
  0
LINE
  5
2BB
330
243
100
AcDbEntity
  8
4
100
AcDbLine
 10
6.698479890102484
 20
3.40104618398978
 30
0.0
 11
6.698479890102484
 21
3.33904618398978
 31
0.0
  0
LINE
  5
2BC
330
243
100
AcDbEntity
  8
4
100
AcDbLine
 10
6.667479890102485
 20
3.40104618398978
 30
0.0
 11
6.729479890102484
 21
3.40104618398978
 31
0.0
  0
LINE
  5
2BD
330
243
100
AcDbEntity
  8
4
100
AcDbLine
 10
6.9805
 20
3.364046183989781
 30
0.0
 11
6.9805
 21
3.414046183989781
 31
0.0
  0
ARC
  5
2BE
330
243
100
AcDbEntity
  8
4
100
AcDbCircle
 10
6.9555
 20
3.364046183989781
 30
0.0
 40
0.025
100
AcDbArc
 50
180.0
 51
0.0
  0
ARC
  5
2BF
330
243
100
AcDbEntity
  8
4
100
AcDbCircle
 10
7.0445
 20
3.364046183989781
 30
0.0
 40
0.025
100
AcDbArc
 50
180.0
 51
0.0
  0
LINE
  5
2C0
330
243
100
AcDbEntity
  8
4
100
AcDbLine
 10
7.0195
 20
3.364046183989781
 30
0.0
 11
7.0195
 21
3.414046183989781
 31
0.0
  0
LINE
  5
2C1
330
243
100
AcDbEntity
  8
4
100
AcDbLine
 10
7.332520109897515
 20
3.40104618398978
 30
0.0
 11
7.270520109897516
 21
3.40104618398978
 31
0.0
  0
LINE
  5
2C2
330
243
100
AcDbEntity
  8
4
100
AcDbLine
 10
7.301520109897515
 20
3.40104618398978
 30
0.0
 11
7.301520109897515
 21
3.33904618398978
 31
0.0
  0
LINE
  5
2C3
330
243
100
AcDbEntity
  8
4
100
AcDbLine
 10
4.8125
 20
4.5
 30
0.0
 11
4.8125
 21
1.562
 31
0.0
  0
LINE
  5
2C4
330
243
100
AcDbEntity
  8
4
100
AcDbLine
 10
5.0655
 20
2.448005878557129
 30
0.0
 11
5.0655
 21
1.594
 31
0.0
  0
LINE
  5
2C5
330
243
100
AcDbEntity
  8
4
100
AcDbLine
 10
6.375499999999999
 20
2.448005878557129
 30
0.0
 11
6.375499999999999
 21
1.594
 31
0.0
  0
LINE
  5
2C6
330
243
100
AcDbEntity
  8
4
100
AcDbLine
 10
1.113234055463451
 20
3.182467157252411
 30
0.0
 11
1.301234055463451
 21
3.182467157252411
 31
0.0
  0
LINE
  5
2C7
330
243
100
AcDbEntity
  8
4
100
AcDbLine
 10
1.301234055463451
 20
3.182467157252411
 30
0.0
 11
1.269234055463451
 21
2.879967157252411
 31
0.0
  0
LINE
  5
2C8
330
243
100
AcDbEntity
  8
4
100
AcDbLine
 10
1.113234055463451
 20
3.182467157252411
 30
0.0
 11
1.145234055463451
 21
2.879967157252411
 31
0.0
  0
LINE
  5
2C9
330
243
100
AcDbEntity
  8
4
100
AcDbLine
 10
1.145234055463451
 20
2.879967157252411
 30
0.0
 11
1.269234055463451
 21
2.879967157252411
 31
0.0
  0
LINE
  5
2CA
330
243
100
AcDbEntity
  8
4
100
AcDbLine
 10
1.129904527520149
 20
3.167467157252411
 30
0.0
 11
1.158730973801141
 21
2.894967157252411
 31
0.0
  0
LINE
  5
2CB
330
243
100
AcDbEntity
  8
4
100
AcDbLine
 10
1.158730973801141
 20
2.894967157252411
 30
0.0
 11
1.255737137125761
 21
2.894967157252411
 31
0.0
  0
LINE
  5
2CC
330
243
100
AcDbEntity
  8
4
100
AcDbLine
 10
1.284563583406752
 20
3.167467157252411
 30
0.0
 11
1.255737137125761
 21
2.894967157252411
 31
0.0
  0
LINE
  5
2CD
330
243
100
AcDbEntity
  8
4
100
AcDbLine
 10
1.129904527520149
 20
3.167467157252411
 30
0.0
 11
1.284563583406752
 21
3.167467157252411
 31
0.0
  0
LINE
  5
2CE
330
243
100
AcDbEntity
  8
4
100
AcDbLine
 10
1.222234055463451
 20
3.167467157252411
 30
0.0
 11
1.222234055463451
 21
3.120467157252412
 31
0.0
  0
LINE
  5
2CF
330
243
100
AcDbEntity
  8
4
100
AcDbLine
 10
1.222234055463451
 20
3.120467157252412
 30
0.0
 11
1.192234055463451
 21
3.120467157252412
 31
0.0
  0
LINE
  5
2D0
330
243
100
AcDbEntity
  8
4
100
AcDbLine
 10
1.192234055463451
 20
3.120467157252412
 30
0.0
 11
1.192234055463451
 21
3.167467157252411
 31
0.0
  0
ARC
  5
2D1
330
243
100
AcDbEntity
  8
4
100
AcDbCircle
 10
3.412999999999999
 20
2.385046183989781
 30
0.0
 40
0.025
100
AcDbArc
 50
180.0
 51
0.0
  0
ARC
  5
2D2
330
243
100
AcDbEntity
  8
4
100
AcDbCircle
 10
2.961999999999999
 20
2.385046183989781
 30
0.0
 40
0.025
100
AcDbArc
 50
180.0
 51
0.0
  0
ARC
  5
2D3
330
243
100
AcDbEntity
  8
4
100
AcDbCircle
 10
2.787999999999999
 20
2.385046183989781
 30
0.0
 40
0.025
100
AcDbArc
 50
180.0
 51
0.0
  0
ARC
  5
2D4
330
243
100
AcDbEntity
  8
4
100
AcDbCircle
 10
2.336999999999999
 20
2.385046183989781
 30
0.0
 40
0.025
100
AcDbArc
 50
180.0
 51
0.0
  0
ARC
  5
2D5
330
243
100
AcDbEntity
  8
4
100
AcDbCircle
 10
2.163
 20
2.385046183989781
 30
0.0
 40
0.025
100
AcDbArc
 50
180.0
 51
0.0
  0
ARC
  5
2D6
330
243
100
AcDbEntity
  8
4
100
AcDbCircle
 10
1.712
 20
2.385046183989781
 30
0.0
 40
0.025
100
AcDbArc
 50
180.0
 51
0.0
  0
LINE
  5
2D7
330
243
100
AcDbEntity
  8
4
100
AcDbLine
 10
3.155
 20
2.42204618398978
 30
0.0
 11
3.217
 21
2.42204618398978
 31
0.0
  0
LINE
  5
2D8
330
243
100
AcDbEntity
  8
4
100
AcDbLine
 10
3.217
 20
2.42204618398978
 30
0.0
 11
3.217
 21
2.36004618398978
 31
0.0
  0
LINE
  5
2D9
330
243
100
AcDbEntity
  8
4
100
AcDbLine
 10
3.155
 20
2.42204618398978
 30
0.0
 11
3.155
 21
2.36004618398978
 31
0.0
  0
LINE
  5
2DA
330
243
100
AcDbEntity
  8
4
100
AcDbLine
 10
1.905
 20
2.42204618398978
 30
0.0
 11
1.905
 21
2.36004618398978
 31
0.0
  0
LINE
  5
2DB
330
243
100
AcDbEntity
  8
4
100
AcDbLine
 10
1.967
 20
2.42204618398978
 30
0.0
 11
1.967
 21
2.36004618398978
 31
0.0
  0
LINE
  5
2DC
330
243
100
AcDbEntity
  8
4
100
AcDbLine
 10
1.905
 20
2.42204618398978
 30
0.0
 11
1.967
 21
2.42204618398978
 31
0.0
  0
LINE
  5
2DD
330
243
100
AcDbEntity
  8
4
100
AcDbLine
 10
2.625
 20
2.48000587855713
 30
0.0
 11
2.812999999999999
 21
2.48000587855713
 31
0.0
  0
LINE
  5
2DE
330
243
100
AcDbEntity
  8
4
100
AcDbLine
 10
2.625
 20
2.54200587855713
 30
0.0
 11
2.812999999999999
 21
2.54200587855713
 31
0.0
  0
LINE
  5
2DF
330
243
100
AcDbEntity
  8
4
100
AcDbLine
 10
2.937
 20
2.54200587855713
 30
0.0
 11
3.437999999999999
 21
2.54200587855713
 31
0.0
  0
LINE
  5
2E0
330
243
100
AcDbEntity
  8
4
100
AcDbLine
 10
2.937
 20
2.48000587855713
 30
0.0
 11
3.437999999999999
 21
2.48000587855713
 31
0.0
  0
LINE
  5
2E1
330
243
100
AcDbEntity
  8
4
100
AcDbLine
 10
2.312
 20
2.54200587855713
 30
0.0
 11
2.499999999999999
 21
2.54200587855713
 31
0.0
  0
LINE
  5
2E2
330
243
100
AcDbEntity
  8
4
100
AcDbLine
 10
2.312
 20
2.48000587855713
 30
0.0
 11
2.499999999999999
 21
2.48000587855713
 31
0.0
  0
LINE
  5
2E3
330
243
100
AcDbEntity
  8
4
100
AcDbLine
 10
1.686999999999999
 20
2.54200587855713
 30
0.0
 11
2.187999999999999
 21
2.54200587855713
 31
0.0
  0
LINE
  5
2E4
330
243
100
AcDbEntity
  8
4
100
AcDbLine
 10
1.686999999999999
 20
2.48000587855713
 30
0.0
 11
2.187999999999999
 21
2.48000587855713
 31
0.0
  0
LINE
  5
2E5
330
243
100
AcDbEntity
  8
4
100
AcDbLine
 10
1.061999999999999
 20
2.54200587855713
 30
0.0
 11
1.562999999999999
 21
2.54200587855713
 31
0.0
  0
LINE
  5
2E6
330
243
100
AcDbEntity
  8
4
100
AcDbLine
 10
1.061999999999999
 20
2.48000587855713
 30
0.0
 11
1.562999999999999
 21
2.48000587855713
 31
0.0
  0
LINE
  5
2E7
330
243
100
AcDbEntity
  8
4
100
AcDbLine
 10
1.540999999999999
 20
1.843961724666487
 30
0.0
 11
1.540999999999999
 21
1.718961724666487
 31
0.0
  0
LINE
  5
2E8
330
243
100
AcDbEntity
  8
4
100
AcDbLine
 10
1.540999999999999
 20
2.32300587855713
 30
0.0
 11
1.540999999999999
 21
2.19800587855713
 31
0.0
  0
LINE
  5
2E9
330
243
100
AcDbEntity
  8
4
100
AcDbLine
 10
1.530999999999999
 20
1.594961724666487
 30
0.0
 11
1.093999999999999
 21
1.594961724666486
 31
0.0
  0
LINE
  5
2EA
330
243
100
AcDbEntity
  8
4
100
AcDbLine
 10
1.530999999999999
 20
2.44800587855713
 30
0.0
 11
1.530999999999999
 21
1.594961724666487
 31
0.0
  0
LINE
  5
2EB
330
243
100
AcDbEntity
  8
4
100
AcDbLine
 10
1.093999999999999
 20
2.44800587855713
 30
0.0
 11
1.530999999999999
 21
2.44800587855713
 31
0.0
  0
LINE
  5
2EC
330
243
100
AcDbEntity
  8
4
100
AcDbLine
 10
1.093999999999999
 20
1.594961724666486
 30
0.0
 11
1.093999999999999
 21
2.44800587855713
 31
0.0
  0
LINE
  5
2ED
330
243
100
AcDbEntity
  8
4
100
AcDbLine
 10
1.093999999999999
 20
2.573961724666486
 30
0.0
 11
1.094
 21
3.42700587855713
 31
0.0
  0
LINE
  5
2EE
330
243
100
AcDbEntity
  8
4
100
AcDbLine
 10
1.094
 20
3.42700587855713
 30
0.0
 11
1.531
 21
3.42700587855713
 31
0.0
  0
LINE
  5
2EF
330
243
100
AcDbEntity
  8
4
100
AcDbLine
 10
1.531
 20
3.42700587855713
 30
0.0
 11
1.530999999999999
 21
2.573961724666487
 31
0.0
  0
LINE
  5
2F0
330
243
100
AcDbEntity
  8
4
100
AcDbLine
 10
1.530999999999999
 20
2.573961724666487
 30
0.0
 11
1.093999999999999
 21
2.573961724666486
 31
0.0
  0
LINE
  5
2F1
330
243
100
AcDbEntity
  8
4
100
AcDbLine
 10
1.541
 20
3.30200587855713
 30
0.0
 11
1.541
 21
3.17700587855713
 31
0.0
  0
LINE
  5
2F2
330
243
100
AcDbEntity
  8
4
100
AcDbLine
 10
1.540999999999999
 20
2.822961724666487
 30
0.0
 11
1.540999999999999
 21
2.697961724666487
 31
0.0
  0
INSERT
  5
2F3
330
243
100
AcDbEntity
  8
4
100
AcDbBlockReference
  2
ARRO
 10
0.9609118825233171
 20
2.99768701891066
 30
0.0
 50
180.0
  0
INSERT
  5
2F4
330
243
100
AcDbEntity
  8
4
100
AcDbBlockReference
  2
ARRO
 10
0.9609118825233171
 20
3.14666888180704
 30
0.0
 50
180.0
  0
LINE
  5
2F5
330
243
100
AcDbEntity
  8
4
100
AcDbLine
 10
0.5859118825233172
 20
2.99768701891066
 30
0.0
 11
0.5859118825233172
 21
2.93568701891066
 31
0.0
  0
LINE
  5
2F6
330
243
100
AcDbEntity
  8
4
100
AcDbLine
 10
0.9609118825233171
 20
2.99768701891066
 30
0.0
 11
0.5859118825233172
 21
2.99768701891066
 31
0.0
  0
LINE
  5
2F7
330
243
100
AcDbEntity
  8
4
100
AcDbLine
 10
0.5859118825233172
 20
3.14666888180704
 30
0.0
 11
0.5859118825233172
 21
3.20866888180704
 31
0.0
  0
LINE
  5
2F8
330
243
100
AcDbEntity
  8
4
100
AcDbLine
 10
0.9609118825233171
 20
3.14666888180704
 30
0.0
 11
0.5859118825233172
 21
3.14666888180704
 31
0.0
  0
LINE
  5
2F9
330
243
100
AcDbEntity
  8
4
100
AcDbLine
 10
1.540999999999999
 20
3.801961724666487
 30
0.0
 11
1.540999999999999
 21
3.676961724666487
 31
0.0
  0
LINE
  5
2FA
330
243
100
AcDbEntity
  8
4
100
AcDbLine
 10
1.541
 20
4.28100587855713
 30
0.0
 11
1.541
 21
4.15600587855713
 31
0.0
  0
LINE
  5
2FB
330
243
100
AcDbEntity
  8
4
100
AcDbLine
 10
1.530999999999999
 20
3.552961724666487
 30
0.0
 11
1.094
 21
3.552961724666486
 31
0.0
  0
LINE
  5
2FC
330
243
100
AcDbEntity
  8
4
100
AcDbLine
 10
1.531
 20
4.40600587855713
 30
0.0
 11
1.530999999999999
 21
3.552961724666487
 31
0.0
  0
LINE
  5
2FD
330
243
100
AcDbEntity
  8
4
100
AcDbLine
 10
1.094
 20
4.40600587855713
 30
0.0
 11
1.531
 21
4.40600587855713
 31
0.0
  0
LINE
  5
2FE
330
243
100
AcDbEntity
  8
4
100
AcDbLine
 10
1.094
 20
3.552961724666486
 30
0.0
 11
1.094
 21
4.40600587855713
 31
0.0
  0
LINE
  5
2FF
330
243
100
AcDbEntity
  8
4
100
AcDbLine
 10
1.062
 20
3.45900587855713
 30
0.0
 11
1.562999999999999
 21
3.45900587855713
 31
0.0
  0
LINE
  5
300
330
243
100
AcDbEntity
  8
4
100
AcDbLine
 10
1.062
 20
3.52100587855713
 30
0.0
 11
1.562999999999999
 21
3.52100587855713
 31
0.0
  0
LINE
  5
301
330
243
100
AcDbEntity
  8
4
100
AcDbLine
 10
1.687
 20
3.45900587855713
 30
0.0
 11
2.187999999999999
 21
3.45900587855713
 31
0.0
  0
LINE
  5
302
330
243
100
AcDbEntity
  8
4
100
AcDbLine
 10
1.687
 20
3.52100587855713
 30
0.0
 11
2.187999999999999
 21
3.52100587855713
 31
0.0
  0
LINE
  5
303
330
243
100
AcDbEntity
  8
4
100
AcDbLine
 10
2.312
 20
3.45900587855713
 30
0.0
 11
2.499999999999999
 21
3.45900587855713
 31
0.0
  0
LINE
  5
304
330
243
100
AcDbEntity
  8
4
100
AcDbLine
 10
2.312
 20
3.52100587855713
 30
0.0
 11
2.512196030826981
 21
3.52100587855713
 31
0.0
  0
LINE
  5
305
330
243
100
AcDbEntity
  8
4
100
AcDbLine
 10
2.937
 20
3.45900587855713
 30
0.0
 11
3.437999999999999
 21
3.45900587855713
 31
0.0
  0
LINE
  5
306
330
243
100
AcDbEntity
  8
4
100
AcDbLine
 10
2.937
 20
3.52100587855713
 30
0.0
 11
3.437999999999999
 21
3.52100587855713
 31
0.0
  0
LINE
  5
307
330
243
100
AcDbEntity
  8
4
100
AcDbLine
 10
2.625
 20
3.52100587855713
 30
0.0
 11
2.812999999999999
 21
3.52100587855713
 31
0.0
  0
LINE
  5
308
330
243
100
AcDbEntity
  8
4
100
AcDbLine
 10
2.625
 20
3.45900587855713
 30
0.0
 11
2.812999999999999
 21
3.45900587855713
 31
0.0
  0
ARC
  5
309
330
243
100
AcDbEntity
  8
4
100
AcDbCircle
 10
3.412999999999999
 20
4.343
 30
0.0
 40
0.025
100
AcDbArc
 50
180.0
 51
0.0
  0
ARC
  5
30A
330
243
100
AcDbEntity
  8
4
100
AcDbCircle
 10
2.962
 20
4.343
 30
0.0
 40
0.025
100
AcDbArc
 50
180.0
 51
0.0
  0
ARC
  5
30B
330
243
100
AcDbEntity
  8
4
100
AcDbCircle
 10
2.787999999999999
 20
4.343
 30
0.0
 40
0.025
100
AcDbArc
 50
180.0
 51
0.0
  0
ARC
  5
30C
330
243
100
AcDbEntity
  8
4
100
AcDbCircle
 10
2.337
 20
4.343
 30
0.0
 40
0.025
100
AcDbArc
 50
180.0
 51
0.0
  0
ARC
  5
30D
330
243
100
AcDbEntity
  8
4
100
AcDbCircle
 10
2.163
 20
4.343
 30
0.0
 40
0.025
100
AcDbArc
 50
180.0
 51
0.0
  0
ARC
  5
30E
330
243
100
AcDbEntity
  8
4
100
AcDbCircle
 10
1.712
 20
4.343
 30
0.0
 40
0.025
100
AcDbArc
 50
180.0
 51
0.0
  0
LINE
  5
30F
330
243
100
AcDbEntity
  8
4
100
AcDbLine
 10
3.155
 20
4.379999999999999
 30
0.0
 11
3.217
 21
4.379999999999999
 31
0.0
  0
LINE
  5
310
330
243
100
AcDbEntity
  8
4
100
AcDbLine
 10
3.217
 20
4.379999999999999
 30
0.0
 11
3.217
 21
4.318
 31
0.0
  0
LINE
  5
311
330
243
100
AcDbEntity
  8
4
100
AcDbLine
 10
3.155
 20
4.379999999999999
 30
0.0
 11
3.155
 21
4.318
 31
0.0
  0
LINE
  5
312
330
243
100
AcDbEntity
  8
4
100
AcDbLine
 10
1.905
 20
3.40104618398978
 30
0.0
 11
1.967
 21
3.40104618398978
 31
0.0
  0
LINE
  5
313
330
243
100
AcDbEntity
  8
4
100
AcDbLine
 10
1.967
 20
3.40104618398978
 30
0.0
 11
1.967
 21
3.33904618398978
 31
0.0
  0
LINE
  5
314
330
243
100
AcDbEntity
  8
4
100
AcDbLine
 10
1.905
 20
3.40104618398978
 30
0.0
 11
1.905
 21
3.33904618398978
 31
0.0
  0
LINE
  5
315
330
243
100
AcDbEntity
  8
4
100
AcDbLine
 10
3.155
 20
3.40104618398978
 30
0.0
 11
3.155
 21
3.33904618398978
 31
0.0
  0
LINE
  5
316
330
243
100
AcDbEntity
  8
4
100
AcDbLine
 10
3.217
 20
3.40104618398978
 30
0.0
 11
3.217
 21
3.33904618398978
 31
0.0
  0
LINE
  5
317
330
243
100
AcDbEntity
  8
4
100
AcDbLine
 10
3.155
 20
3.40104618398978
 30
0.0
 11
3.217
 21
3.40104618398978
 31
0.0
  0
ARC
  5
318
330
243
100
AcDbEntity
  8
4
100
AcDbCircle
 10
1.712
 20
3.364046183989781
 30
0.0
 40
0.025
100
AcDbArc
 50
180.0
 51
0.0
  0
ARC
  5
319
330
243
100
AcDbEntity
  8
4
100
AcDbCircle
 10
2.163
 20
3.364046183989781
 30
0.0
 40
0.025
100
AcDbArc
 50
180.0
 51
0.0
  0
ARC
  5
31A
330
243
100
AcDbEntity
  8
4
100
AcDbCircle
 10
2.337
 20
3.364046183989781
 30
0.0
 40
0.025
100
AcDbArc
 50
180.0
 51
0.0
  0
ARC
  5
31B
330
243
100
AcDbEntity
  8
4
100
AcDbCircle
 10
2.787999999999999
 20
3.364046183989781
 30
0.0
 40
0.025
100
AcDbArc
 50
180.0
 51
0.0
  0
ARC
  5
31C
330
243
100
AcDbEntity
  8
4
100
AcDbCircle
 10
2.962
 20
3.364046183989781
 30
0.0
 40
0.025
100
AcDbArc
 50
180.0
 51
0.0
  0
ARC
  5
31D
330
243
100
AcDbEntity
  8
4
100
AcDbCircle
 10
3.412999999999999
 20
3.364046183989781
 30
0.0
 40
0.025
100
AcDbArc
 50
180.0
 51
0.0
  0
LINE
  5
31E
330
243
100
AcDbEntity
  8
4
100
AcDbLine
 10
1.192234055463451
 20
2.141467157252411
 30
0.0
 11
1.192234055463451
 21
2.188467157252411
 31
0.0
  0
LINE
  5
31F
330
243
100
AcDbEntity
  8
4
100
AcDbLine
 10
1.222234055463451
 20
2.141467157252411
 30
0.0
 11
1.192234055463451
 21
2.141467157252411
 31
0.0
  0
LINE
  5
320
330
243
100
AcDbEntity
  8
4
100
AcDbLine
 10
1.222234055463451
 20
2.188467157252411
 30
0.0
 11
1.222234055463451
 21
2.141467157252411
 31
0.0
  0
LINE
  5
321
330
243
100
AcDbEntity
  8
4
100
AcDbLine
 10
1.129904527520149
 20
2.188467157252411
 30
0.0
 11
1.284563583406752
 21
2.188467157252411
 31
0.0
  0
LINE
  5
322
330
243
100
AcDbEntity
  8
4
100
AcDbLine
 10
1.284563583406752
 20
2.188467157252411
 30
0.0
 11
1.255737137125761
 21
1.915967157252411
 31
0.0
  0
LINE
  5
323
330
243
100
AcDbEntity
  8
4
100
AcDbLine
 10
1.158730973801141
 20
1.915967157252411
 30
0.0
 11
1.255737137125761
 21
1.915967157252411
 31
0.0
  0
LINE
  5
324
330
243
100
AcDbEntity
  8
4
100
AcDbLine
 10
1.129904527520149
 20
2.188467157252411
 30
0.0
 11
1.158730973801141
 21
1.915967157252411
 31
0.0
  0
LINE
  5
325
330
243
100
AcDbEntity
  8
4
100
AcDbLine
 10
1.145234055463451
 20
1.900967157252411
 30
0.0
 11
1.269234055463451
 21
1.900967157252411
 31
0.0
  0
LINE
  5
326
330
243
100
AcDbEntity
  8
4
100
AcDbLine
 10
1.113234055463451
 20
2.203467157252411
 30
0.0
 11
1.145234055463451
 21
1.900967157252411
 31
0.0
  0
LINE
  5
327
330
243
100
AcDbEntity
  8
4
100
AcDbLine
 10
1.301234055463451
 20
2.203467157252411
 30
0.0
 11
1.269234055463451
 21
1.900967157252411
 31
0.0
  0
LINE
  5
328
330
243
100
AcDbEntity
  8
4
100
AcDbLine
 10
1.113234055463451
 20
2.203467157252411
 30
0.0
 11
1.301234055463451
 21
2.203467157252411
 31
0.0
  0
LINE
  5
329
330
243
100
AcDbEntity
  8
4
100
AcDbLine
 10
1.192234055463451
 20
4.099467157252412
 30
0.0
 11
1.192234055463451
 21
4.146467157252411
 31
0.0
  0
LINE
  5
32A
330
243
100
AcDbEntity
  8
4
100
AcDbLine
 10
1.222234055463451
 20
4.099467157252412
 30
0.0
 11
1.192234055463451
 21
4.099467157252412
 31
0.0
  0
LINE
  5
32B
330
243
100
AcDbEntity
  8
4
100
AcDbLine
 10
1.222234055463451
 20
4.146467157252411
 30
0.0
 11
1.222234055463451
 21
4.099467157252412
 31
0.0
  0
LINE
  5
32C
330
243
100
AcDbEntity
  8
4
100
AcDbLine
 10
1.129904527520149
 20
4.146467157252411
 30
0.0
 11
1.284563583406752
 21
4.146467157252411
 31
0.0
  0
LINE
  5
32D
330
243
100
AcDbEntity
  8
4
100
AcDbLine
 10
1.284563583406752
 20
4.146467157252411
 30
0.0
 11
1.255737137125761
 21
3.873967157252412
 31
0.0
  0
LINE
  5
32E
330
243
100
AcDbEntity
  8
4
100
AcDbLine
 10
1.158730973801141
 20
3.873967157252412
 30
0.0
 11
1.255737137125761
 21
3.873967157252412
 31
0.0
  0
LINE
  5
32F
330
243
100
AcDbEntity
  8
4
100
AcDbLine
 10
1.129904527520149
 20
4.146467157252411
 30
0.0
 11
1.158730973801141
 21
3.873967157252412
 31
0.0
  0
LINE
  5
330
330
243
100
AcDbEntity
  8
4
100
AcDbLine
 10
1.145234055463451
 20
3.858967157252411
 30
0.0
 11
1.269234055463451
 21
3.858967157252411
 31
0.0
  0
LINE
  5
331
330
243
100
AcDbEntity
  8
4
100
AcDbLine
 10
1.113234055463451
 20
4.161467157252412
 30
0.0
 11
1.145234055463451
 21
3.858967157252411
 31
0.0
  0
LINE
  5
332
330
243
100
AcDbEntity
  8
4
100
AcDbLine
 10
1.301234055463451
 20
4.161467157252412
 30
0.0
 11
1.269234055463451
 21
3.858967157252411
 31
0.0
  0
LINE
  5
333
330
243
100
AcDbEntity
  8
4
100
AcDbLine
 10
1.113234055463451
 20
4.161467157252412
 30
0.0
 11
1.301234055463451
 21
4.161467157252412
 31
0.0
  0
LINE
  5
334
330
243
100
AcDbEntity
  8
4
100
AcDbLine
 10
7.6245
 20
1.594
 30
0.0
 11
7.5625
 21
1.594
 31
0.0
  0
LINE
  5
335
330
243
100
AcDbEntity
  8
4
100
AcDbLine
 10
7.624499999999999
 20
2.448005878557129
 30
0.0
 11
7.562499999999999
 21
2.448005878557129
 31
0.0
  0
LINE
  5
336
330
243
100
AcDbEntity
  8
4
100
AcDbLine
 10
7.624499999999999
 20
2.573961724666486
 30
0.0
 11
7.5625
 21
2.573961724666486
 31
0.0
  0
LINE
  5
337
330
243
100
AcDbEntity
  8
4
100
AcDbLine
 10
7.4865
 20
2.54200587855713
 30
0.0
 11
7.019499999999999
 21
2.54200587855713
 31
0.0
  0
LINE
  5
338
330
243
100
AcDbEntity
  8
4
100
AcDbLine
 10
7.5625
 20
2.480005878557129
 30
0.0
 11
7.6245
 21
2.480005878557129
 31
0.0
  0
LINE
  5
339
330
243
100
AcDbEntity
  8
4
100
AcDbLine
 10
7.6245
 20
2.480005878557129
 30
0.0
 11
7.6245
 21
2.54200587855713
 31
0.0
  0
LINE
  5
33A
330
243
100
AcDbEntity
  8
4
100
AcDbLine
 10
7.6245
 20
2.54200587855713
 30
0.0
 11
7.5165
 21
2.54200587855713
 31
0.0
  0
LINE
  5
33B
330
243
100
AcDbEntity
  8
4
100
AcDbLine
 10
7.4245
 20
2.480005878557129
 30
0.0
 11
7.4865
 21
2.54200587855713
 31
0.0
  0
LINE
  5
33C
330
243
100
AcDbEntity
  8
4
100
AcDbLine
 10
7.599499999999999
 20
2.527005878557129
 30
0.0
 11
7.599499999999999
 21
2.498759736119569
 31
0.0
  0
LINE
  5
33D
330
243
100
AcDbEntity
  8
4
100
AcDbLine
 10
7.5015
 20
2.527005878557129
 30
0.0
 11
7.599499999999999
 21
2.527005878557129
 31
0.0
  0
LINE
  5
33E
330
243
100
AcDbEntity
  8
4
100
AcDbLine
 10
7.4865
 20
2.54200587855713
 30
0.0
 11
7.5015
 21
2.527005878557129
 31
0.0
  0
LINE
  5
33F
330
243
100
AcDbEntity
  8
4
100
AcDbLine
 10
7.6245
 20
3.42700587855713
 30
0.0
 11
7.6245
 21
2.573961724666486
 31
0.0
  0
LINE
  5
340
330
243
100
AcDbEntity
  8
4
100
AcDbLine
 10
7.6245
 20
4.406
 30
0.0
 11
7.6245
 21
3.552961724666487
 31
0.0
  0
LINE
  5
341
330
243
100
AcDbEntity
  8
4
100
AcDbLine
 10
7.624500000000001
 20
4.406
 30
0.0
 11
7.5625
 21
4.406
 31
0.0
  0
LINE
  5
342
330
243
100
AcDbEntity
  8
4
100
AcDbLine
 10
7.486500000000001
 20
3.52100587855713
 30
0.0
 11
7.5015
 21
3.50600587855713
 31
0.0
  0
LINE
  5
343
330
243
100
AcDbEntity
  8
4
100
AcDbLine
 10
7.5015
 20
3.50600587855713
 30
0.0
 11
7.5995
 21
3.50600587855713
 31
0.0
  0
LINE
  5
344
330
243
100
AcDbEntity
  8
4
100
AcDbLine
 10
7.5995
 20
3.50600587855713
 30
0.0
 11
7.5995
 21
3.47775973611957
 31
0.0
  0
LINE
  5
345
330
243
100
AcDbEntity
  8
4
100
AcDbLine
 10
7.4245
 20
3.45900587855713
 30
0.0
 11
7.486500000000001
 21
3.52100587855713
 31
0.0
  0
LINE
  5
346
330
243
100
AcDbEntity
  8
4
100
AcDbLine
 10
7.624500000000001
 20
3.52100587855713
 30
0.0
 11
7.516500000000001
 21
3.52100587855713
 31
0.0
  0
LINE
  5
347
330
243
100
AcDbEntity
  8
4
100
AcDbLine
 10
7.624500000000001
 20
3.45900587855713
 30
0.0
 11
7.624500000000001
 21
3.52100587855713
 31
0.0
  0
LINE
  5
348
330
243
100
AcDbEntity
  8
4
100
AcDbLine
 10
7.5625
 20
3.45900587855713
 30
0.0
 11
7.624500000000001
 21
3.45900587855713
 31
0.0
  0
LINE
  5
349
330
243
100
AcDbEntity
  8
4
100
AcDbLine
 10
7.486500000000001
 20
3.52100587855713
 30
0.0
 11
7.0195
 21
3.52100587855713
 31
0.0
  0
LINE
  5
34A
330
243
100
AcDbEntity
  8
4
100
AcDbLine
 10
7.5625
 20
3.552961724666487
 30
0.0
 11
7.624499999999999
 21
3.552961724666487
 31
0.0
  0
LINE
  5
34B
330
243
100
AcDbEntity
  8
4
100
AcDbLine
 10
7.5625
 20
3.42700587855713
 30
0.0
 11
7.624499999999999
 21
3.42700587855713
 31
0.0
  0
LINE
  5
34C
330
243
100
AcDbEntity
  8
4
100
AcDbLine
 10
7.6245
 20
2.448005878557129
 30
0.0
 11
7.6245
 21
1.594
 31
0.0
  0
ENDBLK
  5
34E
330
243
100
AcDbEntity
  8
0
100
AcDbBlockEnd
  0
BLOCK
  5
461
330
351
100
AcDbEntity
  8
0
100
AcDbBlockBegin
  2
Le1022
 70
     0
 10
0.0
 20
0.0
 30
0.0
  3
Le1022
  1

  0
LINE
  5
352
330
351
100
AcDbEntity
  8
4
100
AcDbLine
 10
1.154071414010411
 20
4.252984163158293
 30
0.0
 11
1.342071414010411
 21
4.252984163158293
 31
0.0
  0
LINE
  5
353
330
351
100
AcDbEntity
  8
4
100
AcDbLine
 10
1.154071414010411
 20
4.252984163158293
 30
0.0
 11
1.186071414010411
 21
3.950484163158293
 31
0.0
  0
LINE
  5
354
330
351
100
AcDbEntity
  8
4
100
AcDbLine
 10
1.342071414010411
 20
4.252984163158293
 30
0.0
 11
1.310071414010411
 21
3.950484163158293
 31
0.0
  0
LINE
  5
355
330
351
100
AcDbEntity
  8
4
100
AcDbLine
 10
1.186071414010411
 20
3.950484163158293
 30
0.0
 11
1.310071414010411
 21
3.950484163158293
 31
0.0
  0
LINE
  5
356
330
351
100
AcDbEntity
  8
4
100
AcDbLine
 10
1.170741886067109
 20
4.237984163158293
 30
0.0
 11
1.199568332348101
 21
3.965484163158293
 31
0.0
  0
LINE
  5
357
330
351
100
AcDbEntity
  8
4
100
AcDbLine
 10
1.199568332348101
 20
3.965484163158293
 30
0.0
 11
1.296574495672721
 21
3.965484163158293
 31
0.0
  0
LINE
  5
358
330
351
100
AcDbEntity
  8
4
100
AcDbLine
 10
1.325400941953712
 20
4.237984163158293
 30
0.0
 11
1.296574495672721
 21
3.965484163158293
 31
0.0
  0
LINE
  5
359
330
351
100
AcDbEntity
  8
4
100
AcDbLine
 10
1.170741886067109
 20
4.237984163158293
 30
0.0
 11
1.325400941953712
 21
4.237984163158293
 31
0.0
  0
LINE
  5
35A
330
351
100
AcDbEntity
  8
4
100
AcDbLine
 10
1.263071414010411
 20
4.237984163158293
 30
0.0
 11
1.263071414010411
 21
4.190984163158293
 31
0.0
  0
LINE
  5
35B
330
351
100
AcDbEntity
  8
4
100
AcDbLine
 10
1.263071414010411
 20
4.190984163158293
 30
0.0
 11
1.233071414010411
 21
4.190984163158293
 31
0.0
  0
LINE
  5
35C
330
351
100
AcDbEntity
  8
4
100
AcDbLine
 10
1.233071414010411
 20
4.190984163158293
 30
0.0
 11
1.233071414010411
 21
4.237984163158293
 31
0.0
  0
LWPOLYLINE
  5
35D
330
351
100
AcDbEntity
  8
4
100
AcDbPolyline
 90
        2
 70
     1
 43
0.01
 10
1.243071414010411
 20
4.018500807517689
 42
1.0
 10
1.253071414010411
 20
4.018500807517689
 42
1.0
  0
LWPOLYLINE
  5
35E
330
351
100
AcDbEntity
  8
4
100
AcDbPolyline
 90
        2
 70
     1
 43
0.01
 10
1.243071414010411
 20
4.123500807517689
 42
1.0
 10
1.253071414010411
 20
4.123500807517689
 42
1.0
  0
CIRCLE
  5
35F
330
351
100
AcDbEntity
  8
4
100
AcDbCircle
 10
1.248071414010411
 20
4.071000807517689
 30
0.0
 40
0.023
  0
LINE
  5
360
330
351
100
AcDbEntity
  8
4
100
AcDbLine
 10
1.15407141401041
 20
3.518484163158293
 30
0.0
 11
1.342071414010411
 21
3.518484163158293
 31
0.0
  0
LINE
  5
361
330
351
100
AcDbEntity
  8
4
100
AcDbLine
 10
1.15407141401041
 20
3.518484163158293
 30
0.0
 11
1.18607141401041
 21
3.215984163158293
 31
0.0
  0
LINE
  5
362
330
351
100
AcDbEntity
  8
4
100
AcDbLine
 10
1.342071414010411
 20
3.518484163158293
 30
0.0
 11
1.310071414010411
 21
3.215984163158293
 31
0.0
  0
LINE
  5
363
330
351
100
AcDbEntity
  8
4
100
AcDbLine
 10
1.18607141401041
 20
3.215984163158293
 30
0.0
 11
1.310071414010411
 21
3.215984163158293
 31
0.0
  0
LINE
  5
364
330
351
100
AcDbEntity
  8
4
100
AcDbLine
 10
1.170741886067109
 20
3.503484163158293
 30
0.0
 11
1.199568332348101
 21
3.230984163158293
 31
0.0
  0
LINE
  5
365
330
351
100
AcDbEntity
  8
4
100
AcDbLine
 10
1.199568332348101
 20
3.230984163158293
 30
0.0
 11
1.296574495672721
 21
3.230984163158293
 31
0.0
  0
LINE
  5
366
330
351
100
AcDbEntity
  8
4
100
AcDbLine
 10
1.325400941953712
 20
3.503484163158293
 30
0.0
 11
1.296574495672721
 21
3.230984163158293
 31
0.0
  0
LINE
  5
367
330
351
100
AcDbEntity
  8
4
100
AcDbLine
 10
1.170741886067109
 20
3.503484163158293
 30
0.0
 11
1.325400941953712
 21
3.503484163158293
 31
0.0
  0
LINE
  5
368
330
351
100
AcDbEntity
  8
4
100
AcDbLine
 10
1.26307141401041
 20
3.503484163158293
 30
0.0
 11
1.26307141401041
 21
3.456484163158293
 31
0.0
  0
LINE
  5
369
330
351
100
AcDbEntity
  8
4
100
AcDbLine
 10
1.26307141401041
 20
3.456484163158293
 30
0.0
 11
1.233071414010411
 21
3.456484163158293
 31
0.0
  0
LINE
  5
36A
330
351
100
AcDbEntity
  8
4
100
AcDbLine
 10
1.233071414010411
 20
3.456484163158293
 30
0.0
 11
1.233071414010411
 21
3.503484163158293
 31
0.0
  0
LWPOLYLINE
  5
36B
330
351
100
AcDbEntity
  8
4
100
AcDbPolyline
 90
        2
 70
     1
 43
0.01
 10
1.243071414010411
 20
3.28400080751769
 42
1.0
 10
1.253071414010411
 20
3.28400080751769
 42
1.0
  0
LWPOLYLINE
  5
36C
330
351
100
AcDbEntity
  8
4
100
AcDbPolyline
 90
        2
 70
     1
 43
0.01
 10
1.243071414010411
 20
3.38900080751769
 42
1.0
 10
1.253071414010411
 20
3.38900080751769
 42
1.0
  0
CIRCLE
  5
36D
330
351
100
AcDbEntity
  8
4
100
AcDbCircle
 10
1.248071414010411
 20
3.33650080751769
 30
0.0
 40
0.023
  0
LINE
  5
36E
330
351
100
AcDbEntity
  8
4
100
AcDbLine
 10
1.15407141401041
 20
2.049484163158293
 30
0.0
 11
1.342071414010411
 21
2.049484163158293
 31
0.0
  0
LINE
  5
36F
330
351
100
AcDbEntity
  8
4
100
AcDbLine
 10
1.15407141401041
 20
2.049484163158293
 30
0.0
 11
1.18607141401041
 21
1.746984163158292
 31
0.0
  0
LINE
  5
370
330
351
100
AcDbEntity
  8
4
100
AcDbLine
 10
1.342071414010411
 20
2.049484163158293
 30
0.0
 11
1.310071414010411
 21
1.746984163158292
 31
0.0
  0
LINE
  5
371
330
351
100
AcDbEntity
  8
4
100
AcDbLine
 10
1.18607141401041
 20
1.746984163158292
 30
0.0
 11
1.310071414010411
 21
1.746984163158292
 31
0.0
  0
LINE
  5
372
330
351
100
AcDbEntity
  8
4
100
AcDbLine
 10
1.170741886067109
 20
2.034484163158293
 30
0.0
 11
1.199568332348101
 21
1.761984163158293
 31
0.0
  0
LINE
  5
373
330
351
100
AcDbEntity
  8
4
100
AcDbLine
 10
1.199568332348101
 20
1.761984163158292
 30
0.0
 11
1.296574495672721
 21
1.761984163158293
 31
0.0
  0
LINE
  5
374
330
351
100
AcDbEntity
  8
4
100
AcDbLine
 10
1.325400941953712
 20
2.034484163158293
 30
0.0
 11
1.296574495672721
 21
1.761984163158293
 31
0.0
  0
LINE
  5
375
330
351
100
AcDbEntity
  8
4
100
AcDbLine
 10
1.170741886067109
 20
2.034484163158293
 30
0.0
 11
1.325400941953712
 21
2.034484163158293
 31
0.0
  0
LINE
  5
376
330
351
100
AcDbEntity
  8
4
100
AcDbLine
 10
1.26307141401041
 20
2.034484163158293
 30
0.0
 11
1.26307141401041
 21
1.987484163158292
 31
0.0
  0
LINE
  5
377
330
351
100
AcDbEntity
  8
4
100
AcDbLine
 10
1.26307141401041
 20
1.987484163158292
 30
0.0
 11
1.233071414010411
 21
1.987484163158292
 31
0.0
  0
LINE
  5
378
330
351
100
AcDbEntity
  8
4
100
AcDbLine
 10
1.233071414010411
 20
1.987484163158292
 30
0.0
 11
1.233071414010411
 21
2.034484163158293
 31
0.0
  0
LWPOLYLINE
  5
379
330
351
100
AcDbEntity
  8
4
100
AcDbPolyline
 90
        2
 70
     1
 43
0.01
 10
1.243071414010411
 20
1.815000807517689
 42
1.0
 10
1.253071414010411
 20
1.815000807517689
 42
1.0
  0
LWPOLYLINE
  5
37A
330
351
100
AcDbEntity
  8
4
100
AcDbPolyline
 90
        2
 70
     1
 43
0.01
 10
1.243071414010411
 20
1.920000807517689
 42
1.0
 10
1.253071414010411
 20
1.920000807517689
 42
1.0
  0
CIRCLE
  5
37B
330
351
100
AcDbEntity
  8
4
100
AcDbCircle
 10
1.248071414010411
 20
1.867500807517689
 30
0.0
 40
0.023
  0
CIRCLE
  5
37C
330
351
100
AcDbEntity
  8
4
100
AcDbCircle
 10
1.248071414010411
 20
2.602000807517689
 30
0.0
 40
0.023
  0
LWPOLYLINE
  5
37D
330
351
100
AcDbEntity
  8
4
100
AcDbPolyline
 90
        2
 70
     1
 43
0.01
 10
1.243071414010411
 20
2.654500807517689
 42
1.0
 10
1.253071414010411
 20
2.654500807517689
 42
1.0
  0
LWPOLYLINE
  5
37E
330
351
100
AcDbEntity
  8
4
100
AcDbPolyline
 90
        2
 70
     1
 43
0.01
 10
1.243071414010411
 20
2.549500807517689
 42
1.0
 10
1.253071414010411
 20
2.549500807517689
 42
1.0
  0
INSERT
  5
37F
330
351
100
AcDbEntity
  8
8
100
AcDbBlockReference
  2
TEMP3
 10
0.6267492410702769
 20
2.804779866244397
 30
0.0
  0
LINE
  5
380
330
351
100
AcDbEntity
  8
4
100
AcDbLine
 10
1.233071414010411
 20
2.721984163158292
 30
0.0
 11
1.233071414010411
 21
2.768984163158292
 31
0.0
  0
LINE
  5
381
330
351
100
AcDbEntity
  8
4
100
AcDbLine
 10
1.26307141401041
 20
2.721984163158292
 30
0.0
 11
1.233071414010411
 21
2.721984163158292
 31
0.0
  0
LINE
  5
382
330
351
100
AcDbEntity
  8
4
100
AcDbLine
 10
1.26307141401041
 20
2.768984163158292
 30
0.0
 11
1.26307141401041
 21
2.721984163158292
 31
0.0
  0
LINE
  5
383
330
351
100
AcDbEntity
  8
4
100
AcDbLine
 10
1.170741886067109
 20
2.768984163158292
 30
0.0
 11
1.325400941953712
 21
2.768984163158292
 31
0.0
  0
LINE
  5
384
330
351
100
AcDbEntity
  8
4
100
AcDbLine
 10
1.325400941953712
 20
2.768984163158292
 30
0.0
 11
1.296574495672721
 21
2.496484163158292
 31
0.0
  0
LINE
  5
385
330
351
100
AcDbEntity
  8
4
100
AcDbLine
 10
1.199568332348101
 20
2.496484163158292
 30
0.0
 11
1.296574495672721
 21
2.496484163158292
 31
0.0
  0
LINE
  5
386
330
351
100
AcDbEntity
  8
4
100
AcDbLine
 10
1.170741886067109
 20
2.768984163158292
 30
0.0
 11
1.199568332348101
 21
2.496484163158292
 31
0.0
  0
LINE
  5
387
330
351
100
AcDbEntity
  8
4
100
AcDbLine
 10
1.18607141401041
 20
2.481484163158292
 30
0.0
 11
1.310071414010411
 21
2.481484163158292
 31
0.0
  0
LINE
  5
388
330
351
100
AcDbEntity
  8
4
100
AcDbLine
 10
1.15407141401041
 20
2.783984163158292
 30
0.0
 11
1.18607141401041
 21
2.481484163158292
 31
0.0
  0
LINE
  5
389
330
351
100
AcDbEntity
  8
4
100
AcDbLine
 10
1.342071414010411
 20
2.783984163158292
 30
0.0
 11
1.310071414010411
 21
2.481484163158292
 31
0.0
  0
LINE
  5
38A
330
351
100
AcDbEntity
  8
4
100
AcDbLine
 10
1.15407141401041
 20
2.783984163158292
 30
0.0
 11
1.342071414010411
 21
2.783984163158292
 31
0.0
  0
LINE
  5
38B
330
351
100
AcDbEntity
  8
4
100
AcDbLine
 10
1.001749241070276
 20
2.742779866244397
 30
0.0
 11
0.6267492410702769
 21
2.742779866244397
 31
0.0
  0
LINE
  5
38C
330
351
100
AcDbEntity
  8
4
100
AcDbLine
 10
0.6267492410702769
 20
2.742779866244397
 30
0.0
 11
0.6267492410702769
 21
2.804779866244397
 31
0.0
  0
LINE
  5
38D
330
351
100
AcDbEntity
  8
4
100
AcDbLine
 10
1.001749241070276
 20
2.602336929397352
 30
0.0
 11
0.6267492410702769
 21
2.602336929397352
 31
0.0
  0
LINE
  5
38E
330
351
100
AcDbEntity
  8
4
100
AcDbLine
 10
0.6267492410702769
 20
2.602336929397352
 30
0.0
 11
0.6267492410702769
 21
2.540336929397352
 31
0.0
  0
INSERT
  5
38F
330
351
100
AcDbEntity
  8
4
100
AcDbBlockReference
  2
ARRO
 10
1.001749241070276
 20
2.742779866244397
 30
0.0
 50
180.0
  0
INSERT
  5
390
330
351
100
AcDbEntity
  8
4
100
AcDbBlockReference
  2
ARRO
 10
1.001749241070276
 20
2.602336929397352
 30
0.0
 50
180.0
  0
LINE
  5
391
330
351
100
AcDbEntity
  8
4
100
AcDbLine
 10
7.6245
 20
2.20250587855713
 30
0.0
 11
7.6245
 21
1.594
 31
0.0
  0
LINE
  5
392
330
351
100
AcDbEntity
  8
4
100
AcDbLine
 10
6.375499999999999
 20
2.20250587855713
 30
0.0
 11
6.375499999999999
 21
1.594
 31
0.0
  0
LINE
  5
393
330
351
100
AcDbEntity
  8
4
100
AcDbLine
 10
5.0655
 20
2.20250587855713
 30
0.0
 11
5.0655
 21
1.594
 31
0.0
  0
INSERT
  5
394
330
351
100
AcDbEntity
  8
4
100
AcDbBlockReference
  2
ARRO2
 10
4.812500000000001
 20
2.29650587855713
 30
0.0
 50
90.0
  0
LINE
  5
395
330
351
100
AcDbEntity
  8
4
100
AcDbLine
 10
7.624499999999999
 20
2.20250587855713
 30
0.0
 11
7.562499999999999
 21
2.20250587855713
 31
0.0
  0
LINE
  5
396
330
351
100
AcDbEntity
  8
4
100
AcDbLine
 10
7.624499999999999
 20
2.328461724666487
 30
0.0
 11
7.5625
 21
2.328461724666487
 31
0.0
  0
LINE
  5
397
330
351
100
AcDbEntity
  8
4
100
AcDbLine
 10
7.4865
 20
2.29650587855713
 30
0.0
 11
7.019499999999999
 21
2.29650587855713
 31
0.0
  0
LINE
  5
398
330
351
100
AcDbEntity
  8
4
100
AcDbLine
 10
7.5625
 20
2.23450587855713
 30
0.0
 11
7.6245
 21
2.23450587855713
 31
0.0
  0
LINE
  5
399
330
351
100
AcDbEntity
  8
4
100
AcDbLine
 10
7.6245
 20
2.23450587855713
 30
0.0
 11
7.6245
 21
2.29650587855713
 31
0.0
  0
LINE
  5
39A
330
351
100
AcDbEntity
  8
4
100
AcDbLine
 10
7.6245
 20
2.29650587855713
 30
0.0
 11
7.5165
 21
2.29650587855713
 31
0.0
  0
LINE
  5
39B
330
351
100
AcDbEntity
  8
4
100
AcDbLine
 10
7.019499999999999
 20
2.29650587855713
 30
0.0
 11
7.019499999999999
 21
2.23450587855713
 31
0.0
  0
LINE
  5
39C
330
351
100
AcDbEntity
  8
4
100
AcDbLine
 10
7.059499999999999
 20
2.29650587855713
 30
0.0
 11
7.059499999999999
 21
2.23450587855713
 31
0.0
  0
LINE
  5
39D
330
351
100
AcDbEntity
  8
4
100
AcDbLine
 10
7.059499999999999
 20
2.23450587855713
 30
0.0
 11
7.4245
 21
2.23450587855713
 31
0.0
  0
LINE
  5
39E
330
351
100
AcDbEntity
  8
4
100
AcDbLine
 10
7.4245
 20
2.23450587855713
 30
0.0
 11
7.4865
 21
2.29650587855713
 31
0.0
  0
LINE
  5
39F
330
351
100
AcDbEntity
  8
4
100
AcDbLine
 10
7.599499999999999
 20
2.28150587855713
 30
0.0
 11
7.599499999999999
 21
2.25325973611957
 31
0.0
  0
LINE
  5
3A0
330
351
100
AcDbEntity
  8
4
100
AcDbLine
 10
7.5015
 20
2.28150587855713
 30
0.0
 11
7.599499999999999
 21
2.28150587855713
 31
0.0
  0
LINE
  5
3A1
330
351
100
AcDbEntity
  8
4
100
AcDbLine
 10
7.4865
 20
2.29650587855713
 30
0.0
 11
7.5015
 21
2.28150587855713
 31
0.0
  0
LINE
  5
3A2
330
351
100
AcDbEntity
  8
4
100
AcDbLine
 10
6.513499999999999
 20
2.29650587855713
 30
0.0
 11
6.498499999999999
 21
2.28150587855713
 31
0.0
  0
LINE
  5
3A3
330
351
100
AcDbEntity
  8
4
100
AcDbLine
 10
6.498499999999999
 20
2.28150587855713
 30
0.0
 11
6.4005
 21
2.28150587855713
 31
0.0
  0
LINE
  5
3A4
330
351
100
AcDbEntity
  8
4
100
AcDbLine
 10
6.4005
 20
2.28150587855713
 30
0.0
 11
6.4005
 21
2.25325973611957
 31
0.0
  0
LINE
  5
3A5
330
351
100
AcDbEntity
  8
4
100
AcDbLine
 10
6.575499999999999
 20
2.23450587855713
 30
0.0
 11
6.513499999999999
 21
2.29650587855713
 31
0.0
  0
LINE
  5
3A6
330
351
100
AcDbEntity
  8
4
100
AcDbLine
 10
6.9405
 20
2.23450587855713
 30
0.0
 11
6.575499999999999
 21
2.23450587855713
 31
0.0
  0
LINE
  5
3A7
330
351
100
AcDbEntity
  8
4
100
AcDbLine
 10
6.9405
 20
2.29650587855713
 30
0.0
 11
6.9405
 21
2.23450587855713
 31
0.0
  0
LINE
  5
3A8
330
351
100
AcDbEntity
  8
4
100
AcDbLine
 10
6.9805
 20
2.29650587855713
 30
0.0
 11
6.9805
 21
2.23450587855713
 31
0.0
  0
LINE
  5
3A9
330
351
100
AcDbEntity
  8
4
100
AcDbLine
 10
6.375499999999999
 20
2.29650587855713
 30
0.0
 11
6.483499999999999
 21
2.29650587855713
 31
0.0
  0
LINE
  5
3AA
330
351
100
AcDbEntity
  8
4
100
AcDbLine
 10
6.375499999999999
 20
2.23450587855713
 30
0.0
 11
6.375499999999999
 21
2.29650587855713
 31
0.0
  0
LINE
  5
3AB
330
351
100
AcDbEntity
  8
4
100
AcDbLine
 10
6.4375
 20
2.23450587855713
 30
0.0
 11
6.375499999999999
 21
2.23450587855713
 31
0.0
  0
LINE
  5
3AC
330
351
100
AcDbEntity
  8
4
100
AcDbLine
 10
6.513499999999999
 20
2.29650587855713
 30
0.0
 11
6.9805
 21
2.29650587855713
 31
0.0
  0
LINE
  5
3AD
330
351
100
AcDbEntity
  8
4
100
AcDbLine
 10
6.3755
 20
2.328461724666487
 30
0.0
 11
6.4375
 21
2.328461724666487
 31
0.0
  0
LINE
  5
3AE
330
351
100
AcDbEntity
  8
4
100
AcDbLine
 10
6.3755
 20
2.20250587855713
 30
0.0
 11
6.4375
 21
2.20250587855713
 31
0.0
  0
LINE
  5
3AF
330
351
100
AcDbEntity
  8
4
100
AcDbLine
 10
5.002500000000002
 20
2.29650587855713
 30
0.0
 11
4.812500000000001
 21
2.29650587855713
 31
0.0
  0
LINE
  5
3B0
330
351
100
AcDbEntity
  8
4
100
AcDbLine
 10
4.812500000000001
 20
2.29650587855713
 30
0.0
 11
4.750500000000001
 21
2.29650587855713
 31
0.0
  0
LINE
  5
3B1
330
351
100
AcDbEntity
  8
4
100
AcDbLine
 10
5.065500000000001
 20
2.20250587855713
 30
0.0
 11
5.127500000000002
 21
2.20250587855713
 31
0.0
  0
LINE
  5
3B2
330
351
100
AcDbEntity
  8
4
100
AcDbLine
 10
5.065500000000001
 20
2.328461724666487
 30
0.0
 11
5.127500000000001
 21
2.328461724666487
 31
0.0
  0
LINE
  5
3B3
330
351
100
AcDbEntity
  8
4
100
AcDbLine
 10
5.2035
 20
2.29650587855713
 30
0.0
 11
5.670500000000001
 21
2.29650587855713
 31
0.0
  0
LINE
  5
3B4
330
351
100
AcDbEntity
  8
4
100
AcDbLine
 10
5.127500000000001
 20
2.23450587855713
 30
0.0
 11
5.065500000000001
 21
2.23450587855713
 31
0.0
  0
LINE
  5
3B5
330
351
100
AcDbEntity
  8
4
100
AcDbLine
 10
5.065500000000001
 20
2.23450587855713
 30
0.0
 11
5.065500000000001
 21
2.29650587855713
 31
0.0
  0
LINE
  5
3B6
330
351
100
AcDbEntity
  8
4
100
AcDbLine
 10
5.065500000000001
 20
2.29650587855713
 30
0.0
 11
5.1735
 21
2.29650587855713
 31
0.0
  0
LINE
  5
3B7
330
351
100
AcDbEntity
  8
4
100
AcDbLine
 10
5.670500000000001
 20
2.29650587855713
 30
0.0
 11
5.670500000000001
 21
2.23450587855713
 31
0.0
  0
LINE
  5
3B8
330
351
100
AcDbEntity
  8
4
100
AcDbLine
 10
5.630500000000001
 20
2.29650587855713
 30
0.0
 11
5.630500000000001
 21
2.23450587855713
 31
0.0
  0
LINE
  5
3B9
330
351
100
AcDbEntity
  8
4
100
AcDbLine
 10
5.630500000000001
 20
2.23450587855713
 30
0.0
 11
5.265500000000001
 21
2.23450587855713
 31
0.0
  0
LINE
  5
3BA
330
351
100
AcDbEntity
  8
4
100
AcDbLine
 10
5.265500000000001
 20
2.23450587855713
 30
0.0
 11
5.2035
 21
2.29650587855713
 31
0.0
  0
LINE
  5
3BB
330
351
100
AcDbEntity
  8
4
100
AcDbLine
 10
5.090500000000001
 20
2.28150587855713
 30
0.0
 11
5.090500000000001
 21
2.25325973611957
 31
0.0
  0
LINE
  5
3BC
330
351
100
AcDbEntity
  8
4
100
AcDbLine
 10
5.188500000000001
 20
2.28150587855713
 30
0.0
 11
5.090500000000001
 21
2.28150587855713
 31
0.0
  0
LINE
  5
3BD
330
351
100
AcDbEntity
  8
4
100
AcDbLine
 10
5.2035
 20
2.29650587855713
 30
0.0
 11
5.188500000000001
 21
2.28150587855713
 31
0.0
  0
LINE
  5
3BE
330
351
100
AcDbEntity
  8
4
100
AcDbLine
 10
1.094
 20
1.593961724666486
 30
0.0
 11
1.094
 21
2.20250587855713
 31
0.0
  0
LINE
  5
3BF
330
351
100
AcDbEntity
  8
4
100
AcDbLine
 10
1.094
 20
2.20250587855713
 30
0.0
 11
1.531
 21
2.20250587855713
 31
0.0
  0
LINE
  5
3C0
330
351
100
AcDbEntity
  8
4
100
AcDbLine
 10
1.531
 20
2.20250587855713
 30
0.0
 11
1.530999999999999
 21
1.593961724666487
 31
0.0
  0
LINE
  5
3C1
330
351
100
AcDbEntity
  8
4
100
AcDbLine
 10
1.530999999999999
 20
1.593961724666487
 30
0.0
 11
1.094
 21
1.593961724666486
 31
0.0
  0
LINE
  5
3C2
330
351
100
AcDbEntity
  8
4
100
AcDbLine
 10
1.541
 20
2.07750587855713
 30
0.0
 11
1.541
 21
1.95250587855713
 31
0.0
  0
LINE
  5
3C3
330
351
100
AcDbEntity
  8
4
100
AcDbLine
 10
1.540999999999999
 20
1.842961724666487
 30
0.0
 11
1.540999999999999
 21
1.717961724666487
 31
0.0
  0
LINE
  5
3C4
330
351
100
AcDbEntity
  8
4
100
AcDbLine
 10
2.937
 20
2.23450587855713
 30
0.0
 11
3.437999999999999
 21
2.23450587855713
 31
0.0
  0
LINE
  5
3C5
330
351
100
AcDbEntity
  8
4
100
AcDbLine
 10
2.937
 20
2.29650587855713
 30
0.0
 11
3.437999999999999
 21
2.29650587855713
 31
0.0
  0
LINE
  5
3C6
330
351
100
AcDbEntity
  8
4
100
AcDbLine
 10
2.625
 20
2.29650587855713
 30
0.0
 11
2.812999999999999
 21
2.29650587855713
 31
0.0
  0
LINE
  5
3C7
330
351
100
AcDbEntity
  8
4
100
AcDbLine
 10
2.625
 20
2.23450587855713
 30
0.0
 11
2.812999999999999
 21
2.23450587855713
 31
0.0
  0
LINE
  5
3C8
330
351
100
AcDbEntity
  8
4
100
AcDbLine
 10
2.312
 20
2.23450587855713
 30
0.0
 11
2.499999999999999
 21
2.23450587855713
 31
0.0
  0
LINE
  5
3C9
330
351
100
AcDbEntity
  8
4
100
AcDbLine
 10
2.312
 20
2.29650587855713
 30
0.0
 11
2.512196030826981
 21
2.29650587855713
 31
0.0
  0
LINE
  5
3CA
330
351
100
AcDbEntity
  8
4
100
AcDbLine
 10
1.687
 20
2.29650587855713
 30
0.0
 11
2.187999999999999
 21
2.29650587855713
 31
0.0
  0
LINE
  5
3CB
330
351
100
AcDbEntity
  8
4
100
AcDbLine
 10
1.687
 20
2.23450587855713
 30
0.0
 11
2.187999999999999
 21
2.23450587855713
 31
0.0
  0
LINE
  5
3CC
330
351
100
AcDbEntity
  8
4
100
AcDbLine
 10
1.540999999999999
 20
2.577461724666487
 30
0.0
 11
1.540999999999999
 21
2.452461724666487
 31
0.0
  0
LINE
  5
3CD
330
351
100
AcDbEntity
  8
4
100
AcDbLine
 10
1.541
 20
2.81200587855713
 30
0.0
 11
1.541
 21
2.68700587855713
 31
0.0
  0
LINE
  5
3CE
330
351
100
AcDbEntity
  8
4
100
AcDbLine
 10
1.530999999999999
 20
2.328461724666487
 30
0.0
 11
1.094
 21
2.328461724666486
 31
0.0
  0
LINE
  5
3CF
330
351
100
AcDbEntity
  8
4
100
AcDbLine
 10
1.531
 20
2.93700587855713
 30
0.0
 11
1.530999999999999
 21
2.328461724666487
 31
0.0
  0
LINE
  5
3D0
330
351
100
AcDbEntity
  8
4
100
AcDbLine
 10
1.094
 20
2.93700587855713
 30
0.0
 11
1.531
 21
2.93700587855713
 31
0.0
  0
LINE
  5
3D1
330
351
100
AcDbEntity
  8
4
100
AcDbLine
 10
1.094
 20
2.328461724666486
 30
0.0
 11
1.094
 21
2.93700587855713
 31
0.0
  0
LINE
  5
3D2
330
351
100
AcDbEntity
  8
4
100
AcDbLine
 10
1.062
 20
2.23450587855713
 30
0.0
 11
1.562999999999999
 21
2.23450587855713
 31
0.0
  0
LINE
  5
3D3
330
351
100
AcDbEntity
  8
4
100
AcDbLine
 10
1.062
 20
2.29650587855713
 30
0.0
 11
1.562999999999999
 21
2.29650587855713
 31
0.0
  0
LINE
  5
3D4
330
351
100
AcDbEntity
  8
4
100
AcDbLine
 10
2.937
 20
2.96900587855713
 30
0.0
 11
3.437999999999999
 21
2.96900587855713
 31
0.0
  0
LINE
  5
3D5
330
351
100
AcDbEntity
  8
4
100
AcDbLine
 10
2.937
 20
3.03100587855713
 30
0.0
 11
3.437999999999999
 21
3.03100587855713
 31
0.0
  0
LINE
  5
3D6
330
351
100
AcDbEntity
  8
4
100
AcDbLine
 10
2.625
 20
3.03100587855713
 30
0.0
 11
2.812999999999999
 21
3.03100587855713
 31
0.0
  0
LINE
  5
3D7
330
351
100
AcDbEntity
  8
4
100
AcDbLine
 10
2.625
 20
2.96900587855713
 30
0.0
 11
2.812999999999999
 21
2.96900587855713
 31
0.0
  0
LINE
  5
3D8
330
351
100
AcDbEntity
  8
4
100
AcDbLine
 10
2.312
 20
2.96900587855713
 30
0.0
 11
2.499999999999999
 21
2.96900587855713
 31
0.0
  0
LINE
  5
3D9
330
351
100
AcDbEntity
  8
4
100
AcDbLine
 10
2.312
 20
3.03100587855713
 30
0.0
 11
2.473968300754448
 21
3.03100587855713
 31
0.0
  0
LINE
  5
3DA
330
351
100
AcDbEntity
  8
4
100
AcDbLine
 10
1.687
 20
3.03100587855713
 30
0.0
 11
2.187999999999999
 21
3.03100587855713
 31
0.0
  0
LINE
  5
3DB
330
351
100
AcDbEntity
  8
4
100
AcDbLine
 10
1.687
 20
2.96900587855713
 30
0.0
 11
2.187999999999999
 21
2.96900587855713
 31
0.0
  0
LINE
  5
3DC
330
351
100
AcDbEntity
  8
4
100
AcDbLine
 10
1.540999999999999
 20
3.311961724666487
 30
0.0
 11
1.540999999999999
 21
3.186961724666486
 31
0.0
  0
LINE
  5
3DD
330
351
100
AcDbEntity
  8
4
100
AcDbLine
 10
1.541
 20
3.54650587855713
 30
0.0
 11
1.541
 21
3.42150587855713
 31
0.0
  0
LINE
  5
3DE
330
351
100
AcDbEntity
  8
4
100
AcDbLine
 10
1.530999999999999
 20
3.062961724666487
 30
0.0
 11
1.094
 21
3.062961724666486
 31
0.0
  0
LINE
  5
3DF
330
351
100
AcDbEntity
  8
4
100
AcDbLine
 10
1.531
 20
3.67150587855713
 30
0.0
 11
1.530999999999999
 21
3.062961724666487
 31
0.0
  0
LINE
  5
3E0
330
351
100
AcDbEntity
  8
4
100
AcDbLine
 10
1.094
 20
3.67150587855713
 30
0.0
 11
1.531
 21
3.67150587855713
 31
0.0
  0
LINE
  5
3E1
330
351
100
AcDbEntity
  8
4
100
AcDbLine
 10
1.094
 20
3.062961724666486
 30
0.0
 11
1.094
 21
3.67150587855713
 31
0.0
  0
LINE
  5
3E2
330
351
100
AcDbEntity
  8
4
100
AcDbLine
 10
1.062
 20
2.96900587855713
 30
0.0
 11
1.562999999999999
 21
2.96900587855713
 31
0.0
  0
LINE
  5
3E3
330
351
100
AcDbEntity
  8
4
100
AcDbLine
 10
1.062
 20
3.03100587855713
 30
0.0
 11
1.562999999999999
 21
3.03100587855713
 31
0.0
  0
INSERT
  5
3E4
330
351
100
AcDbEntity
  8
8
100
AcDbBlockReference
  2
TEMP2
 10
4.8125
 20
1.562
 30
0.0
  0
TEXT
  5
3E5
330
351
100
AcDbEntity
  8
8
100
AcDbText
 10
2.386904761904763
 20
0.094
 30
0.0
 40
0.125
  1
QUIET LOCKER -     " FOUR TIER
  7
ROMANS
 72
     1
 11
4.125
 21
0.094
 31
0.0
100
AcDbText
  0
LINE
  5
3E6
330
351
100
AcDbEntity
  8
8
100
AcDbLine
 10
4.143945878162265
 20
0.0701405495565229
 30
0.0
 11
4.643945878162265
 21
0.0701405495565229
 31
0.0
  0
LINE
  5
3E7
330
351
100
AcDbEntity
  8
4
100
AcDbLine
 10
4.8125
 20
1.5
 30
0.0
 11
4.8125
 21
1.375
 31
0.0
  0
LINE
  5
3E8
330
351
100
AcDbEntity
  8
4
100
AcDbLine
 10
5.0025
 20
1.562
 30
0.0
 11
4.8125
 21
1.562
 31
0.0
  0
LINE
  5
3E9
330
351
100
AcDbEntity
  8
4
100
AcDbLine
 10
4.8125
 20
1.562
 30
0.0
 11
4.750499999999999
 21
1.562
 31
0.0
  0
INSERT
  5
3EA
330
351
100
AcDbEntity
  8
4
100
AcDbBlockReference
  2
ARRO
 10
4.8125
 20
1.562
 30
0.0
 50
90.0
  0
INSERT
  5
3EB
330
351
100
AcDbEntity
  8
4
100
AcDbBlockReference
  2
ARRO
 10
4.8125
 20
1.5
 30
0.0
 50
270.0
  0
LINE
  5
3EC
330
351
100
AcDbEntity
  8
4
100
AcDbLine
 10
5.0655
 20
1.594
 30
0.0
 11
5.1275
 21
1.594
 31
0.0
  0
LINE
  5
3ED
330
351
100
AcDbEntity
  8
4
100
AcDbLine
 10
6.375499999999999
 20
1.594
 30
0.0
 11
6.4375
 21
1.594
 31
0.0
  0
LINE
  5
3EE
330
351
100
AcDbEntity
  8
4
100
AcDbLine
 10
7.6245
 20
1.594
 30
0.0
 11
7.5625
 21
1.594
 31
0.0
  0
LINE
  5
3EF
330
351
100
AcDbEntity
  8
4
100
AcDbLine
 10
7.6245
 20
2.93700587855713
 30
0.0
 11
7.6245
 21
2.328461724666487
 31
0.0
  0
LINE
  5
3F0
330
351
100
AcDbEntity
  8
4
100
AcDbLine
 10
6.375499999999999
 20
2.93700587855713
 30
0.0
 11
6.375499999999999
 21
2.328461724666487
 31
0.0
  0
LINE
  5
3F1
330
351
100
AcDbEntity
  8
4
100
AcDbLine
 10
5.0655
 20
2.93700587855713
 30
0.0
 11
5.0655
 21
2.328461724666487
 31
0.0
  0
LINE
  5
3F2
330
351
100
AcDbEntity
  8
4
100
AcDbLine
 10
4.8125
 20
4.5
 30
0.0
 11
4.8125
 21
1.562
 31
0.0
  0
LINE
  5
3F3
330
351
100
AcDbEntity
  8
4
100
AcDbLine
 10
6.375499999999999
 20
3.67150587855713
 30
0.0
 11
6.437499999999999
 21
3.67150587855713
 31
0.0
  0
LINE
  5
3F4
330
351
100
AcDbEntity
  8
4
100
AcDbLine
 10
7.5625
 20
3.67150587855713
 30
0.0
 11
7.624499999999999
 21
3.67150587855713
 31
0.0
  0
LINE
  5
3F5
330
351
100
AcDbEntity
  8
4
100
AcDbLine
 10
7.5625
 20
3.797461724666487
 30
0.0
 11
7.624499999999999
 21
3.797461724666487
 31
0.0
  0
LINE
  5
3F6
330
351
100
AcDbEntity
  8
4
100
AcDbLine
 10
6.375499999999998
 20
3.797461724666487
 30
0.0
 11
6.437499999999999
 21
3.797461724666487
 31
0.0
  0
LINE
  5
3F7
330
351
100
AcDbEntity
  8
4
100
AcDbLine
 10
5.065500000000001
 20
3.67150587855713
 30
0.0
 11
5.127500000000001
 21
3.67150587855713
 31
0.0
  0
LINE
  5
3F8
330
351
100
AcDbEntity
  8
4
100
AcDbLine
 10
5.065500000000001
 20
3.797461724666487
 30
0.0
 11
5.1275
 21
3.797461724666487
 31
0.0
  0
LINE
  5
3F9
330
351
100
AcDbEntity
  8
4
100
AcDbLine
 10
7.486500000000001
 20
3.765505878557131
 30
0.0
 11
7.0195
 21
3.765505878557131
 31
0.0
  0
LINE
  5
3FA
330
351
100
AcDbEntity
  8
4
100
AcDbLine
 10
7.5625
 20
3.70350587855713
 30
0.0
 11
7.624500000000001
 21
3.70350587855713
 31
0.0
  0
LINE
  5
3FB
330
351
100
AcDbEntity
  8
4
100
AcDbLine
 10
7.624500000000001
 20
3.70350587855713
 30
0.0
 11
7.624500000000001
 21
3.765505878557131
 31
0.0
  0
LINE
  5
3FC
330
351
100
AcDbEntity
  8
4
100
AcDbLine
 10
7.624500000000001
 20
3.765505878557131
 30
0.0
 11
7.516500000000001
 21
3.765505878557131
 31
0.0
  0
LINE
  5
3FD
330
351
100
AcDbEntity
  8
4
100
AcDbLine
 10
7.0195
 20
3.765505878557131
 30
0.0
 11
7.0195
 21
3.70350587855713
 31
0.0
  0
LINE
  5
3FE
330
351
100
AcDbEntity
  8
4
100
AcDbLine
 10
7.0595
 20
3.765505878557131
 30
0.0
 11
7.0595
 21
3.70350587855713
 31
0.0
  0
LINE
  5
3FF
330
351
100
AcDbEntity
  8
4
100
AcDbLine
 10
7.0595
 20
3.70350587855713
 30
0.0
 11
7.4245
 21
3.70350587855713
 31
0.0
  0
LINE
  5
400
330
351
100
AcDbEntity
  8
4
100
AcDbLine
 10
7.4245
 20
3.70350587855713
 30
0.0
 11
7.486500000000001
 21
3.765505878557131
 31
0.0
  0
LINE
  5
401
330
351
100
AcDbEntity
  8
4
100
AcDbLine
 10
7.5995
 20
3.75050587855713
 30
0.0
 11
7.5995
 21
3.72225973611957
 31
0.0
  0
LINE
  5
402
330
351
100
AcDbEntity
  8
4
100
AcDbLine
 10
7.5015
 20
3.75050587855713
 30
0.0
 11
7.5995
 21
3.75050587855713
 31
0.0
  0
LINE
  5
403
330
351
100
AcDbEntity
  8
4
100
AcDbLine
 10
7.486500000000001
 20
3.765505878557131
 30
0.0
 11
7.5015
 21
3.75050587855713
 31
0.0
  0
LINE
  5
404
330
351
100
AcDbEntity
  8
4
100
AcDbLine
 10
6.513499999999998
 20
3.765505878557131
 30
0.0
 11
6.498499999999999
 21
3.75050587855713
 31
0.0
  0
LINE
  5
405
330
351
100
AcDbEntity
  8
4
100
AcDbLine
 10
6.498499999999999
 20
3.75050587855713
 30
0.0
 11
6.400499999999999
 21
3.75050587855713
 31
0.0
  0
LINE
  5
406
330
351
100
AcDbEntity
  8
4
100
AcDbLine
 10
6.400499999999999
 20
3.75050587855713
 30
0.0
 11
6.400499999999999
 21
3.72225973611957
 31
0.0
  0
LINE
  5
407
330
351
100
AcDbEntity
  8
4
100
AcDbLine
 10
6.575499999999999
 20
3.70350587855713
 30
0.0
 11
6.513499999999998
 21
3.765505878557131
 31
0.0
  0
LINE
  5
408
330
351
100
AcDbEntity
  8
4
100
AcDbLine
 10
6.940499999999999
 20
3.70350587855713
 30
0.0
 11
6.575499999999999
 21
3.70350587855713
 31
0.0
  0
LINE
  5
409
330
351
100
AcDbEntity
  8
4
100
AcDbLine
 10
6.940499999999999
 20
3.765505878557131
 30
0.0
 11
6.940499999999999
 21
3.70350587855713
 31
0.0
  0
LINE
  5
40A
330
351
100
AcDbEntity
  8
4
100
AcDbLine
 10
6.980499999999999
 20
3.765505878557131
 30
0.0
 11
6.980499999999999
 21
3.70350587855713
 31
0.0
  0
LINE
  5
40B
330
351
100
AcDbEntity
  8
4
100
AcDbLine
 10
6.375499999999998
 20
3.765505878557131
 30
0.0
 11
6.483499999999998
 21
3.765505878557131
 31
0.0
  0
LINE
  5
40C
330
351
100
AcDbEntity
  8
4
100
AcDbLine
 10
6.375499999999998
 20
3.70350587855713
 30
0.0
 11
6.375499999999998
 21
3.765505878557131
 31
0.0
  0
LINE
  5
40D
330
351
100
AcDbEntity
  8
4
100
AcDbLine
 10
6.437499999999999
 20
3.70350587855713
 30
0.0
 11
6.375499999999998
 21
3.70350587855713
 31
0.0
  0
LINE
  5
40E
330
351
100
AcDbEntity
  8
4
100
AcDbLine
 10
6.513499999999998
 20
3.765505878557131
 30
0.0
 11
6.980499999999999
 21
3.765505878557131
 31
0.0
  0
LINE
  5
40F
330
351
100
AcDbEntity
  8
4
100
AcDbLine
 10
5.2035
 20
3.765505878557131
 30
0.0
 11
5.6705
 21
3.765505878557131
 31
0.0
  0
LINE
  5
410
330
351
100
AcDbEntity
  8
4
100
AcDbLine
 10
5.1275
 20
3.70350587855713
 30
0.0
 11
5.0655
 21
3.70350587855713
 31
0.0
  0
LINE
  5
411
330
351
100
AcDbEntity
  8
4
100
AcDbLine
 10
5.0655
 20
3.70350587855713
 30
0.0
 11
5.0655
 21
3.765505878557131
 31
0.0
  0
LINE
  5
412
330
351
100
AcDbEntity
  8
4
100
AcDbLine
 10
5.0655
 20
3.765505878557131
 30
0.0
 11
5.173499999999999
 21
3.765505878557131
 31
0.0
  0
LINE
  5
413
330
351
100
AcDbEntity
  8
4
100
AcDbLine
 10
5.6705
 20
3.765505878557131
 30
0.0
 11
5.6705
 21
3.70350587855713
 31
0.0
  0
LINE
  5
414
330
351
100
AcDbEntity
  8
4
100
AcDbLine
 10
5.6305
 20
3.765505878557131
 30
0.0
 11
5.6305
 21
3.70350587855713
 31
0.0
  0
LINE
  5
415
330
351
100
AcDbEntity
  8
4
100
AcDbLine
 10
5.6305
 20
3.70350587855713
 30
0.0
 11
5.2655
 21
3.70350587855713
 31
0.0
  0
LINE
  5
416
330
351
100
AcDbEntity
  8
4
100
AcDbLine
 10
5.2655
 20
3.70350587855713
 30
0.0
 11
5.2035
 21
3.765505878557131
 31
0.0
  0
LINE
  5
417
330
351
100
AcDbEntity
  8
4
100
AcDbLine
 10
5.0905
 20
3.75050587855713
 30
0.0
 11
5.0905
 21
3.72225973611957
 31
0.0
  0
LINE
  5
418
330
351
100
AcDbEntity
  8
4
100
AcDbLine
 10
5.1885
 20
3.75050587855713
 30
0.0
 11
5.0905
 21
3.75050587855713
 31
0.0
  0
LINE
  5
419
330
351
100
AcDbEntity
  8
4
100
AcDbLine
 10
5.2035
 20
3.765505878557131
 30
0.0
 11
5.1885
 21
3.75050587855713
 31
0.0
  0
INSERT
  5
41A
330
351
100
AcDbEntity
  8
4
100
AcDbBlockReference
  2
ARRO
 10
4.8125
 20
4.5
 30
0.0
 50
270.0
  0
LINE
  5
41B
330
351
100
AcDbEntity
  8
4
100
AcDbLine
 10
5.002500000000001
 20
3.765505878557131
 30
0.0
 11
4.8125
 21
3.765505878557131
 31
0.0
  0
LINE
  5
41C
330
351
100
AcDbEntity
  8
4
100
AcDbLine
 10
4.8125
 20
3.765505878557131
 30
0.0
 11
4.7505
 21
3.765505878557131
 31
0.0
  0
INSERT
  5
41D
330
351
100
AcDbEntity
  8
4
100
AcDbBlockReference
  2
ARRO2
 10
4.8125
 20
3.765505878557131
 30
0.0
 50
90.0
  0
LINE
  5
41E
330
351
100
AcDbEntity
  8
4
100
AcDbLine
 10
5.065499999999999
 20
4.406
 30
0.0
 11
5.127499999999999
 21
4.406
 31
0.0
  0
LINE
  5
41F
330
351
100
AcDbEntity
  8
4
100
AcDbLine
 10
6.375499999999998
 20
4.406
 30
0.0
 11
6.437499999999999
 21
4.406
 31
0.0
  0
LINE
  5
420
330
351
100
AcDbEntity
  8
4
100
AcDbLine
 10
7.624500000000001
 20
4.406
 30
0.0
 11
7.5625
 21
4.406
 31
0.0
  0
LINE
  5
421
330
351
100
AcDbEntity
  8
4
100
AcDbLine
 10
7.6245
 20
4.406
 30
0.0
 11
7.6245
 21
3.797461724666487
 31
0.0
  0
LINE
  5
422
330
351
100
AcDbEntity
  8
4
100
AcDbLine
 10
6.375499999999999
 20
4.406
 30
0.0
 11
6.375499999999999
 21
3.797461724666487
 31
0.0
  0
LINE
  5
423
330
351
100
AcDbEntity
  8
4
100
AcDbLine
 10
5.0655
 20
4.406
 30
0.0
 11
5.065500000000001
 21
3.797461724666487
 31
0.0
  0
LINE
  5
424
330
351
100
AcDbEntity
  8
4
100
AcDbLine
 10
5.065500000000001
 20
3.67150587855713
 30
0.0
 11
5.065500000000001
 21
3.062961724666487
 31
0.0
  0
LINE
  5
425
330
351
100
AcDbEntity
  8
4
100
AcDbLine
 10
6.375499999999999
 20
3.67150587855713
 30
0.0
 11
6.375499999999999
 21
3.062961724666487
 31
0.0
  0
LINE
  5
426
330
351
100
AcDbEntity
  8
4
100
AcDbLine
 10
7.6245
 20
3.67150587855713
 30
0.0
 11
7.6245
 21
3.062961724666487
 31
0.0
  0
LINE
  5
427
330
351
100
AcDbEntity
  8
4
100
AcDbLine
 10
5.2035
 20
3.03100587855713
 30
0.0
 11
5.188500000000001
 21
3.016005878557129
 31
0.0
  0
LINE
  5
428
330
351
100
AcDbEntity
  8
4
100
AcDbLine
 10
5.188500000000001
 20
3.016005878557129
 30
0.0
 11
5.090500000000001
 21
3.016005878557129
 31
0.0
  0
LINE
  5
429
330
351
100
AcDbEntity
  8
4
100
AcDbLine
 10
5.090500000000001
 20
3.016005878557129
 30
0.0
 11
5.090500000000001
 21
2.98775973611957
 31
0.0
  0
LINE
  5
42A
330
351
100
AcDbEntity
  8
4
100
AcDbLine
 10
5.265500000000001
 20
2.96900587855713
 30
0.0
 11
5.2035
 21
3.03100587855713
 31
0.0
  0
LINE
  5
42B
330
351
100
AcDbEntity
  8
4
100
AcDbLine
 10
5.630500000000001
 20
2.96900587855713
 30
0.0
 11
5.265500000000001
 21
2.96900587855713
 31
0.0
  0
LINE
  5
42C
330
351
100
AcDbEntity
  8
4
100
AcDbLine
 10
5.630500000000001
 20
3.03100587855713
 30
0.0
 11
5.630500000000001
 21
2.96900587855713
 31
0.0
  0
LINE
  5
42D
330
351
100
AcDbEntity
  8
4
100
AcDbLine
 10
5.670500000000001
 20
3.03100587855713
 30
0.0
 11
5.670500000000001
 21
2.96900587855713
 31
0.0
  0
LINE
  5
42E
330
351
100
AcDbEntity
  8
4
100
AcDbLine
 10
5.065500000000001
 20
3.03100587855713
 30
0.0
 11
5.1735
 21
3.03100587855713
 31
0.0
  0
LINE
  5
42F
330
351
100
AcDbEntity
  8
4
100
AcDbLine
 10
5.065500000000001
 20
2.96900587855713
 30
0.0
 11
5.065500000000001
 21
3.03100587855713
 31
0.0
  0
LINE
  5
430
330
351
100
AcDbEntity
  8
4
100
AcDbLine
 10
5.127500000000001
 20
2.96900587855713
 30
0.0
 11
5.065500000000001
 21
2.96900587855713
 31
0.0
  0
LINE
  5
431
330
351
100
AcDbEntity
  8
4
100
AcDbLine
 10
5.2035
 20
3.03100587855713
 30
0.0
 11
5.670500000000001
 21
3.03100587855713
 31
0.0
  0
LINE
  5
432
330
351
100
AcDbEntity
  8
4
100
AcDbLine
 10
5.065500000000001
 20
3.062961724666487
 30
0.0
 11
5.127500000000001
 21
3.062961724666487
 31
0.0
  0
LINE
  5
433
330
351
100
AcDbEntity
  8
4
100
AcDbLine
 10
5.065500000000001
 20
2.93700587855713
 30
0.0
 11
5.127500000000002
 21
2.93700587855713
 31
0.0
  0
INSERT
  5
434
330
351
100
AcDbEntity
  8
4
100
AcDbBlockReference
  2
ARRO2
 10
4.812500000000001
 20
3.03100587855713
 30
0.0
 50
90.0
  0
LINE
  5
435
330
351
100
AcDbEntity
  8
4
100
AcDbLine
 10
4.812500000000001
 20
3.03100587855713
 30
0.0
 11
4.750500000000001
 21
3.03100587855713
 31
0.0
  0
LINE
  5
436
330
351
100
AcDbEntity
  8
4
100
AcDbLine
 10
5.002500000000002
 20
3.03100587855713
 30
0.0
 11
4.812500000000001
 21
3.03100587855713
 31
0.0
  0
LINE
  5
437
330
351
100
AcDbEntity
  8
4
100
AcDbLine
 10
6.3755
 20
2.93700587855713
 30
0.0
 11
6.4375
 21
2.93700587855713
 31
0.0
  0
LINE
  5
438
330
351
100
AcDbEntity
  8
4
100
AcDbLine
 10
6.3755
 20
3.062961724666487
 30
0.0
 11
6.4375
 21
3.062961724666487
 31
0.0
  0
LINE
  5
439
330
351
100
AcDbEntity
  8
4
100
AcDbLine
 10
6.513499999999999
 20
3.03100587855713
 30
0.0
 11
6.9805
 21
3.03100587855713
 31
0.0
  0
LINE
  5
43A
330
351
100
AcDbEntity
  8
4
100
AcDbLine
 10
6.4375
 20
2.96900587855713
 30
0.0
 11
6.375499999999999
 21
2.96900587855713
 31
0.0
  0
LINE
  5
43B
330
351
100
AcDbEntity
  8
4
100
AcDbLine
 10
6.375499999999999
 20
2.96900587855713
 30
0.0
 11
6.375499999999999
 21
3.03100587855713
 31
0.0
  0
LINE
  5
43C
330
351
100
AcDbEntity
  8
4
100
AcDbLine
 10
6.375499999999999
 20
3.03100587855713
 30
0.0
 11
6.483499999999999
 21
3.03100587855713
 31
0.0
  0
LINE
  5
43D
330
351
100
AcDbEntity
  8
4
100
AcDbLine
 10
6.9805
 20
3.03100587855713
 30
0.0
 11
6.9805
 21
2.96900587855713
 31
0.0
  0
LINE
  5
43E
330
351
100
AcDbEntity
  8
4
100
AcDbLine
 10
6.9405
 20
3.03100587855713
 30
0.0
 11
6.9405
 21
2.96900587855713
 31
0.0
  0
LINE
  5
43F
330
351
100
AcDbEntity
  8
4
100
AcDbLine
 10
6.9405
 20
2.96900587855713
 30
0.0
 11
6.575499999999999
 21
2.96900587855713
 31
0.0
  0
LINE
  5
440
330
351
100
AcDbEntity
  8
4
100
AcDbLine
 10
6.575499999999999
 20
2.96900587855713
 30
0.0
 11
6.513499999999999
 21
3.03100587855713
 31
0.0
  0
LINE
  5
441
330
351
100
AcDbEntity
  8
4
100
AcDbLine
 10
6.4005
 20
3.016005878557129
 30
0.0
 11
6.4005
 21
2.98775973611957
 31
0.0
  0
LINE
  5
442
330
351
100
AcDbEntity
  8
4
100
AcDbLine
 10
6.498499999999999
 20
3.016005878557129
 30
0.0
 11
6.4005
 21
3.016005878557129
 31
0.0
  0
LINE
  5
443
330
351
100
AcDbEntity
  8
4
100
AcDbLine
 10
6.513499999999999
 20
3.03100587855713
 30
0.0
 11
6.498499999999999
 21
3.016005878557129
 31
0.0
  0
LINE
  5
444
330
351
100
AcDbEntity
  8
4
100
AcDbLine
 10
7.4865
 20
3.03100587855713
 30
0.0
 11
7.5015
 21
3.016005878557129
 31
0.0
  0
LINE
  5
445
330
351
100
AcDbEntity
  8
4
100
AcDbLine
 10
7.5015
 20
3.016005878557129
 30
0.0
 11
7.599499999999999
 21
3.016005878557129
 31
0.0
  0
LINE
  5
446
330
351
100
AcDbEntity
  8
4
100
AcDbLine
 10
7.599499999999999
 20
3.016005878557129
 30
0.0
 11
7.599499999999999
 21
2.98775973611957
 31
0.0
  0
LINE
  5
447
330
351
100
AcDbEntity
  8
4
100
AcDbLine
 10
7.4245
 20
2.96900587855713
 30
0.0
 11
7.4865
 21
3.03100587855713
 31
0.0
  0
LINE
  5
448
330
351
100
AcDbEntity
  8
4
100
AcDbLine
 10
7.059499999999999
 20
2.96900587855713
 30
0.0
 11
7.4245
 21
2.96900587855713
 31
0.0
  0
LINE
  5
449
330
351
100
AcDbEntity
  8
4
100
AcDbLine
 10
7.059499999999999
 20
3.03100587855713
 30
0.0
 11
7.059499999999999
 21
2.96900587855713
 31
0.0
  0
LINE
  5
44A
330
351
100
AcDbEntity
  8
4
100
AcDbLine
 10
7.019499999999999
 20
3.03100587855713
 30
0.0
 11
7.019499999999999
 21
2.96900587855713
 31
0.0
  0
LINE
  5
44B
330
351
100
AcDbEntity
  8
4
100
AcDbLine
 10
7.6245
 20
3.03100587855713
 30
0.0
 11
7.5165
 21
3.03100587855713
 31
0.0
  0
LINE
  5
44C
330
351
100
AcDbEntity
  8
4
100
AcDbLine
 10
7.6245
 20
2.96900587855713
 30
0.0
 11
7.6245
 21
3.03100587855713
 31
0.0
  0
LINE
  5
44D
330
351
100
AcDbEntity
  8
4
100
AcDbLine
 10
7.5625
 20
2.96900587855713
 30
0.0
 11
7.6245
 21
2.96900587855713
 31
0.0
  0
LINE
  5
44E
330
351
100
AcDbEntity
  8
4
100
AcDbLine
 10
7.4865
 20
3.03100587855713
 30
0.0
 11
7.019499999999999
 21
3.03100587855713
 31
0.0
  0
LINE
  5
44F
330
351
100
AcDbEntity
  8
4
100
AcDbLine
 10
7.624499999999999
 20
3.062961724666487
 30
0.0
 11
7.5625
 21
3.062961724666487
 31
0.0
  0
LINE
  5
450
330
351
100
AcDbEntity
  8
4
100
AcDbLine
 10
7.624499999999999
 20
2.93700587855713
 30
0.0
 11
7.562499999999999
 21
2.93700587855713
 31
0.0
  0
LINE
  5
451
330
351
100
AcDbEntity
  8
4
100
AcDbLine
 10
2.625
 20
3.70350587855713
 30
0.0
 11
2.812999999999999
 21
3.70350587855713
 31
0.0
  0
LINE
  5
452
330
351
100
AcDbEntity
  8
4
100
AcDbLine
 10
2.625
 20
3.76550587855713
 30
0.0
 11
2.812999999999999
 21
3.76550587855713
 31
0.0
  0
LINE
  5
453
330
351
100
AcDbEntity
  8
4
100
AcDbLine
 10
2.937
 20
3.76550587855713
 30
0.0
 11
3.437999999999999
 21
3.76550587855713
 31
0.0
  0
LINE
  5
454
330
351
100
AcDbEntity
  8
4
100
AcDbLine
 10
2.937
 20
3.70350587855713
 30
0.0
 11
3.437999999999999
 21
3.70350587855713
 31
0.0
  0
LINE
  5
455
330
351
100
AcDbEntity
  8
4
100
AcDbLine
 10
2.312
 20
3.76550587855713
 30
0.0
 11
2.512196030826981
 21
3.76550587855713
 31
0.0
  0
LINE
  5
456
330
351
100
AcDbEntity
  8
4
100
AcDbLine
 10
2.312
 20
3.70350587855713
 30
0.0
 11
2.499999999999999
 21
3.70350587855713
 31
0.0
  0
LINE
  5
457
330
351
100
AcDbEntity
  8
4
100
AcDbLine
 10
1.687
 20
3.76550587855713
 30
0.0
 11
2.187999999999999
 21
3.76550587855713
 31
0.0
  0
LINE
  5
458
330
351
100
AcDbEntity
  8
4
100
AcDbLine
 10
1.687
 20
3.70350587855713
 30
0.0
 11
2.187999999999999
 21
3.70350587855713
 31
0.0
  0
LINE
  5
459
330
351
100
AcDbEntity
  8
4
100
AcDbLine
 10
1.062
 20
3.76550587855713
 30
0.0
 11
1.562999999999999
 21
3.76550587855713
 31
0.0
  0
LINE
  5
45A
330
351
100
AcDbEntity
  8
4
100
AcDbLine
 10
1.062
 20
3.70350587855713
 30
0.0
 11
1.562999999999999
 21
3.70350587855713
 31
0.0
  0
LINE
  5
45B
330
351
100
AcDbEntity
  8
4
100
AcDbLine
 10
1.094
 20
3.797461724666486
 30
0.0
 11
1.094
 21
4.40600587855713
 31
0.0
  0
LINE
  5
45C
330
351
100
AcDbEntity
  8
4
100
AcDbLine
 10
1.094
 20
4.40600587855713
 30
0.0
 11
1.531
 21
4.40600587855713
 31
0.0
  0
LINE
  5
45D
330
351
100
AcDbEntity
  8
4
100
AcDbLine
 10
1.531
 20
4.40600587855713
 30
0.0
 11
1.530999999999999
 21
3.797461724666487
 31
0.0
  0
LINE
  5
45E
330
351
100
AcDbEntity
  8
4
100
AcDbLine
 10
1.530999999999999
 20
3.797461724666487
 30
0.0
 11
1.094
 21
3.797461724666486
 31
0.0
  0
LINE
  5
45F
330
351
100
AcDbEntity
  8
4
100
AcDbLine
 10
1.541
 20
4.28100587855713
 30
0.0
 11
1.541
 21
4.15600587855713
 31
0.0
  0
LINE
  5
460
330
351
100
AcDbEntity
  8
4
100
AcDbLine
 10
1.540999999999999
 20
4.046461724666487
 30
0.0
 11
1.540999999999999
 21
3.921461724666487
 31
0.0
  0
ENDBLK
  5
462
330
351
100
AcDbEntity
  8
0
100
AcDbBlockEnd
  0
ENDSEC
  0
SECTION
  2
ENTITIES
  0
TEXT
  5
46B
330
1F
100
AcDbEntity
  8
8
100
AcDbText
 10
8.806895743751208
 20
3.994601876625628
 30
0.0
 40
0.07
  1
DEPTH
  7
ROMANS
 72
     1
 11
8.971895743751208
 21
3.994601876625628
 31
0.0
100
AcDbText
  0
TEXT
  5
46C
330
1F
100
AcDbEntity
  8
8
100
AcDbText
 10
10.42939574375121
 20
3.994601876625628
 30
0.0
 40
0.07
  1
DEPTH
  7
ROMANS
 72
     1
 11
10.59439574375121
 21
3.994601876625628
 31
0.0
100
AcDbText
  0
TEXT
  5
46D
330
1F
100
AcDbEntity
  8
8
100
AcDbText
 10
9.872234230824751
 20
3.049542171807752
 30
0.0
 40
0.1
  1
SR BACK TO BACK
  7
ROMANS
 72
     1
 11
10.59604375463427
 21
3.049542171807752
 31
0.0
100
AcDbText
  0
TEXT
  5
46E
330
1F
100
AcDbEntity
  8
8
100
AcDbText
 10
9.256611673247142
 20
2.864941164982442
 30
0.0
 40
0.1
  1
SECTIONS
  7
ROMANS
 72
     1
 11
9.608992625628095
 21
2.864941164982442
 31
0.0
100
AcDbText
  0
TEXT
  5
46F
330
1F
100
AcDbEntity
  8
8
100
AcDbText
 10
8.896448906878163
 20
3.049542171807752
 30
0.0
 40
0.1
  1
SR
  7
ROMANS
 72
     1
 11
8.994067954497211
 21
3.049542171807752
 31
0.0
100
AcDbText
  0
LINE
  5
470
330
1F
100
AcDbEntity
  8
4
100
AcDbLine
 10
9.222395743751206
 20
6.552941164982442
 30
0.0
 11
9.48612734641661
 21
6.552941164982442
 31
0.0
  0
LINE
  5
471
330
1F
100
AcDbEntity
  8
4
100
AcDbLine
 10
9.526554556089037
 20
6.552941164982442
 30
0.0
 11
9.70701835291298
 21
6.552941164982442
 31
0.0
  0
INSERT
  5
472
330
1F
100
AcDbEntity
  8
4
100
AcDbBlockReference
  2
ARRO
 10
9.526554556089037
 20
6.552941164982442
 30
0.0
  0
LINE
  5
473
330
1F
100
AcDbEntity
  8
4
100
AcDbLine
 10
9.70701835291298
 20
6.552941164982442
 30
0.0
 11
9.70701835291298
 21
6.34995349519193
 31
0.0
  0
TEXT
  5
474
330
1F
100
AcDbEntity
  8
8
100
AcDbText
 10
9.74201835291298
 20
4.974620161858596
 30
0.0
 40
0.07
  1
ANCHORING BY ERECTOR
 50
90.0
  7
ROMANS
 72
     2
 11
9.74201835291298
 21
6.28795349519193
 31
0.0
100
AcDbText
  0
TEXT
  5
475
330
1F
100
AcDbEntity
  8
8
100
AcDbText
 10
8.094895743751205
 20
4.881274498315775
 30
0.0
 40
0.07
  1
LOCKER HEIGHT
 50
90.0
  7
ROMANS
 72
     1
 11
8.094895743751205
 21
5.302941164982442
 31
0.0
100
AcDbText
  0
TEXT
  5
476
330
1F
100
AcDbEntity
  8
8
100
AcDbText
 10
4.939395743751205
 20
3.364941164982442
 30
0.0
 40
0.07
  1
LOCKER WIDTH - SEE SCHEDULE
  7
ROMANS
 72
     1
 11
5.844395743751206
 21
3.364941164982442
 31
0.0
100
AcDbText
  0
TEXT
  5
477
330
1F
100
AcDbEntity
  8
8
100
AcDbText
 10
5.180110029465493
 20
2.864941164982442
 30
0.0
 40
0.1
  1
FRONT ELEVATION
  7
ROMANS
 72
     1
 11
5.844395743751206
 21
2.864941164982442
 31
0.0
100
AcDbText
  0
LINE
  5
478
330
1F
100
AcDbEntity
  8
1
100
AcDbLine
 10
8.797895743751205
 20
3.865441164982442
 30
0.0
 11
8.782895743751206
 21
3.850441164982441
 31
0.0
  0
LINE
  5
479
330
1F
100
AcDbEntity
  8
1
100
AcDbLine
 10
8.782895743751206
 20
3.850441164982441
 30
0.0
 11
8.684895743751205
 21
3.850441164982441
 31
0.0
  0
LINE
  5
47A
330
1F
100
AcDbEntity
  8
1
100
AcDbLine
 10
8.684895743751205
 20
3.850441164982441
 30
0.0
 11
8.684895743751205
 21
3.822195022544882
 31
0.0
  0
LINE
  5
47B
330
1F
100
AcDbEntity
  8
1
100
AcDbLine
 10
8.859895743751206
 20
3.803441164982442
 30
0.0
 11
8.797895743751205
 21
3.865441164982442
 31
0.0
  0
LINE
  5
47C
330
1F
100
AcDbEntity
  8
1
100
AcDbLine
 10
9.224895743751206
 20
3.803441164982442
 30
0.0
 11
8.859895743751206
 21
3.803441164982442
 31
0.0
  0
LINE
  5
47D
330
1F
100
AcDbEntity
  8
1
100
AcDbLine
 10
9.224895743751206
 20
3.865441164982442
 30
0.0
 11
9.224895743751206
 21
3.803441164982442
 31
0.0
  0
LINE
  5
47E
330
1F
100
AcDbEntity
  8
1
100
AcDbLine
 10
9.264895743751207
 20
3.865441164982442
 30
0.0
 11
9.264895743751207
 21
3.803441164982442
 31
0.0
  0
LINE
  5
47F
330
1F
100
AcDbEntity
  8
1
100
AcDbLine
 10
8.659895743751206
 20
3.865441164982442
 30
0.0
 11
8.767895743751205
 21
3.865441164982442
 31
0.0
  0
LINE
  5
480
330
1F
100
AcDbEntity
  8
1
100
AcDbLine
 10
8.659895743751206
 20
3.803441164982442
 30
0.0
 11
8.659895743751206
 21
3.865441164982442
 31
0.0
  0
LINE
  5
481
330
1F
100
AcDbEntity
  8
1
100
AcDbLine
 10
8.721895743751206
 20
3.803441164982442
 30
0.0
 11
8.659895743751206
 21
3.803441164982442
 31
0.0
  0
LINE
  5
482
330
1F
100
AcDbEntity
  8
1
100
AcDbLine
 10
8.797895743751205
 20
3.865441164982442
 30
0.0
 11
9.264895743751207
 21
3.865441164982442
 31
0.0
  0
LINE
  5
483
330
1F
100
AcDbEntity
  8
1
100
AcDbLine
 10
10.1078957437512
 20
3.865441164982442
 30
0.0
 11
10.5748957437512
 21
3.865441164982442
 31
0.0
  0
LINE
  5
484
330
1F
100
AcDbEntity
  8
1
100
AcDbLine
 10
10.0318957437512
 20
3.803441164982442
 30
0.0
 11
9.969895743751205
 21
3.803441164982442
 31
0.0
  0
LINE
  5
485
330
1F
100
AcDbEntity
  8
1
100
AcDbLine
 10
9.969895743751205
 20
3.803441164982442
 30
0.0
 11
9.969895743751205
 21
3.865441164982442
 31
0.0
  0
LINE
  5
486
330
1F
100
AcDbEntity
  8
1
100
AcDbLine
 10
9.969895743751205
 20
3.865441164982442
 30
0.0
 11
10.0778957437512
 21
3.865441164982442
 31
0.0
  0
LINE
  5
487
330
1F
100
AcDbEntity
  8
1
100
AcDbLine
 10
10.5748957437512
 20
3.865441164982442
 30
0.0
 11
10.5748957437512
 21
3.803441164982442
 31
0.0
  0
LINE
  5
488
330
1F
100
AcDbEntity
  8
1
100
AcDbLine
 10
10.5348957437512
 20
3.865441164982442
 30
0.0
 11
10.5348957437512
 21
3.803441164982442
 31
0.0
  0
LINE
  5
489
330
1F
100
AcDbEntity
  8
1
100
AcDbLine
 10
10.5348957437512
 20
3.803441164982442
 30
0.0
 11
10.1698957437512
 21
3.803441164982442
 31
0.0
  0
LINE
  5
48A
330
1F
100
AcDbEntity
  8
1
100
AcDbLine
 10
10.1698957437512
 20
3.803441164982442
 30
0.0
 11
10.1078957437512
 21
3.865441164982442
 31
0.0
  0
LINE
  5
48B
330
1F
100
AcDbEntity
  8
1
100
AcDbLine
 10
9.994895743751206
 20
3.850441164982441
 30
0.0
 11
9.994895743751206
 21
3.822195022544882
 31
0.0
  0
LINE
  5
48C
330
1F
100
AcDbEntity
  8
1
100
AcDbLine
 10
10.0928957437512
 20
3.850441164982441
 30
0.0
 11
9.994895743751206
 21
3.850441164982441
 31
0.0
  0
LINE
  5
48D
330
1F
100
AcDbEntity
  8
1
100
AcDbLine
 10
10.1078957437512
 20
3.865441164982442
 30
0.0
 11
10.0928957437512
 21
3.850441164982441
 31
0.0
  0
LINE
  5
48E
330
1F
100
AcDbEntity
  8
1
100
AcDbLine
 10
11.08089574375121
 20
3.865441164982442
 30
0.0
 11
11.0958957437512
 21
3.850441164982441
 31
0.0
  0
LINE
  5
48F
330
1F
100
AcDbEntity
  8
1
100
AcDbLine
 10
11.0958957437512
 20
3.850441164982441
 30
0.0
 11
11.1938957437512
 21
3.850441164982441
 31
0.0
  0
LINE
  5
490
330
1F
100
AcDbEntity
  8
1
100
AcDbLine
 10
11.1938957437512
 20
3.850441164982441
 30
0.0
 11
11.1938957437512
 21
3.822195022544882
 31
0.0
  0
LINE
  5
491
330
1F
100
AcDbEntity
  8
1
100
AcDbLine
 10
11.01889574375121
 20
3.803441164982442
 30
0.0
 11
11.08089574375121
 21
3.865441164982442
 31
0.0
  0
LINE
  5
492
330
1F
100
AcDbEntity
  8
1
100
AcDbLine
 10
10.6538957437512
 20
3.803441164982442
 30
0.0
 11
11.01889574375121
 21
3.803441164982442
 31
0.0
  0
LINE
  5
493
330
1F
100
AcDbEntity
  8
1
100
AcDbLine
 10
10.6538957437512
 20
3.865441164982442
 30
0.0
 11
10.6538957437512
 21
3.803441164982442
 31
0.0
  0
LINE
  5
494
330
1F
100
AcDbEntity
  8
1
100
AcDbLine
 10
10.6138957437512
 20
3.865441164982442
 30
0.0
 11
10.6138957437512
 21
3.803441164982442
 31
0.0
  0
LINE
  5
495
330
1F
100
AcDbEntity
  8
1
100
AcDbLine
 10
11.21889574375121
 20
3.865441164982442
 30
0.0
 11
11.11089574375121
 21
3.865441164982442
 31
0.0
  0
LINE
  5
496
330
1F
100
AcDbEntity
  8
1
100
AcDbLine
 10
11.21889574375121
 20
3.803441164982442
 30
0.0
 11
11.21889574375121
 21
3.865441164982442
 31
0.0
  0
LINE
  5
497
330
1F
100
AcDbEntity
  8
1
100
AcDbLine
 10
11.1568957437512
 20
3.803441164982442
 30
0.0
 11
11.21889574375121
 21
3.803441164982442
 31
0.0
  0
LINE
  5
498
330
1F
100
AcDbEntity
  8
1
100
AcDbLine
 10
11.08089574375121
 20
3.865441164982442
 30
0.0
 11
10.6138957437512
 21
3.865441164982442
 31
0.0
  0
LINE
  5
499
330
1F
100
AcDbEntity
  8
1
100
AcDbLine
 10
11.1128957437512
 20
6.802941164982442
 30
0.0
 11
10.64589574375121
 21
6.802941164982442
 31
0.0
  0
LINE
  5
49A
330
1F
100
AcDbEntity
  8
1
100
AcDbLine
 10
11.18889574375121
 20
6.740941164982442
 30
0.0
 11
11.25089574375121
 21
6.740941164982442
 31
0.0
  0
LINE
  5
49B
330
1F
100
AcDbEntity
  8
1
100
AcDbLine
 10
11.25089574375121
 20
6.740941164982442
 30
0.0
 11
11.25089574375121
 21
6.802941164982442
 31
0.0
  0
LINE
  5
49C
330
1F
100
AcDbEntity
  8
1
100
AcDbLine
 10
11.25089574375121
 20
6.802941164982442
 30
0.0
 11
11.14289574375121
 21
6.802941164982442
 31
0.0
  0
LINE
  5
49D
330
1F
100
AcDbEntity
  8
1
100
AcDbLine
 10
10.64589574375121
 20
6.802941164982442
 30
0.0
 11
10.64589574375121
 21
6.740941164982442
 31
0.0
  0
LINE
  5
49E
330
1F
100
AcDbEntity
  8
1
100
AcDbLine
 10
10.68589574375121
 20
6.802941164982442
 30
0.0
 11
10.68589574375121
 21
6.740941164982442
 31
0.0
  0
LINE
  5
49F
330
1F
100
AcDbEntity
  8
1
100
AcDbLine
 10
10.68589574375121
 20
6.740941164982442
 30
0.0
 11
11.05089574375121
 21
6.740941164982442
 31
0.0
  0
LINE
  5
4A0
330
1F
100
AcDbEntity
  8
1
100
AcDbLine
 10
11.05089574375121
 20
6.740941164982442
 30
0.0
 11
11.1128957437512
 21
6.802941164982442
 31
0.0
  0
LINE
  5
4A1
330
1F
100
AcDbEntity
  8
1
100
AcDbLine
 10
11.22589574375121
 20
6.787941164982441
 30
0.0
 11
11.22589574375121
 21
6.759695022544882
 31
0.0
  0
LINE
  5
4A2
330
1F
100
AcDbEntity
  8
1
100
AcDbLine
 10
11.12789574375121
 20
6.787941164982441
 30
0.0
 11
11.22589574375121
 21
6.787941164982441
 31
0.0
  0
LINE
  5
4A3
330
1F
100
AcDbEntity
  8
1
100
AcDbLine
 10
11.1128957437512
 20
6.802941164982442
 30
0.0
 11
11.12789574375121
 21
6.787941164982441
 31
0.0
  0
LINE
  5
4A4
330
1F
100
AcDbEntity
  8
1
100
AcDbLine
 10
10.1078957437512
 20
6.802941164982442
 30
0.0
 11
10.0928957437512
 21
6.787941164982441
 31
0.0
  0
LINE
  5
4A5
330
1F
100
AcDbEntity
  8
1
100
AcDbLine
 10
10.0928957437512
 20
6.787941164982441
 30
0.0
 11
9.994895743751206
 21
6.787941164982441
 31
0.0
  0
LINE
  5
4A6
330
1F
100
AcDbEntity
  8
1
100
AcDbLine
 10
9.994895743751206
 20
6.787941164982441
 30
0.0
 11
9.994895743751206
 21
6.759695022544882
 31
0.0
  0
LINE
  5
4A7
330
1F
100
AcDbEntity
  8
1
100
AcDbLine
 10
10.1698957437512
 20
6.740941164982442
 30
0.0
 11
10.1078957437512
 21
6.802941164982442
 31
0.0
  0
LINE
  5
4A8
330
1F
100
AcDbEntity
  8
1
100
AcDbLine
 10
10.5348957437512
 20
6.740941164982442
 30
0.0
 11
10.1698957437512
 21
6.740941164982442
 31
0.0
  0
LINE
  5
4A9
330
1F
100
AcDbEntity
  8
1
100
AcDbLine
 10
10.5348957437512
 20
6.802941164982442
 30
0.0
 11
10.5348957437512
 21
6.740941164982442
 31
0.0
  0
LINE
  5
4AA
330
1F
100
AcDbEntity
  8
1
100
AcDbLine
 10
10.5748957437512
 20
6.802941164982442
 30
0.0
 11
10.5748957437512
 21
6.740941164982442
 31
0.0
  0
LINE
  5
4AB
330
1F
100
AcDbEntity
  8
1
100
AcDbLine
 10
9.969895743751205
 20
6.802941164982442
 30
0.0
 11
10.0778957437512
 21
6.802941164982442
 31
0.0
  0
LINE
  5
4AC
330
1F
100
AcDbEntity
  8
1
100
AcDbLine
 10
9.969895743751205
 20
6.740941164982442
 30
0.0
 11
9.969895743751205
 21
6.802941164982442
 31
0.0
  0
LINE
  5
4AD
330
1F
100
AcDbEntity
  8
1
100
AcDbLine
 10
10.0318957437512
 20
6.740941164982442
 30
0.0
 11
9.969895743751205
 21
6.740941164982442
 31
0.0
  0
LINE
  5
4AE
330
1F
100
AcDbEntity
  8
1
100
AcDbLine
 10
10.1078957437512
 20
6.802941164982442
 30
0.0
 11
10.5748957437512
 21
6.802941164982442
 31
0.0
  0
LINE
  5
4AF
330
1F
100
AcDbEntity
  8
1
100
AcDbLine
 10
8.797895743751205
 20
6.802941164982442
 30
0.0
 11
9.264895743751207
 21
6.802941164982442
 31
0.0
  0
LINE
  5
4B0
330
1F
100
AcDbEntity
  8
1
100
AcDbLine
 10
8.721895743751206
 20
6.740941164982442
 30
0.0
 11
8.659895743751206
 21
6.740941164982442
 31
0.0
  0
LINE
  5
4B1
330
1F
100
AcDbEntity
  8
1
100
AcDbLine
 10
8.659895743751206
 20
6.740941164982442
 30
0.0
 11
8.659895743751206
 21
6.802941164982442
 31
0.0
  0
LINE
  5
4B2
330
1F
100
AcDbEntity
  8
1
100
AcDbLine
 10
8.659895743751206
 20
6.802941164982442
 30
0.0
 11
8.767895743751205
 21
6.802941164982442
 31
0.0
  0
LINE
  5
4B3
330
1F
100
AcDbEntity
  8
1
100
AcDbLine
 10
9.264895743751207
 20
6.802941164982442
 30
0.0
 11
9.264895743751207
 21
6.740941164982442
 31
0.0
  0
LINE
  5
4B4
330
1F
100
AcDbEntity
  8
1
100
AcDbLine
 10
9.224895743751206
 20
6.802941164982442
 30
0.0
 11
9.224895743751206
 21
6.740941164982442
 31
0.0
  0
LINE
  5
4B5
330
1F
100
AcDbEntity
  8
1
100
AcDbLine
 10
9.224895743751206
 20
6.740941164982442
 30
0.0
 11
8.859895743751206
 21
6.740941164982442
 31
0.0
  0
LINE
  5
4B6
330
1F
100
AcDbEntity
  8
1
100
AcDbLine
 10
8.859895743751206
 20
6.740941164982442
 30
0.0
 11
8.797895743751205
 21
6.802941164982442
 31
0.0
  0
LINE
  5
4B7
330
1F
100
AcDbEntity
  8
1
100
AcDbLine
 10
8.684895743751205
 20
6.787941164982441
 30
0.0
 11
8.684895743751205
 21
6.759695022544882
 31
0.0
  0
LINE
  5
4B8
330
1F
100
AcDbEntity
  8
1
100
AcDbLine
 10
8.782895743751206
 20
6.787941164982441
 30
0.0
 11
8.684895743751205
 21
6.787941164982441
 31
0.0
  0
LINE
  5
4B9
330
1F
100
AcDbEntity
  8
1
100
AcDbLine
 10
8.797895743751205
 20
6.802941164982442
 30
0.0
 11
8.782895743751206
 21
6.787941164982441
 31
0.0
  0
LINE
  5
4BA
330
1F
100
AcDbEntity
  8
1
100
AcDbLine
 10
4.656395743751207
 20
3.864941164982442
 30
0.0
 11
5.157395743751206
 21
3.864941164982442
 31
0.0
  0
LINE
  5
4BB
330
1F
100
AcDbEntity
  8
4
100
AcDbLine
 10
5.46726245405922
 20
3.676941164982442
 30
0.0
 11
5.529262454059219
 21
3.676941164982442
 31
0.0
  0
CIRCLE
  5
4BC
330
1F
100
AcDbEntity
  8
4
100
AcDbCircle
 10
5.623262454059219
 20
3.676941164982442
 30
0.0
 40
0.094
  0
LINE
  5
4BD
330
1F
100
AcDbEntity
  8
4
100
AcDbLine
 10
5.373262454059219
 20
3.770941164982442
 30
0.0
 11
5.373262454059219
 21
3.895941164982442
 31
0.0
  0
CIRCLE
  5
4BE
330
1F
100
AcDbEntity
  8
4
100
AcDbCircle
 10
5.373262454059219
 20
3.676941164982442
 30
0.0
 40
0.094
  0
CIRCLE
  5
4BF
330
1F
100
AcDbEntity
  8
4
100
AcDbCircle
 10
5.531895743751206
 20
6.614941164982442
 30
0.0
 40
0.094
  0
LINE
  5
4C0
330
1F
100
AcDbEntity
  8
4
100
AcDbLine
 10
5.531895743751206
 20
6.708941164982443
 30
0.0
 11
5.531895743751206
 21
6.833941164982443
 31
0.0
  0
LINE
  5
4C1
330
1F
100
AcDbEntity
  8
1
100
AcDbLine
 10
6.094395743751205
 20
3.864941164982442
 30
0.0
 11
5.906395743751207
 21
3.864941164982442
 31
0.0
  0
LINE
  5
4C2
330
1F
100
AcDbEntity
  8
1
100
AcDbLine
 10
6.219395743751206
 20
6.740941164982443
 30
0.0
 11
6.407395743751207
 21
6.740941164982443
 31
0.0
  0
LINE
  5
4C3
330
1F
100
AcDbEntity
  8
1
100
AcDbLine
 10
6.469395743751206
 20
3.802941164982442
 30
0.0
 11
6.469395743751206
 21
6.802941164982442
 31
0.0
  0
LINE
  5
4C4
330
1F
100
AcDbEntity
  8
1
100
AcDbLine
 10
5.844395743751206
 20
3.802941164982442
 30
0.0
 11
5.844395743751206
 21
6.802941164982442
 31
0.0
  0
LINE
  5
4C5
330
1F
100
AcDbEntity
  8
1
100
AcDbLine
 10
5.219395743751206
 20
3.802941164982442
 30
0.0
 11
5.219395743751206
 21
6.802941164982442
 31
0.0
  0
LINE
  5
4C6
330
1F
100
AcDbEntity
  8
1
100
AcDbLine
 10
7.032395743751206
 20
3.864941164982442
 30
0.0
 11
6.531395743751207
 21
3.864941164982442
 31
0.0
  0
LINE
  5
4C7
330
1F
100
AcDbEntity
  8
1
100
AcDbLine
 10
7.032395743751207
 20
6.740941164982443
 30
0.0
 11
7.032395743751206
 21
3.864941164982442
 31
0.0
  0
LINE
  5
4C8
330
1F
100
AcDbEntity
  8
1
100
AcDbLine
 10
6.531395743751207
 20
6.740941164982443
 30
0.0
 11
7.032395743751207
 21
6.740941164982443
 31
0.0
  0
LINE
  5
4C9
330
1F
100
AcDbEntity
  8
1
100
AcDbLine
 10
6.531395743751207
 20
3.864941164982442
 30
0.0
 11
6.531395743751207
 21
6.740941164982443
 31
0.0
  0
LINE
  5
4CA
330
1F
100
AcDbEntity
  8
1
100
AcDbLine
 10
6.407395743751206
 20
3.864941164982442
 30
0.0
 11
6.219395743751206
 21
3.864941164982442
 31
0.0
  0
LINE
  5
4CB
330
1F
100
AcDbEntity
  8
1
100
AcDbLine
 10
6.407395743751207
 20
6.740941164982443
 30
0.0
 11
6.407395743751206
 21
3.864941164982442
 31
0.0
  0
LINE
  5
4CC
330
1F
100
AcDbEntity
  8
1
100
AcDbLine
 10
5.906395743751207
 20
6.740941164982443
 30
0.0
 11
6.094395743751206
 21
6.740941164982443
 31
0.0
  0
LINE
  5
4CD
330
1F
100
AcDbEntity
  8
1
100
AcDbLine
 10
5.906395743751207
 20
3.864941164982442
 30
0.0
 11
5.906395743751207
 21
6.740941164982443
 31
0.0
  0
LINE
  5
4CE
330
1F
100
AcDbEntity
  8
1
100
AcDbLine
 10
5.782395743751206
 20
3.864941164982442
 30
0.0
 11
5.281395743751207
 21
3.864941164982442
 31
0.0
  0
LINE
  5
4CF
330
1F
100
AcDbEntity
  8
1
100
AcDbLine
 10
5.782395743751207
 20
6.740941164982443
 30
0.0
 11
5.782395743751206
 21
3.864941164982442
 31
0.0
  0
LINE
  5
4D0
330
1F
100
AcDbEntity
  8
1
100
AcDbLine
 10
5.281395743751207
 20
6.740941164982443
 30
0.0
 11
5.782395743751207
 21
6.740941164982443
 31
0.0
  0
LINE
  5
4D1
330
1F
100
AcDbEntity
  8
1
100
AcDbLine
 10
5.281395743751207
 20
3.864941164982442
 30
0.0
 11
5.281395743751207
 21
6.740941164982443
 31
0.0
  0
LINE
  5
4D2
330
1F
100
AcDbEntity
  8
1
100
AcDbLine
 10
5.157395743751207
 20
6.740941164982443
 30
0.0
 11
5.157395743751206
 21
3.864941164982442
 31
0.0
  0
LINE
  5
4D3
330
1F
100
AcDbEntity
  8
1
100
AcDbLine
 10
4.656395743751207
 20
6.740941164982443
 30
0.0
 11
5.157395743751207
 21
6.740941164982443
 31
0.0
  0
LINE
  5
4D4
330
1F
100
AcDbEntity
  8
1
100
AcDbLine
 10
4.656395743751207
 20
3.864941164982442
 30
0.0
 11
4.656395743751207
 21
6.740941164982443
 31
0.0
  0
INSERT
  5
4D5
330
1F
100
AcDbEntity
  8
4
100
AcDbBlockReference
  2
ARRO
 10
11.21939574375121
 20
4.115441164982442
 30
0.0
 50
180.0
  0
INSERT
  5
4D6
330
1F
100
AcDbEntity
  8
4
100
AcDbBlockReference
  2
ARRO
 10
9.969395743751206
 20
4.115441164982442
 30
0.0
  0
INSERT
  5
4D7
330
1F
100
AcDbEntity
  8
4
100
AcDbBlockReference
  2
ARRO
 10
9.344395743751206
 20
4.115441164982442
 30
0.0
  0
INSERT
  5
4D8
330
1F
100
AcDbEntity
  8
4
100
AcDbBlockReference
  2
ARRO
 10
9.284395743751208
 20
4.115441164982442
 30
0.0
 50
180.0
  0
INSERT
  5
4D9
330
1F
100
AcDbEntity
  8
4
100
AcDbBlockReference
  2
ARRO
 10
8.659395743751208
 20
4.115441164982442
 30
0.0
  0
LINE
  5
4DA
330
1F
100
AcDbEntity
  8
4
100
AcDbLine
 10
9.969395743751206
 20
4.115441164982442
 30
0.0
 11
11.21939574375121
 21
4.115441164982442
 31
0.0
  0
LINE
  5
4DB
330
1F
100
AcDbEntity
  8
4
100
AcDbLine
 10
9.344395743751206
 20
4.115441164982442
 30
0.0
 11
9.594395743751206
 21
4.115441164982442
 31
0.0
  0
LINE
  5
4DC
330
1F
100
AcDbEntity
  8
4
100
AcDbLine
 10
9.284395743751208
 20
4.115441164982442
 30
0.0
 11
8.659395743751208
 21
4.115441164982442
 31
0.0
  0
INSERT
  5
4DD
330
1F
100
AcDbEntity
  8
4
100
AcDbBlockReference
  2
ARRO
 10
8.156895743751206
 20
3.802941164982442
 30
0.0
 50
90.0
  0
INSERT
  5
4DE
330
1F
100
AcDbEntity
  8
4
100
AcDbBlockReference
  2
ARRO
 10
8.156895743751206
 20
6.802941164982442
 30
0.0
 50
270.0
  0
LINE
  5
4DF
330
1F
100
AcDbEntity
  8
4
100
AcDbLine
 10
8.596895743751208
 20
6.802941164982442
 30
0.0
 11
8.096895743751208
 21
6.802941164982442
 31
0.0
  0
LINE
  5
4E0
330
1F
100
AcDbEntity
  8
4
100
AcDbLine
 10
8.156895743751206
 20
3.802941164982442
 30
0.0
 11
8.156895743751206
 21
6.802941164982442
 31
0.0
  0
LINE
  5
4E1
330
1F
100
AcDbEntity
  8
4
100
AcDbLine
 10
8.596895743751208
 20
3.802941164982442
 30
0.0
 11
8.096895743751208
 21
3.802941164982442
 31
0.0
  0
INSERT
  5
4E2
330
1F
100
AcDbEntity
  8
4
100
AcDbBlockReference
  2
ARRO
 10
7.094395743751206
 20
3.302941164982442
 30
0.0
 50
180.0
  0
INSERT
  5
4E3
330
1F
100
AcDbEntity
  8
4
100
AcDbBlockReference
  2
ARRO
 10
4.594395743751206
 20
3.302941164982442
 30
0.0
  0
LINE
  5
4E4
330
1F
100
AcDbEntity
  8
4
100
AcDbLine
 10
7.094395743751206
 20
3.302941164982442
 30
0.0
 11
4.594395743751206
 21
3.302941164982442
 31
0.0
  0
LINE
  5
4E5
330
1F
100
AcDbEntity
  8
4
100
AcDbLine
 10
7.094395743751206
 20
3.740941164982442
 30
0.0
 11
7.094395743751206
 21
3.240941164982442
 31
0.0
  0
LINE
  5
4E6
330
1F
100
AcDbEntity
  8
4
100
AcDbLine
 10
4.594395743751206
 20
3.740941164982442
 30
0.0
 11
4.594395743751206
 21
3.240941164982442
 31
0.0
  0
LINE
  5
4E7
330
1F
100
AcDbEntity
  8
1
100
AcDbLine
 10
9.284395743751208
 20
3.802941164982442
 30
0.0
 11
9.284395743751208
 21
6.802941164982442
 31
0.0
  0
LINE
  5
4E8
330
1F
100
AcDbEntity
  8
1
100
AcDbLine
 10
9.344395743751206
 20
7.052941164982442
 30
0.0
 11
9.469395743751206
 21
7.177941164982442
 31
0.0
  0
LINE
  5
4E9
330
1F
100
AcDbEntity
  8
1
100
AcDbLine
 10
9.344395743751206
 20
6.927941164982442
 30
0.0
 11
9.532395743751205
 21
7.115941164982442
 31
0.0
  0
LINE
  5
4EA
330
1F
100
AcDbEntity
  8
1
100
AcDbLine
 10
9.344395743751206
 20
6.802941164982442
 30
0.0
 11
9.532395743751205
 21
6.990941164982442
 31
0.0
  0
LINE
  5
4EB
330
1F
100
AcDbEntity
  8
1
100
AcDbLine
 10
9.344395743751206
 20
6.677941164982442
 30
0.0
 11
9.532395743751205
 21
6.865941164982442
 31
0.0
  0
LINE
  5
4EC
330
1F
100
AcDbEntity
  8
1
100
AcDbLine
 10
9.344395743751206
 20
6.552941164982442
 30
0.0
 11
9.532395743751205
 21
6.740941164982442
 31
0.0
  0
LINE
  5
4ED
330
1F
100
AcDbEntity
  8
1
100
AcDbLine
 10
9.344395743751206
 20
6.427941164982442
 30
0.0
 11
9.532395743751205
 21
6.615941164982442
 31
0.0
  0
LINE
  5
4EE
330
1F
100
AcDbEntity
  8
1
100
AcDbLine
 10
9.344395743751206
 20
6.302941164982442
 30
0.0
 11
9.532395743751205
 21
6.490941164982442
 31
0.0
  0
LINE
  5
4EF
330
1F
100
AcDbEntity
  8
1
100
AcDbLine
 10
9.344395743751206
 20
6.177941164982442
 30
0.0
 11
9.532395743751205
 21
6.365941164982442
 31
0.0
  0
LINE
  5
4F0
330
1F
100
AcDbEntity
  8
1
100
AcDbLine
 10
9.344395743751206
 20
6.052941164982442
 30
0.0
 11
9.532395743751205
 21
6.240941164982442
 31
0.0
  0
LINE
  5
4F1
330
1F
100
AcDbEntity
  8
1
100
AcDbLine
 10
9.344395743751206
 20
5.927941164982442
 30
0.0
 11
9.532395743751205
 21
6.115941164982442
 31
0.0
  0
LINE
  5
4F2
330
1F
100
AcDbEntity
  8
1
100
AcDbLine
 10
9.344395743751206
 20
5.802941164982442
 30
0.0
 11
9.532395743751205
 21
5.990941164982442
 31
0.0
  0
LINE
  5
4F3
330
1F
100
AcDbEntity
  8
1
100
AcDbLine
 10
9.344395743751206
 20
5.677941164982442
 30
0.0
 11
9.532395743751205
 21
5.865941164982442
 31
0.0
  0
LINE
  5
4F4
330
1F
100
AcDbEntity
  8
1
100
AcDbLine
 10
9.344395743751206
 20
5.552941164982442
 30
0.0
 11
9.532395743751205
 21
5.740941164982442
 31
0.0
  0
LINE
  5
4F5
330
1F
100
AcDbEntity
  8
1
100
AcDbLine
 10
9.344395743751206
 20
5.427941164982442
 30
0.0
 11
9.532395743751205
 21
5.615941164982442
 31
0.0
  0
LINE
  5
4F6
330
1F
100
AcDbEntity
  8
1
100
AcDbLine
 10
9.344395743751206
 20
5.302941164982442
 30
0.0
 11
9.532395743751205
 21
5.490941164982442
 31
0.0
  0
LINE
  5
4F7
330
1F
100
AcDbEntity
  8
1
100
AcDbLine
 10
9.344395743751206
 20
5.177941164982442
 30
0.0
 11
9.532395743751205
 21
5.365941164982442
 31
0.0
  0
LINE
  5
4F8
330
1F
100
AcDbEntity
  8
1
100
AcDbLine
 10
9.344395743751206
 20
5.052941164982442
 30
0.0
 11
9.532395743751205
 21
5.240941164982442
 31
0.0
  0
LINE
  5
4F9
330
1F
100
AcDbEntity
  8
1
100
AcDbLine
 10
9.344395743751206
 20
4.927941164982442
 30
0.0
 11
9.532395743751205
 21
5.115941164982442
 31
0.0
  0
LINE
  5
4FA
330
1F
100
AcDbEntity
  8
1
100
AcDbLine
 10
9.344395743751206
 20
4.802941164982442
 30
0.0
 11
9.532395743751205
 21
4.990941164982442
 31
0.0
  0
LINE
  5
4FB
330
1F
100
AcDbEntity
  8
1
100
AcDbLine
 10
9.344395743751206
 20
4.677941164982442
 30
0.0
 11
9.532395743751205
 21
4.865941164982442
 31
0.0
  0
LINE
  5
4FC
330
1F
100
AcDbEntity
  8
1
100
AcDbLine
 10
9.344395743751206
 20
4.552941164982442
 30
0.0
 11
9.532395743751205
 21
4.740941164982442
 31
0.0
  0
LINE
  5
4FD
330
1F
100
AcDbEntity
  8
1
100
AcDbLine
 10
9.344395743751206
 20
4.427941164982442
 30
0.0
 11
9.532395743751205
 21
4.615941164982442
 31
0.0
  0
LINE
  5
4FE
330
1F
100
AcDbEntity
  8
1
100
AcDbLine
 10
9.344395743751206
 20
4.302941164982442
 30
0.0
 11
9.532395743751205
 21
4.490941164982442
 31
0.0
  0
LINE
  5
4FF
330
1F
100
AcDbEntity
  8
1
100
AcDbLine
 10
9.344395743751206
 20
3.927941164982442
 30
0.0
 11
9.532395743751205
 21
4.115941164982442
 31
0.0
  0
LINE
  5
500
330
1F
100
AcDbEntity
  8
1
100
AcDbLine
 10
9.344395743751206
 20
3.802941164982442
 30
0.0
 11
9.532395743751205
 21
3.990941164982442
 31
0.0
  0
LINE
  5
501
330
1F
100
AcDbEntity
  8
1
100
AcDbLine
 10
6.219395743751206
 20
4.682915344294022
 30
0.0
 11
6.219395743751206
 21
3.677941164982442
 31
0.0
  0
LINE
  5
502
330
1F
100
AcDbEntity
  8
1
100
AcDbLine
 10
6.219395743751206
 20
5.085415344294021
 30
0.0
 11
6.219395743751206
 21
4.772915344294021
 31
0.0
  0
LINE
  5
503
330
1F
100
AcDbEntity
  8
1
100
AcDbLine
 10
6.219395743751206
 20
5.928908869134308
 30
0.0
 11
6.219395743751206
 21
5.085415344294021
 31
0.0
  0
LINE
  5
504
330
1F
100
AcDbEntity
  8
1
100
AcDbLine
 10
6.174395743751206
 20
5.967915344294022
 30
0.0
 11
6.264395743751206
 21
5.877915344294022
 31
0.0
  0
LINE
  5
505
330
1F
100
AcDbEntity
  8
1
100
AcDbLine
 10
6.264395743751206
 20
5.967915344294022
 30
0.0
 11
6.174395743751206
 21
5.967915344294022
 31
0.0
  0
LINE
  5
506
330
1F
100
AcDbEntity
  8
1
100
AcDbLine
 10
6.174395743751206
 20
6.057915344294022
 30
0.0
 11
6.264395743751206
 21
5.967915344294022
 31
0.0
  0
LINE
  5
507
330
1F
100
AcDbEntity
  8
1
100
AcDbLine
 10
6.174395743751206
 20
4.727915344294022
 30
0.0
 11
6.264395743751206
 21
4.637915344294022
 31
0.0
  0
LINE
  5
508
330
1F
100
AcDbEntity
  8
1
100
AcDbLine
 10
6.264395743751206
 20
4.727915344294022
 30
0.0
 11
6.174395743751206
 21
4.727915344294022
 31
0.0
  0
LINE
  5
509
330
1F
100
AcDbEntity
  8
1
100
AcDbLine
 10
6.174395743751206
 20
4.817915344294021
 30
0.0
 11
6.264395743751206
 21
4.727915344294022
 31
0.0
  0
LINE
  5
50A
330
1F
100
AcDbEntity
  8
1
100
AcDbLine
 10
6.094395743751206
 20
4.057915344294022
 30
0.0
 11
6.094395743751206
 21
3.677941164982442
 31
0.0
  0
LINE
  5
50B
330
1F
100
AcDbEntity
  8
1
100
AcDbLine
 10
6.094395743751206
 20
4.772915344294021
 30
0.0
 11
6.094395743751206
 21
4.147915344294021
 31
0.0
  0
LINE
  5
50C
330
1F
100
AcDbEntity
  8
1
100
AcDbLine
 10
6.094395743751206
 20
5.307915344294022
 30
0.0
 11
6.094395743751206
 21
4.772915344294021
 31
0.0
  0
LINE
  5
50D
330
1F
100
AcDbEntity
  8
1
100
AcDbLine
 10
6.049395743751206
 20
4.192915344294021
 30
0.0
 11
6.139395743751206
 21
4.102915344294022
 31
0.0
  0
LINE
  5
50E
330
1F
100
AcDbEntity
  8
1
100
AcDbLine
 10
6.139395743751206
 20
4.102915344294022
 30
0.0
 11
6.049395743751206
 21
4.102915344294022
 31
0.0
  0
LINE
  5
50F
330
1F
100
AcDbEntity
  8
1
100
AcDbLine
 10
6.049395743751206
 20
4.102915344294022
 30
0.0
 11
6.139395743751206
 21
4.012915344294022
 31
0.0
  0
LINE
  5
510
330
1F
100
AcDbEntity
  8
1
100
AcDbLine
 10
6.049395743751206
 20
5.442915344294021
 30
0.0
 11
6.139395743751206
 21
5.352915344294022
 31
0.0
  0
LINE
  5
511
330
1F
100
AcDbEntity
  8
1
100
AcDbLine
 10
6.139395743751206
 20
5.352915344294022
 30
0.0
 11
6.049395743751206
 21
5.352915344294022
 31
0.0
  0
LINE
  5
512
330
1F
100
AcDbEntity
  8
1
100
AcDbLine
 10
6.049395743751206
 20
5.352915344294022
 30
0.0
 11
6.139395743751206
 21
5.262915344294022
 31
0.0
  0
LINE
  5
513
330
1F
100
AcDbEntity
  8
1
100
AcDbLine
 10
6.106591774578189
 20
6.545719313467039
 30
0.0
 11
6.106591774578189
 21
5.378619694130112
 31
0.0
  0
LINE
  5
514
330
1F
100
AcDbEntity
  8
1
100
AcDbLine
 10
6.049395743751206
 20
6.602915344294022
 30
0.0
 11
6.139395743751206
 21
6.512915344294022
 31
0.0
  0
LINE
  5
515
330
1F
100
AcDbEntity
  8
1
100
AcDbLine
 10
6.139395743751206
 20
6.602915344294022
 30
0.0
 11
6.049395743751206
 21
6.602915344294022
 31
0.0
  0
LINE
  5
516
330
1F
100
AcDbEntity
  8
1
100
AcDbLine
 10
6.049395743751206
 20
6.692915344294021
 30
0.0
 11
6.139395743751206
 21
6.602915344294022
 31
0.0
  0
LINE
  5
517
330
1F
100
AcDbEntity
  8
1
100
AcDbLine
 10
6.094395743751206
 20
6.927941164982442
 30
0.0
 11
6.094395743751206
 21
6.647915344294021
 31
0.0
  0
LINE
  5
518
330
1F
100
AcDbEntity
  8
1
100
AcDbLine
 10
6.219395743751206
 20
6.927941164982442
 30
0.0
 11
6.219395743751206
 21
6.012915344294022
 31
0.0
  0
CIRCLE
  5
519
330
1F
100
AcDbEntity
  8
1
100
AcDbCircle
 10
7.719395743751206
 20
2.802941164982442
 30
0.0
 40
0.1875
  0
LINE
  5
51A
330
1F
100
AcDbEntity
  8
1
100
AcDbLine
 10
9.344395743751206
 20
3.802941164982442
 30
0.0
 11
9.344395743751206
 21
7.177941164982442
 31
0.0
  0
LINE
  5
51B
330
1F
100
AcDbEntity
  8
1
100
AcDbLine
 10
10.59439574375121
 20
3.802941164982442
 30
0.0
 11
10.59439574375121
 21
6.802941164982442
 31
0.0
  0
LINE
  5
51C
330
1F
100
AcDbEntity
  8
1
100
AcDbLine
 10
7.094395743751206
 20
3.802941164982442
 30
0.0
 11
6.219395743751206
 21
3.802941164982442
 31
0.0
  0
LINE
  5
51D
330
1F
100
AcDbEntity
  8
1
100
AcDbLine
 10
7.094395743751206
 20
6.802941164982442
 30
0.0
 11
7.094395743751206
 21
3.802941164982442
 31
0.0
  0
LINE
  5
51E
330
1F
100
AcDbEntity
  8
1
100
AcDbLine
 10
6.219395743751206
 20
6.802941164982442
 30
0.0
 11
7.094395743751206
 21
6.802941164982442
 31
0.0
  0
LINE
  5
51F
330
1F
100
AcDbEntity
  8
1
100
AcDbLine
 10
4.594395743751206
 20
6.802941164982442
 30
0.0
 11
6.094395743751206
 21
6.802941164982442
 31
0.0
  0
LINE
  5
520
330
1F
100
AcDbEntity
  8
1
100
AcDbLine
 10
4.594395743751206
 20
3.802941164982442
 30
0.0
 11
4.594395743751206
 21
6.802941164982442
 31
0.0
  0
LINE
  5
521
330
1F
100
AcDbEntity
  8
1
100
AcDbLine
 10
4.594395743751206
 20
3.802941164982442
 30
0.0
 11
6.094395743751206
 21
3.802941164982442
 31
0.0
  0
LINE
  5
522
330
1F
100
AcDbEntity
  8
1
100
AcDbLine
 10
3.594395743751206
 20
7.552941164982442
 30
0.0
 11
3.594395743751206
 21
2.302941164982442
 31
0.0
  0
LINE
  5
523
330
1F
100
AcDbEntity
  8
1
100
AcDbLine
 10
11.84439574375121
 20
7.552941164982442
 30
0.0
 11
3.594395743751206
 21
7.552941164982442
 31
0.0
  0
LINE
  5
524
330
1F
100
AcDbEntity
  8
1
100
AcDbLine
 10
11.84439574375121
 20
2.302941164982442
 30
0.0
 11
11.84439574375121
 21
7.552941164982442
 31
0.0
  0
LINE
  5
525
330
1F
100
AcDbEntity
  8
1
100
AcDbLine
 10
3.594395743751206
 20
2.302941164982442
 30
0.0
 11
11.84439574375121
 21
2.302941164982442
 31
0.0
  0
LINE
  5
526
330
1F
100
AcDbEntity
  8
4
100
AcDbLine
 10
4.748467157761617
 20
6.555925328140736
 30
0.0
 11
4.936467157761618
 21
6.555925328140736
 31
0.0
  0
LINE
  5
527
330
1F
100
AcDbEntity
  8
4
100
AcDbLine
 10
4.748467157761617
 20
6.555925328140736
 30
0.0
 11
4.780467157761617
 21
6.253425328140735
 31
0.0
  0
LINE
  5
528
330
1F
100
AcDbEntity
  8
4
100
AcDbLine
 10
4.936467157761618
 20
6.555925328140736
 30
0.0
 11
4.904467157761618
 21
6.253425328140735
 31
0.0
  0
LINE
  5
529
330
1F
100
AcDbEntity
  8
4
100
AcDbLine
 10
4.780467157761617
 20
6.253425328140735
 30
0.0
 11
4.904467157761618
 21
6.253425328140735
 31
0.0
  0
LINE
  5
52A
330
1F
100
AcDbEntity
  8
4
100
AcDbLine
 10
4.765137629818316
 20
6.540925328140735
 30
0.0
 11
4.793964076099308
 21
6.268425328140736
 31
0.0
  0
LINE
  5
52B
330
1F
100
AcDbEntity
  8
4
100
AcDbLine
 10
4.793964076099308
 20
6.268425328140735
 30
0.0
 11
4.890970239423928
 21
6.268425328140736
 31
0.0
  0
LINE
  5
52C
330
1F
100
AcDbEntity
  8
4
100
AcDbLine
 10
4.919796685704919
 20
6.540925328140735
 30
0.0
 11
4.890970239423928
 21
6.268425328140736
 31
0.0
  0
LINE
  5
52D
330
1F
100
AcDbEntity
  8
4
100
AcDbLine
 10
4.765137629818316
 20
6.540925328140735
 30
0.0
 11
4.919796685704919
 21
6.540925328140735
 31
0.0
  0
LINE
  5
52E
330
1F
100
AcDbEntity
  8
4
100
AcDbLine
 10
4.857467157761617
 20
6.540925328140735
 30
0.0
 11
4.857467157761617
 21
6.493925328140735
 31
0.0
  0
LINE
  5
52F
330
1F
100
AcDbEntity
  8
4
100
AcDbLine
 10
4.857467157761617
 20
6.493925328140735
 30
0.0
 11
4.827467157761618
 21
6.493925328140735
 31
0.0
  0
LINE
  5
530
330
1F
100
AcDbEntity
  8
4
100
AcDbLine
 10
4.827467157761618
 20
6.493925328140735
 30
0.0
 11
4.827467157761618
 21
6.540925328140735
 31
0.0
  0
LWPOLYLINE
  5
531
330
1F
100
AcDbEntity
  8
4
100
AcDbPolyline
 90
        2
 70
     1
 43
0.01
 10
4.837467157761618
 20
6.321441972500132
 42
1.0
 10
4.847467157761617
 20
6.321441972500132
 42
1.0
  0
LWPOLYLINE
  5
532
330
1F
100
AcDbEntity
  8
4
100
AcDbPolyline
 90
        2
 70
     1
 43
0.01
 10
4.837467157761618
 20
6.426441972500132
 42
1.0
 10
4.847467157761617
 20
6.426441972500132
 42
1.0
  0
CIRCLE
  5
533
330
1F
100
AcDbEntity
  8
4
100
AcDbCircle
 10
4.842467157761618
 20
6.373941972500132
 30
0.0
 40
0.023
  0
LINE
  5
534
330
1F
100
AcDbEntity
  8
4
100
AcDbLine
 10
4.748467157761617
 20
5.821425328140736
 30
0.0
 11
4.936467157761618
 21
5.821425328140736
 31
0.0
  0
LINE
  5
535
330
1F
100
AcDbEntity
  8
4
100
AcDbLine
 10
4.748467157761617
 20
5.821425328140736
 30
0.0
 11
4.780467157761617
 21
5.518925328140736
 31
0.0
  0
LINE
  5
536
330
1F
100
AcDbEntity
  8
4
100
AcDbLine
 10
4.936467157761618
 20
5.821425328140736
 30
0.0
 11
4.904467157761618
 21
5.518925328140736
 31
0.0
  0
LINE
  5
537
330
1F
100
AcDbEntity
  8
4
100
AcDbLine
 10
4.780467157761617
 20
5.518925328140736
 30
0.0
 11
4.904467157761618
 21
5.518925328140736
 31
0.0
  0
LINE
  5
538
330
1F
100
AcDbEntity
  8
4
100
AcDbLine
 10
4.765137629818315
 20
5.806425328140736
 30
0.0
 11
4.793964076099308
 21
5.533925328140735
 31
0.0
  0
LINE
  5
539
330
1F
100
AcDbEntity
  8
4
100
AcDbLine
 10
4.793964076099308
 20
5.533925328140735
 30
0.0
 11
4.890970239423928
 21
5.533925328140735
 31
0.0
  0
LINE
  5
53A
330
1F
100
AcDbEntity
  8
4
100
AcDbLine
 10
4.919796685704919
 20
5.806425328140736
 30
0.0
 11
4.890970239423928
 21
5.533925328140735
 31
0.0
  0
LINE
  5
53B
330
1F
100
AcDbEntity
  8
4
100
AcDbLine
 10
4.765137629818315
 20
5.806425328140736
 30
0.0
 11
4.919796685704919
 21
5.806425328140736
 31
0.0
  0
LINE
  5
53C
330
1F
100
AcDbEntity
  8
4
100
AcDbLine
 10
4.857467157761617
 20
5.806425328140736
 30
0.0
 11
4.857467157761617
 21
5.759425328140736
 31
0.0
  0
LINE
  5
53D
330
1F
100
AcDbEntity
  8
4
100
AcDbLine
 10
4.857467157761617
 20
5.759425328140736
 30
0.0
 11
4.827467157761618
 21
5.759425328140736
 31
0.0
  0
LINE
  5
53E
330
1F
100
AcDbEntity
  8
4
100
AcDbLine
 10
4.827467157761618
 20
5.759425328140736
 30
0.0
 11
4.827467157761618
 21
5.806425328140736
 31
0.0
  0
LWPOLYLINE
  5
53F
330
1F
100
AcDbEntity
  8
4
100
AcDbPolyline
 90
        2
 70
     1
 43
0.01
 10
4.837467157761618
 20
5.586941972500133
 42
1.0
 10
4.847467157761617
 20
5.586941972500133
 42
1.0
  0
LWPOLYLINE
  5
540
330
1F
100
AcDbEntity
  8
4
100
AcDbPolyline
 90
        2
 70
     1
 43
0.01
 10
4.837467157761618
 20
5.691941972500132
 42
1.0
 10
4.847467157761617
 20
5.691941972500132
 42
1.0
  0
CIRCLE
  5
541
330
1F
100
AcDbEntity
  8
4
100
AcDbCircle
 10
4.842467157761618
 20
5.639441972500133
 30
0.0
 40
0.023
  0
LINE
  5
542
330
1F
100
AcDbEntity
  8
4
100
AcDbLine
 10
4.748467157761617
 20
4.352425328140736
 30
0.0
 11
4.936467157761618
 21
4.352425328140736
 31
0.0
  0
LINE
  5
543
330
1F
100
AcDbEntity
  8
4
100
AcDbLine
 10
4.748467157761617
 20
4.352425328140736
 30
0.0
 11
4.780467157761617
 21
4.049925328140735
 31
0.0
  0
LINE
  5
544
330
1F
100
AcDbEntity
  8
4
100
AcDbLine
 10
4.936467157761618
 20
4.352425328140736
 30
0.0
 11
4.904467157761618
 21
4.049925328140735
 31
0.0
  0
LINE
  5
545
330
1F
100
AcDbEntity
  8
4
100
AcDbLine
 10
4.780467157761617
 20
4.049925328140735
 30
0.0
 11
4.904467157761618
 21
4.049925328140735
 31
0.0
  0
LINE
  5
546
330
1F
100
AcDbEntity
  8
4
100
AcDbLine
 10
4.765137629818315
 20
4.337425328140735
 30
0.0
 11
4.793964076099308
 21
4.064925328140735
 31
0.0
  0
LINE
  5
547
330
1F
100
AcDbEntity
  8
4
100
AcDbLine
 10
4.793964076099308
 20
4.064925328140734
 30
0.0
 11
4.890970239423928
 21
4.064925328140735
 31
0.0
  0
LINE
  5
548
330
1F
100
AcDbEntity
  8
4
100
AcDbLine
 10
4.919796685704919
 20
4.337425328140735
 30
0.0
 11
4.890970239423928
 21
4.064925328140735
 31
0.0
  0
LINE
  5
549
330
1F
100
AcDbEntity
  8
4
100
AcDbLine
 10
4.765137629818315
 20
4.337425328140735
 30
0.0
 11
4.919796685704919
 21
4.337425328140735
 31
0.0
  0
LINE
  5
54A
330
1F
100
AcDbEntity
  8
4
100
AcDbLine
 10
4.857467157761617
 20
4.337425328140735
 30
0.0
 11
4.857467157761617
 21
4.290425328140734
 31
0.0
  0
LINE
  5
54B
330
1F
100
AcDbEntity
  8
4
100
AcDbLine
 10
4.857467157761617
 20
4.290425328140734
 30
0.0
 11
4.827467157761618
 21
4.290425328140734
 31
0.0
  0
LINE
  5
54C
330
1F
100
AcDbEntity
  8
4
100
AcDbLine
 10
4.827467157761618
 20
4.290425328140734
 30
0.0
 11
4.827467157761618
 21
4.337425328140735
 31
0.0
  0
LWPOLYLINE
  5
54D
330
1F
100
AcDbEntity
  8
4
100
AcDbPolyline
 90
        2
 70
     1
 43
0.01
 10
4.837467157761618
 20
4.117941972500132
 42
1.0
 10
4.847467157761617
 20
4.117941972500132
 42
1.0
  0
LWPOLYLINE
  5
54E
330
1F
100
AcDbEntity
  8
4
100
AcDbPolyline
 90
        2
 70
     1
 43
0.01
 10
4.837467157761618
 20
4.222941972500132
 42
1.0
 10
4.847467157761617
 20
4.222941972500132
 42
1.0
  0
CIRCLE
  5
54F
330
1F
100
AcDbEntity
  8
4
100
AcDbCircle
 10
4.842467157761618
 20
4.170441972500132
 30
0.0
 40
0.023
  0
CIRCLE
  5
550
330
1F
100
AcDbEntity
  8
4
100
AcDbCircle
 10
4.842467157761618
 20
4.904941972500131
 30
0.0
 40
0.023
  0
LWPOLYLINE
  5
551
330
1F
100
AcDbEntity
  8
4
100
AcDbPolyline
 90
        2
 70
     1
 43
0.01
 10
4.837467157761618
 20
4.957441972500131
 42
1.0
 10
4.847467157761617
 20
4.957441972500131
 42
1.0
  0
LWPOLYLINE
  5
552
330
1F
100
AcDbEntity
  8
4
100
AcDbPolyline
 90
        2
 70
     1
 43
0.01
 10
4.837467157761618
 20
4.852441972500131
 42
1.0
 10
4.847467157761617
 20
4.852441972500131
 42
1.0
  0
INSERT
  5
553
330
1F
100
AcDbEntity
  8
8
100
AcDbBlockReference
  2
TEMP3
 10
4.221144984821483
 20
5.107721031226839
 30
0.0
  0
LINE
  5
554
330
1F
100
AcDbEntity
  8
4
100
AcDbLine
 10
4.827467157761618
 20
5.024925328140735
 30
0.0
 11
4.827467157761618
 21
5.071925328140735
 31
0.0
  0
LINE
  5
555
330
1F
100
AcDbEntity
  8
4
100
AcDbLine
 10
4.857467157761617
 20
5.024925328140735
 30
0.0
 11
4.827467157761618
 21
5.024925328140735
 31
0.0
  0
LINE
  5
556
330
1F
100
AcDbEntity
  8
4
100
AcDbLine
 10
4.857467157761617
 20
5.071925328140735
 30
0.0
 11
4.857467157761617
 21
5.024925328140735
 31
0.0
  0
LINE
  5
557
330
1F
100
AcDbEntity
  8
4
100
AcDbLine
 10
4.765137629818315
 20
5.071925328140735
 30
0.0
 11
4.919796685704919
 21
5.071925328140735
 31
0.0
  0
LINE
  5
558
330
1F
100
AcDbEntity
  8
4
100
AcDbLine
 10
4.919796685704919
 20
5.071925328140735
 30
0.0
 11
4.890970239423928
 21
4.799425328140735
 31
0.0
  0
LINE
  5
559
330
1F
100
AcDbEntity
  8
4
100
AcDbLine
 10
4.793964076099308
 20
4.799425328140735
 30
0.0
 11
4.890970239423928
 21
4.799425328140735
 31
0.0
  0
LINE
  5
55A
330
1F
100
AcDbEntity
  8
4
100
AcDbLine
 10
4.765137629818315
 20
5.071925328140735
 30
0.0
 11
4.793964076099308
 21
4.799425328140735
 31
0.0
  0
LINE
  5
55B
330
1F
100
AcDbEntity
  8
4
100
AcDbLine
 10
4.780467157761617
 20
4.784425328140734
 30
0.0
 11
4.904467157761618
 21
4.784425328140734
 31
0.0
  0
LINE
  5
55C
330
1F
100
AcDbEntity
  8
4
100
AcDbLine
 10
4.748467157761617
 20
5.086925328140734
 30
0.0
 11
4.780467157761617
 21
4.784425328140734
 31
0.0
  0
LINE
  5
55D
330
1F
100
AcDbEntity
  8
4
100
AcDbLine
 10
4.936467157761618
 20
5.086925328140734
 30
0.0
 11
4.904467157761618
 21
4.784425328140734
 31
0.0
  0
LINE
  5
55E
330
1F
100
AcDbEntity
  8
4
100
AcDbLine
 10
4.748467157761617
 20
5.086925328140734
 30
0.0
 11
4.936467157761618
 21
5.086925328140734
 31
0.0
  0
LINE
  5
55F
330
1F
100
AcDbEntity
  8
4
100
AcDbLine
 10
4.596144984821483
 20
5.04572103122684
 30
0.0
 11
4.221144984821483
 21
5.04572103122684
 31
0.0
  0
LINE
  5
560
330
1F
100
AcDbEntity
  8
4
100
AcDbLine
 10
4.221144984821483
 20
5.04572103122684
 30
0.0
 11
4.221144984821483
 21
5.107721031226839
 31
0.0
  0
LINE
  5
561
330
1F
100
AcDbEntity
  8
4
100
AcDbLine
 10
4.596144984821483
 20
4.905278094379795
 30
0.0
 11
4.221144984821483
 21
4.905278094379795
 31
0.0
  0
LINE
  5
562
330
1F
100
AcDbEntity
  8
4
100
AcDbLine
 10
4.221144984821483
 20
4.905278094379795
 30
0.0
 11
4.221144984821483
 21
4.843278094379795
 31
0.0
  0
INSERT
  5
563
330
1F
100
AcDbEntity
  8
4
100
AcDbBlockReference
  2
ARRO
 10
4.596144984821483
 20
5.04572103122684
 30
0.0
 50
180.0
  0
INSERT
  5
564
330
1F
100
AcDbEntity
  8
4
100
AcDbBlockReference
  2
ARRO
 10
4.596144984821483
 20
4.905278094379795
 30
0.0
 50
180.0
  0
LINE
  5
565
330
1F
100
AcDbEntity
  8
4
100
AcDbLine
 10
11.25089574375121
 20
4.505447043539573
 30
0.0
 11
11.25089574375121
 21
3.896941164982443
 31
0.0
  0
LINE
  5
566
330
1F
100
AcDbEntity
  8
4
100
AcDbLine
 10
9.969895743751205
 20
4.505447043539573
 30
0.0
 11
9.969895743751205
 21
3.896941164982443
 31
0.0
  0
LINE
  5
567
330
1F
100
AcDbEntity
  8
4
100
AcDbLine
 10
8.659895743751206
 20
4.505447043539573
 30
0.0
 11
8.659895743751206
 21
3.896941164982443
 31
0.0
  0
INSERT
  5
568
330
1F
100
AcDbEntity
  8
4
100
AcDbBlockReference
  2
ARRO2
 10
8.406895743751208
 20
4.599447043539573
 30
0.0
 50
90.0
  0
LINE
  5
569
330
1F
100
AcDbEntity
  8
4
100
AcDbLine
 10
11.2508957437512
 20
4.505447043539573
 30
0.0
 11
11.18889574375121
 21
4.505447043539573
 31
0.0
  0
LINE
  5
56A
330
1F
100
AcDbEntity
  8
4
100
AcDbLine
 10
11.2508957437512
 20
4.63140288964893
 30
0.0
 11
11.18889574375121
 21
4.63140288964893
 31
0.0
  0
LINE
  5
56B
330
1F
100
AcDbEntity
  8
4
100
AcDbLine
 10
11.1128957437512
 20
4.599447043539573
 30
0.0
 11
10.64589574375121
 21
4.599447043539573
 31
0.0
  0
LINE
  5
56C
330
1F
100
AcDbEntity
  8
4
100
AcDbLine
 10
11.18889574375121
 20
4.537447043539573
 30
0.0
 11
11.25089574375121
 21
4.537447043539573
 31
0.0
  0
LINE
  5
56D
330
1F
100
AcDbEntity
  8
4
100
AcDbLine
 10
11.25089574375121
 20
4.537447043539573
 30
0.0
 11
11.25089574375121
 21
4.599447043539573
 31
0.0
  0
LINE
  5
56E
330
1F
100
AcDbEntity
  8
4
100
AcDbLine
 10
11.25089574375121
 20
4.599447043539573
 30
0.0
 11
11.14289574375121
 21
4.599447043539573
 31
0.0
  0
LINE
  5
56F
330
1F
100
AcDbEntity
  8
4
100
AcDbLine
 10
10.64589574375121
 20
4.599447043539573
 30
0.0
 11
10.64589574375121
 21
4.537447043539573
 31
0.0
  0
LINE
  5
570
330
1F
100
AcDbEntity
  8
4
100
AcDbLine
 10
10.68589574375121
 20
4.599447043539573
 30
0.0
 11
10.68589574375121
 21
4.537447043539573
 31
0.0
  0
LINE
  5
571
330
1F
100
AcDbEntity
  8
4
100
AcDbLine
 10
10.68589574375121
 20
4.537447043539573
 30
0.0
 11
11.05089574375121
 21
4.537447043539573
 31
0.0
  0
LINE
  5
572
330
1F
100
AcDbEntity
  8
4
100
AcDbLine
 10
11.05089574375121
 20
4.537447043539573
 30
0.0
 11
11.1128957437512
 21
4.599447043539573
 31
0.0
  0
LINE
  5
573
330
1F
100
AcDbEntity
  8
4
100
AcDbLine
 10
11.2258957437512
 20
4.584447043539572
 30
0.0
 11
11.2258957437512
 21
4.556200901102013
 31
0.0
  0
LINE
  5
574
330
1F
100
AcDbEntity
  8
4
100
AcDbLine
 10
11.12789574375121
 20
4.584447043539572
 30
0.0
 11
11.2258957437512
 21
4.584447043539572
 31
0.0
  0
LINE
  5
575
330
1F
100
AcDbEntity
  8
4
100
AcDbLine
 10
11.1128957437512
 20
4.599447043539573
 30
0.0
 11
11.12789574375121
 21
4.584447043539572
 31
0.0
  0
LINE
  5
576
330
1F
100
AcDbEntity
  8
4
100
AcDbLine
 10
10.1078957437512
 20
4.599447043539573
 30
0.0
 11
10.0928957437512
 21
4.584447043539572
 31
0.0
  0
LINE
  5
577
330
1F
100
AcDbEntity
  8
4
100
AcDbLine
 10
10.0928957437512
 20
4.584447043539572
 30
0.0
 11
9.994895743751207
 21
4.584447043539572
 31
0.0
  0
LINE
  5
578
330
1F
100
AcDbEntity
  8
4
100
AcDbLine
 10
9.994895743751207
 20
4.584447043539572
 30
0.0
 11
9.994895743751207
 21
4.556200901102013
 31
0.0
  0
LINE
  5
579
330
1F
100
AcDbEntity
  8
4
100
AcDbLine
 10
10.1698957437512
 20
4.537447043539573
 30
0.0
 11
10.1078957437512
 21
4.599447043539573
 31
0.0
  0
LINE
  5
57A
330
1F
100
AcDbEntity
  8
4
100
AcDbLine
 10
10.5348957437512
 20
4.537447043539573
 30
0.0
 11
10.1698957437512
 21
4.537447043539573
 31
0.0
  0
LINE
  5
57B
330
1F
100
AcDbEntity
  8
4
100
AcDbLine
 10
10.5348957437512
 20
4.599447043539573
 30
0.0
 11
10.5348957437512
 21
4.537447043539573
 31
0.0
  0
LINE
  5
57C
330
1F
100
AcDbEntity
  8
4
100
AcDbLine
 10
10.5748957437512
 20
4.599447043539573
 30
0.0
 11
10.5748957437512
 21
4.537447043539573
 31
0.0
  0
LINE
  5
57D
330
1F
100
AcDbEntity
  8
4
100
AcDbLine
 10
9.969895743751205
 20
4.599447043539573
 30
0.0
 11
10.0778957437512
 21
4.599447043539573
 31
0.0
  0
LINE
  5
57E
330
1F
100
AcDbEntity
  8
4
100
AcDbLine
 10
9.969895743751205
 20
4.537447043539573
 30
0.0
 11
9.969895743751205
 21
4.599447043539573
 31
0.0
  0
LINE
  5
57F
330
1F
100
AcDbEntity
  8
4
100
AcDbLine
 10
10.0318957437512
 20
4.537447043539573
 30
0.0
 11
9.969895743751205
 21
4.537447043539573
 31
0.0
  0
LINE
  5
580
330
1F
100
AcDbEntity
  8
4
100
AcDbLine
 10
10.1078957437512
 20
4.599447043539573
 30
0.0
 11
10.5748957437512
 21
4.599447043539573
 31
0.0
  0
LINE
  5
581
330
1F
100
AcDbEntity
  8
4
100
AcDbLine
 10
9.969895743751207
 20
4.63140288964893
 30
0.0
 11
10.0318957437512
 21
4.63140288964893
 31
0.0
  0
LINE
  5
582
330
1F
100
AcDbEntity
  8
4
100
AcDbLine
 10
9.969895743751207
 20
4.505447043539573
 30
0.0
 11
10.0318957437512
 21
4.505447043539573
 31
0.0
  0
LINE
  5
583
330
1F
100
AcDbEntity
  8
4
100
AcDbLine
 10
8.596895743751208
 20
4.599447043539573
 30
0.0
 11
8.406895743751208
 21
4.599447043539573
 31
0.0
  0
LINE
  5
584
330
1F
100
AcDbEntity
  8
4
100
AcDbLine
 10
8.406895743751208
 20
4.599447043539573
 30
0.0
 11
8.344895743751209
 21
4.599447043539573
 31
0.0
  0
LINE
  5
585
330
1F
100
AcDbEntity
  8
4
100
AcDbLine
 10
8.659895743751208
 20
4.505447043539573
 30
0.0
 11
8.721895743751208
 21
4.505447043539573
 31
0.0
  0
LINE
  5
586
330
1F
100
AcDbEntity
  8
4
100
AcDbLine
 10
8.659895743751208
 20
4.63140288964893
 30
0.0
 11
8.721895743751208
 21
4.63140288964893
 31
0.0
  0
LINE
  5
587
330
1F
100
AcDbEntity
  8
4
100
AcDbLine
 10
8.797895743751208
 20
4.599447043539573
 30
0.0
 11
9.264895743751207
 21
4.599447043539573
 31
0.0
  0
LINE
  5
588
330
1F
100
AcDbEntity
  8
4
100
AcDbLine
 10
8.721895743751208
 20
4.537447043539573
 30
0.0
 11
8.659895743751206
 21
4.537447043539573
 31
0.0
  0
LINE
  5
589
330
1F
100
AcDbEntity
  8
4
100
AcDbLine
 10
8.659895743751206
 20
4.537447043539573
 30
0.0
 11
8.659895743751206
 21
4.599447043539573
 31
0.0
  0
LINE
  5
58A
330
1F
100
AcDbEntity
  8
4
100
AcDbLine
 10
8.659895743751206
 20
4.599447043539573
 30
0.0
 11
8.767895743751207
 21
4.599447043539573
 31
0.0
  0
LINE
  5
58B
330
1F
100
AcDbEntity
  8
4
100
AcDbLine
 10
9.264895743751207
 20
4.599447043539573
 30
0.0
 11
9.264895743751207
 21
4.537447043539573
 31
0.0
  0
LINE
  5
58C
330
1F
100
AcDbEntity
  8
4
100
AcDbLine
 10
9.224895743751208
 20
4.599447043539573
 30
0.0
 11
9.224895743751208
 21
4.537447043539573
 31
0.0
  0
LINE
  5
58D
330
1F
100
AcDbEntity
  8
4
100
AcDbLine
 10
9.224895743751208
 20
4.537447043539573
 30
0.0
 11
8.859895743751208
 21
4.537447043539573
 31
0.0
  0
LINE
  5
58E
330
1F
100
AcDbEntity
  8
4
100
AcDbLine
 10
8.859895743751208
 20
4.537447043539573
 30
0.0
 11
8.797895743751208
 21
4.599447043539573
 31
0.0
  0
LINE
  5
58F
330
1F
100
AcDbEntity
  8
4
100
AcDbLine
 10
8.684895743751209
 20
4.584447043539572
 30
0.0
 11
8.684895743751209
 21
4.556200901102013
 31
0.0
  0
LINE
  5
590
330
1F
100
AcDbEntity
  8
4
100
AcDbLine
 10
8.782895743751208
 20
4.584447043539572
 30
0.0
 11
8.684895743751209
 21
4.584447043539572
 31
0.0
  0
LINE
  5
591
330
1F
100
AcDbEntity
  8
4
100
AcDbLine
 10
8.797895743751208
 20
4.599447043539573
 30
0.0
 11
8.782895743751208
 21
4.584447043539572
 31
0.0
  0
LINE
  5
592
330
1F
100
AcDbEntity
  8
4
100
AcDbLine
 10
4.688395743751207
 20
3.896902889648929
 30
0.0
 11
4.688395743751207
 21
4.505447043539572
 31
0.0
  0
LINE
  5
593
330
1F
100
AcDbEntity
  8
4
100
AcDbLine
 10
4.688395743751207
 20
4.505447043539572
 30
0.0
 11
5.125395743751207
 21
4.505447043539572
 31
0.0
  0
LINE
  5
594
330
1F
100
AcDbEntity
  8
4
100
AcDbLine
 10
5.125395743751207
 20
4.505447043539572
 30
0.0
 11
5.125395743751206
 21
3.896902889648929
 31
0.0
  0
LINE
  5
595
330
1F
100
AcDbEntity
  8
4
100
AcDbLine
 10
5.125395743751206
 20
3.896902889648929
 30
0.0
 11
4.688395743751207
 21
3.896902889648929
 31
0.0
  0
LINE
  5
596
330
1F
100
AcDbEntity
  8
4
100
AcDbLine
 10
5.135395743751207
 20
4.380447043539572
 30
0.0
 11
5.135395743751207
 21
4.255447043539572
 31
0.0
  0
LINE
  5
597
330
1F
100
AcDbEntity
  8
4
100
AcDbLine
 10
5.135395743751207
 20
4.14590288964893
 30
0.0
 11
5.135395743751207
 21
4.02090288964893
 31
0.0
  0
LINE
  5
598
330
1F
100
AcDbEntity
  8
4
100
AcDbLine
 10
6.531395743751207
 20
4.537447043539573
 30
0.0
 11
7.032395743751206
 21
4.537447043539573
 31
0.0
  0
LINE
  5
599
330
1F
100
AcDbEntity
  8
4
100
AcDbLine
 10
6.531395743751207
 20
4.599447043539573
 30
0.0
 11
7.032395743751206
 21
4.599447043539573
 31
0.0
  0
LINE
  5
59A
330
1F
100
AcDbEntity
  8
4
100
AcDbLine
 10
6.219395743751206
 20
4.599447043539573
 30
0.0
 11
6.407395743751206
 21
4.599447043539573
 31
0.0
  0
LINE
  5
59B
330
1F
100
AcDbEntity
  8
4
100
AcDbLine
 10
6.219395743751206
 20
4.537447043539573
 30
0.0
 11
6.407395743751206
 21
4.537447043539573
 31
0.0
  0
LINE
  5
59C
330
1F
100
AcDbEntity
  8
4
100
AcDbLine
 10
5.906395743751207
 20
4.537447043539573
 30
0.0
 11
6.094395743751206
 21
4.537447043539573
 31
0.0
  0
LINE
  5
59D
330
1F
100
AcDbEntity
  8
4
100
AcDbLine
 10
5.906395743751207
 20
4.599447043539573
 30
0.0
 11
6.106591774578188
 21
4.599447043539573
 31
0.0
  0
LINE
  5
59E
330
1F
100
AcDbEntity
  8
4
100
AcDbLine
 10
5.281395743751207
 20
4.599447043539573
 30
0.0
 11
5.782395743751206
 21
4.599447043539573
 31
0.0
  0
LINE
  5
59F
330
1F
100
AcDbEntity
  8
4
100
AcDbLine
 10
5.281395743751207
 20
4.537447043539573
 30
0.0
 11
5.782395743751206
 21
4.537447043539573
 31
0.0
  0
LINE
  5
5A0
330
1F
100
AcDbEntity
  8
4
100
AcDbLine
 10
5.135395743751207
 20
4.880402889648929
 30
0.0
 11
5.135395743751207
 21
4.755402889648929
 31
0.0
  0
LINE
  5
5A1
330
1F
100
AcDbEntity
  8
4
100
AcDbLine
 10
5.135395743751207
 20
5.114947043539572
 30
0.0
 11
5.135395743751207
 21
4.989947043539572
 31
0.0
  0
LINE
  5
5A2
330
1F
100
AcDbEntity
  8
4
100
AcDbLine
 10
5.125395743751206
 20
4.63140288964893
 30
0.0
 11
4.688395743751207
 21
4.631402889648929
 31
0.0
  0
LINE
  5
5A3
330
1F
100
AcDbEntity
  8
4
100
AcDbLine
 10
5.125395743751207
 20
5.239947043539572
 30
0.0
 11
5.125395743751206
 21
4.63140288964893
 31
0.0
  0
LINE
  5
5A4
330
1F
100
AcDbEntity
  8
4
100
AcDbLine
 10
4.688395743751207
 20
5.239947043539572
 30
0.0
 11
5.125395743751207
 21
5.239947043539572
 31
0.0
  0
LINE
  5
5A5
330
1F
100
AcDbEntity
  8
4
100
AcDbLine
 10
4.688395743751207
 20
4.631402889648929
 30
0.0
 11
4.688395743751207
 21
5.239947043539572
 31
0.0
  0
LINE
  5
5A6
330
1F
100
AcDbEntity
  8
4
100
AcDbLine
 10
4.656395743751207
 20
4.537447043539573
 30
0.0
 11
5.157395743751206
 21
4.537447043539573
 31
0.0
  0
LINE
  5
5A7
330
1F
100
AcDbEntity
  8
4
100
AcDbLine
 10
4.656395743751207
 20
4.599447043539573
 30
0.0
 11
5.157395743751206
 21
4.599447043539573
 31
0.0
  0
LINE
  5
5A8
330
1F
100
AcDbEntity
  8
4
100
AcDbLine
 10
6.531395743751207
 20
5.271947043539572
 30
0.0
 11
7.032395743751206
 21
5.271947043539572
 31
0.0
  0
LINE
  5
5A9
330
1F
100
AcDbEntity
  8
4
100
AcDbLine
 10
6.531395743751207
 20
5.333947043539573
 30
0.0
 11
7.032395743751206
 21
5.333947043539573
 31
0.0
  0
LINE
  5
5AA
330
1F
100
AcDbEntity
  8
4
100
AcDbLine
 10
6.219395743751206
 20
5.333947043539573
 30
0.0
 11
6.407395743751206
 21
5.333947043539573
 31
0.0
  0
LINE
  5
5AB
330
1F
100
AcDbEntity
  8
4
100
AcDbLine
 10
6.219395743751206
 20
5.271947043539572
 30
0.0
 11
6.407395743751206
 21
5.271947043539572
 31
0.0
  0
LINE
  5
5AC
330
1F
100
AcDbEntity
  8
4
100
AcDbLine
 10
5.906395743751207
 20
5.271947043539572
 30
0.0
 11
6.094395743751206
 21
5.271947043539572
 31
0.0
  0
LINE
  5
5AD
330
1F
100
AcDbEntity
  8
4
100
AcDbLine
 10
5.906395743751207
 20
5.333947043539573
 30
0.0
 11
6.068364044505655
 21
5.333947043539573
 31
0.0
  0
LINE
  5
5AE
330
1F
100
AcDbEntity
  8
4
100
AcDbLine
 10
5.281395743751207
 20
5.333947043539573
 30
0.0
 11
5.782395743751206
 21
5.333947043539573
 31
0.0
  0
LINE
  5
5AF
330
1F
100
AcDbEntity
  8
4
100
AcDbLine
 10
5.281395743751207
 20
5.271947043539572
 30
0.0
 11
5.782395743751206
 21
5.271947043539572
 31
0.0
  0
LINE
  5
5B0
330
1F
100
AcDbEntity
  8
4
100
AcDbLine
 10
5.135395743751207
 20
5.614902889648929
 30
0.0
 11
5.135395743751207
 21
5.489902889648929
 31
0.0
  0
LINE
  5
5B1
330
1F
100
AcDbEntity
  8
4
100
AcDbLine
 10
5.135395743751207
 20
5.849447043539573
 30
0.0
 11
5.135395743751207
 21
5.724447043539573
 31
0.0
  0
LINE
  5
5B2
330
1F
100
AcDbEntity
  8
4
100
AcDbLine
 10
5.125395743751206
 20
5.365902889648929
 30
0.0
 11
4.688395743751207
 21
5.365902889648928
 31
0.0
  0
LINE
  5
5B3
330
1F
100
AcDbEntity
  8
4
100
AcDbLine
 10
5.125395743751207
 20
5.974447043539573
 30
0.0
 11
5.125395743751206
 21
5.365902889648929
 31
0.0
  0
LINE
  5
5B4
330
1F
100
AcDbEntity
  8
4
100
AcDbLine
 10
4.688395743751207
 20
5.974447043539573
 30
0.0
 11
5.125395743751207
 21
5.974447043539573
 31
0.0
  0
LINE
  5
5B5
330
1F
100
AcDbEntity
  8
4
100
AcDbLine
 10
4.688395743751207
 20
5.365902889648928
 30
0.0
 11
4.688395743751207
 21
5.974447043539573
 31
0.0
  0
LINE
  5
5B6
330
1F
100
AcDbEntity
  8
4
100
AcDbLine
 10
4.656395743751207
 20
5.271947043539572
 30
0.0
 11
5.157395743751206
 21
5.271947043539572
 31
0.0
  0
LINE
  5
5B7
330
1F
100
AcDbEntity
  8
4
100
AcDbLine
 10
4.656395743751207
 20
5.333947043539573
 30
0.0
 11
5.157395743751206
 21
5.333947043539573
 31
0.0
  0
INSERT
  5
5B8
330
1F
100
AcDbEntity
  8
8
100
AcDbBlockReference
  2
TEMP2
 10
8.406895743751206
 20
3.864941164982442
 30
0.0
  0
TEXT
  5
5B9
330
1F
100
AcDbEntity
  8
8
100
AcDbText
 10
5.981300505655969
 20
2.396941164982442
 30
0.0
 40
0.125
  1
QUIET LOCKER -     " FOUR TIER
  7
ROMANS
 72
     1
 11
7.719395743751206
 21
2.396941164982442
 31
0.0
100
AcDbText
  0
LINE
  5
5BA
330
1F
100
AcDbEntity
  8
8
100
AcDbLine
 10
7.738341621913471
 20
2.373081714538965
 30
0.0
 11
8.238341621913471
 21
2.373081714538965
 31
0.0
  0
LINE
  5
5BB
330
1F
100
AcDbEntity
  8
4
100
AcDbLine
 10
8.406895743751206
 20
3.802941164982442
 30
0.0
 11
8.406895743751206
 21
3.677941164982442
 31
0.0
  0
LINE
  5
5BC
330
1F
100
AcDbEntity
  8
4
100
AcDbLine
 10
8.596895743751208
 20
3.864941164982442
 30
0.0
 11
8.406895743751206
 21
3.864941164982442
 31
0.0
  0
LINE
  5
5BD
330
1F
100
AcDbEntity
  8
4
100
AcDbLine
 10
8.406895743751206
 20
3.864941164982442
 30
0.0
 11
8.344895743751205
 21
3.864941164982442
 31
0.0
  0
INSERT
  5
5BE
330
1F
100
AcDbEntity
  8
4
100
AcDbBlockReference
  2
ARRO
 10
8.406895743751206
 20
3.864941164982442
 30
0.0
 50
90.0
  0
INSERT
  5
5BF
330
1F
100
AcDbEntity
  8
4
100
AcDbBlockReference
  2
ARRO
 10
8.406895743751206
 20
3.802941164982442
 30
0.0
 50
270.0
  0
LINE
  5
5C0
330
1F
100
AcDbEntity
  8
4
100
AcDbLine
 10
8.659895743751206
 20
3.896941164982443
 30
0.0
 11
8.721895743751208
 21
3.896941164982443
 31
0.0
  0
LINE
  5
5C1
330
1F
100
AcDbEntity
  8
4
100
AcDbLine
 10
9.969895743751205
 20
3.896941164982443
 30
0.0
 11
10.0318957437512
 21
3.896941164982443
 31
0.0
  0
LINE
  5
5C2
330
1F
100
AcDbEntity
  8
4
100
AcDbLine
 10
11.21889574375121
 20
3.896941164982443
 30
0.0
 11
11.1568957437512
 21
3.896941164982443
 31
0.0
  0
LINE
  5
5C3
330
1F
100
AcDbEntity
  8
4
100
AcDbLine
 10
11.25089574375121
 20
5.239947043539572
 30
0.0
 11
11.25089574375121
 21
4.63140288964893
 31
0.0
  0
LINE
  5
5C4
330
1F
100
AcDbEntity
  8
4
100
AcDbLine
 10
9.969895743751205
 20
5.239947043539572
 30
0.0
 11
9.969895743751205
 21
4.63140288964893
 31
0.0
  0
LINE
  5
5C5
330
1F
100
AcDbEntity
  8
4
100
AcDbLine
 10
8.659895743751206
 20
5.239947043539572
 30
0.0
 11
8.659895743751206
 21
4.63140288964893
 31
0.0
  0
LINE
  5
5C6
330
1F
100
AcDbEntity
  8
4
100
AcDbLine
 10
8.406895743751206
 20
6.802941164982442
 30
0.0
 11
8.406895743751206
 21
3.864941164982442
 31
0.0
  0
LINE
  5
5C7
330
1F
100
AcDbEntity
  8
4
100
AcDbLine
 10
9.969895743751205
 20
5.974447043539573
 30
0.0
 11
10.0318957437512
 21
5.974447043539573
 31
0.0
  0
LINE
  5
5C8
330
1F
100
AcDbEntity
  8
4
100
AcDbLine
 10
11.18889574375121
 20
5.974447043539573
 30
0.0
 11
11.2508957437512
 21
5.974447043539573
 31
0.0
  0
LINE
  5
5C9
330
1F
100
AcDbEntity
  8
4
100
AcDbLine
 10
11.18889574375121
 20
6.100402889648929
 30
0.0
 11
11.2508957437512
 21
6.100402889648929
 31
0.0
  0
LINE
  5
5CA
330
1F
100
AcDbEntity
  8
4
100
AcDbLine
 10
9.969895743751205
 20
6.100402889648929
 30
0.0
 11
10.0318957437512
 21
6.100402889648929
 31
0.0
  0
LINE
  5
5CB
330
1F
100
AcDbEntity
  8
4
100
AcDbLine
 10
8.659895743751206
 20
5.974447043539573
 30
0.0
 11
8.721895743751208
 21
5.974447043539573
 31
0.0
  0
LINE
  5
5CC
330
1F
100
AcDbEntity
  8
4
100
AcDbLine
 10
8.659895743751206
 20
6.10040288964893
 30
0.0
 11
8.721895743751208
 21
6.10040288964893
 31
0.0
  0
LINE
  5
5CD
330
1F
100
AcDbEntity
  8
4
100
AcDbLine
 10
11.1128957437512
 20
6.068447043539573
 30
0.0
 11
10.64589574375121
 21
6.068447043539573
 31
0.0
  0
LINE
  5
5CE
330
1F
100
AcDbEntity
  8
4
100
AcDbLine
 10
11.18889574375121
 20
6.006447043539573
 30
0.0
 11
11.25089574375121
 21
6.006447043539573
 31
0.0
  0
LINE
  5
5CF
330
1F
100
AcDbEntity
  8
4
100
AcDbLine
 10
11.25089574375121
 20
6.006447043539573
 30
0.0
 11
11.25089574375121
 21
6.068447043539573
 31
0.0
  0
LINE
  5
5D0
330
1F
100
AcDbEntity
  8
4
100
AcDbLine
 10
11.25089574375121
 20
6.068447043539573
 30
0.0
 11
11.14289574375121
 21
6.068447043539573
 31
0.0
  0
LINE
  5
5D1
330
1F
100
AcDbEntity
  8
4
100
AcDbLine
 10
10.64589574375121
 20
6.068447043539573
 30
0.0
 11
10.64589574375121
 21
6.006447043539573
 31
0.0
  0
LINE
  5
5D2
330
1F
100
AcDbEntity
  8
4
100
AcDbLine
 10
10.68589574375121
 20
6.068447043539573
 30
0.0
 11
10.68589574375121
 21
6.006447043539573
 31
0.0
  0
LINE
  5
5D3
330
1F
100
AcDbEntity
  8
4
100
AcDbLine
 10
10.68589574375121
 20
6.006447043539573
 30
0.0
 11
11.05089574375121
 21
6.006447043539573
 31
0.0
  0
LINE
  5
5D4
330
1F
100
AcDbEntity
  8
4
100
AcDbLine
 10
11.05089574375121
 20
6.006447043539573
 30
0.0
 11
11.1128957437512
 21
6.068447043539573
 31
0.0
  0
LINE
  5
5D5
330
1F
100
AcDbEntity
  8
4
100
AcDbLine
 10
11.22589574375121
 20
6.053447043539573
 30
0.0
 11
11.22589574375121
 21
6.025200901102013
 31
0.0
  0
LINE
  5
5D6
330
1F
100
AcDbEntity
  8
4
100
AcDbLine
 10
11.12789574375121
 20
6.053447043539573
 30
0.0
 11
11.22589574375121
 21
6.053447043539573
 31
0.0
  0
LINE
  5
5D7
330
1F
100
AcDbEntity
  8
4
100
AcDbLine
 10
11.1128957437512
 20
6.068447043539573
 30
0.0
 11
11.12789574375121
 21
6.053447043539573
 31
0.0
  0
LINE
  5
5D8
330
1F
100
AcDbEntity
  8
4
100
AcDbLine
 10
10.1078957437512
 20
6.068447043539573
 30
0.0
 11
10.0928957437512
 21
6.053447043539573
 31
0.0
  0
LINE
  5
5D9
330
1F
100
AcDbEntity
  8
4
100
AcDbLine
 10
10.0928957437512
 20
6.053447043539573
 30
0.0
 11
9.994895743751206
 21
6.053447043539573
 31
0.0
  0
LINE
  5
5DA
330
1F
100
AcDbEntity
  8
4
100
AcDbLine
 10
9.994895743751206
 20
6.053447043539573
 30
0.0
 11
9.994895743751206
 21
6.025200901102013
 31
0.0
  0
LINE
  5
5DB
330
1F
100
AcDbEntity
  8
4
100
AcDbLine
 10
10.1698957437512
 20
6.006447043539573
 30
0.0
 11
10.1078957437512
 21
6.068447043539573
 31
0.0
  0
LINE
  5
5DC
330
1F
100
AcDbEntity
  8
4
100
AcDbLine
 10
10.5348957437512
 20
6.006447043539573
 30
0.0
 11
10.1698957437512
 21
6.006447043539573
 31
0.0
  0
LINE
  5
5DD
330
1F
100
AcDbEntity
  8
4
100
AcDbLine
 10
10.5348957437512
 20
6.068447043539573
 30
0.0
 11
10.5348957437512
 21
6.006447043539573
 31
0.0
  0
LINE
  5
5DE
330
1F
100
AcDbEntity
  8
4
100
AcDbLine
 10
10.5748957437512
 20
6.068447043539573
 30
0.0
 11
10.5748957437512
 21
6.006447043539573
 31
0.0
  0
LINE
  5
5DF
330
1F
100
AcDbEntity
  8
4
100
AcDbLine
 10
9.969895743751205
 20
6.068447043539573
 30
0.0
 11
10.0778957437512
 21
6.068447043539573
 31
0.0
  0
LINE
  5
5E0
330
1F
100
AcDbEntity
  8
4
100
AcDbLine
 10
9.969895743751205
 20
6.006447043539573
 30
0.0
 11
9.969895743751205
 21
6.068447043539573
 31
0.0
  0
LINE
  5
5E1
330
1F
100
AcDbEntity
  8
4
100
AcDbLine
 10
10.0318957437512
 20
6.006447043539573
 30
0.0
 11
9.969895743751205
 21
6.006447043539573
 31
0.0
  0
LINE
  5
5E2
330
1F
100
AcDbEntity
  8
4
100
AcDbLine
 10
10.1078957437512
 20
6.068447043539573
 30
0.0
 11
10.5748957437512
 21
6.068447043539573
 31
0.0
  0
LINE
  5
5E3
330
1F
100
AcDbEntity
  8
4
100
AcDbLine
 10
8.797895743751206
 20
6.068447043539573
 30
0.0
 11
9.264895743751207
 21
6.068447043539573
 31
0.0
  0
LINE
  5
5E4
330
1F
100
AcDbEntity
  8
4
100
AcDbLine
 10
8.721895743751208
 20
6.006447043539573
 30
0.0
 11
8.659895743751206
 21
6.006447043539573
 31
0.0
  0
LINE
  5
5E5
330
1F
100
AcDbEntity
  8
4
100
AcDbLine
 10
8.659895743751206
 20
6.006447043539573
 30
0.0
 11
8.659895743751206
 21
6.068447043539573
 31
0.0
  0
LINE
  5
5E6
330
1F
100
AcDbEntity
  8
4
100
AcDbLine
 10
8.659895743751206
 20
6.068447043539573
 30
0.0
 11
8.767895743751207
 21
6.068447043539573
 31
0.0
  0
LINE
  5
5E7
330
1F
100
AcDbEntity
  8
4
100
AcDbLine
 10
9.264895743751207
 20
6.068447043539573
 30
0.0
 11
9.264895743751207
 21
6.006447043539573
 31
0.0
  0
LINE
  5
5E8
330
1F
100
AcDbEntity
  8
4
100
AcDbLine
 10
9.224895743751208
 20
6.068447043539573
 30
0.0
 11
9.224895743751208
 21
6.006447043539573
 31
0.0
  0
LINE
  5
5E9
330
1F
100
AcDbEntity
  8
4
100
AcDbLine
 10
9.224895743751208
 20
6.006447043539573
 30
0.0
 11
8.859895743751206
 21
6.006447043539573
 31
0.0
  0
LINE
  5
5EA
330
1F
100
AcDbEntity
  8
4
100
AcDbLine
 10
8.859895743751206
 20
6.006447043539573
 30
0.0
 11
8.797895743751206
 21
6.068447043539573
 31
0.0
  0
LINE
  5
5EB
330
1F
100
AcDbEntity
  8
4
100
AcDbLine
 10
8.684895743751207
 20
6.053447043539573
 30
0.0
 11
8.684895743751207
 21
6.025200901102013
 31
0.0
  0
LINE
  5
5EC
330
1F
100
AcDbEntity
  8
4
100
AcDbLine
 10
8.782895743751208
 20
6.053447043539573
 30
0.0
 11
8.684895743751207
 21
6.053447043539573
 31
0.0
  0
LINE
  5
5ED
330
1F
100
AcDbEntity
  8
4
100
AcDbLine
 10
8.797895743751206
 20
6.068447043539573
 30
0.0
 11
8.782895743751208
 21
6.053447043539573
 31
0.0
  0
INSERT
  5
5EE
330
1F
100
AcDbEntity
  8
4
100
AcDbBlockReference
  2
ARRO
 10
8.406895743751206
 20
6.802941164982442
 30
0.0
 50
270.0
  0
LINE
  5
5EF
330
1F
100
AcDbEntity
  8
4
100
AcDbLine
 10
8.596895743751208
 20
6.068447043539573
 30
0.0
 11
8.406895743751206
 21
6.068447043539573
 31
0.0
  0
LINE
  5
5F0
330
1F
100
AcDbEntity
  8
4
100
AcDbLine
 10
8.406895743751206
 20
6.068447043539573
 30
0.0
 11
8.344895743751207
 21
6.068447043539573
 31
0.0
  0
INSERT
  5
5F1
330
1F
100
AcDbEntity
  8
4
100
AcDbBlockReference
  2
ARRO2
 10
8.406895743751206
 20
6.068447043539573
 30
0.0
 50
90.0
  0
LINE
  5
5F2
330
1F
100
AcDbEntity
  8
4
100
AcDbLine
 10
8.659895743751206
 20
6.708941164982443
 30
0.0
 11
8.721895743751206
 21
6.708941164982443
 31
0.0
  0
LINE
  5
5F3
330
1F
100
AcDbEntity
  8
4
100
AcDbLine
 10
9.969895743751205
 20
6.708941164982443
 30
0.0
 11
10.0318957437512
 21
6.708941164982443
 31
0.0
  0
LINE
  5
5F4
330
1F
100
AcDbEntity
  8
4
100
AcDbLine
 10
11.25089574375121
 20
6.708941164982443
 30
0.0
 11
11.18889574375121
 21
6.708941164982443
 31
0.0
  0
LINE
  5
5F5
330
1F
100
AcDbEntity
  8
4
100
AcDbLine
 10
11.25089574375121
 20
6.708941164982443
 30
0.0
 11
11.25089574375121
 21
6.100402889648929
 31
0.0
  0
LINE
  5
5F6
330
1F
100
AcDbEntity
  8
4
100
AcDbLine
 10
9.969895743751205
 20
6.708941164982443
 30
0.0
 11
9.969895743751205
 21
6.100402889648929
 31
0.0
  0
LINE
  5
5F7
330
1F
100
AcDbEntity
  8
4
100
AcDbLine
 10
8.659895743751206
 20
6.708941164982443
 30
0.0
 11
8.659895743751206
 21
6.100402889648929
 31
0.0
  0
LINE
  5
5F8
330
1F
100
AcDbEntity
  8
4
100
AcDbLine
 10
8.659895743751206
 20
5.974447043539573
 30
0.0
 11
8.659895743751206
 21
5.365902889648929
 31
0.0
  0
LINE
  5
5F9
330
1F
100
AcDbEntity
  8
4
100
AcDbLine
 10
9.969895743751205
 20
5.974447043539573
 30
0.0
 11
9.969895743751205
 21
5.365902889648929
 31
0.0
  0
LINE
  5
5FA
330
1F
100
AcDbEntity
  8
4
100
AcDbLine
 10
11.25089574375121
 20
5.974447043539573
 30
0.0
 11
11.25089574375121
 21
5.365902889648929
 31
0.0
  0
LINE
  5
5FB
330
1F
100
AcDbEntity
  8
4
100
AcDbLine
 10
8.797895743751208
 20
5.333947043539573
 30
0.0
 11
8.782895743751208
 21
5.318947043539572
 31
0.0
  0
LINE
  5
5FC
330
1F
100
AcDbEntity
  8
4
100
AcDbLine
 10
8.782895743751208
 20
5.318947043539572
 30
0.0
 11
8.684895743751209
 21
5.318947043539572
 31
0.0
  0
LINE
  5
5FD
330
1F
100
AcDbEntity
  8
4
100
AcDbLine
 10
8.684895743751209
 20
5.318947043539572
 30
0.0
 11
8.684895743751209
 21
5.290700901102012
 31
0.0
  0
LINE
  5
5FE
330
1F
100
AcDbEntity
  8
4
100
AcDbLine
 10
8.859895743751208
 20
5.271947043539572
 30
0.0
 11
8.797895743751208
 21
5.333947043539573
 31
0.0
  0
LINE
  5
5FF
330
1F
100
AcDbEntity
  8
4
100
AcDbLine
 10
9.224895743751208
 20
5.271947043539572
 30
0.0
 11
8.859895743751208
 21
5.271947043539572
 31
0.0
  0
LINE
  5
600
330
1F
100
AcDbEntity
  8
4
100
AcDbLine
 10
9.224895743751208
 20
5.333947043539573
 30
0.0
 11
9.224895743751208
 21
5.271947043539572
 31
0.0
  0
LINE
  5
601
330
1F
100
AcDbEntity
  8
4
100
AcDbLine
 10
9.264895743751207
 20
5.333947043539573
 30
0.0
 11
9.264895743751207
 21
5.271947043539572
 31
0.0
  0
LINE
  5
602
330
1F
100
AcDbEntity
  8
4
100
AcDbLine
 10
8.659895743751206
 20
5.333947043539573
 30
0.0
 11
8.767895743751207
 21
5.333947043539573
 31
0.0
  0
LINE
  5
603
330
1F
100
AcDbEntity
  8
4
100
AcDbLine
 10
8.659895743751206
 20
5.271947043539572
 30
0.0
 11
8.659895743751206
 21
5.333947043539573
 31
0.0
  0
LINE
  5
604
330
1F
100
AcDbEntity
  8
4
100
AcDbLine
 10
8.721895743751208
 20
5.271947043539572
 30
0.0
 11
8.659895743751206
 21
5.271947043539572
 31
0.0
  0
LINE
  5
605
330
1F
100
AcDbEntity
  8
4
100
AcDbLine
 10
8.797895743751208
 20
5.333947043539573
 30
0.0
 11
9.264895743751207
 21
5.333947043539573
 31
0.0
  0
LINE
  5
606
330
1F
100
AcDbEntity
  8
4
100
AcDbLine
 10
8.659895743751208
 20
5.365902889648929
 30
0.0
 11
8.721895743751208
 21
5.365902889648929
 31
0.0
  0
LINE
  5
607
330
1F
100
AcDbEntity
  8
4
100
AcDbLine
 10
8.659895743751208
 20
5.239947043539572
 30
0.0
 11
8.721895743751208
 21
5.239947043539572
 31
0.0
  0
INSERT
  5
608
330
1F
100
AcDbEntity
  8
4
100
AcDbBlockReference
  2
ARRO2
 10
8.406895743751208
 20
5.333947043539573
 30
0.0
 50
90.0
  0
LINE
  5
609
330
1F
100
AcDbEntity
  8
4
100
AcDbLine
 10
8.406895743751208
 20
5.333947043539573
 30
0.0
 11
8.344895743751209
 21
5.333947043539573
 31
0.0
  0
LINE
  5
60A
330
1F
100
AcDbEntity
  8
4
100
AcDbLine
 10
8.596895743751208
 20
5.333947043539573
 30
0.0
 11
8.406895743751208
 21
5.333947043539573
 31
0.0
  0
LINE
  5
60B
330
1F
100
AcDbEntity
  8
4
100
AcDbLine
 10
9.969895743751207
 20
5.239947043539572
 30
0.0
 11
10.0318957437512
 21
5.239947043539572
 31
0.0
  0
LINE
  5
60C
330
1F
100
AcDbEntity
  8
4
100
AcDbLine
 10
9.969895743751207
 20
5.365902889648929
 30
0.0
 11
10.0318957437512
 21
5.365902889648929
 31
0.0
  0
LINE
  5
60D
330
1F
100
AcDbEntity
  8
4
100
AcDbLine
 10
10.1078957437512
 20
5.333947043539573
 30
0.0
 11
10.5748957437512
 21
5.333947043539573
 31
0.0
  0
LINE
  5
60E
330
1F
100
AcDbEntity
  8
4
100
AcDbLine
 10
10.0318957437512
 20
5.271947043539572
 30
0.0
 11
9.969895743751205
 21
5.271947043539572
 31
0.0
  0
LINE
  5
60F
330
1F
100
AcDbEntity
  8
4
100
AcDbLine
 10
9.969895743751205
 20
5.271947043539572
 30
0.0
 11
9.969895743751205
 21
5.333947043539573
 31
0.0
  0
LINE
  5
610
330
1F
100
AcDbEntity
  8
4
100
AcDbLine
 10
9.969895743751205
 20
5.333947043539573
 30
0.0
 11
10.0778957437512
 21
5.333947043539573
 31
0.0
  0
LINE
  5
611
330
1F
100
AcDbEntity
  8
4
100
AcDbLine
 10
10.5748957437512
 20
5.333947043539573
 30
0.0
 11
10.5748957437512
 21
5.271947043539572
 31
0.0
  0
LINE
  5
612
330
1F
100
AcDbEntity
  8
4
100
AcDbLine
 10
10.5348957437512
 20
5.333947043539573
 30
0.0
 11
10.5348957437512
 21
5.271947043539572
 31
0.0
  0
LINE
  5
613
330
1F
100
AcDbEntity
  8
4
100
AcDbLine
 10
10.5348957437512
 20
5.271947043539572
 30
0.0
 11
10.1698957437512
 21
5.271947043539572
 31
0.0
  0
LINE
  5
614
330
1F
100
AcDbEntity
  8
4
100
AcDbLine
 10
10.1698957437512
 20
5.271947043539572
 30
0.0
 11
10.1078957437512
 21
5.333947043539573
 31
0.0
  0
LINE
  5
615
330
1F
100
AcDbEntity
  8
4
100
AcDbLine
 10
9.994895743751207
 20
5.318947043539572
 30
0.0
 11
9.994895743751207
 21
5.290700901102012
 31
0.0
  0
LINE
  5
616
330
1F
100
AcDbEntity
  8
4
100
AcDbLine
 10
10.0928957437512
 20
5.318947043539572
 30
0.0
 11
9.994895743751207
 21
5.318947043539572
 31
0.0
  0
LINE
  5
617
330
1F
100
AcDbEntity
  8
4
100
AcDbLine
 10
10.1078957437512
 20
5.333947043539573
 30
0.0
 11
10.0928957437512
 21
5.318947043539572
 31
0.0
  0
LINE
  5
618
330
1F
100
AcDbEntity
  8
4
100
AcDbLine
 10
11.1128957437512
 20
5.333947043539573
 30
0.0
 11
11.12789574375121
 21
5.318947043539572
 31
0.0
  0
LINE
  5
619
330
1F
100
AcDbEntity
  8
4
100
AcDbLine
 10
11.12789574375121
 20
5.318947043539572
 30
0.0
 11
11.2258957437512
 21
5.318947043539572
 31
0.0
  0
LINE
  5
61A
330
1F
100
AcDbEntity
  8
4
100
AcDbLine
 10
11.2258957437512
 20
5.318947043539572
 30
0.0
 11
11.2258957437512
 21
5.290700901102012
 31
0.0
  0
LINE
  5
61B
330
1F
100
AcDbEntity
  8
4
100
AcDbLine
 10
11.05089574375121
 20
5.271947043539572
 30
0.0
 11
11.1128957437512
 21
5.333947043539573
 31
0.0
  0
LINE
  5
61C
330
1F
100
AcDbEntity
  8
4
100
AcDbLine
 10
10.68589574375121
 20
5.271947043539572
 30
0.0
 11
11.05089574375121
 21
5.271947043539572
 31
0.0
  0
LINE
  5
61D
330
1F
100
AcDbEntity
  8
4
100
AcDbLine
 10
10.68589574375121
 20
5.333947043539573
 30
0.0
 11
10.68589574375121
 21
5.271947043539572
 31
0.0
  0
LINE
  5
61E
330
1F
100
AcDbEntity
  8
4
100
AcDbLine
 10
10.64589574375121
 20
5.333947043539573
 30
0.0
 11
10.64589574375121
 21
5.271947043539572
 31
0.0
  0
LINE
  5
61F
330
1F
100
AcDbEntity
  8
4
100
AcDbLine
 10
11.25089574375121
 20
5.333947043539573
 30
0.0
 11
11.14289574375121
 21
5.333947043539573
 31
0.0
  0
LINE
  5
620
330
1F
100
AcDbEntity
  8
4
100
AcDbLine
 10
11.25089574375121
 20
5.271947043539572
 30
0.0
 11
11.25089574375121
 21
5.333947043539573
 31
0.0
  0
LINE
  5
621
330
1F
100
AcDbEntity
  8
4
100
AcDbLine
 10
11.18889574375121
 20
5.271947043539572
 30
0.0
 11
11.25089574375121
 21
5.271947043539572
 31
0.0
  0
LINE
  5
622
330
1F
100
AcDbEntity
  8
4
100
AcDbLine
 10
11.1128957437512
 20
5.333947043539573
 30
0.0
 11
10.64589574375121
 21
5.333947043539573
 31
0.0
  0
LINE
  5
623
330
1F
100
AcDbEntity
  8
4
100
AcDbLine
 10
11.2508957437512
 20
5.365902889648929
 30
0.0
 11
11.18889574375121
 21
5.365902889648929
 31
0.0
  0
LINE
  5
624
330
1F
100
AcDbEntity
  8
4
100
AcDbLine
 10
11.2508957437512
 20
5.239947043539572
 30
0.0
 11
11.18889574375121
 21
5.239947043539572
 31
0.0
  0
LINE
  5
625
330
1F
100
AcDbEntity
  8
4
100
AcDbLine
 10
6.219395743751206
 20
6.006447043539573
 30
0.0
 11
6.407395743751206
 21
6.006447043539573
 31
0.0
  0
LINE
  5
626
330
1F
100
AcDbEntity
  8
4
100
AcDbLine
 10
6.219395743751206
 20
6.068447043539572
 30
0.0
 11
6.407395743751206
 21
6.068447043539572
 31
0.0
  0
LINE
  5
627
330
1F
100
AcDbEntity
  8
4
100
AcDbLine
 10
6.531395743751207
 20
6.068447043539572
 30
0.0
 11
7.032395743751206
 21
6.068447043539572
 31
0.0
  0
LINE
  5
628
330
1F
100
AcDbEntity
  8
4
100
AcDbLine
 10
6.531395743751207
 20
6.006447043539573
 30
0.0
 11
7.032395743751206
 21
6.006447043539573
 31
0.0
  0
LINE
  5
629
330
1F
100
AcDbEntity
  8
4
100
AcDbLine
 10
5.906395743751207
 20
6.068447043539572
 30
0.0
 11
6.106591774578188
 21
6.068447043539572
 31
0.0
  0
LINE
  5
62A
330
1F
100
AcDbEntity
  8
4
100
AcDbLine
 10
5.906395743751207
 20
6.006447043539573
 30
0.0
 11
6.094395743751206
 21
6.006447043539573
 31
0.0
  0
LINE
  5
62B
330
1F
100
AcDbEntity
  8
4
100
AcDbLine
 10
5.281395743751207
 20
6.068447043539572
 30
0.0
 11
5.782395743751206
 21
6.068447043539572
 31
0.0
  0
LINE
  5
62C
330
1F
100
AcDbEntity
  8
4
100
AcDbLine
 10
5.281395743751207
 20
6.006447043539573
 30
0.0
 11
5.782395743751206
 21
6.006447043539573
 31
0.0
  0
LINE
  5
62D
330
1F
100
AcDbEntity
  8
4
100
AcDbLine
 10
4.656395743751207
 20
6.068447043539572
 30
0.0
 11
5.157395743751206
 21
6.068447043539572
 31
0.0
  0
LINE
  5
62E
330
1F
100
AcDbEntity
  8
4
100
AcDbLine
 10
4.656395743751207
 20
6.006447043539573
 30
0.0
 11
5.157395743751206
 21
6.006447043539573
 31
0.0
  0
LINE
  5
62F
330
1F
100
AcDbEntity
  8
4
100
AcDbLine
 10
4.688395743751207
 20
6.100402889648929
 30
0.0
 11
4.688395743751207
 21
6.708947043539573
 31
0.0
  0
LINE
  5
630
330
1F
100
AcDbEntity
  8
4
100
AcDbLine
 10
4.688395743751207
 20
6.708947043539573
 30
0.0
 11
5.125395743751207
 21
6.708947043539573
 31
0.0
  0
LINE
  5
631
330
1F
100
AcDbEntity
  8
4
100
AcDbLine
 10
5.125395743751207
 20
6.708947043539573
 30
0.0
 11
5.125395743751206
 21
6.100402889648929
 31
0.0
  0
LINE
  5
632
330
1F
100
AcDbEntity
  8
4
100
AcDbLine
 10
5.125395743751206
 20
6.100402889648929
 30
0.0
 11
4.688395743751207
 21
6.100402889648929
 31
0.0
  0
LINE
  5
633
330
1F
100
AcDbEntity
  8
4
100
AcDbLine
 10
5.135395743751207
 20
6.583947043539573
 30
0.0
 11
5.135395743751207
 21
6.458947043539573
 31
0.0
  0
LINE
  5
634
330
1F
100
AcDbEntity
  8
4
100
AcDbLine
 10
5.135395743751207
 20
6.34940288964893
 30
0.0
 11
5.135395743751207
 21
6.22440288964893
 31
0.0
  0
LINE
  5
635
330
1F
100
AcDbEntity
  8
1
100
AcDbLine
 10
10.62867746106529
 20
3.802941164982442
 30
0.0
 11
10.62867746106529
 21
6.802941164982442
 31
0.0
  0
ENDSEC
  0
SECTION
  2
OBJECTS
  0
DICTIONARY
  5
C
330
0
100
AcDbDictionary
281
     1
  3
ACAD_COLOR
350
467
  3
ACAD_GROUP
350
D
  3
ACAD_LAYOUT
350
1A
  3
ACAD_MATERIAL
350
466
  3
ACAD_MLINESTYLE
350
17
  3
ACAD_PLOTSETTINGS
350
19
  3
ACAD_PLOTSTYLENAME
350
E
  3
ACDBHEADERROUNDTRIPXREC
350
643
  3
AcDbVariableDictionary
350
63F
  0
DICTIONARY
  5
467
102
{ACAD_REACTORS
330
C
102
}
330
C
100
AcDbDictionary
281
     1
  0
DICTIONARY
  5
D
102
{ACAD_REACTORS
330
C
102
}
330
C
100
AcDbDictionary
281
     1
  0
DICTIONARY
  5
1A
102
{ACAD_REACTORS
330
C
102
}
330
C
100
AcDbDictionary
281
     1
  3
Layout1
350
1E
  3
Layout2
350
26
  3
Model
350
22
  0
DICTIONARY
  5
466
102
{ACAD_REACTORS
330
C
102
}
330
C
100
AcDbDictionary
281
     1
  0
DICTIONARY
  5
17
102
{ACAD_REACTORS
330
C
102
}
330
C
100
AcDbDictionary
281
     1
  3
Standard
350
18
  0
DICTIONARY
  5
19
102
{ACAD_REACTORS
330
C
102
}
330
C
100
AcDbDictionary
281
     1
  0
ACDBDICTIONARYWDFLT
  5
E
102
{ACAD_REACTORS
330
C
102
}
330
C
100
AcDbDictionary
281
     1
  3
Normal
350
F
100
AcDbDictionaryWithDefault
340
F
  0
DICTIONARY
  5
643
102
{ACAD_REACTORS
330
C
102
}
330
C
100
AcDbDictionary
281
     1
  3
COLORDICT
350
645
  3
MATERIALDICT
350
644
  0
DICTIONARY
  5
63F
102
{ACAD_REACTORS
330
C
102
}
330
C
100
AcDbDictionary
281
     1
  3
DIMASSOC
350
640
  3
PROJECTNAME
350
641
  0
LAYOUT
  5
1E
102
{ACAD_XDICTIONARY
360
646
102
}
102
{ACAD_REACTORS
330
1A
102
}
330
1A
100
AcDbPlotSettings
  1

  2
Lexmark 2050 ColorFine 2
  4

  6

 40
0.0
 41
0.0
 42
0.0
 43
0.0
 44
0.0
 45
0.0
 46
0.0
 47
0.0
 48
0.0
 49
0.0
140
0.0
141
0.0
142
1.0
143
1.0
 70
   688
 72
     0
 73
     0
 74
     5
  7
monochrome.ctb
 75
    16
147
1.0
148
0.0
149
0.0
100
AcDbLayout
  1
Layout1
 70
     1
 71
     1
 10
0.0
 20
0.0
 11
12.0
 21
9.0
 12
0.0
 22
0.0
 32
0.0
 14
1.000000000000000E+20
 24
1.000000000000000E+20
 34
1.000000000000000E+20
 15
-1.000000000000000E+20
 25
-1.000000000000000E+20
 35
-1.000000000000000E+20
146
0.0
 13
0.0
 23
0.0
 33
0.0
 16
1.0
 26
0.0
 36
0.0
 17
0.0
 27
1.0
 37
0.0
 76
     0
330
1B
  0
LAYOUT
  5
26
102
{ACAD_XDICTIONARY
360
64A
102
}
102
{ACAD_REACTORS
330
1A
102
}
330
1A
100
AcDbPlotSettings
  1

  2
Lexmark 2050 ColorFine 2
  4

  6

 40
0.0
 41
0.0
 42
0.0
 43
0.0
 44
0.0
 45
0.0
 46
0.0
 47
0.0
 48
0.0
 49
0.0
140
0.0
141
0.0
142
1.0
143
1.0
 70
   688
 72
     0
 73
     0
 74
     5
  7
monochrome.ctb
 75
    16
147
1.0
148
0.0
149
0.0
100
AcDbLayout
  1
Layout2
 70
     1
 71
     2
 10
0.0
 20
0.0
 11
12.0
 21
9.0
 12
0.0
 22
0.0
 32
0.0
 14
0.0
 24
0.0
 34
0.0
 15
0.0
 25
0.0
 35
0.0
146
0.0
 13
0.0
 23
0.0
 33
0.0
 16
1.0
 26
0.0
 36
0.0
 17
0.0
 27
1.0
 37
0.0
 76
     0
330
23
  0
LAYOUT
  5
22
102
{ACAD_XDICTIONARY
360
648
102
}
102
{ACAD_REACTORS
330
1A
102
}
330
1A
100
AcDbPlotSettings
  1

  2
Lexmark 2050 ColorFine 2
  4

  6

 40
0.0
 41
0.0
 42
0.0
 43
0.0
 44
0.0
 45
0.0
 46
0.0
 47
0.0
 48
0.0
 49
0.0
140
0.0
141
0.0
142
1.0
143
1.0
 70
  1712
 72
     0
 73
     0
 74
     0
  7
monochrome.ctb
 75
     0
147
1.0
148
0.0
149
0.0
100
AcDbLayout
  1
Model
 70
     1
 71
     0
 10
0.0
 20
0.0
 11
12.0
 21
9.0
 12
0.0
 22
0.0
 32
0.0
 14
0.0
 24
0.0
 34
0.0
 15
0.0
 25
0.0
 35
0.0
146
0.0
 13
0.0
 23
0.0
 33
0.0
 16
1.0
 26
0.0
 36
0.0
 17
0.0
 27
1.0
 37
0.0
 76
     0
330
1F
  0
MLINESTYLE
  5
18
102
{ACAD_REACTORS
330
17
102
}
330
17
100
AcDbMlineStyle
  2
STANDARD
 70
     0
  3

 62
   256
 51
90.0
 52
90.0
 71
     2
 49
0.5
 62
   256
  6
BYLAYER
 49
-0.5
 62
   256
  6
BYLAYER
  0
ACDBPLACEHOLDER
  5
F
102
{ACAD_REACTORS
330
E
102
}
330
E
  0
XRECORD
  5
645
102
{ACAD_REACTORS
330
643
102
}
330
643
100
AcDbXrecord
280
     1
340
467
  0
XRECORD
  5
644
102
{ACAD_REACTORS
330
643
102
}
330
643
100
AcDbXrecord
280
     1
340
466
  0
DICTIONARYVAR
  5
640
102
{ACAD_REACTORS
330
63F
102
}
330
63F
100
DictionaryVariables
280
     0
  1
1
  0
DICTIONARYVAR
  5
641
102
{ACAD_REACTORS
330
63F
102
}
330
63F
100
DictionaryVariables
280
     0
  1

  0
DICTIONARY
  5
646
330
1E
100
AcDbDictionary
280
     1
281
     1
  3
ACAD_XREC_ROUNDTRIP
360
647
  0
DICTIONARY
  5
64A
330
26
100
AcDbDictionary
280
     1
281
     1
  3
ACAD_XREC_ROUNDTRIP
360
64B
  0
DICTIONARY
  5
648
330
22
100
AcDbDictionary
280
     1
281
     1
  3
ACAD_XREC_ROUNDTRIP
360
649
  0
XRECORD
  5
647
102
{ACAD_REACTORS
330
646
102
}
330
646
100
AcDbXrecord
280
     1
102
SHADEPLOT
 70
     0
102
SHADEPLOTRESLEVEL
 70
     2
102
SHADEPLOTCUSTOMDPI
 70
   300
  0
XRECORD
  5
64B
102
{ACAD_REACTORS
330
64A
102
}
330
64A
100
AcDbXrecord
280
     1
102
SHADEPLOT
 70
     0
102
SHADEPLOTRESLEVEL
 70
     2
102
SHADEPLOTCUSTOMDPI
 70
   300
  0
XRECORD
  5
649
102
{ACAD_REACTORS
330
648
102
}
330
648
100
AcDbXrecord
280
     1
102
SHADEPLOT
 70
     0
102
SHADEPLOTRESLEVEL
 70
     2
102
SHADEPLOTCUSTOMDPI
 70
   300
  0
ENDSEC
  0
EOF
