  0
SECTION
  2
HEADER
  9
$ACADVER
  1
AC1015
  9
$ACADMAINTVER
 70
    20
  9
$DWGCODEPAGE
  3
ANSI_1252
  9
$INSBASE
 10
0.0
 20
0.0
 30
0.0
  9
$EXTMIN
 10
3.629699739196453
 20
1.649734519945614
 30
-0.0000000000000058
  9
$EXTMAX
 10
11.88043215670673
 20
6.900512713823133
 30
0.0000000000000104
  9
$LIMMIN
 10
0.0
 20
0.0
  9
$LIMMAX
 10
12.0
 20
9.0
  9
$ORTHOMODE
 70
     1
  9
$REGENMODE
 70
     1
  9
$FILLMODE
 70
     1
  9
$QTEXTMODE
 70
     0
  9
$MIRRTEXT
 70
     1
  9
$LTSCALE
 40
1.0
  9
$ATTMODE
 70
     1
  9
$TEXTSIZE
 40
0.2
  9
$TRACEWID
 40
0.05
  9
$TEXTSTYLE
  7
Standard
  9
$CLAYER
  8
0
  9
$CELTYPE
  6
ByLayer
  9
$CECOLOR
 62
   256
  9
$CELTSCALE
 40
1.0
  9
$DISPSILH
 70
     0
  9
$DIMSCALE
 40
1.0
  9
$DIMASZ
 40
0.18
  9
$DIMEXO
 40
0.0625
  9
$DIMDLI
 40
0.38
  9
$DIMRND
 40
0.0
  9
$DIMDLE
 40
0.0
  9
$DIMEXE
 40
0.18
  9
$DIMTP
 40
0.0
  9
$DIMTM
 40
0.0
  9
$DIMTXT
 40
0.18
  9
$DIMCEN
 40
0.09
  9
$DIMTSZ
 40
0.0
  9
$DIMTOL
 70
     0
  9
$DIMLIM
 70
     0
  9
$DIMTIH
 70
     1
  9
$DIMTOH
 70
     1
  9
$DIMSE1
 70
     0
  9
$DIMSE2
 70
     0
  9
$DIMTAD
 70
     0
  9
$DIMZIN
 70
     0
  9
$DIMBLK
  1

  9
$DIMASO
 70
     1
  9
$DIMSHO
 70
     1
  9
$DIMPOST
  1

  9
$DIMAPOST
  1

  9
$DIMALT
 70
     0
  9
$DIMALTD
 70
     2
  9
$DIMALTF
 40
25.4
  9
$DIMLFAC
 40
1.0
  9
$DIMTOFL
 70
     0
  9
$DIMTVP
 40
0.0
  9
$DIMTIX
 70
     0
  9
$DIMSOXD
 70
     0
  9
$DIMSAH
 70
     0
  9
$DIMBLK1
  1

  9
$DIMBLK2
  1

  9
$DIMSTYLE
  2
Standard
  9
$DIMCLRD
 70
     0
  9
$DIMCLRE
 70
     0
  9
$DIMCLRT
 70
     0
  9
$DIMTFAC
 40
1.0
  9
$DIMGAP
 40
0.09
  9
$DIMJUST
 70
     0
  9
$DIMSD1
 70
     0
  9
$DIMSD2
 70
     0
  9
$DIMTOLJ
 70
     1
  9
$DIMTZIN
 70
     0
  9
$DIMALTZ
 70
     0
  9
$DIMALTTZ
 70
     0
  9
$DIMUPT
 70
     0
  9
$DIMDEC
 70
     4
  9
$DIMTDEC
 70
     4
  9
$DIMALTU
 70
     2
  9
$DIMALTTD
 70
     2
  9
$DIMTXSTY
  7
Standard
  9
$DIMAUNIT
 70
     0
  9
$DIMADEC
 70
     0
  9
$DIMALTRND
 40
0.0
  9
$DIMAZIN
 70
     0
  9
$DIMDSEP
 70
    46
  9
$DIMATFIT
 70
     3
  9
$DIMFRAC
 70
     0
  9
$DIMLDRBLK
  1

  9
$DIMLUNIT
 70
     2
  9
$DIMLWD
 70
    -2
  9
$DIMLWE
 70
    -2
  9
$DIMTMOVE
 70
     0
  9
$LUNITS
 70
     2
  9
$LUPREC
 70
     4
  9
$SKETCHINC
 40
0.1
  9
$FILLETRAD
 40
0.5
  9
$AUNITS
 70
     0
  9
$AUPREC
 70
     0
  9
$MENU
  1
.
  9
$ELEVATION
 40
0.0
  9
$PELEVATION
 40
0.0
  9
$THICKNESS
 40
0.0
  9
$LIMCHECK
 70
     0
  9
$CHAMFERA
 40
0.5
  9
$CHAMFERB
 40
0.5
  9
$CHAMFERC
 40
1.0
  9
$CHAMFERD
 40
0.0
  9
$SKPOLY
 70
     0
  9
$TDCREATE
 40
2452994.398152547
  9
$TDUCREATE
 40
2452994.606485880
  9
$TDUPDATE
 40
2454728.608093704
  9
$TDUUPDATE
 40
2454728.816427037
  9
$TDINDWG
 40
0.0197988889
  9
$TDUSRTIMER
 40
0.0197810648
  9
$USRTIMER
 70
     1
  9
$ANGBASE
 50
0.0
  9
$ANGDIR
 70
     0
  9
$PDMODE
 70
     0
  9
$PDSIZE
 40
0.0
  9
$PLINEWID
 40
0.0
  9
$SPLFRAME
 70
     0
  9
$SPLINETYPE
 70
     6
  9
$SPLINESEGS
 70
     8
  9
$HANDSEED
  5
8C1
  9
$SURFTAB1
 70
     6
  9
$SURFTAB2
 70
     6
  9
$SURFTYPE
 70
     6
  9
$SURFU
 70
     6
  9
$SURFV
 70
     6
  9
$UCSBASE
  2

  9
$UCSNAME
  2

  9
$UCSORG
 10
0.0
 20
0.0
 30
0.0
  9
$UCSXDIR
 10
1.0
 20
0.0
 30
0.0
  9
$UCSYDIR
 10
0.0
 20
1.0
 30
0.0
  9
$UCSORTHOREF
  2

  9
$UCSORTHOVIEW
 70
     0
  9
$UCSORGTOP
 10
0.0
 20
0.0
 30
0.0
  9
$UCSORGBOTTOM
 10
0.0
 20
0.0
 30
0.0
  9
$UCSORGLEFT
 10
0.0
 20
0.0
 30
0.0
  9
$UCSORGRIGHT
 10
0.0
 20
0.0
 30
0.0
  9
$UCSORGFRONT
 10
0.0
 20
0.0
 30
0.0
  9
$UCSORGBACK
 10
0.0
 20
0.0
 30
0.0
  9
$PUCSBASE
  2

  9
$PUCSNAME
  2

  9
$PUCSORG
 10
0.0
 20
0.0
 30
0.0
  9
$PUCSXDIR
 10
1.0
 20
0.0
 30
0.0
  9
$PUCSYDIR
 10
0.0
 20
1.0
 30
0.0
  9
$PUCSORTHOREF
  2

  9
$PUCSORTHOVIEW
 70
     0
  9
$PUCSORGTOP
 10
0.0
 20
0.0
 30
0.0
  9
$PUCSORGBOTTOM
 10
0.0
 20
0.0
 30
0.0
  9
$PUCSORGLEFT
 10
0.0
 20
0.0
 30
0.0
  9
$PUCSORGRIGHT
 10
0.0
 20
0.0
 30
0.0
  9
$PUCSORGFRONT
 10
0.0
 20
0.0
 30
0.0
  9
$PUCSORGBACK
 10
0.0
 20
0.0
 30
0.0
  9
$USERI1
 70
     0
  9
$USERI2
 70
     0
  9
$USERI3
 70
     0
  9
$USERI4
 70
     0
  9
$USERI5
 70
     0
  9
$USERR1
 40
0.0
  9
$USERR2
 40
0.0
  9
$USERR3
 40
0.0
  9
$USERR4
 40
0.0
  9
$USERR5
 40
0.0
  9
$WORLDVIEW
 70
     1
  9
$SHADEDGE
 70
     3
  9
$SHADEDIF
 70
    70
  9
$TILEMODE
 70
     1
  9
$MAXACTVP
 70
    64
  9
$PINSBASE
 10
0.0
 20
0.0
 30
0.0
  9
$PLIMCHECK
 70
     0
  9
$PEXTMIN
 10
1.000000000000000E+20
 20
1.000000000000000E+20
 30
1.000000000000000E+20
  9
$PEXTMAX
 10
-1.000000000000000E+20
 20
-1.000000000000000E+20
 30
-1.000000000000000E+20
  9
$PLIMMIN
 10
0.0
 20
0.0
  9
$PLIMMAX
 10
12.0
 20
9.0
  9
$UNITMODE
 70
     0
  9
$VISRETAIN
 70
     1
  9
$PLINEGEN
 70
     0
  9
$PSLTSCALE
 70
     1
  9
$TREEDEPTH
 70
  3020
  9
$CMLSTYLE
  2
Standard
  9
$CMLJUST
 70
     0
  9
$CMLSCALE
 40
1.0
  9
$PROXYGRAPHICS
 70
     1
  9
$MEASUREMENT
 70
     0
  9
$CELWEIGHT
370
    -1
  9
$ENDCAPS
280
     0
  9
$JOINSTYLE
280
     0
  9
$LWDISPLAY
290
     0
  9
$INSUNITS
 70
     1
  9
$HYPERLINKBASE
  1

  9
$STYLESHEET
  1

  9
$XEDIT
290
     1
  9
$CEPSNTYPE
380
     0
  9
$PSTYLEMODE
290
     1
  9
$FINGERPRINTGUID
  2
{8AF59900-32CF-11D8-8CE1-F4C5890AA422}
  9
$VERSIONGUID
  2
{2E367126-D097-4288-90F3-6AA63A74620C}
  9
$EXTNAMES
290
     1
  9
$PSVPSCALE
 40
0.0
  9
$OLESTARTUP
290
     0
  0
ENDSEC
  0
SECTION
  2
CLASSES
  0
CLASS
  1
ACDBDICTIONARYWDFLT
  2
AcDbDictionaryWithDefault
  3
ObjectDBX Classes
 90
        0
280
     0
281
     0
  0
CLASS
  1
ACDBPLACEHOLDER
  2
AcDbPlaceHolder
  3
ObjectDBX Classes
 90
        0
280
     0
281
     0
  0
CLASS
  1
LAYOUT
  2
AcDbLayout
  3
ObjectDBX Classes
 90
        0
280
     0
281
     0
  0
CLASS
  1
DICTIONARYVAR
  2
AcDbDictionaryVar
  3
ObjectDBX Classes
 90
        0
280
     0
281
     0
  0
ENDSEC
  0
SECTION
  2
TABLES
  0
TABLE
  2
VPORT
  5
8
330
0
100
AcDbSymbolTable
 70
     2
  0
VPORT
  5
8B7
330
8
100
AcDbSymbolTableRecord
100
AcDbViewportTableRecord
  2
*Active
 70
     0
 10
0.0
 20
0.0
 11
1.0
 21
1.0
 12
7.755065947951592
 22
4.275123616884373
 13
0.0
 23
0.0
 14
0.5
 24
0.5
 15
0.5
 25
0.5
 16
0.0
 26
0.0
 36
1.0
 17
0.0
 27
0.0
 37
0.0
 40
5.545189497268501
 41
1.495145631067961
 42
50.0
 43
0.0
 44
0.0
 50
0.0
 51
0.0
 71
     0
 72
   100
 73
     1
 74
     0
 75
     0
 76
     0
 77
     0
 78
     0
281
     0
 65
     1
110
0.0
120
0.0
130
0.0
111
1.0
121
0.0
131
0.0
112
0.0
122
1.0
132
0.0
 79
     0
146
0.0
  0
ENDTAB
  0
TABLE
  2
LTYPE
  5
5
330
0
100
AcDbSymbolTable
 70
     1
  0
LTYPE
  5
14
330
5
100
AcDbSymbolTableRecord
100
AcDbLinetypeTableRecord
  2
ByBlock
 70
     0
  3

 72
    65
 73
     0
 40
0.0
  0
LTYPE
  5
15
330
5
100
AcDbSymbolTableRecord
100
AcDbLinetypeTableRecord
  2
ByLayer
 70
     0
  3

 72
    65
 73
     0
 40
0.0
  0
LTYPE
  5
16
330
5
100
AcDbSymbolTableRecord
100
AcDbLinetypeTableRecord
  2
Continuous
 70
     0
  3
Solid line
 72
    65
 73
     0
 40
0.0
  0
ENDTAB
  0
TABLE
  2
LAYER
  5
2
330
0
100
AcDbSymbolTable
 70
     4
  0
LAYER
  5
10
330
2
100
AcDbSymbolTableRecord
100
AcDbLayerTableRecord
  2
0
 70
     0
 62
     7
  6
Continuous
370
    -3
390
F
  0
LAYER
  5
33
330
2
100
AcDbSymbolTableRecord
100
AcDbLayerTableRecord
  2
1
 70
     0
 62
     1
  6
Continuous
370
    -3
390
F
  0
LAYER
  5
34
330
2
100
AcDbSymbolTableRecord
100
AcDbLayerTableRecord
  2
4
 70
     0
 62
     4
  6
Continuous
370
    -3
390
F
  0
LAYER
  5
35
330
2
100
AcDbSymbolTableRecord
100
AcDbLayerTableRecord
  2
8
 70
     0
 62
     2
  6
Continuous
370
    -3
390
F
  0
ENDTAB
  0
TABLE
  2
STYLE
  5
3
330
0
100
AcDbSymbolTable
 70
     2
  0
STYLE
  5
11
330
3
100
AcDbSymbolTableRecord
100
AcDbTextStyleTableRecord
  2
Standard
 70
     0
 40
0.0
 41
1.0
 50
0.0
 71
     0
 42
0.2
  3
txt
  4

  0
STYLE
  5
36
330
3
100
AcDbSymbolTableRecord
100
AcDbTextStyleTableRecord
  2
ROMANS
 70
     0
 40
0.0
 41
1.0
 50
0.0
 71
     0
 42
0.07
  3
ROMANS
  4

  0
ENDTAB
  0
TABLE
  2
VIEW
  5
6
330
0
100
AcDbSymbolTable
 70
     0
  0
ENDTAB
  0
TABLE
  2
UCS
  5
7
330
0
100
AcDbSymbolTable
 70
     0
  0
ENDTAB
  0
TABLE
  2
APPID
  5
9
330
0
100
AcDbSymbolTable
 70
     1
  0
APPID
  5
12
330
9
100
AcDbSymbolTableRecord
100
AcDbRegAppTableRecord
  2
ACAD
 70
     0
  0
ENDTAB
  0
TABLE
  2
DIMSTYLE
  5
A
330
0
100
AcDbSymbolTable
 70
     1
100
AcDbDimStyleTable
 71
     0
  0
DIMSTYLE
105
27
330
A
100
AcDbSymbolTableRecord
100
AcDbDimStyleTableRecord
  2
Standard
 70
     0
340
11
  0
ENDTAB
  0
TABLE
  2
BLOCK_RECORD
  5
1
330
0
100
AcDbSymbolTable
 70
     7
  0
BLOCK_RECORD
  5
1F
330
1
100
AcDbSymbolTableRecord
100
AcDbBlockTableRecord
  2
*Model_Space
340
22
  0
BLOCK_RECORD
  5
1B
330
1
100
AcDbSymbolTableRecord
100
AcDbBlockTableRecord
  2
*Paper_Space
340
1E
  0
BLOCK_RECORD
  5
23
330
1
100
AcDbSymbolTableRecord
100
AcDbBlockTableRecord
  2
*Paper_Space0
340
26
  0
BLOCK_RECORD
  5
2B
330
1
100
AcDbSymbolTableRecord
100
AcDbBlockTableRecord
  2
ARRO
340
0
102
{BLKREFS
331
5C0
331
608
331
609
331
60D
331
60E
331
612
331
613
331
614
331
615
331
616
331
6C9
331
719
331
71A
331
68D
331
68E
331
740
331
788
331
789
331
78D
331
78E
331
792
331
793
331
794
331
795
331
796
331
809
331
80A
331
845
331
895
331
896
102
}
  0
BLOCK_RECORD
  5
F7
330
1
100
AcDbSymbolTableRecord
100
AcDbBlockTableRecord
  2
ARRO2
340
0
102
{BLKREFS
331
6D8
331
854
102
}
  0
BLOCK_RECORD
  5
109
330
1
100
AcDbSymbolTableRecord
100
AcDbBlockTableRecord
  2
TEMP2
340
0
102
{BLKREFS
331
687
331
803
102
}
  0
BLOCK_RECORD
  5
23E
330
1
100
AcDbSymbolTableRecord
100
AcDbBlockTableRecord
  2
TEMP3
340
0
102
{BLKREFS
331
688
331
804
102
}
  0
BLOCK_RECORD
  5
5B8
330
1
100
AcDbSymbolTableRecord
100
AcDbBlockTableRecord
  2
Le1002
340
0
  0
BLOCK_RECORD
  5
67F
330
1
100
AcDbSymbolTableRecord
100
AcDbBlockTableRecord
  2
Le1020
340
0
  0
ENDTAB
  0
ENDSEC
  0
SECTION
  2
BLOCKS
  0
BLOCK
  5
20
330
1F
100
AcDbEntity
  8
0
100
AcDbBlockBegin
  2
*Model_Space
 70
     0
 10
0.0
 20
0.0
 30
0.0
  3
*Model_Space
  1

  0
ENDBLK
  5
21
330
1F
100
AcDbEntity
  8
0
100
AcDbBlockEnd
  0
BLOCK
  5
1C
330
1B
100
AcDbEntity
 67
     1
  8
0
100
AcDbBlockBegin
  2
*Paper_Space
 70
     0
 10
0.0
 20
0.0
 30
0.0
  3
*Paper_Space
  1

  0
ENDBLK
  5
1D
330
1B
100
AcDbEntity
 67
     1
  8
0
100
AcDbBlockEnd
  0
BLOCK
  5
24
330
23
100
AcDbEntity
  8
0
100
AcDbBlockBegin
  2
*Paper_Space0
 70
     0
 10
0.0
 20
0.0
 30
0.0
  3
*Paper_Space0
  1

  0
ENDBLK
  5
25
330
23
100
AcDbEntity
  8
0
100
AcDbBlockEnd
  0
BLOCK
  5
31
330
2B
100
AcDbEntity
  8
4
100
AcDbBlockBegin
  2
ARRO
 70
     0
 10
0.0
 20
0.0
 30
0.0
  3
ARRO
  1

  0
LINE
  5
2C
330
2B
100
AcDbEntity
  8
4
100
AcDbLine
 10
0.1250000000000018
 20
0.0199999999999996
 30
0.0
 11
0.1250000000000018
 21
-0.0200000000000005
 31
0.0
  0
LINE
  5
2D
330
2B
100
AcDbEntity
  8
4
100
AcDbLine
 10
0.1250000000000018
 20
-0.0100000000000007
 30
0.0
 11
0.0000000000000009
 21
0.0
 31
0.0
  0
LINE
  5
2E
330
2B
100
AcDbEntity
  8
4
100
AcDbLine
 10
0.1250000000000018
 20
0.0099999999999989
 30
0.0
 11
0.0000000000000018
 21
0.0
 31
0.0
  0
LINE
  5
2F
330
2B
100
AcDbEntity
  8
4
100
AcDbLine
 10
0.0000000000000018
 20
0.0
 30
0.0
 11
0.1250000000000018
 21
-0.0200000000000005
 31
0.0
  0
LINE
  5
30
330
2B
100
AcDbEntity
  8
4
100
AcDbLine
 10
0.1250000000000018
 20
0.0199999999999996
 30
0.0
 11
0.0000000000000018
 21
0.0
 31
0.0
  0
ENDBLK
  5
32
330
2B
100
AcDbEntity
  8
4
100
AcDbBlockEnd
  0
BLOCK
  5
102
330
F7
100
AcDbEntity
  8
8
100
AcDbBlockBegin
  2
ARRO2
 70
     0
 10
0.0
 20
0.0
 30
0.0
  3
ARRO2
  1

  0
LINE
  5
F8
330
F7
100
AcDbEntity
  8
4
100
AcDbLine
 10
-0.124999999999992
 20
-0.0200000000000005
 30
0.0
 11
0.000000000000008
 21
-0.0000000000000009
 31
0.0
  0
LINE
  5
F9
330
F7
100
AcDbEntity
  8
4
100
AcDbLine
 10
0.000000000000008
 20
-0.0000000000000009
 30
0.0
 11
-0.124999999999992
 21
0.0199999999999996
 31
0.0
  0
LINE
  5
FA
330
F7
100
AcDbEntity
  8
4
100
AcDbLine
 10
-0.124999999999992
 20
-0.0099999999999998
 30
0.0
 11
0.000000000000008
 21
-0.0000000000000009
 31
0.0
  0
LINE
  5
FB
330
F7
100
AcDbEntity
  8
4
100
AcDbLine
 10
-0.124999999999992
 20
0.0099999999999998
 30
0.0
 11
0.0000000000000089
 21
-0.0000000000000009
 31
0.0
  0
LINE
  5
FC
330
F7
100
AcDbEntity
  8
4
100
AcDbLine
 10
-0.124999999999992
 20
-0.0200000000000005
 30
0.0
 11
-0.124999999999992
 21
0.0199999999999996
 31
0.0
  0
LINE
  5
FD
330
F7
100
AcDbEntity
  8
4
100
AcDbLine
 10
0.1250000000000124
 20
0.0199999999999987
 30
0.0
 11
0.1250000000000124
 21
-0.0200000000000014
 31
0.0
  0
LINE
  5
FE
330
F7
100
AcDbEntity
  8
4
100
AcDbLine
 10
0.1250000000000124
 20
-0.0100000000000016
 30
0.0
 11
0.0000000000000115
 21
-0.0000000000000009
 31
0.0
  0
LINE
  5
FF
330
F7
100
AcDbEntity
  8
4
100
AcDbLine
 10
0.1250000000000124
 20
0.009999999999998
 30
0.0
 11
0.0000000000000124
 21
-0.0000000000000009
 31
0.0
  0
LINE
  5
100
330
F7
100
AcDbEntity
  8
4
100
AcDbLine
 10
0.0000000000000124
 20
-0.0000000000000009
 30
0.0
 11
0.1250000000000124
 21
-0.0200000000000014
 31
0.0
  0
LINE
  5
101
330
F7
100
AcDbEntity
  8
4
100
AcDbLine
 10
0.1250000000000124
 20
0.0199999999999987
 30
0.0
 11
0.0000000000000124
 21
-0.0000000000000009
 31
0.0
  0
ENDBLK
  5
103
330
F7
100
AcDbEntity
  8
8
100
AcDbBlockEnd
  0
BLOCK
  5
10B
330
109
100
AcDbEntity
  8
8
100
AcDbBlockBegin
  2
TEMP2
 70
     0
 10
0.0
 20
0.0
 30
0.0
  3
TEMP2
  1

  0
TEXT
  5
10A
330
109
100
AcDbEntity
  8
8
100
AcDbText
 10
-0.0620000000000003
 20
0.1763333333333335
 30
0.0
 40
0.07
  1
1
 50
90.0
 72
     1
 11
-0.0620000000000003
 21
0.1880000000000002
 31
0.0
100
AcDbText
  0
ENDBLK
  5
10C
330
109
100
AcDbEntity
  8
8
100
AcDbBlockEnd
  0
BLOCK
  5
241
330
23E
100
AcDbEntity
  8
4
100
AcDbBlockBegin
  2
TEMP3
 70
     0
 10
0.0
 20
0.0
 30
0.0
  3
TEMP3
  1

  0
TEXT
  5
23F
330
23E
100
AcDbEntity
  8
8
100
AcDbText
 10
0.03
 20
0.0619999999999998
 30
0.0
 40
0.07
  1
HANDLE & P/A
 50
90.0
  7
ROMANS
100
AcDbText
  0
TEXT
  5
240
330
23E
100
AcDbEntity
  8
8
100
AcDbText
 10
0.03
 20
-1.33310960351371
 30
0.0
 40
0.07
  1
LOCK ESCUTCHEON
 50
90.0
  7
ROMANS
 72
     2
 11
0.03
 21
-0.3264429368470441
 31
0.0
100
AcDbText
  0
ENDBLK
  5
242
330
23E
100
AcDbEntity
  8
4
100
AcDbBlockEnd
  0
BLOCK
  5
67C
330
5B8
100
AcDbEntity
  8
0
100
AcDbBlockBegin
  2
Le1002
 70
     0
 10
0.0
 20
0.0
 30
0.0
  3
Le1002
  1

  0
TEXT
  5
5B9
330
5B8
100
AcDbEntity
  8
8
100
AcDbText
 10
5.2125
 20
1.708979331896792
 30
0.0
 40
0.07
  1
DEPTH
  7
ROMANS
 72
     1
 11
5.3775
 21
1.708979331896792
 31
0.0
100
AcDbText
  0
TEXT
  5
5BA
330
5B8
100
AcDbEntity
  8
8
100
AcDbText
 10
6.834999999999999
 20
1.708979331896792
 30
0.0
 40
0.07
  1
DEPTH
  7
ROMANS
 72
     1
 11
7.0
 21
1.708979331896792
 31
0.0
100
AcDbText
  0
TEXT
  5
5BB
330
5B8
100
AcDbEntity
  8
8
100
AcDbText
 10
6.899267058502116
 20
0.7466010068253098
 30
0.0
 40
0.1
  1
DR
  7
ROMANS
 72
     1
 11
7.001648010883068
 21
0.7466010068253098
 31
0.0
100
AcDbText
  0
TEXT
  5
5BC
330
5B8
100
AcDbEntity
  8
8
100
AcDbText
 10
5.794389324558379
 20
0.5620000000000003
 30
0.0
 40
0.1
  1
SECTIONS
  7
ROMANS
 72
     1
 11
6.146770276939331
 21
0.5620000000000003
 31
0.0
100
AcDbText
  0
TEXT
  5
5BD
330
5B8
100
AcDbEntity
  8
8
100
AcDbText
 10
5.302053163126957
 20
0.7466010068253098
 30
0.0
 40
0.1
  1
SR
  7
ROMANS
 72
     1
 11
5.399672210746004
 21
0.7466010068253098
 31
0.0
100
AcDbText
  0
LINE
  5
5BE
330
5B8
100
AcDbEntity
  8
4
100
AcDbLine
 10
5.628
 20
4.25
 30
0.0
 11
5.891731602665403
 21
4.25
 31
0.0
  0
LINE
  5
5BF
330
5B8
100
AcDbEntity
  8
4
100
AcDbLine
 10
5.93215881233783
 20
4.25
 30
0.0
 11
6.112622609161773
 21
4.25
 31
0.0
  0
INSERT
  5
5C0
330
5B8
100
AcDbEntity
  8
4
100
AcDbBlockReference
  2
ARRO
 10
5.93215881233783
 20
4.25
 30
0.0
  0
LINE
  5
5C1
330
5B8
100
AcDbEntity
  8
4
100
AcDbLine
 10
6.112622609161773
 20
4.25
 30
0.0
 11
6.112622609161773
 21
4.047012330209487
 31
0.0
  0
TEXT
  5
5C2
330
5B8
100
AcDbEntity
  8
8
100
AcDbText
 10
6.147622609161773
 20
2.671678996876154
 30
0.0
 40
0.07
  1
ANCHORING BY ERECTOR
 50
90.0
  7
ROMANS
 72
     2
 11
6.147622609161773
 21
3.985012330209487
 31
0.0
100
AcDbText
  0
TEXT
  5
5C3
330
5B8
100
AcDbEntity
  8
8
100
AcDbText
 10
4.500499999999999
 20
2.578333333333333
 30
0.0
 40
0.07
  1
LOCKER HEIGHT
 50
90.0
  7
ROMANS
 72
     1
 11
4.500499999999999
 21
3.0
 31
0.0
100
AcDbText
  0
TEXT
  5
5C4
330
5B8
100
AcDbEntity
  8
8
100
AcDbText
 10
1.344999999999998
 20
1.062
 30
0.0
 40
0.07
  1
LOCKER WIDTH - SEE SCHEDULE
  7
ROMANS
 72
     1
 11
2.249999999999999
 21
1.062
 31
0.0
100
AcDbText
  0
TEXT
  5
5C5
330
5B8
100
AcDbEntity
  8
8
100
AcDbText
 10
1.585714285714285
 20
0.5620000000000003
 30
0.0
 40
0.1
  1
FRONT ELEVATION
  7
ROMANS
 72
     1
 11
2.249999999999999
 21
0.5620000000000003
 31
0.0
100
AcDbText
  0
LINE
  5
5C6
330
5B8
100
AcDbEntity
  8
1
100
AcDbLine
 10
0.0
 20
0.0
 30
0.0
 11
8.25
 21
0.0
 31
0.0
  0
LINE
  5
5C7
330
5B8
100
AcDbEntity
  8
1
100
AcDbLine
 10
8.25
 20
0.0
 30
0.0
 11
8.25
 21
5.25
 31
0.0
  0
LINE
  5
5C8
330
5B8
100
AcDbEntity
  8
1
100
AcDbLine
 10
8.25
 20
5.25
 30
0.0
 11
0.0
 21
5.25
 31
0.0
  0
LINE
  5
5C9
330
5B8
100
AcDbEntity
  8
1
100
AcDbLine
 10
0.0
 20
5.25
 30
0.0
 11
0.0
 21
0.0
 31
0.0
  0
LINE
  5
5CA
330
5B8
100
AcDbEntity
  8
1
100
AcDbLine
 10
1.0
 20
1.5
 30
0.0
 11
2.5
 21
1.5
 31
0.0
  0
LINE
  5
5CB
330
5B8
100
AcDbEntity
  8
1
100
AcDbLine
 10
1.0
 20
1.5
 30
0.0
 11
1.0
 21
4.5
 31
0.0
  0
LINE
  5
5CC
330
5B8
100
AcDbEntity
  8
1
100
AcDbLine
 10
1.0
 20
4.5
 30
0.0
 11
2.5
 21
4.5
 31
0.0
  0
LINE
  5
5CD
330
5B8
100
AcDbEntity
  8
1
100
AcDbLine
 10
2.625
 20
4.5
 30
0.0
 11
3.5
 21
4.5
 31
0.0
  0
LINE
  5
5CE
330
5B8
100
AcDbEntity
  8
1
100
AcDbLine
 10
3.5
 20
4.5
 30
0.0
 11
3.499999999999999
 21
1.5
 31
0.0
  0
LINE
  5
5CF
330
5B8
100
AcDbEntity
  8
1
100
AcDbLine
 10
3.499999999999999
 20
1.5
 30
0.0
 11
2.624999999999999
 21
1.5
 31
0.0
  0
LINE
  5
5D0
330
5B8
100
AcDbEntity
  8
1
100
AcDbLine
 10
7.0
 20
1.5
 30
0.0
 11
7.0
 21
4.5
 31
0.0
  0
LINE
  5
5D1
330
5B8
100
AcDbEntity
  8
1
100
AcDbLine
 10
5.75
 20
1.5
 30
0.0
 11
5.75
 21
4.875
 31
0.0
  0
CIRCLE
  5
5D2
330
5B8
100
AcDbEntity
  8
1
100
AcDbCircle
 10
4.125
 20
0.5
 30
0.0
 40
0.1875
  0
LINE
  5
5D3
330
5B8
100
AcDbEntity
  8
1
100
AcDbLine
 10
2.625
 20
4.625
 30
0.0
 11
2.625
 21
3.709974179311579
 31
0.0
  0
LINE
  5
5D4
330
5B8
100
AcDbEntity
  8
1
100
AcDbLine
 10
2.5
 20
4.625
 30
0.0
 11
2.5
 21
4.344974179311579
 31
0.0
  0
LINE
  5
5D5
330
5B8
100
AcDbEntity
  8
1
100
AcDbLine
 10
2.455
 20
4.389974179311579
 30
0.0
 11
2.544999999999999
 21
4.299974179311579
 31
0.0
  0
LINE
  5
5D6
330
5B8
100
AcDbEntity
  8
1
100
AcDbLine
 10
2.544999999999999
 20
4.299974179311579
 30
0.0
 11
2.455
 21
4.299974179311579
 31
0.0
  0
LINE
  5
5D7
330
5B8
100
AcDbEntity
  8
1
100
AcDbLine
 10
2.455
 20
4.299974179311579
 30
0.0
 11
2.544999999999999
 21
4.209974179311579
 31
0.0
  0
LINE
  5
5D8
330
5B8
100
AcDbEntity
  8
1
100
AcDbLine
 10
2.512196030826982
 20
4.242778148484597
 30
0.0
 11
2.512196030826982
 21
3.07567852914767
 31
0.0
  0
LINE
  5
5D9
330
5B8
100
AcDbEntity
  8
1
100
AcDbLine
 10
2.454999999999999
 20
3.049974179311579
 30
0.0
 11
2.544999999999999
 21
2.959974179311579
 31
0.0
  0
LINE
  5
5DA
330
5B8
100
AcDbEntity
  8
1
100
AcDbLine
 10
2.544999999999999
 20
3.049974179311579
 30
0.0
 11
2.454999999999999
 21
3.049974179311579
 31
0.0
  0
LINE
  5
5DB
330
5B8
100
AcDbEntity
  8
1
100
AcDbLine
 10
2.454999999999999
 20
3.139974179311579
 30
0.0
 11
2.544999999999999
 21
3.049974179311579
 31
0.0
  0
LINE
  5
5DC
330
5B8
100
AcDbEntity
  8
1
100
AcDbLine
 10
2.454999999999999
 20
1.799974179311579
 30
0.0
 11
2.544999999999999
 21
1.709974179311579
 31
0.0
  0
LINE
  5
5DD
330
5B8
100
AcDbEntity
  8
1
100
AcDbLine
 10
2.544999999999999
 20
1.799974179311579
 30
0.0
 11
2.454999999999999
 21
1.799974179311579
 31
0.0
  0
LINE
  5
5DE
330
5B8
100
AcDbEntity
  8
1
100
AcDbLine
 10
2.454999999999999
 20
1.889974179311579
 30
0.0
 11
2.544999999999999
 21
1.799974179311579
 31
0.0
  0
LINE
  5
5DF
330
5B8
100
AcDbEntity
  8
1
100
AcDbLine
 10
2.5
 20
3.004974179311579
 30
0.0
 11
2.5
 21
2.469974179311579
 31
0.0
  0
LINE
  5
5E0
330
5B8
100
AcDbEntity
  8
1
100
AcDbLine
 10
2.5
 20
2.469974179311579
 30
0.0
 11
2.499999999999999
 21
1.844974179311579
 31
0.0
  0
LINE
  5
5E1
330
5B8
100
AcDbEntity
  8
1
100
AcDbLine
 10
2.499999999999999
 20
1.754974179311579
 30
0.0
 11
2.499999999999999
 21
1.375
 31
0.0
  0
LINE
  5
5E2
330
5B8
100
AcDbEntity
  8
1
100
AcDbLine
 10
2.579999999999999
 20
2.514974179311579
 30
0.0
 11
2.669999999999999
 21
2.424974179311579
 31
0.0
  0
LINE
  5
5E3
330
5B8
100
AcDbEntity
  8
1
100
AcDbLine
 10
2.669999999999999
 20
2.424974179311579
 30
0.0
 11
2.579999999999999
 21
2.424974179311579
 31
0.0
  0
LINE
  5
5E4
330
5B8
100
AcDbEntity
  8
1
100
AcDbLine
 10
2.579999999999999
 20
2.424974179311579
 30
0.0
 11
2.669999999999999
 21
2.334974179311579
 31
0.0
  0
LINE
  5
5E5
330
5B8
100
AcDbEntity
  8
1
100
AcDbLine
 10
2.58
 20
3.754974179311579
 30
0.0
 11
2.669999999999999
 21
3.664974179311579
 31
0.0
  0
LINE
  5
5E6
330
5B8
100
AcDbEntity
  8
1
100
AcDbLine
 10
2.669999999999999
 20
3.664974179311579
 30
0.0
 11
2.58
 21
3.664974179311579
 31
0.0
  0
LINE
  5
5E7
330
5B8
100
AcDbEntity
  8
1
100
AcDbLine
 10
2.58
 20
3.664974179311579
 30
0.0
 11
2.669999999999999
 21
3.574974179311579
 31
0.0
  0
LINE
  5
5E8
330
5B8
100
AcDbEntity
  8
1
100
AcDbLine
 10
2.625
 20
3.625967704151865
 30
0.0
 11
2.625
 21
2.782474179311579
 31
0.0
  0
LINE
  5
5E9
330
5B8
100
AcDbEntity
  8
1
100
AcDbLine
 10
2.625
 20
2.782474179311579
 30
0.0
 11
2.625
 21
2.469974179311579
 31
0.0
  0
LINE
  5
5EA
330
5B8
100
AcDbEntity
  8
1
100
AcDbLine
 10
2.625
 20
2.379974179311579
 30
0.0
 11
2.624999999999999
 21
1.375
 31
0.0
  0
LINE
  5
5EB
330
5B8
100
AcDbEntity
  8
1
100
AcDbLine
 10
5.75
 20
1.5
 30
0.0
 11
5.937999999999999
 21
1.687999999999999
 31
0.0
  0
LINE
  5
5EC
330
5B8
100
AcDbEntity
  8
1
100
AcDbLine
 10
5.75
 20
1.625
 30
0.0
 11
5.937999999999999
 21
1.812999999999999
 31
0.0
  0
LINE
  5
5ED
330
5B8
100
AcDbEntity
  8
1
100
AcDbLine
 10
5.75
 20
2.0
 30
0.0
 11
5.937999999999999
 21
2.187999999999999
 31
0.0
  0
LINE
  5
5EE
330
5B8
100
AcDbEntity
  8
1
100
AcDbLine
 10
5.75
 20
2.125
 30
0.0
 11
5.937999999999999
 21
2.312999999999999
 31
0.0
  0
LINE
  5
5EF
330
5B8
100
AcDbEntity
  8
1
100
AcDbLine
 10
5.75
 20
2.25
 30
0.0
 11
5.937999999999999
 21
2.437999999999999
 31
0.0
  0
LINE
  5
5F0
330
5B8
100
AcDbEntity
  8
1
100
AcDbLine
 10
5.75
 20
2.375
 30
0.0
 11
5.937999999999999
 21
2.562999999999999
 31
0.0
  0
LINE
  5
5F1
330
5B8
100
AcDbEntity
  8
1
100
AcDbLine
 10
5.75
 20
2.5
 30
0.0
 11
5.937999999999999
 21
2.687999999999999
 31
0.0
  0
LINE
  5
5F2
330
5B8
100
AcDbEntity
  8
1
100
AcDbLine
 10
5.75
 20
2.625
 30
0.0
 11
5.937999999999999
 21
2.812999999999999
 31
0.0
  0
LINE
  5
5F3
330
5B8
100
AcDbEntity
  8
1
100
AcDbLine
 10
5.75
 20
2.75
 30
0.0
 11
5.937999999999999
 21
2.937999999999999
 31
0.0
  0
LINE
  5
5F4
330
5B8
100
AcDbEntity
  8
1
100
AcDbLine
 10
5.75
 20
2.875
 30
0.0
 11
5.937999999999999
 21
3.062999999999999
 31
0.0
  0
LINE
  5
5F5
330
5B8
100
AcDbEntity
  8
1
100
AcDbLine
 10
5.75
 20
3.0
 30
0.0
 11
5.937999999999999
 21
3.187999999999999
 31
0.0
  0
LINE
  5
5F6
330
5B8
100
AcDbEntity
  8
1
100
AcDbLine
 10
5.75
 20
3.125
 30
0.0
 11
5.937999999999999
 21
3.312999999999999
 31
0.0
  0
LINE
  5
5F7
330
5B8
100
AcDbEntity
  8
1
100
AcDbLine
 10
5.75
 20
3.25
 30
0.0
 11
5.937999999999999
 21
3.437999999999999
 31
0.0
  0
LINE
  5
5F8
330
5B8
100
AcDbEntity
  8
1
100
AcDbLine
 10
5.75
 20
3.375
 30
0.0
 11
5.937999999999999
 21
3.562999999999999
 31
0.0
  0
LINE
  5
5F9
330
5B8
100
AcDbEntity
  8
1
100
AcDbLine
 10
5.75
 20
3.5
 30
0.0
 11
5.937999999999999
 21
3.687999999999999
 31
0.0
  0
LINE
  5
5FA
330
5B8
100
AcDbEntity
  8
1
100
AcDbLine
 10
5.75
 20
3.625
 30
0.0
 11
5.937999999999999
 21
3.812999999999999
 31
0.0
  0
LINE
  5
5FB
330
5B8
100
AcDbEntity
  8
1
100
AcDbLine
 10
5.75
 20
3.75
 30
0.0
 11
5.937999999999999
 21
3.937999999999999
 31
0.0
  0
LINE
  5
5FC
330
5B8
100
AcDbEntity
  8
1
100
AcDbLine
 10
5.75
 20
3.875
 30
0.0
 11
5.937999999999999
 21
4.062999999999999
 31
0.0
  0
LINE
  5
5FD
330
5B8
100
AcDbEntity
  8
1
100
AcDbLine
 10
5.75
 20
4.0
 30
0.0
 11
5.937999999999999
 21
4.187999999999999
 31
0.0
  0
LINE
  5
5FE
330
5B8
100
AcDbEntity
  8
1
100
AcDbLine
 10
5.75
 20
4.125
 30
0.0
 11
5.937999999999999
 21
4.312999999999999
 31
0.0
  0
LINE
  5
5FF
330
5B8
100
AcDbEntity
  8
1
100
AcDbLine
 10
5.75
 20
4.25
 30
0.0
 11
5.937999999999999
 21
4.437999999999999
 31
0.0
  0
LINE
  5
600
330
5B8
100
AcDbEntity
  8
1
100
AcDbLine
 10
5.75
 20
4.375
 30
0.0
 11
5.937999999999999
 21
4.562999999999999
 31
0.0
  0
LINE
  5
601
330
5B8
100
AcDbEntity
  8
1
100
AcDbLine
 10
5.75
 20
4.5
 30
0.0
 11
5.937999999999999
 21
4.687999999999999
 31
0.0
  0
LINE
  5
602
330
5B8
100
AcDbEntity
  8
1
100
AcDbLine
 10
5.75
 20
4.625
 30
0.0
 11
5.937999999999999
 21
4.812999999999999
 31
0.0
  0
LINE
  5
603
330
5B8
100
AcDbEntity
  8
1
100
AcDbLine
 10
5.75
 20
4.75
 30
0.0
 11
5.875
 21
4.875
 31
0.0
  0
LINE
  5
604
330
5B8
100
AcDbEntity
  8
1
100
AcDbLine
 10
5.69
 20
1.5
 30
0.0
 11
5.69
 21
4.5
 31
0.0
  0
LINE
  5
605
330
5B8
100
AcDbEntity
  8
4
100
AcDbLine
 10
1.0
 20
1.437999999999999
 30
0.0
 11
0.9999999999999998
 21
0.9379999999999999
 31
0.0
  0
LINE
  5
606
330
5B8
100
AcDbEntity
  8
4
100
AcDbLine
 10
3.499999999999999
 20
1.437999999999999
 30
0.0
 11
3.499999999999999
 21
0.9379999999999999
 31
0.0
  0
LINE
  5
607
330
5B8
100
AcDbEntity
  8
4
100
AcDbLine
 10
3.499999999999999
 20
1.0
 30
0.0
 11
0.9999999999999998
 21
1.0
 31
0.0
  0
INSERT
  5
608
330
5B8
100
AcDbEntity
  8
4
100
AcDbBlockReference
  2
ARRO
 10
0.9999999999999998
 20
1.0
 30
0.0
  0
INSERT
  5
609
330
5B8
100
AcDbEntity
  8
4
100
AcDbBlockReference
  2
ARRO
 10
3.499999999999999
 20
0.9999999999999998
 30
0.0
 50
180.0
  0
LINE
  5
60A
330
5B8
100
AcDbEntity
  8
4
100
AcDbLine
 10
5.0025
 20
1.5
 30
0.0
 11
4.5025
 21
1.5
 31
0.0
  0
LINE
  5
60B
330
5B8
100
AcDbEntity
  8
4
100
AcDbLine
 10
4.5625
 20
1.5
 30
0.0
 11
4.5625
 21
4.5
 31
0.0
  0
LINE
  5
60C
330
5B8
100
AcDbEntity
  8
4
100
AcDbLine
 10
5.0025
 20
4.5
 30
0.0
 11
4.5025
 21
4.5
 31
0.0
  0
INSERT
  5
60D
330
5B8
100
AcDbEntity
  8
4
100
AcDbBlockReference
  2
ARRO
 10
4.5625
 20
4.5
 30
0.0
 50
270.0
  0
INSERT
  5
60E
330
5B8
100
AcDbEntity
  8
4
100
AcDbBlockReference
  2
ARRO
 10
4.5625
 20
1.5
 30
0.0
 50
90.0
  0
LINE
  5
60F
330
5B8
100
AcDbEntity
  8
4
100
AcDbLine
 10
5.69
 20
1.8125
 30
0.0
 11
5.065
 21
1.8125
 31
0.0
  0
LINE
  5
610
330
5B8
100
AcDbEntity
  8
4
100
AcDbLine
 10
5.75
 20
1.8125
 30
0.0
 11
6.0
 21
1.8125
 31
0.0
  0
LINE
  5
611
330
5B8
100
AcDbEntity
  8
4
100
AcDbLine
 10
6.375
 20
1.8125
 30
0.0
 11
7.625
 21
1.8125
 31
0.0
  0
INSERT
  5
612
330
5B8
100
AcDbEntity
  8
4
100
AcDbBlockReference
  2
ARRO
 10
5.065
 20
1.8125
 30
0.0
  0
INSERT
  5
613
330
5B8
100
AcDbEntity
  8
4
100
AcDbBlockReference
  2
ARRO
 10
5.69
 20
1.8125
 30
0.0
 50
180.0
  0
INSERT
  5
614
330
5B8
100
AcDbEntity
  8
4
100
AcDbBlockReference
  2
ARRO
 10
5.75
 20
1.8125
 30
0.0
  0
INSERT
  5
615
330
5B8
100
AcDbEntity
  8
4
100
AcDbBlockReference
  2
ARRO
 10
6.375
 20
1.8125
 30
0.0
  0
INSERT
  5
616
330
5B8
100
AcDbEntity
  8
4
100
AcDbBlockReference
  2
ARRO
 10
7.625
 20
1.8125
 30
0.0
 50
180.0
  0
LINE
  5
617
330
5B8
100
AcDbEntity
  8
1
100
AcDbLine
 10
1.062
 20
1.562
 30
0.0
 11
1.062
 21
2.96900587855713
 31
0.0
  0
LINE
  5
618
330
5B8
100
AcDbEntity
  8
1
100
AcDbLine
 10
1.062
 20
4.438
 30
0.0
 11
1.563
 21
4.438
 31
0.0
  0
LINE
  5
619
330
5B8
100
AcDbEntity
  8
1
100
AcDbLine
 10
1.563
 20
4.438
 30
0.0
 11
1.562999999999999
 21
3.03100587855713
 31
0.0
  0
LINE
  5
61A
330
5B8
100
AcDbEntity
  8
1
100
AcDbLine
 10
1.687
 20
1.562
 30
0.0
 11
1.687
 21
2.96900587855713
 31
0.0
  0
LINE
  5
61B
330
5B8
100
AcDbEntity
  8
1
100
AcDbLine
 10
1.687
 20
4.438
 30
0.0
 11
2.188
 21
4.438
 31
0.0
  0
LINE
  5
61C
330
5B8
100
AcDbEntity
  8
1
100
AcDbLine
 10
2.188
 20
4.438
 30
0.0
 11
2.188
 21
3.03100587855713
 31
0.0
  0
LINE
  5
61D
330
5B8
100
AcDbEntity
  8
1
100
AcDbLine
 10
2.187999999999999
 20
1.562
 30
0.0
 11
1.687
 21
1.562
 31
0.0
  0
LINE
  5
61E
330
5B8
100
AcDbEntity
  8
1
100
AcDbLine
 10
2.312
 20
1.562
 30
0.0
 11
2.312
 21
2.96900587855713
 31
0.0
  0
LINE
  5
61F
330
5B8
100
AcDbEntity
  8
1
100
AcDbLine
 10
2.312
 20
4.438
 30
0.0
 11
2.5
 21
4.438
 31
0.0
  0
LINE
  5
620
330
5B8
100
AcDbEntity
  8
1
100
AcDbLine
 10
2.813
 20
4.438
 30
0.0
 11
2.813
 21
3.03100587855713
 31
0.0
  0
LINE
  5
621
330
5B8
100
AcDbEntity
  8
1
100
AcDbLine
 10
2.812999999999999
 20
1.562
 30
0.0
 11
2.625
 21
1.562
 31
0.0
  0
LINE
  5
622
330
5B8
100
AcDbEntity
  8
1
100
AcDbLine
 10
2.937
 20
1.562
 30
0.0
 11
2.937
 21
2.96900587855713
 31
0.0
  0
LINE
  5
623
330
5B8
100
AcDbEntity
  8
1
100
AcDbLine
 10
2.937
 20
4.438
 30
0.0
 11
3.438
 21
4.438
 31
0.0
  0
LINE
  5
624
330
5B8
100
AcDbEntity
  8
1
100
AcDbLine
 10
3.438
 20
4.438
 30
0.0
 11
3.438
 21
3.03100587855713
 31
0.0
  0
LINE
  5
625
330
5B8
100
AcDbEntity
  8
1
100
AcDbLine
 10
3.437999999999999
 20
1.562
 30
0.0
 11
2.937
 21
1.562
 31
0.0
  0
LINE
  5
626
330
5B8
100
AcDbEntity
  8
1
100
AcDbLine
 10
1.625
 20
1.5
 30
0.0
 11
1.625
 21
4.5
 31
0.0
  0
LINE
  5
627
330
5B8
100
AcDbEntity
  8
1
100
AcDbLine
 10
2.25
 20
1.5
 30
0.0
 11
2.25
 21
4.5
 31
0.0
  0
LINE
  5
628
330
5B8
100
AcDbEntity
  8
1
100
AcDbLine
 10
2.875
 20
1.5
 30
0.0
 11
2.875
 21
4.5
 31
0.0
  0
LINE
  5
629
330
5B8
100
AcDbEntity
  8
1
100
AcDbLine
 10
2.625
 20
4.438
 30
0.0
 11
2.813
 21
4.438
 31
0.0
  0
LINE
  5
62A
330
5B8
100
AcDbEntity
  8
1
100
AcDbLine
 10
2.499999999999999
 20
1.562
 30
0.0
 11
2.312
 21
1.562
 31
0.0
  0
LINE
  5
62B
330
5B8
100
AcDbEntity
  8
4
100
AcDbLine
 10
1.9375
 20
4.406
 30
0.0
 11
1.9375
 21
4.531
 31
0.0
  0
CIRCLE
  5
62C
330
5B8
100
AcDbEntity
  8
4
100
AcDbCircle
 10
1.9375
 20
4.312
 30
0.0
 40
0.094
  0
CIRCLE
  5
62D
330
5B8
100
AcDbEntity
  8
4
100
AcDbCircle
 10
1.778866710308013
 20
1.373999999999999
 30
0.0
 40
0.094
  0
LINE
  5
62E
330
5B8
100
AcDbEntity
  8
4
100
AcDbLine
 10
1.778866710308013
 20
1.467999999999999
 30
0.0
 11
1.778866710308013
 21
1.592999999999999
 31
0.0
  0
CIRCLE
  5
62F
330
5B8
100
AcDbEntity
  8
4
100
AcDbCircle
 10
2.028866710308013
 20
1.373999999999999
 30
0.0
 40
0.094
  0
LINE
  5
630
330
5B8
100
AcDbEntity
  8
4
100
AcDbLine
 10
1.872866710308013
 20
1.373999999999999
 30
0.0
 11
1.934866710308013
 21
1.373999999999999
 31
0.0
  0
LINE
  5
631
330
5B8
100
AcDbEntity
  8
1
100
AcDbLine
 10
1.062
 20
1.562
 30
0.0
 11
1.562999999999999
 21
1.562
 31
0.0
  0
LINE
  5
632
330
5B8
100
AcDbEntity
  8
1
100
AcDbLine
 10
5.203499999999999
 20
4.5
 30
0.0
 11
5.188499999999999
 21
4.484999999999999
 31
0.0
  0
LINE
  5
633
330
5B8
100
AcDbEntity
  8
1
100
AcDbLine
 10
5.188499999999999
 20
4.484999999999999
 30
0.0
 11
5.090499999999999
 21
4.484999999999999
 31
0.0
  0
LINE
  5
634
330
5B8
100
AcDbEntity
  8
1
100
AcDbLine
 10
5.090499999999999
 20
4.484999999999999
 30
0.0
 11
5.090499999999999
 21
4.456753857562439
 31
0.0
  0
LINE
  5
635
330
5B8
100
AcDbEntity
  8
1
100
AcDbLine
 10
5.265499999999999
 20
4.437999999999999
 30
0.0
 11
5.203499999999999
 21
4.5
 31
0.0
  0
LINE
  5
636
330
5B8
100
AcDbEntity
  8
1
100
AcDbLine
 10
5.630499999999999
 20
4.437999999999999
 30
0.0
 11
5.265499999999999
 21
4.437999999999999
 31
0.0
  0
LINE
  5
637
330
5B8
100
AcDbEntity
  8
1
100
AcDbLine
 10
5.630499999999999
 20
4.5
 30
0.0
 11
5.630499999999999
 21
4.437999999999999
 31
0.0
  0
LINE
  5
638
330
5B8
100
AcDbEntity
  8
1
100
AcDbLine
 10
5.670499999999999
 20
4.5
 30
0.0
 11
5.670499999999999
 21
4.437999999999999
 31
0.0
  0
LINE
  5
639
330
5B8
100
AcDbEntity
  8
1
100
AcDbLine
 10
5.065499999999999
 20
4.5
 30
0.0
 11
5.173499999999998
 21
4.5
 31
0.0
  0
LINE
  5
63A
330
5B8
100
AcDbEntity
  8
1
100
AcDbLine
 10
5.065499999999999
 20
4.437999999999999
 30
0.0
 11
5.065499999999999
 21
4.5
 31
0.0
  0
LINE
  5
63B
330
5B8
100
AcDbEntity
  8
1
100
AcDbLine
 10
5.127499999999999
 20
4.437999999999999
 30
0.0
 11
5.065499999999999
 21
4.437999999999999
 31
0.0
  0
LINE
  5
63C
330
5B8
100
AcDbEntity
  8
1
100
AcDbLine
 10
5.203499999999999
 20
4.5
 30
0.0
 11
5.670499999999999
 21
4.5
 31
0.0
  0
LINE
  5
63D
330
5B8
100
AcDbEntity
  8
1
100
AcDbLine
 10
6.513499999999998
 20
4.5
 30
0.0
 11
6.980499999999999
 21
4.5
 31
0.0
  0
LINE
  5
63E
330
5B8
100
AcDbEntity
  8
1
100
AcDbLine
 10
6.437499999999999
 20
4.437999999999999
 30
0.0
 11
6.375499999999998
 21
4.437999999999999
 31
0.0
  0
LINE
  5
63F
330
5B8
100
AcDbEntity
  8
1
100
AcDbLine
 10
6.375499999999998
 20
4.437999999999999
 30
0.0
 11
6.375499999999998
 21
4.5
 31
0.0
  0
LINE
  5
640
330
5B8
100
AcDbEntity
  8
1
100
AcDbLine
 10
6.375499999999998
 20
4.5
 30
0.0
 11
6.483499999999998
 21
4.5
 31
0.0
  0
LINE
  5
641
330
5B8
100
AcDbEntity
  8
1
100
AcDbLine
 10
6.980499999999999
 20
4.5
 30
0.0
 11
6.980499999999999
 21
4.437999999999999
 31
0.0
  0
LINE
  5
642
330
5B8
100
AcDbEntity
  8
1
100
AcDbLine
 10
6.940499999999999
 20
4.5
 30
0.0
 11
6.940499999999999
 21
4.437999999999999
 31
0.0
  0
LINE
  5
643
330
5B8
100
AcDbEntity
  8
1
100
AcDbLine
 10
6.940499999999999
 20
4.437999999999999
 30
0.0
 11
6.575499999999999
 21
4.437999999999999
 31
0.0
  0
LINE
  5
644
330
5B8
100
AcDbEntity
  8
1
100
AcDbLine
 10
6.575499999999999
 20
4.437999999999999
 30
0.0
 11
6.513499999999998
 21
4.5
 31
0.0
  0
LINE
  5
645
330
5B8
100
AcDbEntity
  8
1
100
AcDbLine
 10
6.400499999999999
 20
4.484999999999999
 30
0.0
 11
6.400499999999999
 21
4.456753857562439
 31
0.0
  0
LINE
  5
646
330
5B8
100
AcDbEntity
  8
1
100
AcDbLine
 10
6.498499999999999
 20
4.484999999999999
 30
0.0
 11
6.400499999999999
 21
4.484999999999999
 31
0.0
  0
LINE
  5
647
330
5B8
100
AcDbEntity
  8
1
100
AcDbLine
 10
6.513499999999998
 20
4.5
 30
0.0
 11
6.498499999999999
 21
4.484999999999999
 31
0.0
  0
LINE
  5
648
330
5B8
100
AcDbEntity
  8
1
100
AcDbLine
 10
7.486500000000001
 20
4.5
 30
0.0
 11
7.5015
 21
4.484999999999999
 31
0.0
  0
LINE
  5
649
330
5B8
100
AcDbEntity
  8
1
100
AcDbLine
 10
7.5015
 20
4.484999999999999
 30
0.0
 11
7.5995
 21
4.484999999999999
 31
0.0
  0
LINE
  5
64A
330
5B8
100
AcDbEntity
  8
1
100
AcDbLine
 10
7.5995
 20
4.484999999999999
 30
0.0
 11
7.5995
 21
4.456753857562439
 31
0.0
  0
LINE
  5
64B
330
5B8
100
AcDbEntity
  8
1
100
AcDbLine
 10
7.4245
 20
4.437999999999999
 30
0.0
 11
7.486500000000001
 21
4.5
 31
0.0
  0
LINE
  5
64C
330
5B8
100
AcDbEntity
  8
1
100
AcDbLine
 10
7.0595
 20
4.437999999999999
 30
0.0
 11
7.4245
 21
4.437999999999999
 31
0.0
  0
LINE
  5
64D
330
5B8
100
AcDbEntity
  8
1
100
AcDbLine
 10
7.0595
 20
4.5
 30
0.0
 11
7.0595
 21
4.437999999999999
 31
0.0
  0
LINE
  5
64E
330
5B8
100
AcDbEntity
  8
1
100
AcDbLine
 10
7.0195
 20
4.5
 30
0.0
 11
7.0195
 21
4.437999999999999
 31
0.0
  0
LINE
  5
64F
330
5B8
100
AcDbEntity
  8
1
100
AcDbLine
 10
7.624500000000001
 20
4.5
 30
0.0
 11
7.516500000000001
 21
4.5
 31
0.0
  0
LINE
  5
650
330
5B8
100
AcDbEntity
  8
1
100
AcDbLine
 10
7.624500000000001
 20
4.437999999999999
 30
0.0
 11
7.624500000000001
 21
4.5
 31
0.0
  0
LINE
  5
651
330
5B8
100
AcDbEntity
  8
1
100
AcDbLine
 10
7.5625
 20
4.437999999999999
 30
0.0
 11
7.624500000000001
 21
4.437999999999999
 31
0.0
  0
LINE
  5
652
330
5B8
100
AcDbEntity
  8
1
100
AcDbLine
 10
7.486500000000001
 20
4.5
 30
0.0
 11
7.0195
 21
4.5
 31
0.0
  0
LINE
  5
653
330
5B8
100
AcDbEntity
  8
1
100
AcDbLine
 10
7.486500000000001
 20
1.5625
 30
0.0
 11
7.0195
 21
1.5625
 31
0.0
  0
LINE
  5
654
330
5B8
100
AcDbEntity
  8
1
100
AcDbLine
 10
7.5625
 20
1.500499999999999
 30
0.0
 11
7.624500000000001
 21
1.500499999999999
 31
0.0
  0
LINE
  5
655
330
5B8
100
AcDbEntity
  8
1
100
AcDbLine
 10
7.624500000000001
 20
1.500499999999999
 30
0.0
 11
7.624500000000001
 21
1.5625
 31
0.0
  0
LINE
  5
656
330
5B8
100
AcDbEntity
  8
1
100
AcDbLine
 10
7.624500000000001
 20
1.5625
 30
0.0
 11
7.516500000000001
 21
1.5625
 31
0.0
  0
LINE
  5
657
330
5B8
100
AcDbEntity
  8
1
100
AcDbLine
 10
7.0195
 20
1.5625
 30
0.0
 11
7.0195
 21
1.500499999999999
 31
0.0
  0
LINE
  5
658
330
5B8
100
AcDbEntity
  8
1
100
AcDbLine
 10
7.0595
 20
1.5625
 30
0.0
 11
7.0595
 21
1.500499999999999
 31
0.0
  0
LINE
  5
659
330
5B8
100
AcDbEntity
  8
1
100
AcDbLine
 10
7.0595
 20
1.500499999999999
 30
0.0
 11
7.4245
 21
1.500499999999999
 31
0.0
  0
LINE
  5
65A
330
5B8
100
AcDbEntity
  8
1
100
AcDbLine
 10
7.4245
 20
1.500499999999999
 30
0.0
 11
7.486500000000001
 21
1.5625
 31
0.0
  0
LINE
  5
65B
330
5B8
100
AcDbEntity
  8
1
100
AcDbLine
 10
7.5995
 20
1.547499999999999
 30
0.0
 11
7.5995
 21
1.519253857562439
 31
0.0
  0
LINE
  5
65C
330
5B8
100
AcDbEntity
  8
1
100
AcDbLine
 10
7.5015
 20
1.547499999999999
 30
0.0
 11
7.5995
 21
1.547499999999999
 31
0.0
  0
LINE
  5
65D
330
5B8
100
AcDbEntity
  8
1
100
AcDbLine
 10
7.486500000000001
 20
1.5625
 30
0.0
 11
7.5015
 21
1.547499999999999
 31
0.0
  0
LINE
  5
65E
330
5B8
100
AcDbEntity
  8
1
100
AcDbLine
 10
6.513499999999998
 20
1.5625
 30
0.0
 11
6.498499999999999
 21
1.547499999999999
 31
0.0
  0
LINE
  5
65F
330
5B8
100
AcDbEntity
  8
1
100
AcDbLine
 10
6.498499999999999
 20
1.547499999999999
 30
0.0
 11
6.400499999999999
 21
1.547499999999999
 31
0.0
  0
LINE
  5
660
330
5B8
100
AcDbEntity
  8
1
100
AcDbLine
 10
6.400499999999999
 20
1.547499999999999
 30
0.0
 11
6.400499999999999
 21
1.519253857562439
 31
0.0
  0
LINE
  5
661
330
5B8
100
AcDbEntity
  8
1
100
AcDbLine
 10
6.575499999999999
 20
1.500499999999999
 30
0.0
 11
6.513499999999998
 21
1.5625
 31
0.0
  0
LINE
  5
662
330
5B8
100
AcDbEntity
  8
1
100
AcDbLine
 10
6.940499999999999
 20
1.500499999999999
 30
0.0
 11
6.575499999999999
 21
1.500499999999999
 31
0.0
  0
LINE
  5
663
330
5B8
100
AcDbEntity
  8
1
100
AcDbLine
 10
6.940499999999999
 20
1.5625
 30
0.0
 11
6.940499999999999
 21
1.500499999999999
 31
0.0
  0
LINE
  5
664
330
5B8
100
AcDbEntity
  8
1
100
AcDbLine
 10
6.980499999999999
 20
1.5625
 30
0.0
 11
6.980499999999999
 21
1.500499999999999
 31
0.0
  0
LINE
  5
665
330
5B8
100
AcDbEntity
  8
1
100
AcDbLine
 10
6.375499999999998
 20
1.5625
 30
0.0
 11
6.483499999999998
 21
1.5625
 31
0.0
  0
LINE
  5
666
330
5B8
100
AcDbEntity
  8
1
100
AcDbLine
 10
6.375499999999998
 20
1.500499999999999
 30
0.0
 11
6.375499999999998
 21
1.5625
 31
0.0
  0
LINE
  5
667
330
5B8
100
AcDbEntity
  8
1
100
AcDbLine
 10
6.437499999999999
 20
1.500499999999999
 30
0.0
 11
6.375499999999998
 21
1.500499999999999
 31
0.0
  0
LINE
  5
668
330
5B8
100
AcDbEntity
  8
1
100
AcDbLine
 10
6.513499999999998
 20
1.5625
 30
0.0
 11
6.980499999999999
 21
1.5625
 31
0.0
  0
LINE
  5
669
330
5B8
100
AcDbEntity
  8
1
100
AcDbLine
 10
5.203499999999999
 20
1.5625
 30
0.0
 11
5.670499999999999
 21
1.5625
 31
0.0
  0
LINE
  5
66A
330
5B8
100
AcDbEntity
  8
1
100
AcDbLine
 10
5.127499999999999
 20
1.500499999999999
 30
0.0
 11
5.065499999999999
 21
1.500499999999999
 31
0.0
  0
LINE
  5
66B
330
5B8
100
AcDbEntity
  8
1
100
AcDbLine
 10
5.065499999999999
 20
1.500499999999999
 30
0.0
 11
5.065499999999999
 21
1.5625
 31
0.0
  0
LINE
  5
66C
330
5B8
100
AcDbEntity
  8
1
100
AcDbLine
 10
5.065499999999999
 20
1.5625
 30
0.0
 11
5.173499999999998
 21
1.5625
 31
0.0
  0
LINE
  5
66D
330
5B8
100
AcDbEntity
  8
1
100
AcDbLine
 10
5.670499999999999
 20
1.5625
 30
0.0
 11
5.670499999999999
 21
1.500499999999999
 31
0.0
  0
LINE
  5
66E
330
5B8
100
AcDbEntity
  8
1
100
AcDbLine
 10
5.630499999999999
 20
1.5625
 30
0.0
 11
5.630499999999999
 21
1.500499999999999
 31
0.0
  0
LINE
  5
66F
330
5B8
100
AcDbEntity
  8
1
100
AcDbLine
 10
5.630499999999999
 20
1.500499999999999
 30
0.0
 11
5.265499999999999
 21
1.500499999999999
 31
0.0
  0
LINE
  5
670
330
5B8
100
AcDbEntity
  8
1
100
AcDbLine
 10
5.265499999999999
 20
1.500499999999999
 30
0.0
 11
5.203499999999999
 21
1.5625
 31
0.0
  0
LINE
  5
671
330
5B8
100
AcDbEntity
  8
1
100
AcDbLine
 10
5.090499999999999
 20
1.547499999999999
 30
0.0
 11
5.090499999999999
 21
1.519253857562439
 31
0.0
  0
LINE
  5
672
330
5B8
100
AcDbEntity
  8
1
100
AcDbLine
 10
5.188499999999999
 20
1.547499999999999
 30
0.0
 11
5.090499999999999
 21
1.547499999999999
 31
0.0
  0
LINE
  5
673
330
5B8
100
AcDbEntity
  8
1
100
AcDbLine
 10
5.203499999999999
 20
1.5625
 30
0.0
 11
5.188499999999999
 21
1.547499999999999
 31
0.0
  0
LINE
  5
674
330
5B8
100
AcDbEntity
  8
1
100
AcDbLine
 10
1.062
 20
3.03100587855713
 30
0.0
 11
1.062
 21
4.438
 31
0.0
  0
LINE
  5
675
330
5B8
100
AcDbEntity
  8
1
100
AcDbLine
 10
1.562999999999999
 20
2.96900587855713
 30
0.0
 11
1.562999999999999
 21
1.562
 31
0.0
  0
LINE
  5
676
330
5B8
100
AcDbEntity
  8
1
100
AcDbLine
 10
1.687
 20
3.03100587855713
 30
0.0
 11
1.687
 21
4.438
 31
0.0
  0
LINE
  5
677
330
5B8
100
AcDbEntity
  8
1
100
AcDbLine
 10
2.187999999999999
 20
2.96900587855713
 30
0.0
 11
2.187999999999999
 21
1.562
 31
0.0
  0
LINE
  5
678
330
5B8
100
AcDbEntity
  8
1
100
AcDbLine
 10
2.312
 20
3.03100587855713
 30
0.0
 11
2.312
 21
4.438
 31
0.0
  0
LINE
  5
679
330
5B8
100
AcDbEntity
  8
1
100
AcDbLine
 10
2.812999999999999
 20
2.96900587855713
 30
0.0
 11
2.812999999999999
 21
1.562
 31
0.0
  0
LINE
  5
67A
330
5B8
100
AcDbEntity
  8
1
100
AcDbLine
 10
2.937
 20
3.03100587855713
 30
0.0
 11
2.937
 21
4.438
 31
0.0
  0
LINE
  5
67B
330
5B8
100
AcDbEntity
  8
1
100
AcDbLine
 10
3.437999999999999
 20
2.96900587855713
 30
0.0
 11
3.437999999999999
 21
1.562
 31
0.0
  0
ENDBLK
  5
67D
330
5B8
100
AcDbEntity
  8
0
100
AcDbBlockEnd
  0
BLOCK
  5
726
330
67F
100
AcDbEntity
  8
0
100
AcDbBlockBegin
  2
Le1020
 70
     0
 10
0.0
 20
0.0
 30
0.0
  3
Le1020
  1

  0
CIRCLE
  5
680
330
67F
100
AcDbEntity
  8
4
100
AcDbCircle
 10
1.207234055463451
 20
2.265483801611809
 30
0.0
 40
0.023
  0
LWPOLYLINE
  5
681
330
67F
100
AcDbEntity
  8
4
100
AcDbPolyline
 90
        2
 70
     1
 43
0.01
 10
1.202234055463451
 20
2.317983801611808
 42
1.0
 10
1.212234055463451
 20
2.317983801611808
 42
1.0
  0
LWPOLYLINE
  5
682
330
67F
100
AcDbEntity
  8
4
100
AcDbPolyline
 90
        2
 70
     1
 43
0.01
 10
1.202234055463451
 20
2.212983801611808
 42
1.0
 10
1.212234055463451
 20
2.212983801611808
 42
1.0
  0
CIRCLE
  5
683
330
67F
100
AcDbEntity
  8
4
100
AcDbCircle
 10
1.207234055463451
 20
3.734483801611808
 30
0.0
 40
0.023
  0
LWPOLYLINE
  5
684
330
67F
100
AcDbEntity
  8
4
100
AcDbPolyline
 90
        2
 70
     1
 43
0.01
 10
1.202234055463451
 20
3.786983801611808
 42
1.0
 10
1.212234055463451
 20
3.786983801611808
 42
1.0
  0
LWPOLYLINE
  5
685
330
67F
100
AcDbEntity
  8
4
100
AcDbPolyline
 90
        2
 70
     1
 43
0.01
 10
1.202234055463451
 20
3.681983801611808
 42
1.0
 10
1.212234055463451
 20
3.681983801611808
 42
1.0
  0
LINE
  5
686
330
67F
100
AcDbEntity
  8
8
100
AcDbLine
 10
4.022399952231749
 20
0.0667078154663381
 30
0.0
 11
4.512399952231749
 21
0.0667078154663381
 31
0.0
  0
INSERT
  5
687
330
67F
100
AcDbEntity
  8
8
100
AcDbBlockReference
  2
TEMP2
 10
4.8125
 20
1.561999999999999
 30
0.0
  0
INSERT
  5
688
330
67F
100
AcDbEntity
  8
8
100
AcDbBlockReference
  2
TEMP3
 10
0.5859118825233172
 20
3.936828065315101
 30
0.0
  0
TEXT
  5
689
330
67F
100
AcDbEntity
  8
8
100
AcDbText
 10
2.270833333333333
 20
0.094
 30
0.0
 40
0.125
  1
QUIET LOCKER -     " DOUBLE TIER
  7
ROMANS
 72
     1
 11
4.125
 21
0.094
 31
0.0
100
AcDbText
  0
LINE
  5
68A
330
67F
100
AcDbEntity
  8
4
100
AcDbLine
 10
4.8125
 20
1.5
 30
0.0
 11
4.8125
 21
1.375
 31
0.0
  0
LINE
  5
68B
330
67F
100
AcDbEntity
  8
4
100
AcDbLine
 10
5.0025
 20
1.562
 30
0.0
 11
4.8125
 21
1.562
 31
0.0
  0
LINE
  5
68C
330
67F
100
AcDbEntity
  8
4
100
AcDbLine
 10
4.8125
 20
1.562
 30
0.0
 11
4.750499999999999
 21
1.562
 31
0.0
  0
INSERT
  5
68D
330
67F
100
AcDbEntity
  8
4
100
AcDbBlockReference
  2
ARRO
 10
4.8125
 20
1.562
 30
0.0
 50
90.0
  0
INSERT
  5
68E
330
67F
100
AcDbEntity
  8
4
100
AcDbBlockReference
  2
ARRO
 10
4.8125
 20
1.5
 30
0.0
 50
270.0
  0
LINE
  5
68F
330
67F
100
AcDbEntity
  8
4
100
AcDbLine
 10
5.0655
 20
1.594
 30
0.0
 11
5.1275
 21
1.594
 31
0.0
  0
LINE
  5
690
330
67F
100
AcDbEntity
  8
4
100
AcDbLine
 10
6.375499999999999
 20
1.594
 30
0.0
 11
6.4375
 21
1.594
 31
0.0
  0
LINE
  5
691
330
67F
100
AcDbEntity
  8
4
100
AcDbLine
 10
7.6245
 20
1.594
 30
0.0
 11
7.5625
 21
1.594
 31
0.0
  0
LINE
  5
692
330
67F
100
AcDbEntity
  8
4
100
AcDbLine
 10
7.6245
 20
2.93700587855713
 30
0.0
 11
7.6245
 21
1.594
 31
0.0
  0
LINE
  5
693
330
67F
100
AcDbEntity
  8
4
100
AcDbLine
 10
6.375499999999999
 20
2.93700587855713
 30
0.0
 11
6.375499999999999
 21
1.594
 31
0.0
  0
LINE
  5
694
330
67F
100
AcDbEntity
  8
4
100
AcDbLine
 10
5.0655
 20
2.93700587855713
 30
0.0
 11
5.0655
 21
1.594
 31
0.0
  0
LINE
  5
695
330
67F
100
AcDbEntity
  8
4
100
AcDbLine
 10
4.8125
 20
4.5
 30
0.0
 11
4.8125
 21
1.562
 31
0.0
  0
LINE
  5
696
330
67F
100
AcDbEntity
  8
4
100
AcDbLine
 10
7.301520109897515
 20
2.91104618398978
 30
0.0
 11
7.301520109897515
 21
2.84904618398978
 31
0.0
  0
LINE
  5
697
330
67F
100
AcDbEntity
  8
4
100
AcDbLine
 10
7.332520109897515
 20
2.91104618398978
 30
0.0
 11
7.270520109897516
 21
2.91104618398978
 31
0.0
  0
LINE
  5
698
330
67F
100
AcDbEntity
  8
4
100
AcDbLine
 10
7.0195
 20
2.874046183989781
 30
0.0
 11
7.0195
 21
2.92404618398978
 31
0.0
  0
ARC
  5
699
330
67F
100
AcDbEntity
  8
4
100
AcDbCircle
 10
7.0445
 20
2.874046183989781
 30
0.0
 40
0.025
100
AcDbArc
 50
180.0
 51
0.0
  0
ARC
  5
69A
330
67F
100
AcDbEntity
  8
4
100
AcDbCircle
 10
6.9555
 20
2.874046183989781
 30
0.0
 40
0.025
100
AcDbArc
 50
180.0
 51
0.0
  0
LINE
  5
69B
330
67F
100
AcDbEntity
  8
4
100
AcDbLine
 10
6.9805
 20
2.874046183989781
 30
0.0
 11
6.9805
 21
2.92404618398978
 31
0.0
  0
LINE
  5
69C
330
67F
100
AcDbEntity
  8
4
100
AcDbLine
 10
6.667479890102485
 20
2.91104618398978
 30
0.0
 11
6.729479890102484
 21
2.91104618398978
 31
0.0
  0
LINE
  5
69D
330
67F
100
AcDbEntity
  8
4
100
AcDbLine
 10
6.698479890102484
 20
2.91104618398978
 30
0.0
 11
6.698479890102484
 21
2.84904618398978
 31
0.0
  0
LINE
  5
69E
330
67F
100
AcDbEntity
  8
4
100
AcDbLine
 10
5.388479890102485
 20
2.91104618398978
 30
0.0
 11
5.388479890102485
 21
2.84904618398978
 31
0.0
  0
LINE
  5
69F
330
67F
100
AcDbEntity
  8
4
100
AcDbLine
 10
5.357479890102485
 20
2.91104618398978
 30
0.0
 11
5.419479890102484
 21
2.91104618398978
 31
0.0
  0
LINE
  5
6A0
330
67F
100
AcDbEntity
  8
4
100
AcDbLine
 10
5.6705
 20
2.874046183989781
 30
0.0
 11
5.6705
 21
2.92404618398978
 31
0.0
  0
ARC
  5
6A1
330
67F
100
AcDbEntity
  8
4
100
AcDbCircle
 10
5.645500000000001
 20
2.874046183989781
 30
0.0
 40
0.025
100
AcDbArc
 50
180.0
 51
0.0
  0
LINE
  5
6A2
330
67F
100
AcDbEntity
  8
4
100
AcDbLine
 10
6.375499999999999
 20
2.93700587855713
 30
0.0
 11
6.437499999999999
 21
2.93700587855713
 31
0.0
  0
LINE
  5
6A3
330
67F
100
AcDbEntity
  8
4
100
AcDbLine
 10
7.5625
 20
2.93700587855713
 30
0.0
 11
7.624499999999999
 21
2.93700587855713
 31
0.0
  0
LINE
  5
6A4
330
67F
100
AcDbEntity
  8
4
100
AcDbLine
 10
7.5625
 20
3.062961724666486
 30
0.0
 11
7.624499999999999
 21
3.062961724666486
 31
0.0
  0
LINE
  5
6A5
330
67F
100
AcDbEntity
  8
4
100
AcDbLine
 10
6.375499999999998
 20
3.062961724666486
 30
0.0
 11
6.437499999999999
 21
3.062961724666486
 31
0.0
  0
LINE
  5
6A6
330
67F
100
AcDbEntity
  8
4
100
AcDbLine
 10
5.0655
 20
2.93700587855713
 30
0.0
 11
5.1275
 21
2.93700587855713
 31
0.0
  0
LINE
  5
6A7
330
67F
100
AcDbEntity
  8
4
100
AcDbLine
 10
5.0655
 20
3.062961724666487
 30
0.0
 11
5.127499999999999
 21
3.062961724666487
 31
0.0
  0
LINE
  5
6A8
330
67F
100
AcDbEntity
  8
4
100
AcDbLine
 10
7.486500000000001
 20
3.03100587855713
 30
0.0
 11
7.0195
 21
3.03100587855713
 31
0.0
  0
LINE
  5
6A9
330
67F
100
AcDbEntity
  8
4
100
AcDbLine
 10
7.5625
 20
2.96900587855713
 30
0.0
 11
7.624500000000001
 21
2.96900587855713
 31
0.0
  0
LINE
  5
6AA
330
67F
100
AcDbEntity
  8
4
100
AcDbLine
 10
7.624500000000001
 20
2.96900587855713
 30
0.0
 11
7.624500000000001
 21
3.03100587855713
 31
0.0
  0
LINE
  5
6AB
330
67F
100
AcDbEntity
  8
4
100
AcDbLine
 10
7.624500000000001
 20
3.03100587855713
 30
0.0
 11
7.516500000000001
 21
3.03100587855713
 31
0.0
  0
LINE
  5
6AC
330
67F
100
AcDbEntity
  8
4
100
AcDbLine
 10
7.0195
 20
3.03100587855713
 30
0.0
 11
7.0195
 21
2.96900587855713
 31
0.0
  0
LINE
  5
6AD
330
67F
100
AcDbEntity
  8
4
100
AcDbLine
 10
7.0595
 20
3.03100587855713
 30
0.0
 11
7.0595
 21
2.96900587855713
 31
0.0
  0
LINE
  5
6AE
330
67F
100
AcDbEntity
  8
4
100
AcDbLine
 10
7.0595
 20
2.96900587855713
 30
0.0
 11
7.4245
 21
2.96900587855713
 31
0.0
  0
LINE
  5
6AF
330
67F
100
AcDbEntity
  8
4
100
AcDbLine
 10
7.4245
 20
2.96900587855713
 30
0.0
 11
7.486500000000001
 21
3.03100587855713
 31
0.0
  0
LINE
  5
6B0
330
67F
100
AcDbEntity
  8
4
100
AcDbLine
 10
7.5995
 20
3.016005878557129
 30
0.0
 11
7.5995
 21
2.98775973611957
 31
0.0
  0
LINE
  5
6B1
330
67F
100
AcDbEntity
  8
4
100
AcDbLine
 10
7.5015
 20
3.016005878557129
 30
0.0
 11
7.5995
 21
3.016005878557129
 31
0.0
  0
LINE
  5
6B2
330
67F
100
AcDbEntity
  8
4
100
AcDbLine
 10
7.486500000000001
 20
3.03100587855713
 30
0.0
 11
7.5015
 21
3.016005878557129
 31
0.0
  0
LINE
  5
6B3
330
67F
100
AcDbEntity
  8
4
100
AcDbLine
 10
6.513499999999998
 20
3.03100587855713
 30
0.0
 11
6.498499999999999
 21
3.016005878557129
 31
0.0
  0
LINE
  5
6B4
330
67F
100
AcDbEntity
  8
4
100
AcDbLine
 10
6.498499999999999
 20
3.016005878557129
 30
0.0
 11
6.400499999999999
 21
3.016005878557129
 31
0.0
  0
LINE
  5
6B5
330
67F
100
AcDbEntity
  8
4
100
AcDbLine
 10
6.400499999999999
 20
3.016005878557129
 30
0.0
 11
6.400499999999999
 21
2.98775973611957
 31
0.0
  0
LINE
  5
6B6
330
67F
100
AcDbEntity
  8
4
100
AcDbLine
 10
6.575499999999999
 20
2.96900587855713
 30
0.0
 11
6.513499999999998
 21
3.03100587855713
 31
0.0
  0
LINE
  5
6B7
330
67F
100
AcDbEntity
  8
4
100
AcDbLine
 10
6.940499999999999
 20
2.96900587855713
 30
0.0
 11
6.575499999999999
 21
2.96900587855713
 31
0.0
  0
LINE
  5
6B8
330
67F
100
AcDbEntity
  8
4
100
AcDbLine
 10
6.940499999999999
 20
3.03100587855713
 30
0.0
 11
6.940499999999999
 21
2.96900587855713
 31
0.0
  0
LINE
  5
6B9
330
67F
100
AcDbEntity
  8
4
100
AcDbLine
 10
6.980499999999999
 20
3.03100587855713
 30
0.0
 11
6.980499999999999
 21
2.96900587855713
 31
0.0
  0
LINE
  5
6BA
330
67F
100
AcDbEntity
  8
4
100
AcDbLine
 10
6.375499999999998
 20
3.03100587855713
 30
0.0
 11
6.483499999999998
 21
3.03100587855713
 31
0.0
  0
LINE
  5
6BB
330
67F
100
AcDbEntity
  8
4
100
AcDbLine
 10
6.375499999999998
 20
2.96900587855713
 30
0.0
 11
6.375499999999998
 21
3.03100587855713
 31
0.0
  0
LINE
  5
6BC
330
67F
100
AcDbEntity
  8
4
100
AcDbLine
 10
6.437499999999999
 20
2.96900587855713
 30
0.0
 11
6.375499999999998
 21
2.96900587855713
 31
0.0
  0
LINE
  5
6BD
330
67F
100
AcDbEntity
  8
4
100
AcDbLine
 10
6.513499999999998
 20
3.03100587855713
 30
0.0
 11
6.980499999999999
 21
3.03100587855713
 31
0.0
  0
LINE
  5
6BE
330
67F
100
AcDbEntity
  8
4
100
AcDbLine
 10
5.203499999999999
 20
3.03100587855713
 30
0.0
 11
5.670499999999999
 21
3.03100587855713
 31
0.0
  0
LINE
  5
6BF
330
67F
100
AcDbEntity
  8
4
100
AcDbLine
 10
5.127499999999999
 20
2.96900587855713
 30
0.0
 11
5.065499999999999
 21
2.96900587855713
 31
0.0
  0
LINE
  5
6C0
330
67F
100
AcDbEntity
  8
4
100
AcDbLine
 10
5.065499999999999
 20
2.96900587855713
 30
0.0
 11
5.065499999999999
 21
3.03100587855713
 31
0.0
  0
LINE
  5
6C1
330
67F
100
AcDbEntity
  8
4
100
AcDbLine
 10
5.065499999999999
 20
3.03100587855713
 30
0.0
 11
5.173499999999998
 21
3.03100587855713
 31
0.0
  0
LINE
  5
6C2
330
67F
100
AcDbEntity
  8
4
100
AcDbLine
 10
5.670499999999999
 20
3.03100587855713
 30
0.0
 11
5.670499999999999
 21
2.96900587855713
 31
0.0
  0
LINE
  5
6C3
330
67F
100
AcDbEntity
  8
4
100
AcDbLine
 10
5.630499999999999
 20
3.03100587855713
 30
0.0
 11
5.630499999999999
 21
2.96900587855713
 31
0.0
  0
LINE
  5
6C4
330
67F
100
AcDbEntity
  8
4
100
AcDbLine
 10
5.630499999999999
 20
2.96900587855713
 30
0.0
 11
5.265499999999999
 21
2.96900587855713
 31
0.0
  0
LINE
  5
6C5
330
67F
100
AcDbEntity
  8
4
100
AcDbLine
 10
5.265499999999999
 20
2.96900587855713
 30
0.0
 11
5.203499999999999
 21
3.03100587855713
 31
0.0
  0
LINE
  5
6C6
330
67F
100
AcDbEntity
  8
4
100
AcDbLine
 10
5.090499999999999
 20
3.016005878557129
 30
0.0
 11
5.090499999999999
 21
2.98775973611957
 31
0.0
  0
LINE
  5
6C7
330
67F
100
AcDbEntity
  8
4
100
AcDbLine
 10
5.188499999999999
 20
3.016005878557129
 30
0.0
 11
5.090499999999999
 21
3.016005878557129
 31
0.0
  0
LINE
  5
6C8
330
67F
100
AcDbEntity
  8
4
100
AcDbLine
 10
5.203499999999999
 20
3.03100587855713
 30
0.0
 11
5.188499999999999
 21
3.016005878557129
 31
0.0
  0
INSERT
  5
6C9
330
67F
100
AcDbEntity
  8
4
100
AcDbBlockReference
  2
ARRO
 10
4.8125
 20
4.5
 30
0.0
 50
270.0
  0
ARC
  5
6CA
330
67F
100
AcDbEntity
  8
4
100
AcDbCircle
 10
5.645500000000001
 20
4.343000000000001
 30
0.0
 40
0.025
100
AcDbArc
 50
180.0
 51
0.0
  0
LINE
  5
6CB
330
67F
100
AcDbEntity
  8
4
100
AcDbLine
 10
5.6705
 20
4.343000000000001
 30
0.0
 11
5.6705
 21
4.393
 31
0.0
  0
LINE
  5
6CC
330
67F
100
AcDbEntity
  8
4
100
AcDbLine
 10
5.357479890102485
 20
4.379999999999999
 30
0.0
 11
5.419479890102484
 21
4.379999999999999
 31
0.0
  0
LINE
  5
6CD
330
67F
100
AcDbEntity
  8
4
100
AcDbLine
 10
5.388479890102485
 20
4.379999999999999
 30
0.0
 11
5.388479890102485
 21
4.318
 31
0.0
  0
LINE
  5
6CE
330
67F
100
AcDbEntity
  8
4
100
AcDbLine
 10
6.698479890102484
 20
4.379999999999999
 30
0.0
 11
6.698479890102484
 21
4.318
 31
0.0
  0
LINE
  5
6CF
330
67F
100
AcDbEntity
  8
4
100
AcDbLine
 10
6.667479890102485
 20
4.379999999999999
 30
0.0
 11
6.729479890102484
 21
4.379999999999999
 31
0.0
  0
LINE
  5
6D0
330
67F
100
AcDbEntity
  8
4
100
AcDbLine
 10
6.9805
 20
4.343000000000001
 30
0.0
 11
6.9805
 21
4.393
 31
0.0
  0
ARC
  5
6D1
330
67F
100
AcDbEntity
  8
4
100
AcDbCircle
 10
6.9555
 20
4.343000000000001
 30
0.0
 40
0.025
100
AcDbArc
 50
180.0
 51
0.0
  0
ARC
  5
6D2
330
67F
100
AcDbEntity
  8
4
100
AcDbCircle
 10
7.0445
 20
4.343000000000001
 30
0.0
 40
0.025
100
AcDbArc
 50
180.0
 51
0.0
  0
LINE
  5
6D3
330
67F
100
AcDbEntity
  8
4
100
AcDbLine
 10
7.0195
 20
4.343000000000001
 30
0.0
 11
7.0195
 21
4.393
 31
0.0
  0
LINE
  5
6D4
330
67F
100
AcDbEntity
  8
4
100
AcDbLine
 10
7.332520109897515
 20
4.379999999999999
 30
0.0
 11
7.270520109897516
 21
4.379999999999999
 31
0.0
  0
LINE
  5
6D5
330
67F
100
AcDbEntity
  8
4
100
AcDbLine
 10
7.301520109897515
 20
4.379999999999999
 30
0.0
 11
7.301520109897515
 21
4.318
 31
0.0
  0
LINE
  5
6D6
330
67F
100
AcDbEntity
  8
4
100
AcDbLine
 10
5.0025
 20
3.03100587855713
 30
0.0
 11
4.8125
 21
3.03100587855713
 31
0.0
  0
LINE
  5
6D7
330
67F
100
AcDbEntity
  8
4
100
AcDbLine
 10
4.8125
 20
3.03100587855713
 30
0.0
 11
4.750499999999999
 21
3.03100587855713
 31
0.0
  0
INSERT
  5
6D8
330
67F
100
AcDbEntity
  8
4
100
AcDbBlockReference
  2
ARRO2
 10
4.8125
 20
3.03100587855713
 30
0.0
 50
90.0
  0
LINE
  5
6D9
330
67F
100
AcDbEntity
  8
4
100
AcDbLine
 10
5.065499999999999
 20
4.406
 30
0.0
 11
5.127499999999999
 21
4.406
 31
0.0
  0
LINE
  5
6DA
330
67F
100
AcDbEntity
  8
4
100
AcDbLine
 10
6.375499999999998
 20
4.406
 30
0.0
 11
6.437499999999999
 21
4.406
 31
0.0
  0
LINE
  5
6DB
330
67F
100
AcDbEntity
  8
4
100
AcDbLine
 10
7.624500000000001
 20
4.406
 30
0.0
 11
7.5625
 21
4.406
 31
0.0
  0
LINE
  5
6DC
330
67F
100
AcDbEntity
  8
4
100
AcDbLine
 10
7.6245
 20
4.406
 30
0.0
 11
7.6245
 21
3.062961724666486
 31
0.0
  0
LINE
  5
6DD
330
67F
100
AcDbEntity
  8
4
100
AcDbLine
 10
6.375499999999999
 20
4.406
 30
0.0
 11
6.375499999999999
 21
3.062961724666486
 31
0.0
  0
LINE
  5
6DE
330
67F
100
AcDbEntity
  8
4
100
AcDbLine
 10
5.0655
 20
4.406
 30
0.0
 11
5.0655
 21
3.062961724666486
 31
0.0
  0
LINE
  5
6DF
330
67F
100
AcDbEntity
  8
4
100
AcDbLine
 10
1.113234055463451
 20
3.916467157252412
 30
0.0
 11
1.301234055463451
 21
3.916467157252412
 31
0.0
  0
LINE
  5
6E0
330
67F
100
AcDbEntity
  8
4
100
AcDbLine
 10
1.301234055463451
 20
3.916467157252412
 30
0.0
 11
1.269234055463451
 21
3.613967157252412
 31
0.0
  0
LINE
  5
6E1
330
67F
100
AcDbEntity
  8
4
100
AcDbLine
 10
1.113234055463451
 20
3.916467157252412
 30
0.0
 11
1.145234055463451
 21
3.613967157252412
 31
0.0
  0
LINE
  5
6E2
330
67F
100
AcDbEntity
  8
4
100
AcDbLine
 10
1.145234055463451
 20
3.613967157252412
 30
0.0
 11
1.269234055463451
 21
3.613967157252412
 31
0.0
  0
LINE
  5
6E3
330
67F
100
AcDbEntity
  8
4
100
AcDbLine
 10
1.129904527520149
 20
3.901467157252411
 30
0.0
 11
1.158730973801141
 21
3.628967157252412
 31
0.0
  0
LINE
  5
6E4
330
67F
100
AcDbEntity
  8
4
100
AcDbLine
 10
1.158730973801141
 20
3.628967157252411
 30
0.0
 11
1.255737137125761
 21
3.628967157252412
 31
0.0
  0
LINE
  5
6E5
330
67F
100
AcDbEntity
  8
4
100
AcDbLine
 10
1.284563583406752
 20
3.901467157252411
 30
0.0
 11
1.255737137125761
 21
3.628967157252412
 31
0.0
  0
LINE
  5
6E6
330
67F
100
AcDbEntity
  8
4
100
AcDbLine
 10
1.129904527520149
 20
3.901467157252411
 30
0.0
 11
1.284563583406752
 21
3.901467157252411
 31
0.0
  0
LINE
  5
6E7
330
67F
100
AcDbEntity
  8
4
100
AcDbLine
 10
1.222234055463451
 20
3.901467157252411
 30
0.0
 11
1.222234055463451
 21
3.854467157252411
 31
0.0
  0
LINE
  5
6E8
330
67F
100
AcDbEntity
  8
4
100
AcDbLine
 10
1.222234055463451
 20
3.854467157252411
 30
0.0
 11
1.192234055463451
 21
3.854467157252411
 31
0.0
  0
LINE
  5
6E9
330
67F
100
AcDbEntity
  8
4
100
AcDbLine
 10
1.192234055463451
 20
3.854467157252411
 30
0.0
 11
1.192234055463451
 21
3.901467157252411
 31
0.0
  0
ARC
  5
6EA
330
67F
100
AcDbEntity
  8
4
100
AcDbCircle
 10
3.412999999999999
 20
2.874046183989781
 30
0.0
 40
0.025
100
AcDbArc
 50
180.0
 51
0.0
  0
ARC
  5
6EB
330
67F
100
AcDbEntity
  8
4
100
AcDbCircle
 10
2.962
 20
2.874046183989781
 30
0.0
 40
0.025
100
AcDbArc
 50
180.0
 51
0.0
  0
ARC
  5
6EC
330
67F
100
AcDbEntity
  8
4
100
AcDbCircle
 10
2.787999999999999
 20
2.874046183989781
 30
0.0
 40
0.025
100
AcDbArc
 50
180.0
 51
0.0
  0
ARC
  5
6ED
330
67F
100
AcDbEntity
  8
4
100
AcDbCircle
 10
2.337
 20
2.874046183989781
 30
0.0
 40
0.025
100
AcDbArc
 50
180.0
 51
0.0
  0
ARC
  5
6EE
330
67F
100
AcDbEntity
  8
4
100
AcDbCircle
 10
2.163
 20
2.874046183989781
 30
0.0
 40
0.025
100
AcDbArc
 50
180.0
 51
0.0
  0
ARC
  5
6EF
330
67F
100
AcDbEntity
  8
4
100
AcDbCircle
 10
1.712
 20
2.874046183989781
 30
0.0
 40
0.025
100
AcDbArc
 50
180.0
 51
0.0
  0
LINE
  5
6F0
330
67F
100
AcDbEntity
  8
4
100
AcDbLine
 10
3.155
 20
2.91104618398978
 30
0.0
 11
3.217
 21
2.91104618398978
 31
0.0
  0
LINE
  5
6F1
330
67F
100
AcDbEntity
  8
4
100
AcDbLine
 10
3.217
 20
2.91104618398978
 30
0.0
 11
3.217
 21
2.84904618398978
 31
0.0
  0
LINE
  5
6F2
330
67F
100
AcDbEntity
  8
4
100
AcDbLine
 10
3.155
 20
2.91104618398978
 30
0.0
 11
3.155
 21
2.84904618398978
 31
0.0
  0
LINE
  5
6F3
330
67F
100
AcDbEntity
  8
4
100
AcDbLine
 10
1.905
 20
2.91104618398978
 30
0.0
 11
1.905
 21
2.84904618398978
 31
0.0
  0
LINE
  5
6F4
330
67F
100
AcDbEntity
  8
4
100
AcDbLine
 10
1.967
 20
2.91104618398978
 30
0.0
 11
1.967
 21
2.84904618398978
 31
0.0
  0
LINE
  5
6F5
330
67F
100
AcDbEntity
  8
4
100
AcDbLine
 10
1.905
 20
2.91104618398978
 30
0.0
 11
1.967
 21
2.91104618398978
 31
0.0
  0
LINE
  5
6F6
330
67F
100
AcDbEntity
  8
4
100
AcDbLine
 10
3.155
 20
4.379999999999999
 30
0.0
 11
3.155
 21
4.318
 31
0.0
  0
LINE
  5
6F7
330
67F
100
AcDbEntity
  8
4
100
AcDbLine
 10
3.217
 20
4.379999999999999
 30
0.0
 11
3.217
 21
4.318
 31
0.0
  0
LINE
  5
6F8
330
67F
100
AcDbEntity
  8
4
100
AcDbLine
 10
3.155
 20
4.379999999999999
 30
0.0
 11
3.217
 21
4.379999999999999
 31
0.0
  0
ARC
  5
6F9
330
67F
100
AcDbEntity
  8
4
100
AcDbCircle
 10
1.712
 20
4.343
 30
0.0
 40
0.025
100
AcDbArc
 50
180.0
 51
0.0
  0
ARC
  5
6FA
330
67F
100
AcDbEntity
  8
4
100
AcDbCircle
 10
2.163
 20
4.343
 30
0.0
 40
0.025
100
AcDbArc
 50
180.0
 51
0.0
  0
ARC
  5
6FB
330
67F
100
AcDbEntity
  8
4
100
AcDbCircle
 10
2.337
 20
4.343
 30
0.0
 40
0.025
100
AcDbArc
 50
180.0
 51
0.0
  0
ARC
  5
6FC
330
67F
100
AcDbEntity
  8
4
100
AcDbCircle
 10
2.787999999999999
 20
4.343
 30
0.0
 40
0.025
100
AcDbArc
 50
180.0
 51
0.0
  0
ARC
  5
6FD
330
67F
100
AcDbEntity
  8
4
100
AcDbCircle
 10
2.962
 20
4.343
 30
0.0
 40
0.025
100
AcDbArc
 50
180.0
 51
0.0
  0
ARC
  5
6FE
330
67F
100
AcDbEntity
  8
4
100
AcDbCircle
 10
3.412999999999999
 20
4.343
 30
0.0
 40
0.025
100
AcDbArc
 50
180.0
 51
0.0
  0
LINE
  5
6FF
330
67F
100
AcDbEntity
  8
4
100
AcDbLine
 10
2.625
 20
2.96900587855713
 30
0.0
 11
2.812999999999999
 21
2.96900587855713
 31
0.0
  0
LINE
  5
700
330
67F
100
AcDbEntity
  8
4
100
AcDbLine
 10
2.625
 20
3.03100587855713
 30
0.0
 11
2.812999999999999
 21
3.03100587855713
 31
0.0
  0
LINE
  5
701
330
67F
100
AcDbEntity
  8
4
100
AcDbLine
 10
2.937
 20
3.03100587855713
 30
0.0
 11
3.437999999999999
 21
3.03100587855713
 31
0.0
  0
LINE
  5
702
330
67F
100
AcDbEntity
  8
4
100
AcDbLine
 10
2.937
 20
2.96900587855713
 30
0.0
 11
3.437999999999999
 21
2.96900587855713
 31
0.0
  0
LINE
  5
703
330
67F
100
AcDbEntity
  8
4
100
AcDbLine
 10
2.312
 20
3.03100587855713
 30
0.0
 11
2.473968300754448
 21
3.03100587855713
 31
0.0
  0
LINE
  5
704
330
67F
100
AcDbEntity
  8
4
100
AcDbLine
 10
2.312
 20
2.96900587855713
 30
0.0
 11
2.499999999999999
 21
2.96900587855713
 31
0.0
  0
LINE
  5
705
330
67F
100
AcDbEntity
  8
4
100
AcDbLine
 10
1.687
 20
3.03100587855713
 30
0.0
 11
2.187999999999999
 21
3.03100587855713
 31
0.0
  0
LINE
  5
706
330
67F
100
AcDbEntity
  8
4
100
AcDbLine
 10
1.687
 20
2.96900587855713
 30
0.0
 11
2.187999999999999
 21
2.96900587855713
 31
0.0
  0
LINE
  5
707
330
67F
100
AcDbEntity
  8
4
100
AcDbLine
 10
1.062
 20
3.03100587855713
 30
0.0
 11
1.562999999999999
 21
3.03100587855713
 31
0.0
  0
LINE
  5
708
330
67F
100
AcDbEntity
  8
4
100
AcDbLine
 10
1.062
 20
2.96900587855713
 30
0.0
 11
1.562999999999999
 21
2.96900587855713
 31
0.0
  0
LINE
  5
709
330
67F
100
AcDbEntity
  8
4
100
AcDbLine
 10
1.540999999999999
 20
1.967961724666487
 30
0.0
 11
1.540999999999999
 21
1.842961724666487
 31
0.0
  0
LINE
  5
70A
330
67F
100
AcDbEntity
  8
4
100
AcDbLine
 10
1.541
 20
2.68700587855713
 30
0.0
 11
1.541
 21
2.56200587855713
 31
0.0
  0
LINE
  5
70B
330
67F
100
AcDbEntity
  8
4
100
AcDbLine
 10
1.530999999999999
 20
1.593961724666487
 30
0.0
 11
1.093999999999999
 21
1.593961724666486
 31
0.0
  0
LINE
  5
70C
330
67F
100
AcDbEntity
  8
4
100
AcDbLine
 10
1.531
 20
2.93700587855713
 30
0.0
 11
1.530999999999999
 21
1.593961724666487
 31
0.0
  0
LINE
  5
70D
330
67F
100
AcDbEntity
  8
4
100
AcDbLine
 10
1.094
 20
2.93700587855713
 30
0.0
 11
1.531
 21
2.93700587855713
 31
0.0
  0
LINE
  5
70E
330
67F
100
AcDbEntity
  8
4
100
AcDbLine
 10
1.093999999999999
 20
1.593961724666486
 30
0.0
 11
1.094
 21
2.93700587855713
 31
0.0
  0
LINE
  5
70F
330
67F
100
AcDbEntity
  8
4
100
AcDbLine
 10
1.094
 20
3.062961724666486
 30
0.0
 11
1.094
 21
4.40600587855713
 31
0.0
  0
LINE
  5
710
330
67F
100
AcDbEntity
  8
4
100
AcDbLine
 10
1.094
 20
4.40600587855713
 30
0.0
 11
1.531
 21
4.40600587855713
 31
0.0
  0
LINE
  5
711
330
67F
100
AcDbEntity
  8
4
100
AcDbLine
 10
1.531
 20
4.40600587855713
 30
0.0
 11
1.530999999999999
 21
3.062961724666487
 31
0.0
  0
LINE
  5
712
330
67F
100
AcDbEntity
  8
4
100
AcDbLine
 10
1.530999999999999
 20
3.062961724666487
 30
0.0
 11
1.094
 21
3.062961724666486
 31
0.0
  0
LINE
  5
713
330
67F
100
AcDbEntity
  8
4
100
AcDbLine
 10
1.541
 20
4.15600587855713
 30
0.0
 11
1.541
 21
4.03100587855713
 31
0.0
  0
LINE
  5
714
330
67F
100
AcDbEntity
  8
4
100
AcDbLine
 10
1.540999999999999
 20
3.436961724666486
 30
0.0
 11
1.540999999999999
 21
3.311961724666486
 31
0.0
  0
LINE
  5
715
330
67F
100
AcDbEntity
  8
4
100
AcDbLine
 10
0.9609118825233171
 20
3.874828065315101
 30
0.0
 11
0.5859118825233172
 21
3.874828065315101
 31
0.0
  0
LINE
  5
716
330
67F
100
AcDbEntity
  8
4
100
AcDbLine
 10
0.5859118825233172
 20
3.874828065315101
 30
0.0
 11
0.5859118825233172
 21
3.936828065315101
 31
0.0
  0
LINE
  5
717
330
67F
100
AcDbEntity
  8
4
100
AcDbLine
 10
0.9609118825233171
 20
3.734483801611808
 30
0.0
 11
0.5859118825233172
 21
3.734483801611808
 31
0.0
  0
LINE
  5
718
330
67F
100
AcDbEntity
  8
4
100
AcDbLine
 10
0.5859118825233172
 20
3.734483801611808
 30
0.0
 11
0.5859118825233172
 21
3.672483801611809
 31
0.0
  0
INSERT
  5
719
330
67F
100
AcDbEntity
  8
4
100
AcDbBlockReference
  2
ARRO
 10
0.9609118825233171
 20
3.874828065315101
 30
0.0
 50
180.0
  0
INSERT
  5
71A
330
67F
100
AcDbEntity
  8
4
100
AcDbBlockReference
  2
ARRO
 10
0.9609118825233171
 20
3.734483801611808
 30
0.0
 50
180.0
  0
LINE
  5
71B
330
67F
100
AcDbEntity
  8
4
100
AcDbLine
 10
1.192234055463451
 20
2.385467157252412
 30
0.0
 11
1.192234055463451
 21
2.432467157252411
 31
0.0
  0
LINE
  5
71C
330
67F
100
AcDbEntity
  8
4
100
AcDbLine
 10
1.222234055463451
 20
2.385467157252412
 30
0.0
 11
1.192234055463451
 21
2.385467157252412
 31
0.0
  0
LINE
  5
71D
330
67F
100
AcDbEntity
  8
4
100
AcDbLine
 10
1.222234055463451
 20
2.432467157252411
 30
0.0
 11
1.222234055463451
 21
2.385467157252412
 31
0.0
  0
LINE
  5
71E
330
67F
100
AcDbEntity
  8
4
100
AcDbLine
 10
1.129904527520149
 20
2.432467157252411
 30
0.0
 11
1.284563583406752
 21
2.432467157252411
 31
0.0
  0
LINE
  5
71F
330
67F
100
AcDbEntity
  8
4
100
AcDbLine
 10
1.284563583406752
 20
2.432467157252411
 30
0.0
 11
1.255737137125761
 21
2.159967157252412
 31
0.0
  0
LINE
  5
720
330
67F
100
AcDbEntity
  8
4
100
AcDbLine
 10
1.158730973801141
 20
2.159967157252411
 30
0.0
 11
1.255737137125761
 21
2.159967157252412
 31
0.0
  0
LINE
  5
721
330
67F
100
AcDbEntity
  8
4
100
AcDbLine
 10
1.129904527520149
 20
2.432467157252411
 30
0.0
 11
1.158730973801141
 21
2.159967157252412
 31
0.0
  0
LINE
  5
722
330
67F
100
AcDbEntity
  8
4
100
AcDbLine
 10
1.145234055463451
 20
2.144967157252412
 30
0.0
 11
1.269234055463451
 21
2.144967157252412
 31
0.0
  0
LINE
  5
723
330
67F
100
AcDbEntity
  8
4
100
AcDbLine
 10
1.113234055463451
 20
2.447467157252412
 30
0.0
 11
1.145234055463451
 21
2.144967157252412
 31
0.0
  0
LINE
  5
724
330
67F
100
AcDbEntity
  8
4
100
AcDbLine
 10
1.301234055463451
 20
2.447467157252412
 30
0.0
 11
1.269234055463451
 21
2.144967157252412
 31
0.0
  0
LINE
  5
725
330
67F
100
AcDbEntity
  8
4
100
AcDbLine
 10
1.113234055463451
 20
2.447467157252412
 30
0.0
 11
1.301234055463451
 21
2.447467157252412
 31
0.0
  0
ENDBLK
  5
727
330
67F
100
AcDbEntity
  8
0
100
AcDbBlockEnd
  0
ENDSEC
  0
SECTION
  2
ENTITIES
  0
TEXT
  5
739
330
1F
100
AcDbEntity
  8
8
100
AcDbText
 10
8.84222148988822
 20
3.358979333573164
 30
0.0
 40
0.07
  1
DEPTH
  7
ROMANS
 72
     1
 11
9.00722148988822
 21
3.358979333573164
 31
0.0
100
AcDbText
  0
TEXT
  5
73A
330
1F
100
AcDbEntity
  8
8
100
AcDbText
 10
10.46472148988822
 20
3.358979333573164
 30
0.0
 40
0.07
  1
DEPTH
  7
ROMANS
 72
     1
 11
10.62972148988822
 21
3.358979333573164
 31
0.0
100
AcDbText
  0
TEXT
  5
73B
330
1F
100
AcDbEntity
  8
8
100
AcDbText
 10
9.907559976961763
 20
2.396601008501681
 30
0.0
 40
0.1
  1
SR BACK TO BACK
  7
ROMANS
 72
     1
 11
10.63136950077129
 21
2.396601008501681
 31
0.0
100
AcDbText
  0
TEXT
  5
73C
330
1F
100
AcDbEntity
  8
8
100
AcDbText
 10
9.424110814446597
 20
2.212000001676371
 30
0.0
 40
0.1
  1
SECTIONS
  7
ROMANS
 72
     1
 11
9.77649176682755
 21
2.212000001676371
 31
0.0
100
AcDbText
  0
TEXT
  5
73D
330
1F
100
AcDbEntity
  8
8
100
AcDbText
 10
8.931774653015175
 20
2.396601008501681
 30
0.0
 40
0.1
  1
SR
  7
ROMANS
 72
     1
 11
9.029393700634223
 21
2.396601008501681
 31
0.0
100
AcDbText
  0
LINE
  5
73E
330
1F
100
AcDbEntity
  8
4
100
AcDbLine
 10
9.257721489888218
 20
5.900000001676371
 30
0.0
 11
9.521453092553622
 21
5.900000001676371
 31
0.0
  0
LINE
  5
73F
330
1F
100
AcDbEntity
  8
4
100
AcDbLine
 10
9.561880302226049
 20
5.900000001676371
 30
0.0
 11
9.742344099049992
 21
5.900000001676371
 31
0.0
  0
INSERT
  5
740
330
1F
100
AcDbEntity
  8
4
100
AcDbBlockReference
  2
ARRO
 10
9.561880302226049
 20
5.900000001676371
 30
0.0
  0
LINE
  5
741
330
1F
100
AcDbEntity
  8
4
100
AcDbLine
 10
9.742344099049992
 20
5.900000001676371
 30
0.0
 11
9.742344099049992
 21
5.697012331885859
 31
0.0
  0
TEXT
  5
742
330
1F
100
AcDbEntity
  8
8
100
AcDbText
 10
9.777344099049992
 20
4.321678998552525
 30
0.0
 40
0.07
  1
ANCHORING BY ERECTOR
 50
90.0
  7
ROMANS
 72
     2
 11
9.777344099049992
 21
5.635012331885858
 31
0.0
100
AcDbText
  0
TEXT
  5
743
330
1F
100
AcDbEntity
  8
8
100
AcDbText
 10
8.130221489888217
 20
4.228333335009704
 30
0.0
 40
0.07
  1
LOCKER HEIGHT
 50
90.0
  7
ROMANS
 72
     1
 11
8.130221489888217
 21
4.650000001676371
 31
0.0
100
AcDbText
  0
TEXT
  5
744
330
1F
100
AcDbEntity
  8
8
100
AcDbText
 10
4.974721489888217
 20
2.712000001676371
 30
0.0
 40
0.07
  1
LOCKER WIDTH - SEE SCHEDULE
  7
ROMANS
 72
     1
 11
5.879721489888218
 21
2.712000001676371
 31
0.0
100
AcDbText
  0
TEXT
  5
745
330
1F
100
AcDbEntity
  8
8
100
AcDbText
 10
5.215435775602505
 20
2.212000001676371
 30
0.0
 40
0.1
  1
FRONT ELEVATION
  7
ROMANS
 72
     1
 11
5.879721489888218
 21
2.212000001676371
 31
0.0
100
AcDbText
  0
LINE
  5
746
330
1F
100
AcDbEntity
  8
1
100
AcDbLine
 10
3.629721489888218
 20
1.650000001676371
 30
0.0
 11
11.87972148988822
 21
1.650000001676371
 31
0.0
  0
LINE
  5
747
330
1F
100
AcDbEntity
  8
1
100
AcDbLine
 10
11.87972148988822
 20
1.650000001676371
 30
0.0
 11
11.87972148988822
 21
6.900000001676371
 31
0.0
  0
LINE
  5
748
330
1F
100
AcDbEntity
  8
1
100
AcDbLine
 10
11.87972148988822
 20
6.900000001676371
 30
0.0
 11
3.629721489888218
 21
6.900000001676371
 31
0.0
  0
LINE
  5
749
330
1F
100
AcDbEntity
  8
1
100
AcDbLine
 10
3.629721489888218
 20
6.900000001676371
 30
0.0
 11
3.629721489888218
 21
1.650000001676371
 31
0.0
  0
LINE
  5
74A
330
1F
100
AcDbEntity
  8
1
100
AcDbLine
 10
4.629721489888218
 20
3.150000001676371
 30
0.0
 11
6.129721489888218
 21
3.150000001676371
 31
0.0
  0
LINE
  5
74B
330
1F
100
AcDbEntity
  8
1
100
AcDbLine
 10
4.629721489888218
 20
3.150000001676371
 30
0.0
 11
4.629721489888218
 21
6.150000001676371
 31
0.0
  0
LINE
  5
74C
330
1F
100
AcDbEntity
  8
1
100
AcDbLine
 10
4.629721489888218
 20
6.150000001676371
 30
0.0
 11
6.129721489888218
 21
6.150000001676371
 31
0.0
  0
LINE
  5
74D
330
1F
100
AcDbEntity
  8
1
100
AcDbLine
 10
6.254721489888218
 20
6.150000001676371
 30
0.0
 11
7.129721489888218
 21
6.150000001676371
 31
0.0
  0
LINE
  5
74E
330
1F
100
AcDbEntity
  8
1
100
AcDbLine
 10
7.129721489888218
 20
6.150000001676371
 30
0.0
 11
7.129721489888218
 21
3.150000001676371
 31
0.0
  0
LINE
  5
74F
330
1F
100
AcDbEntity
  8
1
100
AcDbLine
 10
7.129721489888218
 20
3.150000001676371
 30
0.0
 11
6.254721489888218
 21
3.150000001676371
 31
0.0
  0
LINE
  5
750
330
1F
100
AcDbEntity
  8
1
100
AcDbLine
 10
10.62972148988822
 20
3.150000001676371
 30
0.0
 11
10.62972148988822
 21
6.150000001676371
 31
0.0
  0
LINE
  5
751
330
1F
100
AcDbEntity
  8
1
100
AcDbLine
 10
9.379721489888218
 20
3.150000001676371
 30
0.0
 11
9.379721489888218
 21
6.525000001676371
 31
0.0
  0
CIRCLE
  5
752
330
1F
100
AcDbEntity
  8
1
100
AcDbCircle
 10
7.754721489888218
 20
2.150000001676371
 30
0.0
 40
0.1875
  0
LINE
  5
753
330
1F
100
AcDbEntity
  8
1
100
AcDbLine
 10
6.254721489888218
 20
6.275000001676371
 30
0.0
 11
6.254721489888218
 21
5.359974180987951
 31
0.0
  0
LINE
  5
754
330
1F
100
AcDbEntity
  8
1
100
AcDbLine
 10
6.129721489888218
 20
6.275000001676371
 30
0.0
 11
6.129721489888218
 21
5.99497418098795
 31
0.0
  0
LINE
  5
755
330
1F
100
AcDbEntity
  8
1
100
AcDbLine
 10
6.084721489888218
 20
6.03997418098795
 30
0.0
 11
6.174721489888218
 21
5.94997418098795
 31
0.0
  0
LINE
  5
756
330
1F
100
AcDbEntity
  8
1
100
AcDbLine
 10
6.174721489888218
 20
5.94997418098795
 30
0.0
 11
6.084721489888218
 21
5.94997418098795
 31
0.0
  0
LINE
  5
757
330
1F
100
AcDbEntity
  8
1
100
AcDbLine
 10
6.084721489888218
 20
5.94997418098795
 30
0.0
 11
6.174721489888218
 21
5.859974180987951
 31
0.0
  0
LINE
  5
758
330
1F
100
AcDbEntity
  8
1
100
AcDbLine
 10
6.141917520715201
 20
5.892778150160968
 30
0.0
 11
6.141917520715201
 21
4.72567853082404
 31
0.0
  0
LINE
  5
759
330
1F
100
AcDbEntity
  8
1
100
AcDbLine
 10
6.084721489888218
 20
4.69997418098795
 30
0.0
 11
6.174721489888218
 21
4.609974180987951
 31
0.0
  0
LINE
  5
75A
330
1F
100
AcDbEntity
  8
1
100
AcDbLine
 10
6.174721489888218
 20
4.69997418098795
 30
0.0
 11
6.084721489888218
 21
4.69997418098795
 31
0.0
  0
LINE
  5
75B
330
1F
100
AcDbEntity
  8
1
100
AcDbLine
 10
6.084721489888218
 20
4.78997418098795
 30
0.0
 11
6.174721489888218
 21
4.69997418098795
 31
0.0
  0
LINE
  5
75C
330
1F
100
AcDbEntity
  8
1
100
AcDbLine
 10
6.084721489888218
 20
3.44997418098795
 30
0.0
 11
6.174721489888218
 21
3.359974180987951
 31
0.0
  0
LINE
  5
75D
330
1F
100
AcDbEntity
  8
1
100
AcDbLine
 10
6.174721489888218
 20
3.44997418098795
 30
0.0
 11
6.084721489888218
 21
3.44997418098795
 31
0.0
  0
LINE
  5
75E
330
1F
100
AcDbEntity
  8
1
100
AcDbLine
 10
6.084721489888218
 20
3.53997418098795
 30
0.0
 11
6.174721489888218
 21
3.44997418098795
 31
0.0
  0
LINE
  5
75F
330
1F
100
AcDbEntity
  8
1
100
AcDbLine
 10
6.129721489888218
 20
4.654974180987951
 30
0.0
 11
6.129721489888218
 21
4.11997418098795
 31
0.0
  0
LINE
  5
760
330
1F
100
AcDbEntity
  8
1
100
AcDbLine
 10
6.129721489888218
 20
4.11997418098795
 30
0.0
 11
6.129721489888218
 21
3.49497418098795
 31
0.0
  0
LINE
  5
761
330
1F
100
AcDbEntity
  8
1
100
AcDbLine
 10
6.129721489888218
 20
3.404974180987951
 30
0.0
 11
6.129721489888218
 21
3.025000001676371
 31
0.0
  0
LINE
  5
762
330
1F
100
AcDbEntity
  8
1
100
AcDbLine
 10
6.209721489888218
 20
4.16497418098795
 30
0.0
 11
6.299721489888218
 21
4.07497418098795
 31
0.0
  0
LINE
  5
763
330
1F
100
AcDbEntity
  8
1
100
AcDbLine
 10
6.299721489888218
 20
4.07497418098795
 30
0.0
 11
6.209721489888218
 21
4.07497418098795
 31
0.0
  0
LINE
  5
764
330
1F
100
AcDbEntity
  8
1
100
AcDbLine
 10
6.209721489888218
 20
4.07497418098795
 30
0.0
 11
6.299721489888218
 21
3.984974180987951
 31
0.0
  0
LINE
  5
765
330
1F
100
AcDbEntity
  8
1
100
AcDbLine
 10
6.209721489888218
 20
5.404974180987951
 30
0.0
 11
6.299721489888218
 21
5.314974180987951
 31
0.0
  0
LINE
  5
766
330
1F
100
AcDbEntity
  8
1
100
AcDbLine
 10
6.299721489888218
 20
5.314974180987951
 30
0.0
 11
6.209721489888218
 21
5.314974180987951
 31
0.0
  0
LINE
  5
767
330
1F
100
AcDbEntity
  8
1
100
AcDbLine
 10
6.209721489888218
 20
5.314974180987951
 30
0.0
 11
6.299721489888218
 21
5.224974180987951
 31
0.0
  0
LINE
  5
768
330
1F
100
AcDbEntity
  8
1
100
AcDbLine
 10
6.254721489888218
 20
5.275967705828237
 30
0.0
 11
6.254721489888218
 21
4.43247418098795
 31
0.0
  0
LINE
  5
769
330
1F
100
AcDbEntity
  8
1
100
AcDbLine
 10
6.254721489888218
 20
4.43247418098795
 30
0.0
 11
6.254721489888218
 21
4.11997418098795
 31
0.0
  0
LINE
  5
76A
330
1F
100
AcDbEntity
  8
1
100
AcDbLine
 10
6.254721489888218
 20
4.029974180987951
 30
0.0
 11
6.254721489888218
 21
3.025000001676371
 31
0.0
  0
LINE
  5
76B
330
1F
100
AcDbEntity
  8
1
100
AcDbLine
 10
9.379721489888218
 20
3.150000001676371
 30
0.0
 11
9.567721489888217
 21
3.338000001676371
 31
0.0
  0
LINE
  5
76C
330
1F
100
AcDbEntity
  8
1
100
AcDbLine
 10
9.379721489888218
 20
3.275000001676371
 30
0.0
 11
9.567721489888217
 21
3.463000001676371
 31
0.0
  0
LINE
  5
76D
330
1F
100
AcDbEntity
  8
1
100
AcDbLine
 10
9.379721489888218
 20
3.650000001676371
 30
0.0
 11
9.567721489888217
 21
3.838000001676371
 31
0.0
  0
LINE
  5
76E
330
1F
100
AcDbEntity
  8
1
100
AcDbLine
 10
9.379721489888218
 20
3.775000001676371
 30
0.0
 11
9.567721489888217
 21
3.963000001676371
 31
0.0
  0
LINE
  5
76F
330
1F
100
AcDbEntity
  8
1
100
AcDbLine
 10
9.379721489888218
 20
3.900000001676371
 30
0.0
 11
9.567721489888217
 21
4.088000001676371
 31
0.0
  0
LINE
  5
770
330
1F
100
AcDbEntity
  8
1
100
AcDbLine
 10
9.379721489888218
 20
4.025000001676371
 30
0.0
 11
9.567721489888217
 21
4.213000001676371
 31
0.0
  0
LINE
  5
771
330
1F
100
AcDbEntity
  8
1
100
AcDbLine
 10
9.379721489888218
 20
4.150000001676371
 30
0.0
 11
9.567721489888217
 21
4.338000001676371
 31
0.0
  0
LINE
  5
772
330
1F
100
AcDbEntity
  8
1
100
AcDbLine
 10
9.379721489888218
 20
4.275000001676371
 30
0.0
 11
9.567721489888217
 21
4.463000001676371
 31
0.0
  0
LINE
  5
773
330
1F
100
AcDbEntity
  8
1
100
AcDbLine
 10
9.379721489888218
 20
4.400000001676371
 30
0.0
 11
9.567721489888217
 21
4.588000001676371
 31
0.0
  0
LINE
  5
774
330
1F
100
AcDbEntity
  8
1
100
AcDbLine
 10
9.379721489888218
 20
4.525000001676371
 30
0.0
 11
9.567721489888217
 21
4.713000001676371
 31
0.0
  0
LINE
  5
775
330
1F
100
AcDbEntity
  8
1
100
AcDbLine
 10
9.379721489888218
 20
4.650000001676371
 30
0.0
 11
9.567721489888217
 21
4.838000001676371
 31
0.0
  0
LINE
  5
776
330
1F
100
AcDbEntity
  8
1
100
AcDbLine
 10
9.379721489888218
 20
4.775000001676371
 30
0.0
 11
9.567721489888217
 21
4.963000001676371
 31
0.0
  0
LINE
  5
777
330
1F
100
AcDbEntity
  8
1
100
AcDbLine
 10
9.379721489888218
 20
4.900000001676371
 30
0.0
 11
9.567721489888217
 21
5.088000001676371
 31
0.0
  0
LINE
  5
778
330
1F
100
AcDbEntity
  8
1
100
AcDbLine
 10
9.379721489888218
 20
5.025000001676371
 30
0.0
 11
9.567721489888217
 21
5.213000001676371
 31
0.0
  0
LINE
  5
779
330
1F
100
AcDbEntity
  8
1
100
AcDbLine
 10
9.379721489888218
 20
5.150000001676371
 30
0.0
 11
9.567721489888217
 21
5.338000001676371
 31
0.0
  0
LINE
  5
77A
330
1F
100
AcDbEntity
  8
1
100
AcDbLine
 10
9.379721489888218
 20
5.275000001676371
 30
0.0
 11
9.567721489888217
 21
5.463000001676371
 31
0.0
  0
LINE
  5
77B
330
1F
100
AcDbEntity
  8
1
100
AcDbLine
 10
9.379721489888218
 20
5.400000001676371
 30
0.0
 11
9.567721489888217
 21
5.588000001676371
 31
0.0
  0
LINE
  5
77C
330
1F
100
AcDbEntity
  8
1
100
AcDbLine
 10
9.379721489888218
 20
5.525000001676371
 30
0.0
 11
9.567721489888217
 21
5.713000001676371
 31
0.0
  0
LINE
  5
77D
330
1F
100
AcDbEntity
  8
1
100
AcDbLine
 10
9.379721489888218
 20
5.650000001676371
 30
0.0
 11
9.567721489888217
 21
5.838000001676371
 31
0.0
  0
LINE
  5
77E
330
1F
100
AcDbEntity
  8
1
100
AcDbLine
 10
9.379721489888218
 20
5.775000001676371
 30
0.0
 11
9.567721489888217
 21
5.963000001676371
 31
0.0
  0
LINE
  5
77F
330
1F
100
AcDbEntity
  8
1
100
AcDbLine
 10
9.379721489888218
 20
5.900000001676371
 30
0.0
 11
9.567721489888217
 21
6.088000001676371
 31
0.0
  0
LINE
  5
780
330
1F
100
AcDbEntity
  8
1
100
AcDbLine
 10
9.379721489888218
 20
6.025000001676371
 30
0.0
 11
9.567721489888217
 21
6.213000001676371
 31
0.0
  0
LINE
  5
781
330
1F
100
AcDbEntity
  8
1
100
AcDbLine
 10
9.379721489888218
 20
6.150000001676371
 30
0.0
 11
9.567721489888217
 21
6.338000001676371
 31
0.0
  0
LINE
  5
782
330
1F
100
AcDbEntity
  8
1
100
AcDbLine
 10
9.379721489888218
 20
6.275000001676371
 30
0.0
 11
9.567721489888217
 21
6.463000001676371
 31
0.0
  0
LINE
  5
783
330
1F
100
AcDbEntity
  8
1
100
AcDbLine
 10
9.379721489888218
 20
6.400000001676371
 30
0.0
 11
9.504721489888218
 21
6.525000001676371
 31
0.0
  0
LINE
  5
784
330
1F
100
AcDbEntity
  8
1
100
AcDbLine
 10
9.31972148988822
 20
3.150000001676371
 30
0.0
 11
9.31972148988822
 21
6.150000001676371
 31
0.0
  0
LINE
  5
785
330
1F
100
AcDbEntity
  8
4
100
AcDbLine
 10
4.629721489888218
 20
3.088000001676371
 30
0.0
 11
4.629721489888218
 21
2.588000001676371
 31
0.0
  0
LINE
  5
786
330
1F
100
AcDbEntity
  8
4
100
AcDbLine
 10
7.129721489888218
 20
3.088000001676371
 30
0.0
 11
7.129721489888218
 21
2.588000001676371
 31
0.0
  0
LINE
  5
787
330
1F
100
AcDbEntity
  8
4
100
AcDbLine
 10
7.129721489888218
 20
2.650000001676371
 30
0.0
 11
4.629721489888218
 21
2.650000001676371
 31
0.0
  0
INSERT
  5
788
330
1F
100
AcDbEntity
  8
4
100
AcDbBlockReference
  2
ARRO
 10
4.629721489888218
 20
2.650000001676371
 30
0.0
  0
INSERT
  5
789
330
1F
100
AcDbEntity
  8
4
100
AcDbBlockReference
  2
ARRO
 10
7.129721489888218
 20
2.650000001676371
 30
0.0
 50
180.0
  0
LINE
  5
78A
330
1F
100
AcDbEntity
  8
4
100
AcDbLine
 10
8.63222148988822
 20
3.150000001676371
 30
0.0
 11
8.13222148988822
 21
3.150000001676371
 31
0.0
  0
LINE
  5
78B
330
1F
100
AcDbEntity
  8
4
100
AcDbLine
 10
8.192221489888218
 20
3.150000001676371
 30
0.0
 11
8.192221489888218
 21
6.150000001676371
 31
0.0
  0
LINE
  5
78C
330
1F
100
AcDbEntity
  8
4
100
AcDbLine
 10
8.63222148988822
 20
6.150000001676371
 30
0.0
 11
8.13222148988822
 21
6.150000001676371
 31
0.0
  0
INSERT
  5
78D
330
1F
100
AcDbEntity
  8
4
100
AcDbBlockReference
  2
ARRO
 10
8.192221489888218
 20
6.150000001676371
 30
0.0
 50
270.0
  0
INSERT
  5
78E
330
1F
100
AcDbEntity
  8
4
100
AcDbBlockReference
  2
ARRO
 10
8.192221489888218
 20
3.150000001676371
 30
0.0
 50
90.0
  0
LINE
  5
78F
330
1F
100
AcDbEntity
  8
4
100
AcDbLine
 10
9.31972148988822
 20
3.462500001676371
 30
0.0
 11
8.69472148988822
 21
3.462500001676371
 31
0.0
  0
LINE
  5
790
330
1F
100
AcDbEntity
  8
4
100
AcDbLine
 10
9.379721489888218
 20
3.462500001676371
 30
0.0
 11
9.629721489888218
 21
3.462500001676371
 31
0.0
  0
LINE
  5
791
330
1F
100
AcDbEntity
  8
4
100
AcDbLine
 10
10.00472148988822
 20
3.462500001676371
 30
0.0
 11
11.28622148988822
 21
3.462500001676371
 31
0.0
  0
INSERT
  5
792
330
1F
100
AcDbEntity
  8
4
100
AcDbBlockReference
  2
ARRO
 10
8.69472148988822
 20
3.462500001676371
 30
0.0
  0
INSERT
  5
793
330
1F
100
AcDbEntity
  8
4
100
AcDbBlockReference
  2
ARRO
 10
9.31972148988822
 20
3.462500001676371
 30
0.0
 50
180.0
  0
INSERT
  5
794
330
1F
100
AcDbEntity
  8
4
100
AcDbBlockReference
  2
ARRO
 10
9.379721489888218
 20
3.462500001676371
 30
0.0
  0
INSERT
  5
795
330
1F
100
AcDbEntity
  8
4
100
AcDbBlockReference
  2
ARRO
 10
10.00472148988822
 20
3.462500001676371
 30
0.0
  0
INSERT
  5
796
330
1F
100
AcDbEntity
  8
4
100
AcDbBlockReference
  2
ARRO
 10
11.28622148988822
 20
3.462500001676371
 30
0.0
 50
180.0
  0
LINE
  5
797
330
1F
100
AcDbEntity
  8
1
100
AcDbLine
 10
4.691721489888219
 20
3.212000001676371
 30
0.0
 11
4.691721489888219
 21
4.619005880233501
 31
0.0
  0
LINE
  5
798
330
1F
100
AcDbEntity
  8
1
100
AcDbLine
 10
4.691721489888219
 20
6.088000001676372
 30
0.0
 11
5.192721489888219
 21
6.088000001676372
 31
0.0
  0
LINE
  5
799
330
1F
100
AcDbEntity
  8
1
100
AcDbLine
 10
5.192721489888219
 20
6.088000001676372
 30
0.0
 11
5.192721489888218
 21
4.681005880233501
 31
0.0
  0
LINE
  5
79A
330
1F
100
AcDbEntity
  8
1
100
AcDbLine
 10
5.316721489888219
 20
3.212000001676371
 30
0.0
 11
5.316721489888219
 21
4.619005880233501
 31
0.0
  0
LINE
  5
79B
330
1F
100
AcDbEntity
  8
1
100
AcDbLine
 10
5.316721489888219
 20
6.088000001676372
 30
0.0
 11
5.817721489888219
 21
6.088000001676372
 31
0.0
  0
LINE
  5
79C
330
1F
100
AcDbEntity
  8
1
100
AcDbLine
 10
5.817721489888219
 20
6.088000001676372
 30
0.0
 11
5.817721489888219
 21
4.681005880233501
 31
0.0
  0
LINE
  5
79D
330
1F
100
AcDbEntity
  8
1
100
AcDbLine
 10
5.817721489888218
 20
3.212000001676371
 30
0.0
 11
5.316721489888219
 21
3.212000001676371
 31
0.0
  0
LINE
  5
79E
330
1F
100
AcDbEntity
  8
1
100
AcDbLine
 10
5.941721489888219
 20
3.212000001676371
 30
0.0
 11
5.941721489888219
 21
4.619005880233501
 31
0.0
  0
LINE
  5
79F
330
1F
100
AcDbEntity
  8
1
100
AcDbLine
 10
5.941721489888219
 20
6.088000001676372
 30
0.0
 11
6.129721489888218
 21
6.088000001676372
 31
0.0
  0
LINE
  5
7A0
330
1F
100
AcDbEntity
  8
1
100
AcDbLine
 10
6.442721489888219
 20
6.088000001676372
 30
0.0
 11
6.442721489888219
 21
4.681005880233501
 31
0.0
  0
LINE
  5
7A1
330
1F
100
AcDbEntity
  8
1
100
AcDbLine
 10
6.442721489888218
 20
3.212000001676371
 30
0.0
 11
6.254721489888218
 21
3.212000001676371
 31
0.0
  0
LINE
  5
7A2
330
1F
100
AcDbEntity
  8
1
100
AcDbLine
 10
6.566721489888219
 20
3.212000001676371
 30
0.0
 11
6.566721489888219
 21
4.619005880233501
 31
0.0
  0
LINE
  5
7A3
330
1F
100
AcDbEntity
  8
1
100
AcDbLine
 10
6.566721489888219
 20
6.088000001676372
 30
0.0
 11
7.067721489888219
 21
6.088000001676372
 31
0.0
  0
LINE
  5
7A4
330
1F
100
AcDbEntity
  8
1
100
AcDbLine
 10
7.067721489888219
 20
6.088000001676372
 30
0.0
 11
7.067721489888219
 21
4.681005880233501
 31
0.0
  0
LINE
  5
7A5
330
1F
100
AcDbEntity
  8
1
100
AcDbLine
 10
7.067721489888218
 20
3.212000001676371
 30
0.0
 11
6.566721489888219
 21
3.212000001676371
 31
0.0
  0
LINE
  5
7A6
330
1F
100
AcDbEntity
  8
1
100
AcDbLine
 10
5.254721489888218
 20
3.150000001676371
 30
0.0
 11
5.254721489888218
 21
6.150000001676371
 31
0.0
  0
LINE
  5
7A7
330
1F
100
AcDbEntity
  8
1
100
AcDbLine
 10
5.879721489888218
 20
3.150000001676371
 30
0.0
 11
5.879721489888218
 21
6.150000001676371
 31
0.0
  0
LINE
  5
7A8
330
1F
100
AcDbEntity
  8
1
100
AcDbLine
 10
6.504721489888218
 20
3.150000001676371
 30
0.0
 11
6.504721489888218
 21
6.150000001676371
 31
0.0
  0
LINE
  5
7A9
330
1F
100
AcDbEntity
  8
1
100
AcDbLine
 10
6.254721489888218
 20
6.088000001676372
 30
0.0
 11
6.442721489888219
 21
6.088000001676372
 31
0.0
  0
LINE
  5
7AA
330
1F
100
AcDbEntity
  8
1
100
AcDbLine
 10
6.129721489888217
 20
3.212000001676371
 30
0.0
 11
5.941721489888219
 21
3.212000001676371
 31
0.0
  0
LINE
  5
7AB
330
1F
100
AcDbEntity
  8
4
100
AcDbLine
 10
5.567221489888218
 20
6.056000001676371
 30
0.0
 11
5.567221489888218
 21
6.181000001676371
 31
0.0
  0
CIRCLE
  5
7AC
330
1F
100
AcDbEntity
  8
4
100
AcDbCircle
 10
5.567221489888218
 20
5.962000001676371
 30
0.0
 40
0.094
  0
CIRCLE
  5
7AD
330
1F
100
AcDbEntity
  8
4
100
AcDbCircle
 10
5.408588200196231
 20
3.024000001676371
 30
0.0
 40
0.094
  0
LINE
  5
7AE
330
1F
100
AcDbEntity
  8
4
100
AcDbLine
 10
5.408588200196231
 20
3.118000001676371
 30
0.0
 11
5.408588200196231
 21
3.243000001676371
 31
0.0
  0
CIRCLE
  5
7AF
330
1F
100
AcDbEntity
  8
4
100
AcDbCircle
 10
5.658588200196231
 20
3.024000001676371
 30
0.0
 40
0.094
  0
LINE
  5
7B0
330
1F
100
AcDbEntity
  8
4
100
AcDbLine
 10
5.502588200196232
 20
3.024000001676371
 30
0.0
 11
5.564588200196231
 21
3.024000001676371
 31
0.0
  0
LINE
  5
7B1
330
1F
100
AcDbEntity
  8
1
100
AcDbLine
 10
4.691721489888219
 20
3.212000001676371
 30
0.0
 11
5.192721489888218
 21
3.212000001676371
 31
0.0
  0
LINE
  5
7B2
330
1F
100
AcDbEntity
  8
1
100
AcDbLine
 10
8.833221489888217
 20
6.150000001676371
 30
0.0
 11
8.818221489888218
 21
6.13500000167637
 31
0.0
  0
LINE
  5
7B3
330
1F
100
AcDbEntity
  8
1
100
AcDbLine
 10
8.818221489888218
 20
6.13500000167637
 30
0.0
 11
8.720221489888217
 21
6.13500000167637
 31
0.0
  0
LINE
  5
7B4
330
1F
100
AcDbEntity
  8
1
100
AcDbLine
 10
8.720221489888217
 20
6.13500000167637
 30
0.0
 11
8.720221489888217
 21
6.106753859238811
 31
0.0
  0
LINE
  5
7B5
330
1F
100
AcDbEntity
  8
1
100
AcDbLine
 10
8.895221489888218
 20
6.088000001676371
 30
0.0
 11
8.833221489888217
 21
6.150000001676371
 31
0.0
  0
LINE
  5
7B6
330
1F
100
AcDbEntity
  8
1
100
AcDbLine
 10
9.260221489888218
 20
6.088000001676371
 30
0.0
 11
8.895221489888218
 21
6.088000001676371
 31
0.0
  0
LINE
  5
7B7
330
1F
100
AcDbEntity
  8
1
100
AcDbLine
 10
9.260221489888218
 20
6.150000001676371
 30
0.0
 11
9.260221489888218
 21
6.088000001676371
 31
0.0
  0
LINE
  5
7B8
330
1F
100
AcDbEntity
  8
1
100
AcDbLine
 10
9.300221489888219
 20
6.150000001676371
 30
0.0
 11
9.300221489888219
 21
6.088000001676371
 31
0.0
  0
LINE
  5
7B9
330
1F
100
AcDbEntity
  8
1
100
AcDbLine
 10
8.695221489888218
 20
6.150000001676371
 30
0.0
 11
8.803221489888217
 21
6.150000001676371
 31
0.0
  0
LINE
  5
7BA
330
1F
100
AcDbEntity
  8
1
100
AcDbLine
 10
8.695221489888218
 20
6.088000001676371
 30
0.0
 11
8.695221489888218
 21
6.150000001676371
 31
0.0
  0
LINE
  5
7BB
330
1F
100
AcDbEntity
  8
1
100
AcDbLine
 10
8.757221489888218
 20
6.088000001676371
 30
0.0
 11
8.695221489888218
 21
6.088000001676371
 31
0.0
  0
LINE
  5
7BC
330
1F
100
AcDbEntity
  8
1
100
AcDbLine
 10
8.833221489888217
 20
6.150000001676371
 30
0.0
 11
9.300221489888219
 21
6.150000001676371
 31
0.0
  0
LINE
  5
7BD
330
1F
100
AcDbEntity
  8
1
100
AcDbLine
 10
10.14322148988822
 20
6.150000001676371
 30
0.0
 11
10.61022148988822
 21
6.150000001676371
 31
0.0
  0
LINE
  5
7BE
330
1F
100
AcDbEntity
  8
1
100
AcDbLine
 10
10.06722148988822
 20
6.088000001676371
 30
0.0
 11
10.00522148988822
 21
6.088000001676371
 31
0.0
  0
LINE
  5
7BF
330
1F
100
AcDbEntity
  8
1
100
AcDbLine
 10
10.00522148988822
 20
6.088000001676371
 30
0.0
 11
10.00522148988822
 21
6.150000001676371
 31
0.0
  0
LINE
  5
7C0
330
1F
100
AcDbEntity
  8
1
100
AcDbLine
 10
10.00522148988822
 20
6.150000001676371
 30
0.0
 11
10.11322148988822
 21
6.150000001676371
 31
0.0
  0
LINE
  5
7C1
330
1F
100
AcDbEntity
  8
1
100
AcDbLine
 10
10.61022148988822
 20
6.150000001676371
 30
0.0
 11
10.61022148988822
 21
6.088000001676371
 31
0.0
  0
LINE
  5
7C2
330
1F
100
AcDbEntity
  8
1
100
AcDbLine
 10
10.57022148988822
 20
6.150000001676371
 30
0.0
 11
10.57022148988822
 21
6.088000001676371
 31
0.0
  0
LINE
  5
7C3
330
1F
100
AcDbEntity
  8
1
100
AcDbLine
 10
10.57022148988822
 20
6.088000001676371
 30
0.0
 11
10.20522148988821
 21
6.088000001676371
 31
0.0
  0
LINE
  5
7C4
330
1F
100
AcDbEntity
  8
1
100
AcDbLine
 10
10.20522148988821
 20
6.088000001676371
 30
0.0
 11
10.14322148988822
 21
6.150000001676371
 31
0.0
  0
LINE
  5
7C5
330
1F
100
AcDbEntity
  8
1
100
AcDbLine
 10
10.03022148988822
 20
6.13500000167637
 30
0.0
 11
10.03022148988822
 21
6.106753859238811
 31
0.0
  0
LINE
  5
7C6
330
1F
100
AcDbEntity
  8
1
100
AcDbLine
 10
10.12822148988822
 20
6.13500000167637
 30
0.0
 11
10.03022148988822
 21
6.13500000167637
 31
0.0
  0
LINE
  5
7C7
330
1F
100
AcDbEntity
  8
1
100
AcDbLine
 10
10.14322148988822
 20
6.150000001676371
 30
0.0
 11
10.12822148988822
 21
6.13500000167637
 31
0.0
  0
LINE
  5
7C8
330
1F
100
AcDbEntity
  8
1
100
AcDbLine
 10
11.14822148988822
 20
6.150000001676371
 30
0.0
 11
11.16322148988822
 21
6.13500000167637
 31
0.0
  0
LINE
  5
7C9
330
1F
100
AcDbEntity
  8
1
100
AcDbLine
 10
11.16322148988822
 20
6.13500000167637
 30
0.0
 11
11.26122148988822
 21
6.13500000167637
 31
0.0
  0
LINE
  5
7CA
330
1F
100
AcDbEntity
  8
1
100
AcDbLine
 10
11.26122148988822
 20
6.13500000167637
 30
0.0
 11
11.26122148988822
 21
6.106753859238811
 31
0.0
  0
LINE
  5
7CB
330
1F
100
AcDbEntity
  8
1
100
AcDbLine
 10
11.08622148988822
 20
6.088000001676371
 30
0.0
 11
11.14822148988822
 21
6.150000001676371
 31
0.0
  0
LINE
  5
7CC
330
1F
100
AcDbEntity
  8
1
100
AcDbLine
 10
10.72122148988822
 20
6.088000001676371
 30
0.0
 11
11.08622148988822
 21
6.088000001676371
 31
0.0
  0
LINE
  5
7CD
330
1F
100
AcDbEntity
  8
1
100
AcDbLine
 10
10.72122148988822
 20
6.150000001676371
 30
0.0
 11
10.72122148988822
 21
6.088000001676371
 31
0.0
  0
LINE
  5
7CE
330
1F
100
AcDbEntity
  8
1
100
AcDbLine
 10
10.68122148988822
 20
6.150000001676371
 30
0.0
 11
10.68122148988822
 21
6.088000001676371
 31
0.0
  0
LINE
  5
7CF
330
1F
100
AcDbEntity
  8
1
100
AcDbLine
 10
11.28622148988822
 20
6.150000001676371
 30
0.0
 11
11.17822148988822
 21
6.150000001676371
 31
0.0
  0
LINE
  5
7D0
330
1F
100
AcDbEntity
  8
1
100
AcDbLine
 10
11.28622148988822
 20
6.088000001676371
 30
0.0
 11
11.28622148988822
 21
6.150000001676371
 31
0.0
  0
LINE
  5
7D1
330
1F
100
AcDbEntity
  8
1
100
AcDbLine
 10
11.22422148988822
 20
6.088000001676371
 30
0.0
 11
11.28622148988822
 21
6.088000001676371
 31
0.0
  0
LINE
  5
7D2
330
1F
100
AcDbEntity
  8
1
100
AcDbLine
 10
11.14822148988822
 20
6.150000001676371
 30
0.0
 11
10.68122148988822
 21
6.150000001676371
 31
0.0
  0
LINE
  5
7D3
330
1F
100
AcDbEntity
  8
1
100
AcDbLine
 10
11.14682549771638
 20
3.212500001676371
 30
0.0
 11
10.67982549771638
 21
3.212500001676371
 31
0.0
  0
LINE
  5
7D4
330
1F
100
AcDbEntity
  8
1
100
AcDbLine
 10
11.22282549771638
 20
3.150500001676371
 30
0.0
 11
11.28482549771638
 21
3.150500001676371
 31
0.0
  0
LINE
  5
7D5
330
1F
100
AcDbEntity
  8
1
100
AcDbLine
 10
11.28482549771638
 20
3.150500001676371
 30
0.0
 11
11.28482549771638
 21
3.212500001676371
 31
0.0
  0
LINE
  5
7D6
330
1F
100
AcDbEntity
  8
1
100
AcDbLine
 10
11.28482549771638
 20
3.212500001676371
 30
0.0
 11
11.17682549771638
 21
3.212500001676371
 31
0.0
  0
LINE
  5
7D7
330
1F
100
AcDbEntity
  8
1
100
AcDbLine
 10
10.67982549771638
 20
3.212500001676371
 30
0.0
 11
10.67982549771638
 21
3.150500001676371
 31
0.0
  0
LINE
  5
7D8
330
1F
100
AcDbEntity
  8
1
100
AcDbLine
 10
10.71982549771638
 20
3.212500001676371
 30
0.0
 11
10.71982549771638
 21
3.150500001676371
 31
0.0
  0
LINE
  5
7D9
330
1F
100
AcDbEntity
  8
1
100
AcDbLine
 10
10.71982549771638
 20
3.150500001676371
 30
0.0
 11
11.08482549771638
 21
3.150500001676371
 31
0.0
  0
LINE
  5
7DA
330
1F
100
AcDbEntity
  8
1
100
AcDbLine
 10
11.08482549771638
 20
3.150500001676371
 30
0.0
 11
11.14682549771638
 21
3.212500001676371
 31
0.0
  0
LINE
  5
7DB
330
1F
100
AcDbEntity
  8
1
100
AcDbLine
 10
11.25982549771638
 20
3.19750000167637
 30
0.0
 11
11.25982549771638
 21
3.169253859238811
 31
0.0
  0
LINE
  5
7DC
330
1F
100
AcDbEntity
  8
1
100
AcDbLine
 10
11.16182549771638
 20
3.19750000167637
 30
0.0
 11
11.25982549771638
 21
3.19750000167637
 31
0.0
  0
LINE
  5
7DD
330
1F
100
AcDbEntity
  8
1
100
AcDbLine
 10
11.14682549771638
 20
3.212500001676371
 30
0.0
 11
11.16182549771638
 21
3.19750000167637
 31
0.0
  0
LINE
  5
7DE
330
1F
100
AcDbEntity
  8
1
100
AcDbLine
 10
10.14322148988822
 20
3.212500001676371
 30
0.0
 11
10.12822148988822
 21
3.19750000167637
 31
0.0
  0
LINE
  5
7DF
330
1F
100
AcDbEntity
  8
1
100
AcDbLine
 10
10.12822148988822
 20
3.19750000167637
 30
0.0
 11
10.03022148988822
 21
3.19750000167637
 31
0.0
  0
LINE
  5
7E0
330
1F
100
AcDbEntity
  8
1
100
AcDbLine
 10
10.03022148988822
 20
3.19750000167637
 30
0.0
 11
10.03022148988822
 21
3.169253859238811
 31
0.0
  0
LINE
  5
7E1
330
1F
100
AcDbEntity
  8
1
100
AcDbLine
 10
10.20522148988821
 20
3.150500001676371
 30
0.0
 11
10.14322148988822
 21
3.212500001676371
 31
0.0
  0
LINE
  5
7E2
330
1F
100
AcDbEntity
  8
1
100
AcDbLine
 10
10.57022148988822
 20
3.150500001676371
 30
0.0
 11
10.20522148988821
 21
3.150500001676371
 31
0.0
  0
LINE
  5
7E3
330
1F
100
AcDbEntity
  8
1
100
AcDbLine
 10
10.57022148988822
 20
3.212500001676371
 30
0.0
 11
10.57022148988822
 21
3.150500001676371
 31
0.0
  0
LINE
  5
7E4
330
1F
100
AcDbEntity
  8
1
100
AcDbLine
 10
10.61022148988822
 20
3.212500001676371
 30
0.0
 11
10.61022148988822
 21
3.150500001676371
 31
0.0
  0
LINE
  5
7E5
330
1F
100
AcDbEntity
  8
1
100
AcDbLine
 10
10.00522148988822
 20
3.212500001676371
 30
0.0
 11
10.11322148988822
 21
3.212500001676371
 31
0.0
  0
LINE
  5
7E6
330
1F
100
AcDbEntity
  8
1
100
AcDbLine
 10
10.00522148988822
 20
3.150500001676371
 30
0.0
 11
10.00522148988822
 21
3.212500001676371
 31
0.0
  0
LINE
  5
7E7
330
1F
100
AcDbEntity
  8
1
100
AcDbLine
 10
10.06722148988822
 20
3.150500001676371
 30
0.0
 11
10.00522148988822
 21
3.150500001676371
 31
0.0
  0
LINE
  5
7E8
330
1F
100
AcDbEntity
  8
1
100
AcDbLine
 10
10.14322148988822
 20
3.212500001676371
 30
0.0
 11
10.61022148988822
 21
3.212500001676371
 31
0.0
  0
LINE
  5
7E9
330
1F
100
AcDbEntity
  8
1
100
AcDbLine
 10
8.833221489888217
 20
3.212500001676371
 30
0.0
 11
9.300221489888219
 21
3.212500001676371
 31
0.0
  0
LINE
  5
7EA
330
1F
100
AcDbEntity
  8
1
100
AcDbLine
 10
8.757221489888218
 20
3.150500001676371
 30
0.0
 11
8.695221489888218
 21
3.150500001676371
 31
0.0
  0
LINE
  5
7EB
330
1F
100
AcDbEntity
  8
1
100
AcDbLine
 10
8.695221489888218
 20
3.150500001676371
 30
0.0
 11
8.695221489888218
 21
3.212500001676371
 31
0.0
  0
LINE
  5
7EC
330
1F
100
AcDbEntity
  8
1
100
AcDbLine
 10
8.695221489888218
 20
3.212500001676371
 30
0.0
 11
8.803221489888217
 21
3.212500001676371
 31
0.0
  0
LINE
  5
7ED
330
1F
100
AcDbEntity
  8
1
100
AcDbLine
 10
9.300221489888219
 20
3.212500001676371
 30
0.0
 11
9.300221489888219
 21
3.150500001676371
 31
0.0
  0
LINE
  5
7EE
330
1F
100
AcDbEntity
  8
1
100
AcDbLine
 10
9.260221489888218
 20
3.212500001676371
 30
0.0
 11
9.260221489888218
 21
3.150500001676371
 31
0.0
  0
LINE
  5
7EF
330
1F
100
AcDbEntity
  8
1
100
AcDbLine
 10
9.260221489888218
 20
3.150500001676371
 30
0.0
 11
8.895221489888218
 21
3.150500001676371
 31
0.0
  0
LINE
  5
7F0
330
1F
100
AcDbEntity
  8
1
100
AcDbLine
 10
8.895221489888218
 20
3.150500001676371
 30
0.0
 11
8.833221489888217
 21
3.212500001676371
 31
0.0
  0
LINE
  5
7F1
330
1F
100
AcDbEntity
  8
1
100
AcDbLine
 10
8.720221489888217
 20
3.19750000167637
 30
0.0
 11
8.720221489888217
 21
3.169253859238811
 31
0.0
  0
LINE
  5
7F2
330
1F
100
AcDbEntity
  8
1
100
AcDbLine
 10
8.818221489888218
 20
3.19750000167637
 30
0.0
 11
8.720221489888217
 21
3.19750000167637
 31
0.0
  0
LINE
  5
7F3
330
1F
100
AcDbEntity
  8
1
100
AcDbLine
 10
8.833221489888217
 20
3.212500001676371
 30
0.0
 11
8.818221489888218
 21
3.19750000167637
 31
0.0
  0
LINE
  5
7F4
330
1F
100
AcDbEntity
  8
1
100
AcDbLine
 10
4.691721489888219
 20
4.681005880233501
 30
0.0
 11
4.691721489888219
 21
6.088000001676372
 31
0.0
  0
LINE
  5
7F5
330
1F
100
AcDbEntity
  8
1
100
AcDbLine
 10
5.192721489888218
 20
4.619005880233501
 30
0.0
 11
5.192721489888218
 21
3.212000001676371
 31
0.0
  0
LINE
  5
7F6
330
1F
100
AcDbEntity
  8
1
100
AcDbLine
 10
5.316721489888219
 20
4.681005880233501
 30
0.0
 11
5.316721489888219
 21
6.088000001676372
 31
0.0
  0
LINE
  5
7F7
330
1F
100
AcDbEntity
  8
1
100
AcDbLine
 10
5.817721489888218
 20
4.619005880233501
 30
0.0
 11
5.817721489888218
 21
3.212000001676371
 31
0.0
  0
LINE
  5
7F8
330
1F
100
AcDbEntity
  8
1
100
AcDbLine
 10
5.941721489888219
 20
4.681005880233502
 30
0.0
 11
5.941721489888219
 21
6.088000001676372
 31
0.0
  0
LINE
  5
7F9
330
1F
100
AcDbEntity
  8
1
100
AcDbLine
 10
6.442721489888218
 20
4.619005880233501
 30
0.0
 11
6.442721489888218
 21
3.212000001676371
 31
0.0
  0
LINE
  5
7FA
330
1F
100
AcDbEntity
  8
1
100
AcDbLine
 10
6.566721489888219
 20
4.681005880233501
 30
0.0
 11
6.566721489888219
 21
6.088000001676372
 31
0.0
  0
LINE
  5
7FB
330
1F
100
AcDbEntity
  8
1
100
AcDbLine
 10
7.067721489888218
 20
4.619005880233501
 30
0.0
 11
7.067721489888218
 21
3.212000001676371
 31
0.0
  0
CIRCLE
  5
7FC
330
1F
100
AcDbEntity
  8
4
100
AcDbCircle
 10
4.83695554535167
 20
3.91548380328818
 30
0.0
 40
0.023
  0
LWPOLYLINE
  5
7FD
330
1F
100
AcDbEntity
  8
4
100
AcDbPolyline
 90
        2
 70
     1
 43
0.01
 10
4.83195554535167
 20
3.96798380328818
 42
1.0
 10
4.84195554535167
 20
3.96798380328818
 42
1.0
  0
LWPOLYLINE
  5
7FE
330
1F
100
AcDbEntity
  8
4
100
AcDbPolyline
 90
        2
 70
     1
 43
0.01
 10
4.83195554535167
 20
3.86298380328818
 42
1.0
 10
4.84195554535167
 20
3.86298380328818
 42
1.0
  0
CIRCLE
  5
7FF
330
1F
100
AcDbEntity
  8
4
100
AcDbCircle
 10
4.83695554535167
 20
5.38448380328818
 30
0.0
 40
0.023
  0
LWPOLYLINE
  5
800
330
1F
100
AcDbEntity
  8
4
100
AcDbPolyline
 90
        2
 70
     1
 43
0.01
 10
4.83195554535167
 20
5.43698380328818
 42
1.0
 10
4.84195554535167
 20
5.43698380328818
 42
1.0
  0
LWPOLYLINE
  5
801
330
1F
100
AcDbEntity
  8
4
100
AcDbPolyline
 90
        2
 70
     1
 43
0.01
 10
4.83195554535167
 20
5.33198380328818
 42
1.0
 10
4.84195554535167
 20
5.33198380328818
 42
1.0
  0
LINE
  5
802
330
1F
100
AcDbEntity
  8
8
100
AcDbLine
 10
7.652121442119968
 20
1.716707817142709
 30
0.0
 11
8.142121442119968
 21
1.716707817142709
 31
0.0
  0
INSERT
  5
803
330
1F
100
AcDbEntity
  8
8
100
AcDbBlockReference
  2
TEMP2
 10
8.442221489888218
 20
3.212000001676371
 30
0.0
  0
INSERT
  5
804
330
1F
100
AcDbEntity
  8
8
100
AcDbBlockReference
  2
TEMP3
 10
4.215633372411535
 20
5.586828066991472
 30
0.0
  0
TEXT
  5
805
330
1F
100
AcDbEntity
  8
8
100
AcDbText
 10
5.900554823221552
 20
1.744000001676371
 30
0.0
 40
0.125
  1
QUIET LOCKER -     " DOUBLE TIER
  7
ROMANS
 72
     1
 11
7.754721489888218
 21
1.744000001676371
 31
0.0
100
AcDbText
  0
LINE
  5
806
330
1F
100
AcDbEntity
  8
4
100
AcDbLine
 10
8.442221489888218
 20
3.150000001676371
 30
0.0
 11
8.442221489888218
 21
3.025000001676371
 31
0.0
  0
LINE
  5
807
330
1F
100
AcDbEntity
  8
4
100
AcDbLine
 10
8.63222148988822
 20
3.212000001676371
 30
0.0
 11
8.442221489888218
 21
3.212000001676371
 31
0.0
  0
LINE
  5
808
330
1F
100
AcDbEntity
  8
4
100
AcDbLine
 10
8.442221489888218
 20
3.212000001676371
 30
0.0
 11
8.380221489888217
 21
3.212000001676371
 31
0.0
  0
INSERT
  5
809
330
1F
100
AcDbEntity
  8
4
100
AcDbBlockReference
  2
ARRO
 10
8.442221489888218
 20
3.212000001676371
 30
0.0
 50
90.0
  0
INSERT
  5
80A
330
1F
100
AcDbEntity
  8
4
100
AcDbBlockReference
  2
ARRO
 10
8.442221489888218
 20
3.150000001676371
 30
0.0
 50
270.0
  0
LINE
  5
80B
330
1F
100
AcDbEntity
  8
4
100
AcDbLine
 10
8.695221489888218
 20
3.244000001676372
 30
0.0
 11
8.75722148988822
 21
3.244000001676372
 31
0.0
  0
LINE
  5
80C
330
1F
100
AcDbEntity
  8
4
100
AcDbLine
 10
10.00522148988822
 20
3.244000001676372
 30
0.0
 11
10.06722148988822
 21
3.244000001676372
 31
0.0
  0
LINE
  5
80D
330
1F
100
AcDbEntity
  8
4
100
AcDbLine
 10
11.28622148988822
 20
3.244000001676372
 30
0.0
 11
11.22422148988822
 21
3.244000001676372
 31
0.0
  0
LINE
  5
80E
330
1F
100
AcDbEntity
  8
4
100
AcDbLine
 10
11.28622148988822
 20
4.587005880233501
 30
0.0
 11
11.28622148988822
 21
3.244000001676372
 31
0.0
  0
LINE
  5
80F
330
1F
100
AcDbEntity
  8
4
100
AcDbLine
 10
10.00522148988822
 20
4.587005880233501
 30
0.0
 11
10.00522148988822
 21
3.244000001676372
 31
0.0
  0
LINE
  5
810
330
1F
100
AcDbEntity
  8
4
100
AcDbLine
 10
8.695221489888218
 20
4.587005880233501
 30
0.0
 11
8.695221489888218
 21
3.244000001676372
 31
0.0
  0
LINE
  5
811
330
1F
100
AcDbEntity
  8
4
100
AcDbLine
 10
8.442221489888218
 20
6.150000001676371
 30
0.0
 11
8.442221489888218
 21
3.212000001676371
 31
0.0
  0
LINE
  5
812
330
1F
100
AcDbEntity
  8
4
100
AcDbLine
 10
10.93124159978573
 20
4.561046185666151
 30
0.0
 11
10.93124159978573
 21
4.499046185666151
 31
0.0
  0
LINE
  5
813
330
1F
100
AcDbEntity
  8
4
100
AcDbLine
 10
10.96224159978573
 20
4.561046185666151
 30
0.0
 11
10.90024159978573
 21
4.561046185666151
 31
0.0
  0
LINE
  5
814
330
1F
100
AcDbEntity
  8
4
100
AcDbLine
 10
10.68036448557785
 20
4.524046185666152
 30
0.0
 11
10.68036448557785
 21
4.574046185666151
 31
0.0
  0
ARC
  5
815
330
1F
100
AcDbEntity
  8
4
100
AcDbCircle
 10
10.70536448557785
 20
4.524046185666152
 30
0.0
 40
0.025
100
AcDbArc
 50
180.0
 51
0.0
  0
ARC
  5
816
330
1F
100
AcDbEntity
  8
4
100
AcDbCircle
 10
10.58522148988822
 20
4.524046185666152
 30
0.0
 40
0.025
100
AcDbArc
 50
180.0
 51
0.0
  0
LINE
  5
817
330
1F
100
AcDbEntity
  8
4
100
AcDbLine
 10
10.61022148988822
 20
4.524046185666152
 30
0.0
 11
10.61022148988822
 21
4.574046185666151
 31
0.0
  0
LINE
  5
818
330
1F
100
AcDbEntity
  8
4
100
AcDbLine
 10
10.2972013799907
 20
4.561046185666151
 30
0.0
 11
10.3592013799907
 21
4.561046185666151
 31
0.0
  0
LINE
  5
819
330
1F
100
AcDbEntity
  8
4
100
AcDbLine
 10
10.3282013799907
 20
4.561046185666151
 30
0.0
 11
10.3282013799907
 21
4.499046185666151
 31
0.0
  0
LINE
  5
81A
330
1F
100
AcDbEntity
  8
4
100
AcDbLine
 10
9.018201379990703
 20
4.561046185666151
 30
0.0
 11
9.018201379990703
 21
4.499046185666151
 31
0.0
  0
LINE
  5
81B
330
1F
100
AcDbEntity
  8
4
100
AcDbLine
 10
8.987201379990704
 20
4.561046185666151
 30
0.0
 11
9.049201379990703
 21
4.561046185666151
 31
0.0
  0
LINE
  5
81C
330
1F
100
AcDbEntity
  8
4
100
AcDbLine
 10
9.300221489888219
 20
4.524046185666152
 30
0.0
 11
9.300221489888219
 21
4.574046185666151
 31
0.0
  0
ARC
  5
81D
330
1F
100
AcDbEntity
  8
4
100
AcDbCircle
 10
9.27522148988822
 20
4.524046185666152
 30
0.0
 40
0.025
100
AcDbArc
 50
180.0
 51
0.0
  0
LINE
  5
81E
330
1F
100
AcDbEntity
  8
4
100
AcDbLine
 10
10.00522148988822
 20
4.587005880233501
 30
0.0
 11
10.06722148988822
 21
4.587005880233501
 31
0.0
  0
LINE
  5
81F
330
1F
100
AcDbEntity
  8
4
100
AcDbLine
 10
11.22422148988822
 20
4.587005880233501
 30
0.0
 11
11.28622148988822
 21
4.587005880233501
 31
0.0
  0
LINE
  5
820
330
1F
100
AcDbEntity
  8
4
100
AcDbLine
 10
11.22422148988822
 20
4.712961726342857
 30
0.0
 11
11.28622148988822
 21
4.712961726342857
 31
0.0
  0
LINE
  5
821
330
1F
100
AcDbEntity
  8
4
100
AcDbLine
 10
10.00522148988822
 20
4.712961726342857
 30
0.0
 11
10.06722148988822
 21
4.712961726342857
 31
0.0
  0
LINE
  5
822
330
1F
100
AcDbEntity
  8
4
100
AcDbLine
 10
8.695221489888218
 20
4.587005880233501
 30
0.0
 11
8.75722148988822
 21
4.587005880233501
 31
0.0
  0
LINE
  5
823
330
1F
100
AcDbEntity
  8
4
100
AcDbLine
 10
8.695221489888218
 20
4.712961726342858
 30
0.0
 11
8.757221489888218
 21
4.712961726342858
 31
0.0
  0
LINE
  5
824
330
1F
100
AcDbEntity
  8
4
100
AcDbLine
 10
11.14736448557785
 20
4.681005880233501
 30
0.0
 11
10.68036448557785
 21
4.681005880233501
 31
0.0
  0
LINE
  5
825
330
1F
100
AcDbEntity
  8
4
100
AcDbLine
 10
11.22336448557785
 20
4.619005880233501
 30
0.0
 11
11.28536448557785
 21
4.619005880233501
 31
0.0
  0
LINE
  5
826
330
1F
100
AcDbEntity
  8
4
100
AcDbLine
 10
11.28536448557785
 20
4.619005880233501
 30
0.0
 11
11.28536448557785
 21
4.681005880233501
 31
0.0
  0
LINE
  5
827
330
1F
100
AcDbEntity
  8
4
100
AcDbLine
 10
11.28536448557785
 20
4.681005880233501
 30
0.0
 11
11.17736448557785
 21
4.681005880233501
 31
0.0
  0
LINE
  5
828
330
1F
100
AcDbEntity
  8
4
100
AcDbLine
 10
10.68036448557785
 20
4.681005880233501
 30
0.0
 11
10.68036448557785
 21
4.619005880233501
 31
0.0
  0
LINE
  5
829
330
1F
100
AcDbEntity
  8
4
100
AcDbLine
 10
10.72036448557785
 20
4.681005880233501
 30
0.0
 11
10.72036448557785
 21
4.619005880233501
 31
0.0
  0
LINE
  5
82A
330
1F
100
AcDbEntity
  8
4
100
AcDbLine
 10
10.72036448557785
 20
4.619005880233501
 30
0.0
 11
11.08536448557785
 21
4.619005880233501
 31
0.0
  0
LINE
  5
82B
330
1F
100
AcDbEntity
  8
4
100
AcDbLine
 10
11.08536448557785
 20
4.619005880233501
 30
0.0
 11
11.14736448557785
 21
4.681005880233501
 31
0.0
  0
LINE
  5
82C
330
1F
100
AcDbEntity
  8
4
100
AcDbLine
 10
11.26036448557785
 20
4.666005880233501
 30
0.0
 11
11.26036448557785
 21
4.637759737795941
 31
0.0
  0
LINE
  5
82D
330
1F
100
AcDbEntity
  8
4
100
AcDbLine
 10
11.16236448557785
 20
4.666005880233501
 30
0.0
 11
11.26036448557785
 21
4.666005880233501
 31
0.0
  0
LINE
  5
82E
330
1F
100
AcDbEntity
  8
4
100
AcDbLine
 10
11.14736448557785
 20
4.681005880233501
 30
0.0
 11
11.16236448557785
 21
4.666005880233501
 31
0.0
  0
LINE
  5
82F
330
1F
100
AcDbEntity
  8
4
100
AcDbLine
 10
10.14322148988822
 20
4.681005880233501
 30
0.0
 11
10.12822148988822
 21
4.666005880233501
 31
0.0
  0
LINE
  5
830
330
1F
100
AcDbEntity
  8
4
100
AcDbLine
 10
10.12822148988822
 20
4.666005880233501
 30
0.0
 11
10.03022148988822
 21
4.666005880233501
 31
0.0
  0
LINE
  5
831
330
1F
100
AcDbEntity
  8
4
100
AcDbLine
 10
10.03022148988822
 20
4.666005880233501
 30
0.0
 11
10.03022148988822
 21
4.637759737795941
 31
0.0
  0
LINE
  5
832
330
1F
100
AcDbEntity
  8
4
100
AcDbLine
 10
10.20522148988821
 20
4.619005880233501
 30
0.0
 11
10.14322148988822
 21
4.681005880233501
 31
0.0
  0
LINE
  5
833
330
1F
100
AcDbEntity
  8
4
100
AcDbLine
 10
10.57022148988822
 20
4.619005880233501
 30
0.0
 11
10.20522148988821
 21
4.619005880233501
 31
0.0
  0
LINE
  5
834
330
1F
100
AcDbEntity
  8
4
100
AcDbLine
 10
10.57022148988822
 20
4.681005880233501
 30
0.0
 11
10.57022148988822
 21
4.619005880233501
 31
0.0
  0
LINE
  5
835
330
1F
100
AcDbEntity
  8
4
100
AcDbLine
 10
10.61022148988822
 20
4.681005880233501
 30
0.0
 11
10.61022148988822
 21
4.619005880233501
 31
0.0
  0
LINE
  5
836
330
1F
100
AcDbEntity
  8
4
100
AcDbLine
 10
10.00522148988822
 20
4.681005880233501
 30
0.0
 11
10.11322148988822
 21
4.681005880233501
 31
0.0
  0
LINE
  5
837
330
1F
100
AcDbEntity
  8
4
100
AcDbLine
 10
10.00522148988822
 20
4.619005880233501
 30
0.0
 11
10.00522148988822
 21
4.681005880233501
 31
0.0
  0
LINE
  5
838
330
1F
100
AcDbEntity
  8
4
100
AcDbLine
 10
10.06722148988822
 20
4.619005880233501
 30
0.0
 11
10.00522148988822
 21
4.619005880233501
 31
0.0
  0
LINE
  5
839
330
1F
100
AcDbEntity
  8
4
100
AcDbLine
 10
10.14322148988822
 20
4.681005880233501
 30
0.0
 11
10.61022148988822
 21
4.681005880233501
 31
0.0
  0
LINE
  5
83A
330
1F
100
AcDbEntity
  8
4
100
AcDbLine
 10
8.833221489888217
 20
4.681005880233501
 30
0.0
 11
9.300221489888219
 21
4.681005880233501
 31
0.0
  0
LINE
  5
83B
330
1F
100
AcDbEntity
  8
4
100
AcDbLine
 10
8.757221489888218
 20
4.619005880233501
 30
0.0
 11
8.695221489888218
 21
4.619005880233501
 31
0.0
  0
LINE
  5
83C
330
1F
100
AcDbEntity
  8
4
100
AcDbLine
 10
8.695221489888218
 20
4.619005880233501
 30
0.0
 11
8.695221489888218
 21
4.681005880233501
 31
0.0
  0
LINE
  5
83D
330
1F
100
AcDbEntity
  8
4
100
AcDbLine
 10
8.695221489888218
 20
4.681005880233501
 30
0.0
 11
8.803221489888217
 21
4.681005880233501
 31
0.0
  0
LINE
  5
83E
330
1F
100
AcDbEntity
  8
4
100
AcDbLine
 10
9.300221489888219
 20
4.681005880233501
 30
0.0
 11
9.300221489888219
 21
4.619005880233501
 31
0.0
  0
LINE
  5
83F
330
1F
100
AcDbEntity
  8
4
100
AcDbLine
 10
9.260221489888218
 20
4.681005880233501
 30
0.0
 11
9.260221489888218
 21
4.619005880233501
 31
0.0
  0
LINE
  5
840
330
1F
100
AcDbEntity
  8
4
100
AcDbLine
 10
9.260221489888218
 20
4.619005880233501
 30
0.0
 11
8.895221489888218
 21
4.619005880233501
 31
0.0
  0
LINE
  5
841
330
1F
100
AcDbEntity
  8
4
100
AcDbLine
 10
8.895221489888218
 20
4.619005880233501
 30
0.0
 11
8.833221489888217
 21
4.681005880233501
 31
0.0
  0
LINE
  5
842
330
1F
100
AcDbEntity
  8
4
100
AcDbLine
 10
8.720221489888217
 20
4.666005880233501
 30
0.0
 11
8.720221489888217
 21
4.637759737795941
 31
0.0
  0
LINE
  5
843
330
1F
100
AcDbEntity
  8
4
100
AcDbLine
 10
8.818221489888218
 20
4.666005880233501
 30
0.0
 11
8.720221489888217
 21
4.666005880233501
 31
0.0
  0
LINE
  5
844
330
1F
100
AcDbEntity
  8
4
100
AcDbLine
 10
8.833221489888217
 20
4.681005880233501
 30
0.0
 11
8.818221489888218
 21
4.666005880233501
 31
0.0
  0
INSERT
  5
845
330
1F
100
AcDbEntity
  8
4
100
AcDbBlockReference
  2
ARRO
 10
8.442221489888218
 20
6.150000001676371
 30
0.0
 50
270.0
  0
ARC
  5
846
330
1F
100
AcDbEntity
  8
4
100
AcDbCircle
 10
9.27522148988822
 20
5.993000001676373
 30
0.0
 40
0.025
100
AcDbArc
 50
180.0
 51
0.0
  0
LINE
  5
847
330
1F
100
AcDbEntity
  8
4
100
AcDbLine
 10
9.300221489888219
 20
5.993000001676373
 30
0.0
 11
9.300221489888219
 21
6.043000001676372
 31
0.0
  0
LINE
  5
848
330
1F
100
AcDbEntity
  8
4
100
AcDbLine
 10
8.987201379990704
 20
6.030000001676371
 30
0.0
 11
9.049201379990703
 21
6.030000001676371
 31
0.0
  0
LINE
  5
849
330
1F
100
AcDbEntity
  8
4
100
AcDbLine
 10
9.018201379990703
 20
6.030000001676371
 30
0.0
 11
9.018201379990703
 21
5.968000001676371
 31
0.0
  0
LINE
  5
84A
330
1F
100
AcDbEntity
  8
4
100
AcDbLine
 10
10.3282013799907
 20
6.030000001676371
 30
0.0
 11
10.3282013799907
 21
5.968000001676371
 31
0.0
  0
LINE
  5
84B
330
1F
100
AcDbEntity
  8
4
100
AcDbLine
 10
10.2972013799907
 20
6.030000001676371
 30
0.0
 11
10.3592013799907
 21
6.030000001676371
 31
0.0
  0
LINE
  5
84C
330
1F
100
AcDbEntity
  8
4
100
AcDbLine
 10
10.61022148988822
 20
5.993000001676373
 30
0.0
 11
10.61022148988822
 21
6.043000001676372
 31
0.0
  0
ARC
  5
84D
330
1F
100
AcDbEntity
  8
4
100
AcDbCircle
 10
10.58522148988822
 20
5.993000001676373
 30
0.0
 40
0.025
100
AcDbArc
 50
180.0
 51
0.0
  0
ARC
  5
84E
330
1F
100
AcDbEntity
  8
4
100
AcDbCircle
 10
10.70622148988822
 20
5.993000001676373
 30
0.0
 40
0.025
100
AcDbArc
 50
180.0
 51
0.0
  0
LINE
  5
84F
330
1F
100
AcDbEntity
  8
4
100
AcDbLine
 10
10.68122148988822
 20
5.993000001676373
 30
0.0
 11
10.68122148988822
 21
6.043000001676372
 31
0.0
  0
LINE
  5
850
330
1F
100
AcDbEntity
  8
4
100
AcDbLine
 10
10.99424159978573
 20
6.030000001676371
 30
0.0
 11
10.93224159978573
 21
6.030000001676371
 31
0.0
  0
LINE
  5
851
330
1F
100
AcDbEntity
  8
4
100
AcDbLine
 10
10.96324159978573
 20
6.030000001676371
 30
0.0
 11
10.96324159978573
 21
5.968000001676371
 31
0.0
  0
LINE
  5
852
330
1F
100
AcDbEntity
  8
4
100
AcDbLine
 10
8.63222148988822
 20
4.681005880233501
 30
0.0
 11
8.442221489888218
 21
4.681005880233501
 31
0.0
  0
LINE
  5
853
330
1F
100
AcDbEntity
  8
4
100
AcDbLine
 10
8.442221489888218
 20
4.681005880233501
 30
0.0
 11
8.380221489888217
 21
4.681005880233501
 31
0.0
  0
INSERT
  5
854
330
1F
100
AcDbEntity
  8
4
100
AcDbBlockReference
  2
ARRO2
 10
8.442221489888218
 20
4.681005880233501
 30
0.0
 50
90.0
  0
LINE
  5
855
330
1F
100
AcDbEntity
  8
4
100
AcDbLine
 10
8.695221489888218
 20
6.056000001676371
 30
0.0
 11
8.757221489888218
 21
6.056000001676371
 31
0.0
  0
LINE
  5
856
330
1F
100
AcDbEntity
  8
4
100
AcDbLine
 10
10.00522148988822
 20
6.056000001676371
 30
0.0
 11
10.06722148988822
 21
6.056000001676371
 31
0.0
  0
LINE
  5
857
330
1F
100
AcDbEntity
  8
4
100
AcDbLine
 10
11.28622148988822
 20
6.056000001676371
 30
0.0
 11
11.22422148988822
 21
6.056000001676371
 31
0.0
  0
LINE
  5
858
330
1F
100
AcDbEntity
  8
4
100
AcDbLine
 10
11.28622148988822
 20
6.056000001676371
 30
0.0
 11
11.28622148988822
 21
4.712961726342857
 31
0.0
  0
LINE
  5
859
330
1F
100
AcDbEntity
  8
4
100
AcDbLine
 10
10.00522148988822
 20
6.056000001676371
 30
0.0
 11
10.00522148988822
 21
4.712961726342857
 31
0.0
  0
LINE
  5
85A
330
1F
100
AcDbEntity
  8
4
100
AcDbLine
 10
8.695221489888218
 20
6.056000001676371
 30
0.0
 11
8.695221489888218
 21
4.712961726342857
 31
0.0
  0
LINE
  5
85B
330
1F
100
AcDbEntity
  8
4
100
AcDbLine
 10
4.742955545351669
 20
5.566467158928784
 30
0.0
 11
4.93095554535167
 21
5.566467158928784
 31
0.0
  0
LINE
  5
85C
330
1F
100
AcDbEntity
  8
4
100
AcDbLine
 10
4.93095554535167
 20
5.566467158928784
 30
0.0
 11
4.89895554535167
 21
5.263967158928783
 31
0.0
  0
LINE
  5
85D
330
1F
100
AcDbEntity
  8
4
100
AcDbLine
 10
4.742955545351669
 20
5.566467158928784
 30
0.0
 11
4.774955545351669
 21
5.263967158928783
 31
0.0
  0
LINE
  5
85E
330
1F
100
AcDbEntity
  8
4
100
AcDbLine
 10
4.774955545351669
 20
5.263967158928783
 30
0.0
 11
4.89895554535167
 21
5.263967158928783
 31
0.0
  0
LINE
  5
85F
330
1F
100
AcDbEntity
  8
4
100
AcDbLine
 10
4.759626017408368
 20
5.551467158928783
 30
0.0
 11
4.78845246368936
 21
5.278967158928784
 31
0.0
  0
LINE
  5
860
330
1F
100
AcDbEntity
  8
4
100
AcDbLine
 10
4.78845246368936
 20
5.278967158928782
 30
0.0
 11
4.88545862701398
 21
5.278967158928784
 31
0.0
  0
LINE
  5
861
330
1F
100
AcDbEntity
  8
4
100
AcDbLine
 10
4.914285073294971
 20
5.551467158928783
 30
0.0
 11
4.88545862701398
 21
5.278967158928784
 31
0.0
  0
LINE
  5
862
330
1F
100
AcDbEntity
  8
4
100
AcDbLine
 10
4.759626017408368
 20
5.551467158928783
 30
0.0
 11
4.914285073294971
 21
5.551467158928783
 31
0.0
  0
LINE
  5
863
330
1F
100
AcDbEntity
  8
4
100
AcDbLine
 10
4.851955545351669
 20
5.551467158928783
 30
0.0
 11
4.851955545351669
 21
5.504467158928783
 31
0.0
  0
LINE
  5
864
330
1F
100
AcDbEntity
  8
4
100
AcDbLine
 10
4.851955545351669
 20
5.504467158928783
 30
0.0
 11
4.82195554535167
 21
5.504467158928783
 31
0.0
  0
LINE
  5
865
330
1F
100
AcDbEntity
  8
4
100
AcDbLine
 10
4.82195554535167
 20
5.504467158928783
 30
0.0
 11
4.82195554535167
 21
5.551467158928783
 31
0.0
  0
ARC
  5
866
330
1F
100
AcDbEntity
  8
4
100
AcDbCircle
 10
7.042721489888219
 20
4.524046185666152
 30
0.0
 40
0.025
100
AcDbArc
 50
180.0
 51
0.0
  0
ARC
  5
867
330
1F
100
AcDbEntity
  8
4
100
AcDbCircle
 10
6.591721489888218
 20
4.524046185666152
 30
0.0
 40
0.025
100
AcDbArc
 50
180.0
 51
0.0
  0
ARC
  5
868
330
1F
100
AcDbEntity
  8
4
100
AcDbCircle
 10
6.417721489888219
 20
4.524046185666152
 30
0.0
 40
0.025
100
AcDbArc
 50
180.0
 51
0.0
  0
ARC
  5
869
330
1F
100
AcDbEntity
  8
4
100
AcDbCircle
 10
5.966721489888218
 20
4.524046185666152
 30
0.0
 40
0.025
100
AcDbArc
 50
180.0
 51
0.0
  0
ARC
  5
86A
330
1F
100
AcDbEntity
  8
4
100
AcDbCircle
 10
5.792721489888219
 20
4.524046185666152
 30
0.0
 40
0.025
100
AcDbArc
 50
180.0
 51
0.0
  0
ARC
  5
86B
330
1F
100
AcDbEntity
  8
4
100
AcDbCircle
 10
5.341721489888219
 20
4.524046185666152
 30
0.0
 40
0.025
100
AcDbArc
 50
180.0
 51
0.0
  0
LINE
  5
86C
330
1F
100
AcDbEntity
  8
4
100
AcDbLine
 10
6.784721489888219
 20
4.561046185666151
 30
0.0
 11
6.846721489888219
 21
4.561046185666151
 31
0.0
  0
LINE
  5
86D
330
1F
100
AcDbEntity
  8
4
100
AcDbLine
 10
6.846721489888219
 20
4.561046185666151
 30
0.0
 11
6.846721489888219
 21
4.499046185666151
 31
0.0
  0
LINE
  5
86E
330
1F
100
AcDbEntity
  8
4
100
AcDbLine
 10
6.784721489888219
 20
4.561046185666151
 30
0.0
 11
6.784721489888219
 21
4.499046185666151
 31
0.0
  0
LINE
  5
86F
330
1F
100
AcDbEntity
  8
4
100
AcDbLine
 10
5.534721489888219
 20
4.561046185666151
 30
0.0
 11
5.534721489888219
 21
4.499046185666151
 31
0.0
  0
LINE
  5
870
330
1F
100
AcDbEntity
  8
4
100
AcDbLine
 10
5.596721489888219
 20
4.561046185666151
 30
0.0
 11
5.596721489888219
 21
4.499046185666151
 31
0.0
  0
LINE
  5
871
330
1F
100
AcDbEntity
  8
4
100
AcDbLine
 10
5.534721489888219
 20
4.561046185666151
 30
0.0
 11
5.596721489888219
 21
4.561046185666151
 31
0.0
  0
LINE
  5
872
330
1F
100
AcDbEntity
  8
4
100
AcDbLine
 10
6.784721489888219
 20
6.030000001676371
 30
0.0
 11
6.784721489888219
 21
5.968000001676371
 31
0.0
  0
LINE
  5
873
330
1F
100
AcDbEntity
  8
4
100
AcDbLine
 10
6.846721489888219
 20
6.030000001676371
 30
0.0
 11
6.846721489888219
 21
5.968000001676371
 31
0.0
  0
LINE
  5
874
330
1F
100
AcDbEntity
  8
4
100
AcDbLine
 10
6.784721489888219
 20
6.030000001676371
 30
0.0
 11
6.846721489888219
 21
6.030000001676371
 31
0.0
  0
ARC
  5
875
330
1F
100
AcDbEntity
  8
4
100
AcDbCircle
 10
5.341721489888219
 20
5.993000001676372
 30
0.0
 40
0.025
100
AcDbArc
 50
180.0
 51
0.0
  0
ARC
  5
876
330
1F
100
AcDbEntity
  8
4
100
AcDbCircle
 10
5.792721489888219
 20
5.993000001676372
 30
0.0
 40
0.025
100
AcDbArc
 50
180.0
 51
0.0
  0
ARC
  5
877
330
1F
100
AcDbEntity
  8
4
100
AcDbCircle
 10
5.966721489888218
 20
5.993000001676372
 30
0.0
 40
0.025
100
AcDbArc
 50
180.0
 51
0.0
  0
ARC
  5
878
330
1F
100
AcDbEntity
  8
4
100
AcDbCircle
 10
6.417721489888219
 20
5.993000001676372
 30
0.0
 40
0.025
100
AcDbArc
 50
180.0
 51
0.0
  0
ARC
  5
879
330
1F
100
AcDbEntity
  8
4
100
AcDbCircle
 10
6.591721489888218
 20
5.993000001676372
 30
0.0
 40
0.025
100
AcDbArc
 50
180.0
 51
0.0
  0
ARC
  5
87A
330
1F
100
AcDbEntity
  8
4
100
AcDbCircle
 10
7.042721489888219
 20
5.993000001676372
 30
0.0
 40
0.025
100
AcDbArc
 50
180.0
 51
0.0
  0
LINE
  5
87B
330
1F
100
AcDbEntity
  8
4
100
AcDbLine
 10
6.254721489888218
 20
4.619005880233501
 30
0.0
 11
6.442721489888218
 21
4.619005880233501
 31
0.0
  0
LINE
  5
87C
330
1F
100
AcDbEntity
  8
4
100
AcDbLine
 10
6.254721489888218
 20
4.681005880233501
 30
0.0
 11
6.442721489888218
 21
4.681005880233501
 31
0.0
  0
LINE
  5
87D
330
1F
100
AcDbEntity
  8
4
100
AcDbLine
 10
6.566721489888219
 20
4.681005880233501
 30
0.0
 11
7.067721489888218
 21
4.681005880233501
 31
0.0
  0
LINE
  5
87E
330
1F
100
AcDbEntity
  8
4
100
AcDbLine
 10
6.566721489888219
 20
4.619005880233501
 30
0.0
 11
7.067721489888218
 21
4.619005880233501
 31
0.0
  0
LINE
  5
87F
330
1F
100
AcDbEntity
  8
4
100
AcDbLine
 10
5.941721489888219
 20
4.681005880233501
 30
0.0
 11
6.103689790642667
 21
4.681005880233501
 31
0.0
  0
LINE
  5
880
330
1F
100
AcDbEntity
  8
4
100
AcDbLine
 10
5.941721489888219
 20
4.619005880233501
 30
0.0
 11
6.129721489888218
 21
4.619005880233501
 31
0.0
  0
LINE
  5
881
330
1F
100
AcDbEntity
  8
4
100
AcDbLine
 10
5.316721489888219
 20
4.681005880233501
 30
0.0
 11
5.817721489888218
 21
4.681005880233501
 31
0.0
  0
LINE
  5
882
330
1F
100
AcDbEntity
  8
4
100
AcDbLine
 10
5.316721489888219
 20
4.619005880233501
 30
0.0
 11
5.817721489888218
 21
4.619005880233501
 31
0.0
  0
LINE
  5
883
330
1F
100
AcDbEntity
  8
4
100
AcDbLine
 10
4.691721489888219
 20
4.681005880233501
 30
0.0
 11
5.192721489888218
 21
4.681005880233501
 31
0.0
  0
LINE
  5
884
330
1F
100
AcDbEntity
  8
4
100
AcDbLine
 10
4.691721489888219
 20
4.619005880233501
 30
0.0
 11
5.192721489888218
 21
4.619005880233501
 31
0.0
  0
LINE
  5
885
330
1F
100
AcDbEntity
  8
4
100
AcDbLine
 10
5.170721489888218
 20
3.617961726342858
 30
0.0
 11
5.170721489888218
 21
3.492961726342858
 31
0.0
  0
LINE
  5
886
330
1F
100
AcDbEntity
  8
4
100
AcDbLine
 10
5.170721489888219
 20
4.337005880233501
 30
0.0
 11
5.170721489888219
 21
4.212005880233501
 31
0.0
  0
LINE
  5
887
330
1F
100
AcDbEntity
  8
4
100
AcDbLine
 10
5.160721489888218
 20
3.243961726342858
 30
0.0
 11
4.723721489888218
 21
3.243961726342857
 31
0.0
  0
LINE
  5
888
330
1F
100
AcDbEntity
  8
4
100
AcDbLine
 10
5.160721489888219
 20
4.587005880233501
 30
0.0
 11
5.160721489888218
 21
3.243961726342858
 31
0.0
  0
LINE
  5
889
330
1F
100
AcDbEntity
  8
4
100
AcDbLine
 10
4.723721489888219
 20
4.587005880233501
 30
0.0
 11
5.160721489888219
 21
4.587005880233501
 31
0.0
  0
LINE
  5
88A
330
1F
100
AcDbEntity
  8
4
100
AcDbLine
 10
4.723721489888218
 20
3.243961726342857
 30
0.0
 11
4.723721489888219
 21
4.587005880233501
 31
0.0
  0
LINE
  5
88B
330
1F
100
AcDbEntity
  8
4
100
AcDbLine
 10
4.723721489888219
 20
4.712961726342857
 30
0.0
 11
4.723721489888219
 21
6.056005880233501
 31
0.0
  0
LINE
  5
88C
330
1F
100
AcDbEntity
  8
4
100
AcDbLine
 10
4.723721489888219
 20
6.056005880233501
 30
0.0
 11
5.160721489888219
 21
6.056005880233501
 31
0.0
  0
LINE
  5
88D
330
1F
100
AcDbEntity
  8
4
100
AcDbLine
 10
5.160721489888219
 20
6.056005880233501
 30
0.0
 11
5.160721489888218
 21
4.712961726342858
 31
0.0
  0
LINE
  5
88E
330
1F
100
AcDbEntity
  8
4
100
AcDbLine
 10
5.160721489888218
 20
4.712961726342858
 30
0.0
 11
4.723721489888219
 21
4.712961726342857
 31
0.0
  0
LINE
  5
88F
330
1F
100
AcDbEntity
  8
4
100
AcDbLine
 10
5.170721489888219
 20
5.806005880233501
 30
0.0
 11
5.170721489888219
 21
5.681005880233501
 31
0.0
  0
LINE
  5
890
330
1F
100
AcDbEntity
  8
4
100
AcDbLine
 10
5.170721489888219
 20
5.086961726342858
 30
0.0
 11
5.170721489888219
 21
4.961961726342858
 31
0.0
  0
LINE
  5
891
330
1F
100
AcDbEntity
  8
4
100
AcDbLine
 10
4.590633372411535
 20
5.524828066991473
 30
0.0
 11
4.215633372411535
 21
5.524828066991473
 31
0.0
  0
LINE
  5
892
330
1F
100
AcDbEntity
  8
4
100
AcDbLine
 10
4.215633372411535
 20
5.524828066991473
 30
0.0
 11
4.215633372411535
 21
5.586828066991472
 31
0.0
  0
LINE
  5
893
330
1F
100
AcDbEntity
  8
4
100
AcDbLine
 10
4.590633372411535
 20
5.38448380328818
 30
0.0
 11
4.215633372411535
 21
5.38448380328818
 31
0.0
  0
LINE
  5
894
330
1F
100
AcDbEntity
  8
4
100
AcDbLine
 10
4.215633372411535
 20
5.38448380328818
 30
0.0
 11
4.215633372411535
 21
5.32248380328818
 31
0.0
  0
INSERT
  5
895
330
1F
100
AcDbEntity
  8
4
100
AcDbBlockReference
  2
ARRO
 10
4.590633372411535
 20
5.524828066991473
 30
0.0
 50
180.0
  0
INSERT
  5
896
330
1F
100
AcDbEntity
  8
4
100
AcDbBlockReference
  2
ARRO
 10
4.590633372411535
 20
5.38448380328818
 30
0.0
 50
180.0
  0
LINE
  5
897
330
1F
100
AcDbEntity
  8
4
100
AcDbLine
 10
4.82195554535167
 20
4.035467158928783
 30
0.0
 11
4.82195554535167
 21
4.082467158928783
 31
0.0
  0
LINE
  5
898
330
1F
100
AcDbEntity
  8
4
100
AcDbLine
 10
4.851955545351669
 20
4.035467158928783
 30
0.0
 11
4.82195554535167
 21
4.035467158928783
 31
0.0
  0
LINE
  5
899
330
1F
100
AcDbEntity
  8
4
100
AcDbLine
 10
4.851955545351669
 20
4.082467158928783
 30
0.0
 11
4.851955545351669
 21
4.035467158928783
 31
0.0
  0
LINE
  5
89A
330
1F
100
AcDbEntity
  8
4
100
AcDbLine
 10
4.759626017408368
 20
4.082467158928783
 30
0.0
 11
4.914285073294971
 21
4.082467158928783
 31
0.0
  0
LINE
  5
89B
330
1F
100
AcDbEntity
  8
4
100
AcDbLine
 10
4.914285073294971
 20
4.082467158928783
 30
0.0
 11
4.88545862701398
 21
3.809967158928784
 31
0.0
  0
LINE
  5
89C
330
1F
100
AcDbEntity
  8
4
100
AcDbLine
 10
4.78845246368936
 20
3.809967158928783
 30
0.0
 11
4.88545862701398
 21
3.809967158928784
 31
0.0
  0
LINE
  5
89D
330
1F
100
AcDbEntity
  8
4
100
AcDbLine
 10
4.759626017408368
 20
4.082467158928783
 30
0.0
 11
4.78845246368936
 21
3.809967158928784
 31
0.0
  0
LINE
  5
89E
330
1F
100
AcDbEntity
  8
4
100
AcDbLine
 10
4.774955545351669
 20
3.794967158928783
 30
0.0
 11
4.89895554535167
 21
3.794967158928783
 31
0.0
  0
LINE
  5
89F
330
1F
100
AcDbEntity
  8
4
100
AcDbLine
 10
4.742955545351669
 20
4.097467158928783
 30
0.0
 11
4.774955545351669
 21
3.794967158928783
 31
0.0
  0
LINE
  5
8A0
330
1F
100
AcDbEntity
  8
4
100
AcDbLine
 10
4.93095554535167
 20
4.097467158928783
 30
0.0
 11
4.89895554535167
 21
3.794967158928783
 31
0.0
  0
LINE
  5
8A1
330
1F
100
AcDbEntity
  8
4
100
AcDbLine
 10
4.742955545351669
 20
4.097467158928783
 30
0.0
 11
4.93095554535167
 21
4.097467158928783
 31
0.0
  0
LINE
  5
8A2
330
1F
100
AcDbEntity
  8
1
100
AcDbLine
 10
10.65880732250694
 20
3.150000001676371
 30
0.0
 11
10.65880732250694
 21
6.150000001676371
 31
0.0
  0
ENDSEC
  0
SECTION
  2
OBJECTS
  0
DICTIONARY
  5
C
330
0
100
AcDbDictionary
281
     1
  3
ACAD_COLOR
350
733
  3
ACAD_GROUP
350
D
  3
ACAD_LAYOUT
350
1A
  3
ACAD_MATERIAL
350
732
  3
ACAD_MLINESTYLE
350
17
  3
ACAD_PLOTSETTINGS
350
19
  3
ACAD_PLOTSTYLENAME
350
E
  3
ACDBHEADERROUNDTRIPXREC
350
8B8
  3
AcDbVariableDictionary
350
8B4
  0
DICTIONARY
  5
733
102
{ACAD_REACTORS
330
C
102
}
330
C
100
AcDbDictionary
281
     1
  0
DICTIONARY
  5
D
102
{ACAD_REACTORS
330
C
102
}
330
C
100
AcDbDictionary
281
     1
  0
DICTIONARY
  5
1A
102
{ACAD_REACTORS
330
C
102
}
330
C
100
AcDbDictionary
281
     1
  3
Layout1
350
1E
  3
Layout2
350
26
  3
Model
350
22
  0
DICTIONARY
  5
732
102
{ACAD_REACTORS
330
C
102
}
330
C
100
AcDbDictionary
281
     1
  0
DICTIONARY
  5
17
102
{ACAD_REACTORS
330
C
102
}
330
C
100
AcDbDictionary
281
     1
  3
Standard
350
18
  0
DICTIONARY
  5
19
102
{ACAD_REACTORS
330
C
102
}
330
C
100
AcDbDictionary
281
     1
  0
ACDBDICTIONARYWDFLT
  5
E
102
{ACAD_REACTORS
330
C
102
}
330
C
100
AcDbDictionary
281
     1
  3
Normal
350
F
100
AcDbDictionaryWithDefault
340
F
  0
DICTIONARY
  5
8B8
102
{ACAD_REACTORS
330
C
102
}
330
C
100
AcDbDictionary
281
     1
  3
COLORDICT
350
8BA
  3
MATERIALDICT
350
8B9
  0
DICTIONARY
  5
8B4
102
{ACAD_REACTORS
330
C
102
}
330
C
100
AcDbDictionary
281
     1
  3
DIMASSOC
350
8B5
  3
PROJECTNAME
350
8B6
  0
LAYOUT
  5
1E
102
{ACAD_XDICTIONARY
360
8BB
102
}
102
{ACAD_REACTORS
330
1A
102
}
330
1A
100
AcDbPlotSettings
  1

  2
Lexmark 2050 ColorFine 2
  4

  6

 40
0.0
 41
0.0
 42
0.0
 43
0.0
 44
0.0
 45
0.0
 46
0.0
 47
0.0
 48
0.0
 49
0.0
140
0.0
141
0.0
142
1.0
143
1.0
 70
   688
 72
     0
 73
     0
 74
     5
  7
monochrome.ctb
 75
    16
147
1.0
148
0.0
149
0.0
100
AcDbLayout
  1
Layout1
 70
     1
 71
     1
 10
0.0
 20
0.0
 11
12.0
 21
9.0
 12
0.0
 22
0.0
 32
0.0
 14
1.000000000000000E+20
 24
1.000000000000000E+20
 34
1.000000000000000E+20
 15
-1.000000000000000E+20
 25
-1.000000000000000E+20
 35
-1.000000000000000E+20
146
0.0
 13
0.0
 23
0.0
 33
0.0
 16
1.0
 26
0.0
 36
0.0
 17
0.0
 27
1.0
 37
0.0
 76
     0
330
1B
  0
LAYOUT
  5
26
102
{ACAD_XDICTIONARY
360
8BF
102
}
102
{ACAD_REACTORS
330
1A
102
}
330
1A
100
AcDbPlotSettings
  1

  2
Lexmark 2050 ColorFine 2
  4

  6

 40
0.0
 41
0.0
 42
0.0
 43
0.0
 44
0.0
 45
0.0
 46
0.0
 47
0.0
 48
0.0
 49
0.0
140
0.0
141
0.0
142
1.0
143
1.0
 70
   688
 72
     0
 73
     0
 74
     5
  7
monochrome.ctb
 75
    16
147
1.0
148
0.0
149
0.0
100
AcDbLayout
  1
Layout2
 70
     1
 71
     2
 10
0.0
 20
0.0
 11
12.0
 21
9.0
 12
0.0
 22
0.0
 32
0.0
 14
0.0
 24
0.0
 34
0.0
 15
0.0
 25
0.0
 35
0.0
146
0.0
 13
0.0
 23
0.0
 33
0.0
 16
1.0
 26
0.0
 36
0.0
 17
0.0
 27
1.0
 37
0.0
 76
     0
330
23
  0
LAYOUT
  5
22
102
{ACAD_XDICTIONARY
360
8BD
102
}
102
{ACAD_REACTORS
330
1A
102
}
330
1A
100
AcDbPlotSettings
  1

  2
none_device
  4
Letter_(8.50_x_11.00_Inches)
  6

 40
6.349999904632568
 41
6.349999904632568
 42
6.350006103515625
 43
6.350006103515625
 44
215.8999938964844
 45
279.3999938964844
 46
0.0
 47
0.0
 48
0.0
 49
0.0
140
0.0
141
0.0
142
1.0
143
1.0
 70
 11952
 72
     0
 73
     1
 74
     0
  7
monochrome.ctb
 75
     0
147
1.0
148
-129.5906122294808
149
-41.20007702037348
100
AcDbLayout
  1
Model
 70
     1
 71
     0
 10
0.0
 20
0.0
 11
12.0
 21
9.0
 12
0.0
 22
0.0
 32
0.0
 14
0.0
 24
0.0
 34
0.0
 15
0.0
 25
0.0
 35
0.0
146
0.0
 13
0.0
 23
0.0
 33
0.0
 16
1.0
 26
0.0
 36
0.0
 17
0.0
 27
1.0
 37
0.0
 76
     0
330
1F
  0
MLINESTYLE
  5
18
102
{ACAD_REACTORS
330
17
102
}
330
17
100
AcDbMlineStyle
  2
STANDARD
 70
     0
  3

 62
   256
 51
90.0
 52
90.0
 71
     2
 49
0.5
 62
   256
  6
BYLAYER
 49
-0.5
 62
   256
  6
BYLAYER
  0
ACDBPLACEHOLDER
  5
F
102
{ACAD_REACTORS
330
E
102
}
330
E
  0
XRECORD
  5
8BA
102
{ACAD_REACTORS
330
8B8
102
}
330
8B8
100
AcDbXrecord
280
     1
340
733
  0
XRECORD
  5
8B9
102
{ACAD_REACTORS
330
8B8
102
}
330
8B8
100
AcDbXrecord
280
     1
340
732
  0
DICTIONARYVAR
  5
8B5
102
{ACAD_REACTORS
330
8B4
102
}
330
8B4
100
DictionaryVariables
280
     0
  1
1
  0
DICTIONARYVAR
  5
8B6
102
{ACAD_REACTORS
330
8B4
102
}
330
8B4
100
DictionaryVariables
280
     0
  1

  0
DICTIONARY
  5
8BB
330
1E
100
AcDbDictionary
280
     1
281
     1
  3
ACAD_XREC_ROUNDTRIP
360
8BC
  0
DICTIONARY
  5
8BF
330
26
100
AcDbDictionary
280
     1
281
     1
  3
ACAD_XREC_ROUNDTRIP
360
8C0
  0
DICTIONARY
  5
8BD
330
22
100
AcDbDictionary
280
     1
281
     1
  3
ACAD_XREC_ROUNDTRIP
360
8BE
  0
XRECORD
  5
8BC
102
{ACAD_REACTORS
330
8BB
102
}
330
8BB
100
AcDbXrecord
280
     1
102
SHADEPLOT
 70
     0
102
SHADEPLOTRESLEVEL
 70
     2
102
SHADEPLOTCUSTOMDPI
 70
   300
  0
XRECORD
  5
8C0
102
{ACAD_REACTORS
330
8BF
102
}
330
8BF
100
AcDbXrecord
280
     1
102
SHADEPLOT
 70
     0
102
SHADEPLOTRESLEVEL
 70
     2
102
SHADEPLOTCUSTOMDPI
 70
   300
  0
XRECORD
  5
8BE
102
{ACAD_REACTORS
330
8BD
102
}
330
8BD
100
AcDbXrecord
280
     1
102
SHADEPLOT
 70
     0
102
SHADEPLOTRESLEVEL
 70
     2
102
SHADEPLOTCUSTOMDPI
 70
   300
  0
ENDSEC
  0
EOF
