  0
SECTION
  2
HEADER
  9
$ACADVER
  1
AC1015
  9
$ACADMAINTVER
 70
    20
  9
$DWGCODEPAGE
  3
ANSI_1252
  9
$INSBASE
 10
0.0
 20
0.0
 30
0.0
  9
$EXTMIN
 10
3.911884764411102
 20
2.426330590185628
 30
-0.000000000000013
  9
$EXTMAX
 10
12.16232767382019
 20
7.677108784063147
 30
0.0000000000000023
  9
$LIMMIN
 10
0.0
 20
0.0
  9
$LIMMAX
 10
12.0
 20
9.0
  9
$ORTHOMODE
 70
     1
  9
$REGENMODE
 70
     1
  9
$FILLMODE
 70
     1
  9
$QTEXTMODE
 70
     0
  9
$MIRRTEXT
 70
     1
  9
$LTSCALE
 40
1.0
  9
$ATTMODE
 70
     1
  9
$TEXTSIZE
 40
0.2
  9
$TRACEWID
 40
0.05
  9
$TEXTSTYLE
  7
Standard
  9
$CLAYER
  8
0
  9
$CELTYPE
  6
ByLayer
  9
$CECOLOR
 62
   256
  9
$CELTSCALE
 40
1.0
  9
$DISPSILH
 70
     0
  9
$DIMSCALE
 40
1.0
  9
$DIMASZ
 40
0.18
  9
$DIMEXO
 40
0.0625
  9
$DIMDLI
 40
0.38
  9
$DIMRND
 40
0.0
  9
$DIMDLE
 40
0.0
  9
$DIMEXE
 40
0.18
  9
$DIMTP
 40
0.0
  9
$DIMTM
 40
0.0
  9
$DIMTXT
 40
0.18
  9
$DIMCEN
 40
0.09
  9
$DIMTSZ
 40
0.0
  9
$DIMTOL
 70
     0
  9
$DIMLIM
 70
     0
  9
$DIMTIH
 70
     1
  9
$DIMTOH
 70
     1
  9
$DIMSE1
 70
     0
  9
$DIMSE2
 70
     0
  9
$DIMTAD
 70
     0
  9
$DIMZIN
 70
     0
  9
$DIMBLK
  1

  9
$DIMASO
 70
     1
  9
$DIMSHO
 70
     1
  9
$DIMPOST
  1

  9
$DIMAPOST
  1

  9
$DIMALT
 70
     0
  9
$DIMALTD
 70
     2
  9
$DIMALTF
 40
25.4
  9
$DIMLFAC
 40
1.0
  9
$DIMTOFL
 70
     0
  9
$DIMTVP
 40
0.0
  9
$DIMTIX
 70
     0
  9
$DIMSOXD
 70
     0
  9
$DIMSAH
 70
     0
  9
$DIMBLK1
  1

  9
$DIMBLK2
  1

  9
$DIMSTYLE
  2
Standard
  9
$DIMCLRD
 70
     0
  9
$DIMCLRE
 70
     0
  9
$DIMCLRT
 70
     0
  9
$DIMTFAC
 40
1.0
  9
$DIMGAP
 40
0.09
  9
$DIMJUST
 70
     0
  9
$DIMSD1
 70
     0
  9
$DIMSD2
 70
     0
  9
$DIMTOLJ
 70
     1
  9
$DIMTZIN
 70
     0
  9
$DIMALTZ
 70
     0
  9
$DIMALTTZ
 70
     0
  9
$DIMUPT
 70
     0
  9
$DIMDEC
 70
     4
  9
$DIMTDEC
 70
     4
  9
$DIMALTU
 70
     2
  9
$DIMALTTD
 70
     2
  9
$DIMTXSTY
  7
Standard
  9
$DIMAUNIT
 70
     0
  9
$DIMADEC
 70
     0
  9
$DIMALTRND
 40
0.0
  9
$DIMAZIN
 70
     0
  9
$DIMDSEP
 70
    46
  9
$DIMATFIT
 70
     3
  9
$DIMFRAC
 70
     0
  9
$DIMLDRBLK
  1

  9
$DIMLUNIT
 70
     2
  9
$DIMLWD
 70
    -2
  9
$DIMLWE
 70
    -2
  9
$DIMTMOVE
 70
     0
  9
$LUNITS
 70
     2
  9
$LUPREC
 70
     4
  9
$SKETCHINC
 40
0.1
  9
$FILLETRAD
 40
0.5
  9
$AUNITS
 70
     0
  9
$AUPREC
 70
     0
  9
$MENU
  1
.
  9
$ELEVATION
 40
0.0
  9
$PELEVATION
 40
0.0
  9
$THICKNESS
 40
0.0
  9
$LIMCHECK
 70
     0
  9
$CHAMFERA
 40
0.5
  9
$CHAMFERB
 40
0.5
  9
$CHAMFERC
 40
1.0
  9
$CHAMFERD
 40
0.0
  9
$SKPOLY
 70
     0
  9
$TDCREATE
 40
2452994.421340741
  9
$TDUCREATE
 40
2452994.629674075
  9
$TDUPDATE
 40
2454728.602922269
  9
$TDUUPDATE
 40
2454728.811255602
  9
$TDINDWG
 40
0.0269652315
  9
$TDUSRTIMER
 40
0.0269652315
  9
$USRTIMER
 70
     1
  9
$ANGBASE
 50
0.0
  9
$ANGDIR
 70
     0
  9
$PDMODE
 70
     0
  9
$PDSIZE
 40
0.0
  9
$PLINEWID
 40
0.0
  9
$SPLFRAME
 70
     0
  9
$SPLINETYPE
 70
     6
  9
$SPLINESEGS
 70
     8
  9
$HANDSEED
  5
912
  9
$SURFTAB1
 70
     6
  9
$SURFTAB2
 70
     6
  9
$SURFTYPE
 70
     6
  9
$SURFU
 70
     6
  9
$SURFV
 70
     6
  9
$UCSBASE
  2

  9
$UCSNAME
  2

  9
$UCSORG
 10
0.0
 20
0.0
 30
0.0
  9
$UCSXDIR
 10
1.0
 20
0.0
 30
0.0
  9
$UCSYDIR
 10
0.0
 20
1.0
 30
0.0
  9
$UCSORTHOREF
  2

  9
$UCSORTHOVIEW
 70
     0
  9
$UCSORGTOP
 10
0.0
 20
0.0
 30
0.0
  9
$UCSORGBOTTOM
 10
0.0
 20
0.0
 30
0.0
  9
$UCSORGLEFT
 10
0.0
 20
0.0
 30
0.0
  9
$UCSORGRIGHT
 10
0.0
 20
0.0
 30
0.0
  9
$UCSORGFRONT
 10
0.0
 20
0.0
 30
0.0
  9
$UCSORGBACK
 10
0.0
 20
0.0
 30
0.0
  9
$PUCSBASE
  2

  9
$PUCSNAME
  2

  9
$PUCSORG
 10
0.0
 20
0.0
 30
0.0
  9
$PUCSXDIR
 10
1.0
 20
0.0
 30
0.0
  9
$PUCSYDIR
 10
0.0
 20
1.0
 30
0.0
  9
$PUCSORTHOREF
  2

  9
$PUCSORTHOVIEW
 70
     0
  9
$PUCSORGTOP
 10
0.0
 20
0.0
 30
0.0
  9
$PUCSORGBOTTOM
 10
0.0
 20
0.0
 30
0.0
  9
$PUCSORGLEFT
 10
0.0
 20
0.0
 30
0.0
  9
$PUCSORGRIGHT
 10
0.0
 20
0.0
 30
0.0
  9
$PUCSORGFRONT
 10
0.0
 20
0.0
 30
0.0
  9
$PUCSORGBACK
 10
0.0
 20
0.0
 30
0.0
  9
$USERI1
 70
     0
  9
$USERI2
 70
     0
  9
$USERI3
 70
     0
  9
$USERI4
 70
     0
  9
$USERI5
 70
     0
  9
$USERR1
 40
0.0
  9
$USERR2
 40
0.0
  9
$USERR3
 40
0.0
  9
$USERR4
 40
0.0
  9
$USERR5
 40
0.0
  9
$WORLDVIEW
 70
     1
  9
$SHADEDGE
 70
     3
  9
$SHADEDIF
 70
    70
  9
$TILEMODE
 70
     1
  9
$MAXACTVP
 70
    64
  9
$PINSBASE
 10
0.0
 20
0.0
 30
0.0
  9
$PLIMCHECK
 70
     0
  9
$PEXTMIN
 10
1.000000000000000E+20
 20
1.000000000000000E+20
 30
1.000000000000000E+20
  9
$PEXTMAX
 10
-1.000000000000000E+20
 20
-1.000000000000000E+20
 30
-1.000000000000000E+20
  9
$PLIMMIN
 10
0.0
 20
0.0
  9
$PLIMMAX
 10
12.0
 20
9.0
  9
$UNITMODE
 70
     0
  9
$VISRETAIN
 70
     1
  9
$PLINEGEN
 70
     0
  9
$PSLTSCALE
 70
     1
  9
$TREEDEPTH
 70
  3020
  9
$CMLSTYLE
  2
Standard
  9
$CMLJUST
 70
     0
  9
$CMLSCALE
 40
1.0
  9
$PROXYGRAPHICS
 70
     1
  9
$MEASUREMENT
 70
     0
  9
$CELWEIGHT
370
    -1
  9
$ENDCAPS
280
     0
  9
$JOINSTYLE
280
     0
  9
$LWDISPLAY
290
     0
  9
$INSUNITS
 70
     1
  9
$HYPERLINKBASE
  1

  9
$STYLESHEET
  1
monochrome.ctb
  9
$XEDIT
290
     1
  9
$CEPSNTYPE
380
     0
  9
$PSTYLEMODE
290
     1
  9
$FINGERPRINTGUID
  2
{8AF59976-32CF-11D8-8CE1-F4C5890AA422}
  9
$VERSIONGUID
  2
{61866BAA-8977-488A-801B-316946650309}
  9
$EXTNAMES
290
     1
  9
$PSVPSCALE
 40
0.0
  9
$OLESTARTUP
290
     0
  0
ENDSEC
  0
SECTION
  2
CLASSES
  0
CLASS
  1
ACDBDICTIONARYWDFLT
  2
AcDbDictionaryWithDefault
  3
ObjectDBX Classes
 90
        0
280
     0
281
     0
  0
CLASS
  1
ACDBPLACEHOLDER
  2
AcDbPlaceHolder
  3
ObjectDBX Classes
 90
        0
280
     0
281
     0
  0
CLASS
  1
LAYOUT
  2
AcDbLayout
  3
ObjectDBX Classes
 90
        0
280
     0
281
     0
  0
CLASS
  1
DICTIONARYVAR
  2
AcDbDictionaryVar
  3
ObjectDBX Classes
 90
        0
280
     0
281
     0
  0
ENDSEC
  0
SECTION
  2
TABLES
  0
TABLE
  2
VPORT
  5
8
330
0
100
AcDbSymbolTable
 70
     2
  0
VPORT
  5
908
330
8
100
AcDbSymbolTableRecord
100
AcDbViewportTableRecord
  2
*Active
 70
     0
 10
0.0
 20
0.0
 11
1.0
 21
1.0
 12
8.037106219115642
 22
5.051719687124387
 13
0.0
 23
0.0
 14
0.5
 24
0.5
 15
0.5
 25
0.5
 16
0.0
 26
0.0
 36
1.0
 17
0.0
 27
0.0
 37
0.0
 40
5.544994923356649
 41
1.495145631067961
 42
50.0
 43
0.0
 44
0.0
 50
0.0
 51
0.0
 71
     0
 72
   100
 73
     1
 74
     3
 75
     0
 76
     0
 77
     0
 78
     0
281
     0
 65
     1
110
0.0
120
0.0
130
0.0
111
1.0
121
0.0
131
0.0
112
0.0
122
1.0
132
0.0
 79
     0
146
0.0
  0
ENDTAB
  0
TABLE
  2
LTYPE
  5
5
330
0
100
AcDbSymbolTable
 70
     2
  0
LTYPE
  5
14
330
5
100
AcDbSymbolTableRecord
100
AcDbLinetypeTableRecord
  2
ByBlock
 70
     0
  3

 72
    65
 73
     0
 40
0.0
  0
LTYPE
  5
15
330
5
100
AcDbSymbolTableRecord
100
AcDbLinetypeTableRecord
  2
ByLayer
 70
     0
  3

 72
    65
 73
     0
 40
0.0
  0
LTYPE
  5
16
330
5
100
AcDbSymbolTableRecord
100
AcDbLinetypeTableRecord
  2
Continuous
 70
     0
  3
Solid line
 72
    65
 73
     0
 40
0.0
  0
LTYPE
  5
15D
330
5
100
AcDbSymbolTableRecord
100
AcDbLinetypeTableRecord
  2
HIDDEN
 70
     0
  3
_ _ _ _ _ _ _ _ _ _ _ _ _ _ _ _ _ _ _ _ _ _ _
 72
    65
 73
     2
 40
0.375
 49
0.25
 74
     0
 49
-0.125
 74
     0
  0
ENDTAB
  0
TABLE
  2
LAYER
  5
2
102
{ACAD_XDICTIONARY
360
7DC
102
}
330
0
100
AcDbSymbolTable
 70
     5
  0
LAYER
  5
10
330
2
100
AcDbSymbolTableRecord
100
AcDbLayerTableRecord
  2
0
 70
     0
 62
     7
  6
Continuous
370
    -3
390
F
  0
LAYER
  5
33
330
2
100
AcDbSymbolTableRecord
100
AcDbLayerTableRecord
  2
1
 70
     0
 62
     1
  6
Continuous
370
    -3
390
F
  0
LAYER
  5
34
330
2
100
AcDbSymbolTableRecord
100
AcDbLayerTableRecord
  2
4
 70
     0
 62
     4
  6
Continuous
370
    -3
390
F
  0
LAYER
  5
35
330
2
100
AcDbSymbolTableRecord
100
AcDbLayerTableRecord
  2
8
 70
     0
 62
     2
  6
Continuous
370
    -3
390
F
  0
LAYER
  5
15E
330
2
100
AcDbSymbolTableRecord
100
AcDbLayerTableRecord
  2
2
 70
     0
 62
     2
  6
HIDDEN
370
    -3
390
F
  0
ENDTAB
  0
TABLE
  2
STYLE
  5
3
330
0
100
AcDbSymbolTable
 70
     2
  0
STYLE
  5
11
330
3
100
AcDbSymbolTableRecord
100
AcDbTextStyleTableRecord
  2
Standard
 70
     0
 40
0.0
 41
1.0
 50
0.0
 71
     0
 42
0.2
  3
txt
  4

  0
STYLE
  5
36
330
3
100
AcDbSymbolTableRecord
100
AcDbTextStyleTableRecord
  2
ROMANS
 70
     0
 40
0.0
 41
1.0
 50
0.0
 71
     0
 42
0.07
  3
ROMANS
  4

  0
ENDTAB
  0
TABLE
  2
VIEW
  5
6
330
0
100
AcDbSymbolTable
 70
     0
  0
ENDTAB
  0
TABLE
  2
UCS
  5
7
330
0
100
AcDbSymbolTable
 70
     0
  0
ENDTAB
  0
TABLE
  2
APPID
  5
9
330
0
100
AcDbSymbolTable
 70
     1
  0
APPID
  5
12
330
9
100
AcDbSymbolTableRecord
100
AcDbRegAppTableRecord
  2
ACAD
 70
     0
  0
ENDTAB
  0
TABLE
  2
DIMSTYLE
  5
A
330
0
100
AcDbSymbolTable
 70
     1
100
AcDbDimStyleTable
 71
     0
  0
DIMSTYLE
105
27
330
A
100
AcDbSymbolTableRecord
100
AcDbDimStyleTableRecord
  2
Standard
 70
     0
340
11
  0
ENDTAB
  0
TABLE
  2
BLOCK_RECORD
  5
1
330
0
100
AcDbSymbolTable
 70
    14
  0
BLOCK_RECORD
  5
1F
330
1
100
AcDbSymbolTableRecord
100
AcDbBlockTableRecord
  2
*Model_Space
340
22
  0
BLOCK_RECORD
  5
1B
330
1
100
AcDbSymbolTableRecord
100
AcDbBlockTableRecord
  2
*Paper_Space
340
1E
  0
BLOCK_RECORD
  5
23
330
1
100
AcDbSymbolTableRecord
100
AcDbBlockTableRecord
  2
*Paper_Space0
340
26
  0
BLOCK_RECORD
  5
2B
330
1
100
AcDbSymbolTableRecord
100
AcDbBlockTableRecord
  2
ARRO
340
0
102
{BLKREFS
331
3F
331
87
331
88
331
8C
331
8D
331
91
331
92
331
93
331
94
331
95
331
13B
331
13C
331
13D
331
189
331
18A
331
2FC
331
2FD
331
4B1
331
4B2
331
504
331
55E
331
55F
331
6F9
331
6FA
331
74C
331
7A6
331
7A7
331
817
331
85F
331
860
331
864
331
865
331
869
331
86A
331
86B
331
86C
331
86D
102
}
  0
BLOCK_RECORD
  5
37
330
1
100
AcDbSymbolTableRecord
100
AcDbBlockTableRecord
  2
Le1005
340
0
  0
BLOCK_RECORD
  5
FF
330
1
100
AcDbSymbolTableRecord
100
AcDbBlockTableRecord
  2
LE029
340
0
102
{BLKREFS
331
197
331
198
331
199
331
19A
331
19B
331
19C
331
19D
331
19E
331
19F
331
1A0
331
1A1
331
1A2
331
1BB
331
1BC
331
1BD
331
1BE
331
1BF
331
1C0
331
1C1
331
1C2
331
1C3
331
1C4
331
1C5
331
1C6
331
1C7
331
1C8
331
1C9
331
1CA
331
1CB
331
1CC
331
1CD
331
1CE
331
1CF
331
1D0
331
36D
331
36E
331
377
331
378
331
379
331
37A
331
37D
331
37E
331
473
331
474
331
475
331
476
331
477
331
478
331
491
331
492
331
493
331
494
331
495
331
496
331
497
331
498
331
499
331
49A
331
49B
331
49C
331
367
331
368
331
36B
331
36C
331
6BB
331
6BD
331
6BF
331
6D9
331
6DB
331
6DD
102
}
  0
BLOCK_RECORD
  5
112
330
1
100
AcDbSymbolTableRecord
100
AcDbBlockTableRecord
  2
TEMP3
340
0
102
{BLKREFS
331
168
331
4AD
331
6F5
102
}
  0
BLOCK_RECORD
  5
117
330
1
100
AcDbSymbolTableRecord
100
AcDbBlockTableRecord
  2
LE038
340
0
102
{BLKREFS
331
160
331
2D4
102
}
  0
BLOCK_RECORD
  5
150
330
1
100
AcDbSymbolTableRecord
100
AcDbBlockTableRecord
  2
ARRO2
340
0
102
{BLKREFS
331
136
331
4DA
331
4F5
331
722
331
73D
102
}
  0
BLOCK_RECORD
  5
15F
330
1
100
AcDbSymbolTableRecord
100
AcDbBlockTableRecord
  2
Le1036
340
0
  0
BLOCK_RECORD
  5
1F4
330
1
100
AcDbSymbolTableRecord
100
AcDbBlockTableRecord
  2
TEMP2
340
0
102
{BLKREFS
331
2D8
102
}
  0
BLOCK_RECORD
  5
1F8
330
1
100
AcDbSymbolTableRecord
100
AcDbBlockTableRecord
  2
TEMP1
340
0
102
{BLKREFS
331
348
331
349
331
34A
102
}
  0
BLOCK_RECORD
  5
2D3
330
1
100
AcDbSymbolTableRecord
100
AcDbBlockTableRecord
  2
Le1037
340
0
  0
BLOCK_RECORD
  5
34F
330
1
100
AcDbSymbolTableRecord
100
AcDbBlockTableRecord
  2
FRACTION
340
0
102
{BLKREFS
331
358
331
35D
331
362
331
5A0
331
5A5
331
5AA
102
}
  0
BLOCK_RECORD
  5
355
330
1
100
AcDbSymbolTableRecord
100
AcDbBlockTableRecord
  2
Le1040
340
0
  0
BLOCK_RECORD
  5
7DE
330
1
100
AcDbSymbolTableRecord
100
AcDbBlockTableRecord
  2
HDV hooks
340
0
102
{BLKREFS
331
7F5
331
7F6
102
}
1001
ACAD
1000
DesignCenter Data
1002
{
1070
     1
1070
     1
1002
}
  0
ENDTAB
  0
ENDSEC
  0
SECTION
  2
BLOCKS
  0
BLOCK
  5
20
330
1F
100
AcDbEntity
  8
0
100
AcDbBlockBegin
  2
*Model_Space
 70
     0
 10
0.0
 20
0.0
 30
0.0
  3
*Model_Space
  1

  0
ENDBLK
  5
21
330
1F
100
AcDbEntity
  8
0
100
AcDbBlockEnd
  0
BLOCK
  5
1C
330
1B
100
AcDbEntity
 67
     1
  8
0
100
AcDbBlockBegin
  2
*Paper_Space
 70
     0
 10
0.0
 20
0.0
 30
0.0
  3
*Paper_Space
  1

  0
ENDBLK
  5
1D
330
1B
100
AcDbEntity
 67
     1
  8
0
100
AcDbBlockEnd
  0
BLOCK
  5
24
330
23
100
AcDbEntity
  8
0
100
AcDbBlockBegin
  2
*Paper_Space0
 70
     0
 10
0.0
 20
0.0
 30
0.0
  3
*Paper_Space0
  1

  0
ENDBLK
  5
25
330
23
100
AcDbEntity
  8
0
100
AcDbBlockEnd
  0
BLOCK
  5
31
330
2B
100
AcDbEntity
  8
8
100
AcDbBlockBegin
  2
ARRO
 70
     0
 10
0.0
 20
0.0
 30
0.0
  3
ARRO
  1

  0
LINE
  5
2C
330
2B
100
AcDbEntity
  8
4
100
AcDbLine
 10
0.1250000000000018
 20
0.0199999999999996
 30
0.0
 11
0.1250000000000018
 21
-0.0200000000000005
 31
0.0
  0
LINE
  5
2D
330
2B
100
AcDbEntity
  8
4
100
AcDbLine
 10
0.1250000000000018
 20
-0.0100000000000007
 30
0.0
 11
0.0000000000000009
 21
0.0
 31
0.0
  0
LINE
  5
2E
330
2B
100
AcDbEntity
  8
4
100
AcDbLine
 10
0.1250000000000018
 20
0.0099999999999989
 30
0.0
 11
0.0000000000000018
 21
0.0
 31
0.0
  0
LINE
  5
2F
330
2B
100
AcDbEntity
  8
4
100
AcDbLine
 10
0.0000000000000018
 20
0.0
 30
0.0
 11
0.1250000000000018
 21
-0.0200000000000005
 31
0.0
  0
LINE
  5
30
330
2B
100
AcDbEntity
  8
4
100
AcDbLine
 10
0.1250000000000018
 20
0.0199999999999996
 30
0.0
 11
0.0000000000000018
 21
0.0
 31
0.0
  0
ENDBLK
  5
32
330
2B
100
AcDbEntity
  8
8
100
AcDbBlockEnd
  0
BLOCK
  5
FA
330
37
100
AcDbEntity
  8
0
100
AcDbBlockBegin
  2
Le1005
 70
     0
 10
0.0
 20
0.0
 30
0.0
  3
Le1005
  1

  0
TEXT
  5
38
330
37
100
AcDbEntity
  8
8
100
AcDbText
 10
5.2125
 20
0.9038482379456846
 30
0.0
 40
0.07
  1
DEPTH
  7
ROMANS
 72
     1
 11
5.3775
 21
0.9038482379456846
 31
0.0
100
AcDbText
  0
TEXT
  5
39
330
37
100
AcDbEntity
  8
8
100
AcDbText
 10
6.834999999999999
 20
0.9038482379456846
 30
0.0
 40
0.07
  1
DEPTH
  7
ROMANS
 72
     1
 11
7.0
 21
0.9038482379456846
 31
0.0
100
AcDbText
  0
TEXT
  5
3A
330
37
100
AcDbEntity
  8
8
100
AcDbText
 10
6.899267058502116
 20
0.7466010068253098
 30
0.0
 40
0.1
  1
DR
  7
ROMANS
 72
     1
 11
7.001648010883068
 21
0.7466010068253098
 31
0.0
100
AcDbText
  0
TEXT
  5
3B
330
37
100
AcDbEntity
  8
8
100
AcDbText
 10
5.794389324558379
 20
0.5620000000000003
 30
0.0
 40
0.1
  1
SECTIONS
  7
ROMANS
 72
     1
 11
6.146770276939331
 21
0.5620000000000003
 31
0.0
100
AcDbText
  0
TEXT
  5
3C
330
37
100
AcDbEntity
  8
8
100
AcDbText
 10
5.302053163126957
 20
0.7466010068253098
 30
0.0
 40
0.1
  1
SR
  7
ROMANS
 72
     1
 11
5.399672210746004
 21
0.7466010068253098
 31
0.0
100
AcDbText
  0
LINE
  5
3D
330
37
100
AcDbEntity
  8
4
100
AcDbLine
 10
5.628
 20
4.25
 30
0.0
 11
5.891731602665403
 21
4.25
 31
0.0
  0
LINE
  5
3E
330
37
100
AcDbEntity
  8
4
100
AcDbLine
 10
5.93215881233783
 20
4.25
 30
0.0
 11
6.112622609161773
 21
4.25
 31
0.0
  0
INSERT
  5
3F
330
37
100
AcDbEntity
  8
4
100
AcDbBlockReference
  2
ARRO
 10
5.93215881233783
 20
4.25
 30
0.0
  0
LINE
  5
40
330
37
100
AcDbEntity
  8
4
100
AcDbLine
 10
6.112622609161773
 20
4.25
 30
0.0
 11
6.112622609161773
 21
4.047012330209487
 31
0.0
  0
TEXT
  5
41
330
37
100
AcDbEntity
  8
8
100
AcDbText
 10
6.147622609161773
 20
2.671678996876154
 30
0.0
 40
0.07
  1
ANCHORING BY ERECTOR
 50
90.0
  7
ROMANS
 72
     2
 11
6.147622609161773
 21
3.985012330209487
 31
0.0
100
AcDbText
  0
TEXT
  5
42
330
37
100
AcDbEntity
  8
8
100
AcDbText
 10
4.500499999999999
 20
2.578333333333333
 30
0.0
 40
0.07
  1
LOCKER HEIGHT
 50
90.0
  7
ROMANS
 72
     1
 11
4.500499999999999
 21
3.0
 31
0.0
100
AcDbText
  0
TEXT
  5
43
330
37
100
AcDbEntity
  8
8
100
AcDbText
 10
1.344999999999998
 20
1.062
 30
0.0
 40
0.07
  1
LOCKER WIDTH - SEE SCHEDULE
  7
ROMANS
 72
     1
 11
2.249999999999999
 21
1.062
 31
0.0
100
AcDbText
  0
TEXT
  5
44
330
37
100
AcDbEntity
  8
8
100
AcDbText
 10
1.585714285714285
 20
0.5620000000000003
 30
0.0
 40
0.1
  1
FRONT ELEVATION
  7
ROMANS
 72
     1
 11
2.249999999999999
 21
0.5620000000000003
 31
0.0
100
AcDbText
  0
LINE
  5
45
330
37
100
AcDbEntity
  8
1
100
AcDbLine
 10
0.0
 20
0.0
 30
0.0
 11
8.25
 21
0.0
 31
0.0
  0
LINE
  5
46
330
37
100
AcDbEntity
  8
1
100
AcDbLine
 10
8.25
 20
0.0
 30
0.0
 11
8.25
 21
5.25
 31
0.0
  0
LINE
  5
47
330
37
100
AcDbEntity
  8
1
100
AcDbLine
 10
8.25
 20
5.25
 30
0.0
 11
0.0
 21
5.25
 31
0.0
  0
LINE
  5
48
330
37
100
AcDbEntity
  8
1
100
AcDbLine
 10
0.0
 20
5.25
 30
0.0
 11
0.0
 21
0.0
 31
0.0
  0
LINE
  5
49
330
37
100
AcDbEntity
  8
1
100
AcDbLine
 10
1.0
 20
1.5
 30
0.0
 11
2.5
 21
1.5
 31
0.0
  0
LINE
  5
4A
330
37
100
AcDbEntity
  8
1
100
AcDbLine
 10
1.0
 20
1.5
 30
0.0
 11
1.0
 21
4.5
 31
0.0
  0
LINE
  5
4B
330
37
100
AcDbEntity
  8
1
100
AcDbLine
 10
1.0
 20
4.5
 30
0.0
 11
2.5
 21
4.5
 31
0.0
  0
LINE
  5
4C
330
37
100
AcDbEntity
  8
1
100
AcDbLine
 10
2.625
 20
4.5
 30
0.0
 11
3.5
 21
4.5
 31
0.0
  0
LINE
  5
4D
330
37
100
AcDbEntity
  8
1
100
AcDbLine
 10
3.5
 20
4.5
 30
0.0
 11
3.499999999999999
 21
1.5
 31
0.0
  0
LINE
  5
4E
330
37
100
AcDbEntity
  8
1
100
AcDbLine
 10
3.499999999999999
 20
1.5
 30
0.0
 11
2.624999999999999
 21
1.5
 31
0.0
  0
LINE
  5
4F
330
37
100
AcDbEntity
  8
1
100
AcDbLine
 10
7.0
 20
1.5
 30
0.0
 11
7.0
 21
4.5
 31
0.0
  0
LINE
  5
50
330
37
100
AcDbEntity
  8
1
100
AcDbLine
 10
5.75
 20
1.5
 30
0.0
 11
5.75
 21
4.875
 31
0.0
  0
CIRCLE
  5
51
330
37
100
AcDbEntity
  8
1
100
AcDbCircle
 10
4.125
 20
0.5
 30
0.0
 40
0.1875
  0
LINE
  5
52
330
37
100
AcDbEntity
  8
1
100
AcDbLine
 10
2.625
 20
4.625
 30
0.0
 11
2.625
 21
3.709974179311579
 31
0.0
  0
LINE
  5
53
330
37
100
AcDbEntity
  8
1
100
AcDbLine
 10
2.5
 20
4.625
 30
0.0
 11
2.5
 21
4.344974179311579
 31
0.0
  0
LINE
  5
54
330
37
100
AcDbEntity
  8
1
100
AcDbLine
 10
2.455
 20
4.389974179311579
 30
0.0
 11
2.544999999999999
 21
4.299974179311579
 31
0.0
  0
LINE
  5
55
330
37
100
AcDbEntity
  8
1
100
AcDbLine
 10
2.544999999999999
 20
4.299974179311579
 30
0.0
 11
2.455
 21
4.299974179311579
 31
0.0
  0
LINE
  5
56
330
37
100
AcDbEntity
  8
1
100
AcDbLine
 10
2.455
 20
4.299974179311579
 30
0.0
 11
2.544999999999999
 21
4.209974179311579
 31
0.0
  0
LINE
  5
57
330
37
100
AcDbEntity
  8
1
100
AcDbLine
 10
2.512196030826982
 20
4.242778148484597
 30
0.0
 11
2.512196030826982
 21
3.07567852914767
 31
0.0
  0
LINE
  5
58
330
37
100
AcDbEntity
  8
1
100
AcDbLine
 10
2.454999999999999
 20
3.049974179311579
 30
0.0
 11
2.544999999999999
 21
2.959974179311579
 31
0.0
  0
LINE
  5
59
330
37
100
AcDbEntity
  8
1
100
AcDbLine
 10
2.544999999999999
 20
3.049974179311579
 30
0.0
 11
2.454999999999999
 21
3.049974179311579
 31
0.0
  0
LINE
  5
5A
330
37
100
AcDbEntity
  8
1
100
AcDbLine
 10
2.454999999999999
 20
3.139974179311579
 30
0.0
 11
2.544999999999999
 21
3.049974179311579
 31
0.0
  0
LINE
  5
5B
330
37
100
AcDbEntity
  8
1
100
AcDbLine
 10
2.454999999999999
 20
1.799974179311579
 30
0.0
 11
2.544999999999999
 21
1.709974179311579
 31
0.0
  0
LINE
  5
5C
330
37
100
AcDbEntity
  8
1
100
AcDbLine
 10
2.544999999999999
 20
1.799974179311579
 30
0.0
 11
2.454999999999999
 21
1.799974179311579
 31
0.0
  0
LINE
  5
5D
330
37
100
AcDbEntity
  8
1
100
AcDbLine
 10
2.454999999999999
 20
1.889974179311579
 30
0.0
 11
2.544999999999999
 21
1.799974179311579
 31
0.0
  0
LINE
  5
5E
330
37
100
AcDbEntity
  8
1
100
AcDbLine
 10
2.5
 20
3.004974179311579
 30
0.0
 11
2.5
 21
2.469974179311579
 31
0.0
  0
LINE
  5
5F
330
37
100
AcDbEntity
  8
1
100
AcDbLine
 10
2.5
 20
2.469974179311579
 30
0.0
 11
2.499999999999999
 21
1.844974179311579
 31
0.0
  0
LINE
  5
60
330
37
100
AcDbEntity
  8
1
100
AcDbLine
 10
2.499999999999999
 20
1.754974179311579
 30
0.0
 11
2.499999999999999
 21
1.375
 31
0.0
  0
LINE
  5
61
330
37
100
AcDbEntity
  8
1
100
AcDbLine
 10
2.579999999999999
 20
2.514974179311579
 30
0.0
 11
2.669999999999999
 21
2.424974179311579
 31
0.0
  0
LINE
  5
62
330
37
100
AcDbEntity
  8
1
100
AcDbLine
 10
2.669999999999999
 20
2.424974179311579
 30
0.0
 11
2.579999999999999
 21
2.424974179311579
 31
0.0
  0
LINE
  5
63
330
37
100
AcDbEntity
  8
1
100
AcDbLine
 10
2.579999999999999
 20
2.424974179311579
 30
0.0
 11
2.669999999999999
 21
2.334974179311579
 31
0.0
  0
LINE
  5
64
330
37
100
AcDbEntity
  8
1
100
AcDbLine
 10
2.58
 20
3.754974179311579
 30
0.0
 11
2.669999999999999
 21
3.664974179311579
 31
0.0
  0
LINE
  5
65
330
37
100
AcDbEntity
  8
1
100
AcDbLine
 10
2.669999999999999
 20
3.664974179311579
 30
0.0
 11
2.58
 21
3.664974179311579
 31
0.0
  0
LINE
  5
66
330
37
100
AcDbEntity
  8
1
100
AcDbLine
 10
2.58
 20
3.664974179311579
 30
0.0
 11
2.669999999999999
 21
3.574974179311579
 31
0.0
  0
LINE
  5
67
330
37
100
AcDbEntity
  8
1
100
AcDbLine
 10
2.625
 20
3.625967704151865
 30
0.0
 11
2.625
 21
2.782474179311579
 31
0.0
  0
LINE
  5
68
330
37
100
AcDbEntity
  8
1
100
AcDbLine
 10
2.625
 20
2.782474179311579
 30
0.0
 11
2.625
 21
2.469974179311579
 31
0.0
  0
LINE
  5
69
330
37
100
AcDbEntity
  8
1
100
AcDbLine
 10
2.625
 20
2.379974179311579
 30
0.0
 11
2.624999999999999
 21
1.375
 31
0.0
  0
LINE
  5
6A
330
37
100
AcDbEntity
  8
1
100
AcDbLine
 10
5.75
 20
1.5
 30
0.0
 11
5.937999999999999
 21
1.687999999999999
 31
0.0
  0
LINE
  5
6B
330
37
100
AcDbEntity
  8
1
100
AcDbLine
 10
5.75
 20
1.625
 30
0.0
 11
5.937999999999999
 21
1.812999999999999
 31
0.0
  0
LINE
  5
6C
330
37
100
AcDbEntity
  8
1
100
AcDbLine
 10
5.75
 20
2.0
 30
0.0
 11
5.937999999999999
 21
2.187999999999999
 31
0.0
  0
LINE
  5
6D
330
37
100
AcDbEntity
  8
1
100
AcDbLine
 10
5.75
 20
2.125
 30
0.0
 11
5.937999999999999
 21
2.312999999999999
 31
0.0
  0
LINE
  5
6E
330
37
100
AcDbEntity
  8
1
100
AcDbLine
 10
5.75
 20
2.25
 30
0.0
 11
5.937999999999999
 21
2.437999999999999
 31
0.0
  0
LINE
  5
6F
330
37
100
AcDbEntity
  8
1
100
AcDbLine
 10
5.75
 20
2.375
 30
0.0
 11
5.937999999999999
 21
2.562999999999999
 31
0.0
  0
LINE
  5
70
330
37
100
AcDbEntity
  8
1
100
AcDbLine
 10
5.75
 20
2.5
 30
0.0
 11
5.937999999999999
 21
2.687999999999999
 31
0.0
  0
LINE
  5
71
330
37
100
AcDbEntity
  8
1
100
AcDbLine
 10
5.75
 20
2.625
 30
0.0
 11
5.937999999999999
 21
2.812999999999999
 31
0.0
  0
LINE
  5
72
330
37
100
AcDbEntity
  8
1
100
AcDbLine
 10
5.75
 20
2.75
 30
0.0
 11
5.937999999999999
 21
2.937999999999999
 31
0.0
  0
LINE
  5
73
330
37
100
AcDbEntity
  8
1
100
AcDbLine
 10
5.75
 20
2.875
 30
0.0
 11
5.937999999999999
 21
3.062999999999999
 31
0.0
  0
LINE
  5
74
330
37
100
AcDbEntity
  8
1
100
AcDbLine
 10
5.75
 20
3.0
 30
0.0
 11
5.937999999999999
 21
3.187999999999999
 31
0.0
  0
LINE
  5
75
330
37
100
AcDbEntity
  8
1
100
AcDbLine
 10
5.75
 20
3.125
 30
0.0
 11
5.937999999999999
 21
3.312999999999999
 31
0.0
  0
LINE
  5
76
330
37
100
AcDbEntity
  8
1
100
AcDbLine
 10
5.75
 20
3.25
 30
0.0
 11
5.937999999999999
 21
3.437999999999999
 31
0.0
  0
LINE
  5
77
330
37
100
AcDbEntity
  8
1
100
AcDbLine
 10
5.75
 20
3.375
 30
0.0
 11
5.937999999999999
 21
3.562999999999999
 31
0.0
  0
LINE
  5
78
330
37
100
AcDbEntity
  8
1
100
AcDbLine
 10
5.75
 20
3.5
 30
0.0
 11
5.937999999999999
 21
3.687999999999999
 31
0.0
  0
LINE
  5
79
330
37
100
AcDbEntity
  8
1
100
AcDbLine
 10
5.75
 20
3.625
 30
0.0
 11
5.937999999999999
 21
3.812999999999999
 31
0.0
  0
LINE
  5
7A
330
37
100
AcDbEntity
  8
1
100
AcDbLine
 10
5.75
 20
3.75
 30
0.0
 11
5.937999999999999
 21
3.937999999999999
 31
0.0
  0
LINE
  5
7B
330
37
100
AcDbEntity
  8
1
100
AcDbLine
 10
5.75
 20
3.875
 30
0.0
 11
5.937999999999999
 21
4.062999999999999
 31
0.0
  0
LINE
  5
7C
330
37
100
AcDbEntity
  8
1
100
AcDbLine
 10
5.75
 20
4.0
 30
0.0
 11
5.937999999999999
 21
4.187999999999999
 31
0.0
  0
LINE
  5
7D
330
37
100
AcDbEntity
  8
1
100
AcDbLine
 10
5.75
 20
4.125
 30
0.0
 11
5.937999999999999
 21
4.312999999999999
 31
0.0
  0
LINE
  5
7E
330
37
100
AcDbEntity
  8
1
100
AcDbLine
 10
5.75
 20
4.25
 30
0.0
 11
5.937999999999999
 21
4.437999999999999
 31
0.0
  0
LINE
  5
7F
330
37
100
AcDbEntity
  8
1
100
AcDbLine
 10
5.75
 20
4.375
 30
0.0
 11
5.937999999999999
 21
4.562999999999999
 31
0.0
  0
LINE
  5
80
330
37
100
AcDbEntity
  8
1
100
AcDbLine
 10
5.75
 20
4.5
 30
0.0
 11
5.937999999999999
 21
4.687999999999999
 31
0.0
  0
LINE
  5
81
330
37
100
AcDbEntity
  8
1
100
AcDbLine
 10
5.75
 20
4.625
 30
0.0
 11
5.937999999999999
 21
4.812999999999999
 31
0.0
  0
LINE
  5
82
330
37
100
AcDbEntity
  8
1
100
AcDbLine
 10
5.75
 20
4.75
 30
0.0
 11
5.875
 21
4.875
 31
0.0
  0
LINE
  5
83
330
37
100
AcDbEntity
  8
1
100
AcDbLine
 10
5.69
 20
1.5
 30
0.0
 11
5.69
 21
4.5
 31
0.0
  0
LINE
  5
84
330
37
100
AcDbEntity
  8
4
100
AcDbLine
 10
1.0
 20
1.437999999999999
 30
0.0
 11
0.9999999999999998
 21
0.9379999999999999
 31
0.0
  0
LINE
  5
85
330
37
100
AcDbEntity
  8
4
100
AcDbLine
 10
3.499999999999999
 20
1.437999999999999
 30
0.0
 11
3.499999999999999
 21
0.9379999999999999
 31
0.0
  0
LINE
  5
86
330
37
100
AcDbEntity
  8
4
100
AcDbLine
 10
3.499999999999999
 20
1.0
 30
0.0
 11
0.9999999999999998
 21
1.0
 31
0.0
  0
INSERT
  5
87
330
37
100
AcDbEntity
  8
4
100
AcDbBlockReference
  2
ARRO
 10
0.9999999999999998
 20
1.0
 30
0.0
  0
INSERT
  5
88
330
37
100
AcDbEntity
  8
4
100
AcDbBlockReference
  2
ARRO
 10
3.499999999999999
 20
0.9999999999999998
 30
0.0
 50
180.0
  0
LINE
  5
89
330
37
100
AcDbEntity
  8
4
100
AcDbLine
 10
5.0025
 20
1.5
 30
0.0
 11
4.5025
 21
1.5
 31
0.0
  0
LINE
  5
8A
330
37
100
AcDbEntity
  8
4
100
AcDbLine
 10
4.5625
 20
1.5
 30
0.0
 11
4.5625
 21
4.5
 31
0.0
  0
LINE
  5
8B
330
37
100
AcDbEntity
  8
4
100
AcDbLine
 10
5.0025
 20
4.5
 30
0.0
 11
4.5025
 21
4.5
 31
0.0
  0
INSERT
  5
8C
330
37
100
AcDbEntity
  8
4
100
AcDbBlockReference
  2
ARRO
 10
4.5625
 20
4.5
 30
0.0
 50
270.0
  0
INSERT
  5
8D
330
37
100
AcDbEntity
  8
4
100
AcDbBlockReference
  2
ARRO
 10
4.5625
 20
1.5
 30
0.0
 50
90.0
  0
LINE
  5
8E
330
37
100
AcDbEntity
  8
4
100
AcDbLine
 10
5.69
 20
0.9999999999999998
 30
0.0
 11
5.065
 21
0.9999999999999998
 31
0.0
  0
LINE
  5
8F
330
37
100
AcDbEntity
  8
4
100
AcDbLine
 10
5.75
 20
0.9999999999999998
 30
0.0
 11
6.0
 21
0.9999999999999998
 31
0.0
  0
LINE
  5
90
330
37
100
AcDbEntity
  8
4
100
AcDbLine
 10
6.375
 20
0.9999999999999998
 30
0.0
 11
7.625
 21
0.9999999999999998
 31
0.0
  0
INSERT
  5
91
330
37
100
AcDbEntity
  8
4
100
AcDbBlockReference
  2
ARRO
 10
5.065
 20
0.9999999999999998
 30
0.0
  0
INSERT
  5
92
330
37
100
AcDbEntity
  8
4
100
AcDbBlockReference
  2
ARRO
 10
5.69
 20
0.9999999999999998
 30
0.0
 50
180.0
  0
INSERT
  5
93
330
37
100
AcDbEntity
  8
4
100
AcDbBlockReference
  2
ARRO
 10
5.75
 20
0.9999999999999998
 30
0.0
  0
INSERT
  5
94
330
37
100
AcDbEntity
  8
4
100
AcDbBlockReference
  2
ARRO
 10
6.375
 20
0.9999999999999998
 30
0.0
  0
INSERT
  5
95
330
37
100
AcDbEntity
  8
4
100
AcDbBlockReference
  2
ARRO
 10
7.625
 20
0.9999999999999998
 30
0.0
 50
180.0
  0
LINE
  5
96
330
37
100
AcDbEntity
  8
1
100
AcDbLine
 10
1.062
 20
1.562
 30
0.0
 11
1.062
 21
4.438
 31
0.0
  0
LINE
  5
97
330
37
100
AcDbEntity
  8
1
100
AcDbLine
 10
1.062
 20
4.438
 30
0.0
 11
1.563
 21
4.438
 31
0.0
  0
LINE
  5
98
330
37
100
AcDbEntity
  8
1
100
AcDbLine
 10
1.563
 20
4.438
 30
0.0
 11
1.562999999999999
 21
1.562
 31
0.0
  0
LINE
  5
99
330
37
100
AcDbEntity
  8
1
100
AcDbLine
 10
1.687
 20
1.562
 30
0.0
 11
1.687
 21
4.438
 31
0.0
  0
LINE
  5
9A
330
37
100
AcDbEntity
  8
1
100
AcDbLine
 10
1.687
 20
4.438
 30
0.0
 11
2.188
 21
4.438
 31
0.0
  0
LINE
  5
9B
330
37
100
AcDbEntity
  8
1
100
AcDbLine
 10
2.188
 20
4.438
 30
0.0
 11
2.187999999999999
 21
1.562
 31
0.0
  0
LINE
  5
9C
330
37
100
AcDbEntity
  8
1
100
AcDbLine
 10
2.187999999999999
 20
1.562
 30
0.0
 11
1.687
 21
1.562
 31
0.0
  0
LINE
  5
9D
330
37
100
AcDbEntity
  8
1
100
AcDbLine
 10
2.312
 20
1.562
 30
0.0
 11
2.312
 21
4.438
 31
0.0
  0
LINE
  5
9E
330
37
100
AcDbEntity
  8
1
100
AcDbLine
 10
2.312
 20
4.438
 30
0.0
 11
2.5
 21
4.438
 31
0.0
  0
LINE
  5
9F
330
37
100
AcDbEntity
  8
1
100
AcDbLine
 10
2.813
 20
4.438
 30
0.0
 11
2.812999999999999
 21
1.562
 31
0.0
  0
LINE
  5
A0
330
37
100
AcDbEntity
  8
1
100
AcDbLine
 10
2.812999999999999
 20
1.562
 30
0.0
 11
2.625
 21
1.562
 31
0.0
  0
LINE
  5
A1
330
37
100
AcDbEntity
  8
1
100
AcDbLine
 10
2.937
 20
1.562
 30
0.0
 11
2.937
 21
4.438
 31
0.0
  0
LINE
  5
A2
330
37
100
AcDbEntity
  8
1
100
AcDbLine
 10
2.937
 20
4.438
 30
0.0
 11
3.438
 21
4.438
 31
0.0
  0
LINE
  5
A3
330
37
100
AcDbEntity
  8
1
100
AcDbLine
 10
3.438
 20
4.438
 30
0.0
 11
3.437999999999999
 21
1.562
 31
0.0
  0
LINE
  5
A4
330
37
100
AcDbEntity
  8
1
100
AcDbLine
 10
3.437999999999999
 20
1.562
 30
0.0
 11
2.937
 21
1.562
 31
0.0
  0
LINE
  5
A5
330
37
100
AcDbEntity
  8
1
100
AcDbLine
 10
1.625
 20
1.5
 30
0.0
 11
1.625
 21
4.5
 31
0.0
  0
LINE
  5
A6
330
37
100
AcDbEntity
  8
1
100
AcDbLine
 10
2.25
 20
1.5
 30
0.0
 11
2.25
 21
4.5
 31
0.0
  0
LINE
  5
A7
330
37
100
AcDbEntity
  8
1
100
AcDbLine
 10
2.875
 20
1.5
 30
0.0
 11
2.875
 21
4.5
 31
0.0
  0
LINE
  5
A8
330
37
100
AcDbEntity
  8
1
100
AcDbLine
 10
2.625
 20
4.438
 30
0.0
 11
2.813
 21
4.438
 31
0.0
  0
LINE
  5
A9
330
37
100
AcDbEntity
  8
1
100
AcDbLine
 10
2.499999999999999
 20
1.562
 30
0.0
 11
2.312
 21
1.562
 31
0.0
  0
LINE
  5
AA
330
37
100
AcDbEntity
  8
4
100
AcDbLine
 10
1.9375
 20
4.406
 30
0.0
 11
1.9375
 21
4.531
 31
0.0
  0
CIRCLE
  5
AB
330
37
100
AcDbEntity
  8
4
100
AcDbCircle
 10
1.9375
 20
4.312
 30
0.0
 40
0.094
  0
CIRCLE
  5
AC
330
37
100
AcDbEntity
  8
4
100
AcDbCircle
 10
1.778866710308013
 20
1.373999999999999
 30
0.0
 40
0.094
  0
LINE
  5
AD
330
37
100
AcDbEntity
  8
4
100
AcDbLine
 10
1.778866710308013
 20
1.467999999999999
 30
0.0
 11
1.778866710308013
 21
1.592999999999999
 31
0.0
  0
CIRCLE
  5
AE
330
37
100
AcDbEntity
  8
4
100
AcDbCircle
 10
2.028866710308013
 20
1.373999999999999
 30
0.0
 40
0.094
  0
LINE
  5
AF
330
37
100
AcDbEntity
  8
4
100
AcDbLine
 10
1.872866710308013
 20
1.373999999999999
 30
0.0
 11
1.934866710308013
 21
1.373999999999999
 31
0.0
  0
LINE
  5
B0
330
37
100
AcDbEntity
  8
1
100
AcDbLine
 10
1.062
 20
1.562
 30
0.0
 11
1.562999999999999
 21
1.562
 31
0.0
  0
LINE
  5
B1
330
37
100
AcDbEntity
  8
1
100
AcDbLine
 10
5.203499999999999
 20
4.5
 30
0.0
 11
5.188499999999999
 21
4.484999999999999
 31
0.0
  0
LINE
  5
B2
330
37
100
AcDbEntity
  8
1
100
AcDbLine
 10
5.188499999999999
 20
4.484999999999999
 30
0.0
 11
5.090499999999999
 21
4.484999999999999
 31
0.0
  0
LINE
  5
B3
330
37
100
AcDbEntity
  8
1
100
AcDbLine
 10
5.090499999999999
 20
4.484999999999999
 30
0.0
 11
5.090499999999999
 21
4.456753857562439
 31
0.0
  0
LINE
  5
B4
330
37
100
AcDbEntity
  8
1
100
AcDbLine
 10
5.265499999999999
 20
4.437999999999999
 30
0.0
 11
5.203499999999999
 21
4.5
 31
0.0
  0
LINE
  5
B5
330
37
100
AcDbEntity
  8
1
100
AcDbLine
 10
5.630499999999999
 20
4.437999999999999
 30
0.0
 11
5.265499999999999
 21
4.437999999999999
 31
0.0
  0
LINE
  5
B6
330
37
100
AcDbEntity
  8
1
100
AcDbLine
 10
5.630499999999999
 20
4.5
 30
0.0
 11
5.630499999999999
 21
4.437999999999999
 31
0.0
  0
LINE
  5
B7
330
37
100
AcDbEntity
  8
1
100
AcDbLine
 10
5.670499999999999
 20
4.5
 30
0.0
 11
5.670499999999999
 21
4.437999999999999
 31
0.0
  0
LINE
  5
B8
330
37
100
AcDbEntity
  8
1
100
AcDbLine
 10
5.065499999999999
 20
4.5
 30
0.0
 11
5.173499999999998
 21
4.5
 31
0.0
  0
LINE
  5
B9
330
37
100
AcDbEntity
  8
1
100
AcDbLine
 10
5.065499999999999
 20
4.437999999999999
 30
0.0
 11
5.065499999999999
 21
4.5
 31
0.0
  0
LINE
  5
BA
330
37
100
AcDbEntity
  8
1
100
AcDbLine
 10
5.127499999999999
 20
4.437999999999999
 30
0.0
 11
5.065499999999999
 21
4.437999999999999
 31
0.0
  0
LINE
  5
BB
330
37
100
AcDbEntity
  8
1
100
AcDbLine
 10
5.203499999999999
 20
4.5
 30
0.0
 11
5.670499999999999
 21
4.5
 31
0.0
  0
LINE
  5
BC
330
37
100
AcDbEntity
  8
1
100
AcDbLine
 10
6.513499999999998
 20
4.5
 30
0.0
 11
6.980499999999999
 21
4.5
 31
0.0
  0
LINE
  5
BD
330
37
100
AcDbEntity
  8
1
100
AcDbLine
 10
6.437499999999999
 20
4.437999999999999
 30
0.0
 11
6.375499999999998
 21
4.437999999999999
 31
0.0
  0
LINE
  5
BE
330
37
100
AcDbEntity
  8
1
100
AcDbLine
 10
6.375499999999998
 20
4.437999999999999
 30
0.0
 11
6.375499999999998
 21
4.5
 31
0.0
  0
LINE
  5
BF
330
37
100
AcDbEntity
  8
1
100
AcDbLine
 10
6.375499999999998
 20
4.5
 30
0.0
 11
6.483499999999998
 21
4.5
 31
0.0
  0
LINE
  5
C0
330
37
100
AcDbEntity
  8
1
100
AcDbLine
 10
6.980499999999999
 20
4.5
 30
0.0
 11
6.980499999999999
 21
4.437999999999999
 31
0.0
  0
LINE
  5
C1
330
37
100
AcDbEntity
  8
1
100
AcDbLine
 10
6.940499999999999
 20
4.5
 30
0.0
 11
6.940499999999999
 21
4.437999999999999
 31
0.0
  0
LINE
  5
C2
330
37
100
AcDbEntity
  8
1
100
AcDbLine
 10
6.940499999999999
 20
4.437999999999999
 30
0.0
 11
6.575499999999999
 21
4.437999999999999
 31
0.0
  0
LINE
  5
C3
330
37
100
AcDbEntity
  8
1
100
AcDbLine
 10
6.575499999999999
 20
4.437999999999999
 30
0.0
 11
6.513499999999998
 21
4.5
 31
0.0
  0
LINE
  5
C4
330
37
100
AcDbEntity
  8
1
100
AcDbLine
 10
6.400499999999999
 20
4.484999999999999
 30
0.0
 11
6.400499999999999
 21
4.456753857562439
 31
0.0
  0
LINE
  5
C5
330
37
100
AcDbEntity
  8
1
100
AcDbLine
 10
6.498499999999999
 20
4.484999999999999
 30
0.0
 11
6.400499999999999
 21
4.484999999999999
 31
0.0
  0
LINE
  5
C6
330
37
100
AcDbEntity
  8
1
100
AcDbLine
 10
6.513499999999998
 20
4.5
 30
0.0
 11
6.498499999999999
 21
4.484999999999999
 31
0.0
  0
LINE
  5
C7
330
37
100
AcDbEntity
  8
1
100
AcDbLine
 10
7.486500000000001
 20
4.5
 30
0.0
 11
7.5015
 21
4.484999999999999
 31
0.0
  0
LINE
  5
C8
330
37
100
AcDbEntity
  8
1
100
AcDbLine
 10
7.5015
 20
4.484999999999999
 30
0.0
 11
7.5995
 21
4.484999999999999
 31
0.0
  0
LINE
  5
C9
330
37
100
AcDbEntity
  8
1
100
AcDbLine
 10
7.5995
 20
4.484999999999999
 30
0.0
 11
7.5995
 21
4.456753857562439
 31
0.0
  0
LINE
  5
CA
330
37
100
AcDbEntity
  8
1
100
AcDbLine
 10
7.4245
 20
4.437999999999999
 30
0.0
 11
7.486500000000001
 21
4.5
 31
0.0
  0
LINE
  5
CB
330
37
100
AcDbEntity
  8
1
100
AcDbLine
 10
7.0595
 20
4.437999999999999
 30
0.0
 11
7.4245
 21
4.437999999999999
 31
0.0
  0
LINE
  5
CC
330
37
100
AcDbEntity
  8
1
100
AcDbLine
 10
7.0595
 20
4.5
 30
0.0
 11
7.0595
 21
4.437999999999999
 31
0.0
  0
LINE
  5
CD
330
37
100
AcDbEntity
  8
1
100
AcDbLine
 10
7.0195
 20
4.5
 30
0.0
 11
7.0195
 21
4.437999999999999
 31
0.0
  0
LINE
  5
CE
330
37
100
AcDbEntity
  8
1
100
AcDbLine
 10
7.624500000000001
 20
4.5
 30
0.0
 11
7.516500000000001
 21
4.5
 31
0.0
  0
LINE
  5
CF
330
37
100
AcDbEntity
  8
1
100
AcDbLine
 10
7.624500000000001
 20
4.437999999999999
 30
0.0
 11
7.624500000000001
 21
4.5
 31
0.0
  0
LINE
  5
D0
330
37
100
AcDbEntity
  8
1
100
AcDbLine
 10
7.5625
 20
4.437999999999999
 30
0.0
 11
7.624500000000001
 21
4.437999999999999
 31
0.0
  0
LINE
  5
D1
330
37
100
AcDbEntity
  8
1
100
AcDbLine
 10
7.486500000000001
 20
4.5
 30
0.0
 11
7.0195
 21
4.5
 31
0.0
  0
LINE
  5
D2
330
37
100
AcDbEntity
  8
1
100
AcDbLine
 10
7.486500000000001
 20
1.5625
 30
0.0
 11
7.0195
 21
1.5625
 31
0.0
  0
LINE
  5
D3
330
37
100
AcDbEntity
  8
1
100
AcDbLine
 10
7.5625
 20
1.500499999999999
 30
0.0
 11
7.624500000000001
 21
1.500499999999999
 31
0.0
  0
LINE
  5
D4
330
37
100
AcDbEntity
  8
1
100
AcDbLine
 10
7.624500000000001
 20
1.500499999999999
 30
0.0
 11
7.624500000000001
 21
1.5625
 31
0.0
  0
LINE
  5
D5
330
37
100
AcDbEntity
  8
1
100
AcDbLine
 10
7.624500000000001
 20
1.5625
 30
0.0
 11
7.516500000000001
 21
1.5625
 31
0.0
  0
LINE
  5
D6
330
37
100
AcDbEntity
  8
1
100
AcDbLine
 10
7.0195
 20
1.5625
 30
0.0
 11
7.0195
 21
1.500499999999999
 31
0.0
  0
LINE
  5
D7
330
37
100
AcDbEntity
  8
1
100
AcDbLine
 10
7.0595
 20
1.5625
 30
0.0
 11
7.0595
 21
1.500499999999999
 31
0.0
  0
LINE
  5
D8
330
37
100
AcDbEntity
  8
1
100
AcDbLine
 10
7.0595
 20
1.500499999999999
 30
0.0
 11
7.4245
 21
1.500499999999999
 31
0.0
  0
LINE
  5
D9
330
37
100
AcDbEntity
  8
1
100
AcDbLine
 10
7.4245
 20
1.500499999999999
 30
0.0
 11
7.486500000000001
 21
1.5625
 31
0.0
  0
LINE
  5
DA
330
37
100
AcDbEntity
  8
1
100
AcDbLine
 10
7.5995
 20
1.547499999999999
 30
0.0
 11
7.5995
 21
1.519253857562439
 31
0.0
  0
LINE
  5
DB
330
37
100
AcDbEntity
  8
1
100
AcDbLine
 10
7.5015
 20
1.547499999999999
 30
0.0
 11
7.5995
 21
1.547499999999999
 31
0.0
  0
LINE
  5
DC
330
37
100
AcDbEntity
  8
1
100
AcDbLine
 10
7.486500000000001
 20
1.5625
 30
0.0
 11
7.5015
 21
1.547499999999999
 31
0.0
  0
LINE
  5
DD
330
37
100
AcDbEntity
  8
1
100
AcDbLine
 10
6.513499999999998
 20
1.5625
 30
0.0
 11
6.498499999999999
 21
1.547499999999999
 31
0.0
  0
LINE
  5
DE
330
37
100
AcDbEntity
  8
1
100
AcDbLine
 10
6.498499999999999
 20
1.547499999999999
 30
0.0
 11
6.400499999999999
 21
1.547499999999999
 31
0.0
  0
LINE
  5
DF
330
37
100
AcDbEntity
  8
1
100
AcDbLine
 10
6.400499999999999
 20
1.547499999999999
 30
0.0
 11
6.400499999999999
 21
1.519253857562439
 31
0.0
  0
LINE
  5
E0
330
37
100
AcDbEntity
  8
1
100
AcDbLine
 10
6.575499999999999
 20
1.500499999999999
 30
0.0
 11
6.513499999999998
 21
1.5625
 31
0.0
  0
LINE
  5
E1
330
37
100
AcDbEntity
  8
1
100
AcDbLine
 10
6.940499999999999
 20
1.500499999999999
 30
0.0
 11
6.575499999999999
 21
1.500499999999999
 31
0.0
  0
LINE
  5
E2
330
37
100
AcDbEntity
  8
1
100
AcDbLine
 10
6.940499999999999
 20
1.5625
 30
0.0
 11
6.940499999999999
 21
1.500499999999999
 31
0.0
  0
LINE
  5
E3
330
37
100
AcDbEntity
  8
1
100
AcDbLine
 10
6.980499999999999
 20
1.5625
 30
0.0
 11
6.980499999999999
 21
1.500499999999999
 31
0.0
  0
LINE
  5
E4
330
37
100
AcDbEntity
  8
1
100
AcDbLine
 10
6.375499999999998
 20
1.5625
 30
0.0
 11
6.483499999999998
 21
1.5625
 31
0.0
  0
LINE
  5
E5
330
37
100
AcDbEntity
  8
1
100
AcDbLine
 10
6.375499999999998
 20
1.500499999999999
 30
0.0
 11
6.375499999999998
 21
1.5625
 31
0.0
  0
LINE
  5
E6
330
37
100
AcDbEntity
  8
1
100
AcDbLine
 10
6.437499999999999
 20
1.500499999999999
 30
0.0
 11
6.375499999999998
 21
1.500499999999999
 31
0.0
  0
LINE
  5
E7
330
37
100
AcDbEntity
  8
1
100
AcDbLine
 10
6.513499999999998
 20
1.5625
 30
0.0
 11
6.980499999999999
 21
1.5625
 31
0.0
  0
LINE
  5
E8
330
37
100
AcDbEntity
  8
1
100
AcDbLine
 10
5.203499999999999
 20
1.5625
 30
0.0
 11
5.670499999999999
 21
1.5625
 31
0.0
  0
LINE
  5
E9
330
37
100
AcDbEntity
  8
1
100
AcDbLine
 10
5.127499999999999
 20
1.500499999999999
 30
0.0
 11
5.065499999999999
 21
1.500499999999999
 31
0.0
  0
LINE
  5
EA
330
37
100
AcDbEntity
  8
1
100
AcDbLine
 10
5.065499999999999
 20
1.500499999999999
 30
0.0
 11
5.065499999999999
 21
1.5625
 31
0.0
  0
LINE
  5
EB
330
37
100
AcDbEntity
  8
1
100
AcDbLine
 10
5.065499999999999
 20
1.5625
 30
0.0
 11
5.173499999999998
 21
1.5625
 31
0.0
  0
LINE
  5
EC
330
37
100
AcDbEntity
  8
1
100
AcDbLine
 10
5.670499999999999
 20
1.5625
 30
0.0
 11
5.670499999999999
 21
1.500499999999999
 31
0.0
  0
LINE
  5
ED
330
37
100
AcDbEntity
  8
1
100
AcDbLine
 10
5.630499999999999
 20
1.5625
 30
0.0
 11
5.630499999999999
 21
1.500499999999999
 31
0.0
  0
LINE
  5
EE
330
37
100
AcDbEntity
  8
1
100
AcDbLine
 10
5.630499999999999
 20
1.500499999999999
 30
0.0
 11
5.265499999999999
 21
1.500499999999999
 31
0.0
  0
LINE
  5
EF
330
37
100
AcDbEntity
  8
1
100
AcDbLine
 10
5.265499999999999
 20
1.500499999999999
 30
0.0
 11
5.203499999999999
 21
1.5625
 31
0.0
  0
LINE
  5
F0
330
37
100
AcDbEntity
  8
1
100
AcDbLine
 10
5.090499999999999
 20
1.547499999999999
 30
0.0
 11
5.090499999999999
 21
1.519253857562439
 31
0.0
  0
LINE
  5
F1
330
37
100
AcDbEntity
  8
1
100
AcDbLine
 10
5.188499999999999
 20
1.547499999999999
 30
0.0
 11
5.090499999999999
 21
1.547499999999999
 31
0.0
  0
LINE
  5
F2
330
37
100
AcDbEntity
  8
1
100
AcDbLine
 10
5.203499999999999
 20
1.5625
 30
0.0
 11
5.188499999999999
 21
1.547499999999999
 31
0.0
  0
LINE
  5
F3
330
37
100
AcDbEntity
  8
1
100
AcDbLine
 10
5.75
 20
1.875
 30
0.0
 11
5.937999999999999
 21
2.062999999999999
 31
0.0
  0
LINE
  5
F4
330
37
100
AcDbEntity
  8
1
100
AcDbLine
 10
5.75
 20
1.75
 30
0.0
 11
5.937999999999999
 21
1.937999999999999
 31
0.0
  0
LINE
  5
F5
330
37
100
AcDbEntity
  8
4
100
AcDbLine
 10
5.065
 20
0.9379999999999999
 30
0.0
 11
5.065
 21
1.125999999999999
 31
0.0
  0
LINE
  5
F6
330
37
100
AcDbEntity
  8
4
100
AcDbLine
 10
5.69
 20
0.9379999999999999
 30
0.0
 11
5.69
 21
1.125999999999999
 31
0.0
  0
LINE
  5
F7
330
37
100
AcDbEntity
  8
4
100
AcDbLine
 10
5.75
 20
0.9379999999999999
 30
0.0
 11
5.75
 21
1.125999999999999
 31
0.0
  0
LINE
  5
F8
330
37
100
AcDbEntity
  8
4
100
AcDbLine
 10
6.375
 20
0.9379999999999999
 30
0.0
 11
6.375
 21
1.125999999999999
 31
0.0
  0
LINE
  5
F9
330
37
100
AcDbEntity
  8
4
100
AcDbLine
 10
7.625
 20
0.9379999999999999
 30
0.0
 11
7.625
 21
1.125999999999999
 31
0.0
  0
ENDBLK
  5
FB
330
37
100
AcDbEntity
  8
0
100
AcDbBlockEnd
  0
BLOCK
  5
110
330
FF
100
AcDbEntity
  8
2
100
AcDbBlockBegin
  2
LE029
 70
     0
 10
0.0
 20
0.0
 30
0.0
  3
LE029
  1

  0
LINE
  5
100
330
FF
100
AcDbEntity
  8
4
100
AcDbLine
 10
0.0000000000000002
 20
0.0
 30
0.0
 11
0.0187500000000003
 21
0.0374999999999997
 31
0.0
  0
LINE
  5
101
330
FF
100
AcDbEntity
  8
4
100
AcDbLine
 10
0.0187500000000003
 20
0.0374999999999997
 30
0.0
 11
0.0375000000000003
 21
0.0
 31
0.0
  0
LINE
  5
102
330
FF
100
AcDbEntity
  8
4
100
AcDbLine
 10
0.0000000000000002
 20
0.0
 30
0.0
 11
0.0187500000000003
 21
-0.0374999999999997
 31
0.0
  0
LINE
  5
103
330
FF
100
AcDbEntity
  8
4
100
AcDbLine
 10
0.0187500000000003
 20
-0.0374999999999997
 30
0.0
 11
0.0375000000000003
 21
0.0
 31
0.0
  0
LINE
  5
104
330
FF
100
AcDbEntity
  8
4
100
AcDbLine
 10
0.0437500000000002
 20
-0.0954999999999995
 30
0.0
 11
0.0625000000000002
 21
-0.0579999999999998
 31
0.0
  0
LINE
  5
105
330
FF
100
AcDbEntity
  8
4
100
AcDbLine
 10
0.0250000000000001
 20
-0.0579999999999998
 30
0.0
 11
0.0437500000000002
 21
-0.0954999999999995
 31
0.0
  0
LINE
  5
106
330
FF
100
AcDbEntity
  8
4
100
AcDbLine
 10
0.0437500000000002
 20
-0.0205000000000002
 30
0.0
 11
0.0625000000000002
 21
-0.0579999999999998
 31
0.0
  0
LINE
  5
107
330
FF
100
AcDbEntity
  8
4
100
AcDbLine
 10
0.0250000000000001
 20
-0.0579999999999998
 30
0.0
 11
0.0437500000000002
 21
-0.0205000000000002
 31
0.0
  0
LINE
  5
108
330
FF
100
AcDbEntity
  8
4
100
AcDbLine
 10
0.2749999999999999
 20
-0.0579999999999998
 30
0.0
 11
0.29375
 21
-0.0205000000000002
 31
0.0
  0
LINE
  5
109
330
FF
100
AcDbEntity
  8
4
100
AcDbLine
 10
0.29375
 20
-0.0205000000000002
 30
0.0
 11
0.3125
 21
-0.0579999999999998
 31
0.0
  0
LINE
  5
10A
330
FF
100
AcDbEntity
  8
4
100
AcDbLine
 10
0.2749999999999999
 20
-0.0579999999999998
 30
0.0
 11
0.29375
 21
-0.0954999999999995
 31
0.0
  0
LINE
  5
10B
330
FF
100
AcDbEntity
  8
4
100
AcDbLine
 10
0.29375
 20
-0.0954999999999995
 30
0.0
 11
0.3125
 21
-0.0579999999999998
 31
0.0
  0
LINE
  5
10C
330
FF
100
AcDbEntity
  8
4
100
AcDbLine
 10
0.26875
 20
-0.0374999999999997
 30
0.0
 11
0.2875000000000001
 21
0.0
 31
0.0
  0
LINE
  5
10D
330
FF
100
AcDbEntity
  8
4
100
AcDbLine
 10
0.25
 20
0.0
 30
0.0
 11
0.26875
 21
-0.0374999999999997
 31
0.0
  0
LINE
  5
10E
330
FF
100
AcDbEntity
  8
4
100
AcDbLine
 10
0.26875
 20
0.0374999999999997
 30
0.0
 11
0.2875000000000001
 21
0.0
 31
0.0
  0
LINE
  5
10F
330
FF
100
AcDbEntity
  8
4
100
AcDbLine
 10
0.25
 20
0.0
 30
0.0
 11
0.26875
 21
0.0374999999999997
 31
0.0
  0
ENDBLK
  5
111
330
FF
100
AcDbEntity
  8
2
100
AcDbBlockEnd
  0
BLOCK
  5
115
330
112
100
AcDbEntity
  8
8
100
AcDbBlockBegin
  2
TEMP3
 70
     0
 10
0.0
 20
0.0
 30
0.0
  3
TEMP3
  1

  0
TEXT
  5
113
330
112
100
AcDbEntity
  8
8
100
AcDbText
 10
0.03
 20
0.0619999999999998
 30
0.0
 40
0.07
  1
HANDLE & P/A
 50
90.0
  7
ROMANS
100
AcDbText
  0
TEXT
  5
114
330
112
100
AcDbEntity
  8
8
100
AcDbText
 10
0.03
 20
-1.33310960351371
 30
0.0
 40
0.07
  1
LOCK ESCUTCHEON
 50
90.0
  7
ROMANS
 72
     2
 11
0.03
 21
-0.3264429368470441
 31
0.0
100
AcDbText
  0
ENDBLK
  5
116
330
112
100
AcDbEntity
  8
8
100
AcDbBlockEnd
  0
BLOCK
  5
14E
330
117
100
AcDbEntity
  8
2
100
AcDbBlockBegin
  2
LE038
 70
     0
 10
0.0
 20
0.0
 30
0.0
  3
LE038
  1

  0
LINE
  5
118
330
117
100
AcDbEntity
  8
4
100
AcDbLine
 10
1.687
 20
3.944
 30
0.0
 11
2.188
 21
3.944
 31
0.0
  0
LINE
  5
119
330
117
100
AcDbEntity
  8
4
100
AcDbLine
 10
2.937
 20
3.944
 30
0.0
 11
3.437999999999999
 21
3.944
 31
0.0
  0
LINE
  5
11A
330
117
100
AcDbEntity
  8
4
100
AcDbLine
 10
2.312
 20
3.944
 30
0.0
 11
2.5
 21
3.944
 31
0.0
  0
LINE
  5
11B
330
117
100
AcDbEntity
  8
4
100
AcDbLine
 10
2.625
 20
3.944
 30
0.0
 11
2.812999999999999
 21
3.944
 31
0.0
  0
LINE
  5
11C
330
117
100
AcDbEntity
  8
4
100
AcDbLine
 10
1.687
 20
4.006
 30
0.0
 11
2.188
 21
4.006
 31
0.0
  0
LINE
  5
11D
330
117
100
AcDbEntity
  8
4
100
AcDbLine
 10
2.312
 20
4.006
 30
0.0
 11
2.5
 21
4.006
 31
0.0
  0
LINE
  5
11E
330
117
100
AcDbEntity
  8
4
100
AcDbLine
 10
2.625
 20
4.006
 30
0.0
 11
2.812999999999999
 21
4.006
 31
0.0
  0
LINE
  5
11F
330
117
100
AcDbEntity
  8
4
100
AcDbLine
 10
2.937
 20
4.006
 30
0.0
 11
3.437999999999999
 21
4.006
 31
0.0
  0
LINE
  5
120
330
117
100
AcDbEntity
  8
4
100
AcDbLine
 10
1.905
 20
3.907
 30
0.0
 11
1.967
 21
3.907
 31
0.0
  0
LINE
  5
121
330
117
100
AcDbEntity
  8
4
100
AcDbLine
 10
1.967
 20
3.907
 30
0.0
 11
1.967
 21
3.845
 31
0.0
  0
LINE
  5
122
330
117
100
AcDbEntity
  8
4
100
AcDbLine
 10
1.905
 20
3.907
 30
0.0
 11
1.905
 21
3.845
 31
0.0
  0
LINE
  5
123
330
117
100
AcDbEntity
  8
4
100
AcDbLine
 10
3.155
 20
3.907
 30
0.0
 11
3.155
 21
3.845
 31
0.0
  0
LINE
  5
124
330
117
100
AcDbEntity
  8
4
100
AcDbLine
 10
3.217
 20
3.907
 30
0.0
 11
3.217
 21
3.845
 31
0.0
  0
LINE
  5
125
330
117
100
AcDbEntity
  8
4
100
AcDbLine
 10
3.155
 20
3.907
 30
0.0
 11
3.217
 21
3.907
 31
0.0
  0
ARC
  5
126
330
117
100
AcDbEntity
  8
4
100
AcDbCircle
 10
1.712
 20
3.844
 30
0.0
 40
0.025
100
AcDbArc
 50
180.0
 51
0.0
  0
ARC
  5
127
330
117
100
AcDbEntity
  8
4
100
AcDbCircle
 10
2.163
 20
3.844
 30
0.0
 40
0.025
100
AcDbArc
 50
180.0
 51
0.0
  0
ARC
  5
128
330
117
100
AcDbEntity
  8
4
100
AcDbCircle
 10
2.337
 20
3.844
 30
0.0
 40
0.025
100
AcDbArc
 50
180.0
 51
0.0
  0
ARC
  5
129
330
117
100
AcDbEntity
  8
4
100
AcDbCircle
 10
2.787999999999999
 20
3.844
 30
0.0
 40
0.025
100
AcDbArc
 50
180.0
 51
0.0
  0
ARC
  5
12A
330
117
100
AcDbEntity
  8
4
100
AcDbCircle
 10
2.962
 20
3.844
 30
0.0
 40
0.025
100
AcDbArc
 50
180.0
 51
0.0
  0
ARC
  5
12B
330
117
100
AcDbEntity
  8
4
100
AcDbCircle
 10
3.412999999999999
 20
3.844
 30
0.0
 40
0.025
100
AcDbArc
 50
180.0
 51
0.0
  0
ARC
  5
12C
330
117
100
AcDbEntity
  8
4
100
AcDbCircle
 10
5.645500000000001
 20
3.844
 30
0.0
 40
0.025
100
AcDbArc
 50
180.0
 51
0.0
  0
LINE
  5
12D
330
117
100
AcDbEntity
  8
4
100
AcDbLine
 10
5.6705
 20
3.844
 30
0.0
 11
5.6705
 21
3.894
 31
0.0
  0
LINE
  5
12E
330
117
100
AcDbEntity
  8
4
100
AcDbLine
 10
5.357479890102485
 20
3.907
 30
0.0
 11
5.419479890102484
 21
3.907
 31
0.0
  0
LINE
  5
12F
330
117
100
AcDbEntity
  8
4
100
AcDbLine
 10
5.388479890102485
 20
3.907
 30
0.0
 11
5.388479890102485
 21
3.845
 31
0.0
  0
LINE
  5
130
330
117
100
AcDbEntity
  8
4
100
AcDbLine
 10
5.6705
 20
3.944
 30
0.0
 11
5.6705
 21
4.006
 31
0.0
  0
LINE
  5
131
330
117
100
AcDbEntity
  8
4
100
AcDbLine
 10
5.6705
 20
4.006
 30
0.0
 11
5.1705
 21
4.006
 31
0.0
  0
LINE
  5
132
330
117
100
AcDbEntity
  8
4
100
AcDbLine
 10
5.1705
 20
4.006
 30
0.0
 11
5.1705
 21
3.944
 31
0.0
  0
LINE
  5
133
330
117
100
AcDbEntity
  8
4
100
AcDbLine
 10
5.1705
 20
3.944
 30
0.0
 11
5.2015
 21
3.975
 31
0.0
  0
LINE
  5
134
330
117
100
AcDbEntity
  8
4
100
AcDbLine
 10
5.0025
 20
4.006
 30
0.0
 11
4.8125
 21
4.006
 31
0.0
  0
LINE
  5
135
330
117
100
AcDbEntity
  8
4
100
AcDbLine
 10
4.8125
 20
4.006
 30
0.0
 11
4.750499999999999
 21
4.006
 31
0.0
  0
INSERT
  5
136
330
117
100
AcDbEntity
  8
4
100
AcDbBlockReference
  2
ARRO2
 10
4.8125
 20
4.006
 30
0.0
 50
90.0
  0
LINE
  5
137
330
117
100
AcDbEntity
  8
4
100
AcDbLine
 10
4.8125
 20
4.5
 30
0.0
 11
4.8125
 21
1.562
 31
0.0
  0
LINE
  5
138
330
117
100
AcDbEntity
  8
4
100
AcDbLine
 10
4.8125
 20
1.5
 30
0.0
 11
4.8125
 21
1.375
 31
0.0
  0
LINE
  5
139
330
117
100
AcDbEntity
  8
4
100
AcDbLine
 10
5.0025
 20
1.562
 30
0.0
 11
4.8125
 21
1.562
 31
0.0
  0
LINE
  5
13A
330
117
100
AcDbEntity
  8
4
100
AcDbLine
 10
4.8125
 20
1.562
 30
0.0
 11
4.750499999999999
 21
1.562
 31
0.0
  0
INSERT
  5
13B
330
117
100
AcDbEntity
  8
4
100
AcDbBlockReference
  2
ARRO
 10
4.8125
 20
1.562
 30
0.0
 50
90.0
  0
INSERT
  5
13C
330
117
100
AcDbEntity
  8
4
100
AcDbBlockReference
  2
ARRO
 10
4.8125
 20
1.5
 30
0.0
 50
270.0
  0
INSERT
  5
13D
330
117
100
AcDbEntity
  8
4
100
AcDbBlockReference
  2
ARRO
 10
4.8125
 20
4.5
 30
0.0
 50
270.0
  0
LINE
  5
13E
330
117
100
AcDbEntity
  8
4
100
AcDbLine
 10
6.4805
 20
3.944
 30
0.0
 11
6.511499999999999
 21
3.975
 31
0.0
  0
LINE
  5
13F
330
117
100
AcDbEntity
  8
4
100
AcDbLine
 10
6.4805
 20
4.006
 30
0.0
 11
6.4805
 21
3.944
 31
0.0
  0
LINE
  5
140
330
117
100
AcDbEntity
  8
4
100
AcDbLine
 10
6.9805
 20
4.006
 30
0.0
 11
6.4805
 21
4.006
 31
0.0
  0
LINE
  5
141
330
117
100
AcDbEntity
  8
4
100
AcDbLine
 10
6.9805
 20
3.944
 30
0.0
 11
6.9805
 21
4.006
 31
0.0
  0
LINE
  5
142
330
117
100
AcDbEntity
  8
4
100
AcDbLine
 10
6.698479890102484
 20
3.907
 30
0.0
 11
6.698479890102484
 21
3.845
 31
0.0
  0
LINE
  5
143
330
117
100
AcDbEntity
  8
4
100
AcDbLine
 10
6.667479890102485
 20
3.907
 30
0.0
 11
6.729479890102484
 21
3.907
 31
0.0
  0
LINE
  5
144
330
117
100
AcDbEntity
  8
4
100
AcDbLine
 10
6.9805
 20
3.844
 30
0.0
 11
6.9805
 21
3.894
 31
0.0
  0
ARC
  5
145
330
117
100
AcDbEntity
  8
4
100
AcDbCircle
 10
6.9555
 20
3.844
 30
0.0
 40
0.025
100
AcDbArc
 50
180.0
 51
0.0
  0
ARC
  5
146
330
117
100
AcDbEntity
  8
4
100
AcDbCircle
 10
7.0445
 20
3.844
 30
0.0
 40
0.025
100
AcDbArc
 50
180.0
 51
0.0
  0
LINE
  5
147
330
117
100
AcDbEntity
  8
4
100
AcDbLine
 10
7.0195
 20
3.844
 30
0.0
 11
7.0195
 21
3.894
 31
0.0
  0
LINE
  5
148
330
117
100
AcDbEntity
  8
4
100
AcDbLine
 10
7.332520109897515
 20
3.907
 30
0.0
 11
7.270520109897516
 21
3.907
 31
0.0
  0
LINE
  5
149
330
117
100
AcDbEntity
  8
4
100
AcDbLine
 10
7.301520109897515
 20
3.907
 30
0.0
 11
7.301520109897515
 21
3.845
 31
0.0
  0
LINE
  5
14A
330
117
100
AcDbEntity
  8
4
100
AcDbLine
 10
7.0195
 20
3.944
 30
0.0
 11
7.0195
 21
4.006
 31
0.0
  0
LINE
  5
14B
330
117
100
AcDbEntity
  8
4
100
AcDbLine
 10
7.0195
 20
4.006
 30
0.0
 11
7.5195
 21
4.006
 31
0.0
  0
LINE
  5
14C
330
117
100
AcDbEntity
  8
4
100
AcDbLine
 10
7.5195
 20
4.006
 30
0.0
 11
7.5195
 21
3.944
 31
0.0
  0
LINE
  5
14D
330
117
100
AcDbEntity
  8
4
100
AcDbLine
 10
7.5195
 20
3.944
 30
0.0
 11
7.488500000000001
 21
3.975
 31
0.0
  0
ENDBLK
  5
14F
330
117
100
AcDbEntity
  8
2
100
AcDbBlockEnd
  0
BLOCK
  5
15B
330
150
100
AcDbEntity
  8
2
100
AcDbBlockBegin
  2
ARRO2
 70
     0
 10
0.0
 20
0.0
 30
0.0
  3
ARRO2
  1

  0
LINE
  5
151
330
150
100
AcDbEntity
  8
4
100
AcDbLine
 10
-0.124999999999992
 20
-0.0200000000000005
 30
0.0
 11
0.000000000000008
 21
-0.0000000000000009
 31
0.0
  0
LINE
  5
152
330
150
100
AcDbEntity
  8
4
100
AcDbLine
 10
0.000000000000008
 20
-0.0000000000000009
 30
0.0
 11
-0.124999999999992
 21
0.0199999999999996
 31
0.0
  0
LINE
  5
153
330
150
100
AcDbEntity
  8
4
100
AcDbLine
 10
-0.124999999999992
 20
-0.0099999999999998
 30
0.0
 11
0.000000000000008
 21
-0.0000000000000009
 31
0.0
  0
LINE
  5
154
330
150
100
AcDbEntity
  8
4
100
AcDbLine
 10
-0.124999999999992
 20
0.0099999999999998
 30
0.0
 11
0.0000000000000089
 21
-0.0000000000000009
 31
0.0
  0
LINE
  5
155
330
150
100
AcDbEntity
  8
4
100
AcDbLine
 10
-0.124999999999992
 20
-0.0200000000000005
 30
0.0
 11
-0.124999999999992
 21
0.0199999999999996
 31
0.0
  0
LINE
  5
156
330
150
100
AcDbEntity
  8
4
100
AcDbLine
 10
0.1250000000000124
 20
0.0199999999999987
 30
0.0
 11
0.1250000000000124
 21
-0.0200000000000014
 31
0.0
  0
LINE
  5
157
330
150
100
AcDbEntity
  8
4
100
AcDbLine
 10
0.1250000000000124
 20
-0.0100000000000016
 30
0.0
 11
0.0000000000000115
 21
-0.0000000000000009
 31
0.0
  0
LINE
  5
158
330
150
100
AcDbEntity
  8
4
100
AcDbLine
 10
0.1250000000000124
 20
0.009999999999998
 30
0.0
 11
0.0000000000000124
 21
-0.0000000000000009
 31
0.0
  0
LINE
  5
159
330
150
100
AcDbEntity
  8
4
100
AcDbLine
 10
0.0000000000000124
 20
-0.0000000000000009
 30
0.0
 11
0.1250000000000124
 21
-0.0200000000000014
 31
0.0
  0
LINE
  5
15A
330
150
100
AcDbEntity
  8
4
100
AcDbLine
 10
0.1250000000000124
 20
0.0199999999999987
 30
0.0
 11
0.0000000000000124
 21
-0.0000000000000009
 31
0.0
  0
ENDBLK
  5
15C
330
150
100
AcDbEntity
  8
2
100
AcDbBlockEnd
  0
BLOCK
  5
1F1
330
15F
100
AcDbEntity
  8
0
100
AcDbBlockBegin
  2
Le1036
 70
     0
 10
0.0
 20
0.0
 30
0.0
  3
Le1036
  1

  0
INSERT
  5
160
330
15F
100
AcDbEntity
  8
2
100
AcDbBlockReference
  2
LE038
 10
0.0
 20
0.0
 30
0.0
  0
TEXT
  5
161
330
15F
100
AcDbEntity
  8
8
100
AcDbText
 10
4.500499999999999
 20
2.226501010199363
 30
0.0
 40
0.07
  1
60
 50
90.0
 72
     1
 11
4.500499999999999
 21
2.279001010199363
 31
0.0
100
AcDbText
  0
TEXT
  5
162
330
15F
100
AcDbEntity
  8
8
100
AcDbText
 10
4.750499999999999
 20
4.208602268428435
 30
0.0
 40
0.07
  1
12
 50
90.0
 72
     1
 11
4.750499999999999
 21
4.255268935095102
 31
0.0
100
AcDbText
  0
TEXT
  5
163
330
15F
100
AcDbEntity
  8
8
100
AcDbText
 10
4.750499999999999
 20
2.749668687065395
 30
0.0
 40
0.07
  1
47
 50
90.0
 72
     1
 11
4.750499999999999
 21
2.808002020398728
 31
0.0
100
AcDbText
  0
TEXT
  5
164
330
15F
100
AcDbEntity
  8
8
100
AcDbText
 10
4.750499999999999
 20
1.738333333333333
 30
0.0
 40
0.07
  1
1
 50
90.0
 72
     1
 11
4.750499999999999
 21
1.75
 31
0.0
100
AcDbText
  0
CIRCLE
  5
165
330
15F
100
AcDbEntity
  8
4
100
AcDbCircle
 10
1.207234055463451
 20
2.987899612332098
 30
0.0
 40
0.023
  0
LWPOLYLINE
  5
166
330
15F
100
AcDbEntity
  8
4
100
AcDbPolyline
 90
        2
 70
     1
 43
0.01
 10
1.202234055463451
 20
3.040399612332097
 42
1.0
 10
1.212234055463451
 20
3.040399612332097
 42
1.0
  0
LWPOLYLINE
  5
167
330
15F
100
AcDbEntity
  8
4
100
AcDbPolyline
 90
        2
 70
     1
 43
0.01
 10
1.202234055463451
 20
2.935399612332097
 42
1.0
 10
1.212234055463451
 20
2.935399612332097
 42
1.0
  0
INSERT
  5
168
330
15F
100
AcDbEntity
  8
8
100
AcDbBlockReference
  2
TEMP3
 10
0.5859118825233172
 20
3.190678671058805
 30
0.0
  0
TEXT
  5
169
330
15F
100
AcDbEntity
  8
8
100
AcDbText
 10
1.547619047619047
 20
0.094
 30
0.0
 40
0.125
  1
HEAVY DUTY VENTILATED LOCKER - 60" SINGLE TIER
  7
ROMANS
 72
     1
 11
4.125
 21
0.094
 31
0.0
100
AcDbText
  0
LINE
  5
16A
330
15F
100
AcDbEntity
  8
4
100
AcDbLine
 10
1.192234055463451
 20
3.107882967972701
 30
0.0
 11
1.192234055463451
 21
3.154882967972701
 31
0.0
  0
LINE
  5
16B
330
15F
100
AcDbEntity
  8
4
100
AcDbLine
 10
1.222234055463451
 20
3.107882967972701
 30
0.0
 11
1.192234055463451
 21
3.107882967972701
 31
0.0
  0
LINE
  5
16C
330
15F
100
AcDbEntity
  8
4
100
AcDbLine
 10
1.222234055463451
 20
3.154882967972701
 30
0.0
 11
1.222234055463451
 21
3.107882967972701
 31
0.0
  0
LINE
  5
16D
330
15F
100
AcDbEntity
  8
4
100
AcDbLine
 10
1.129904527520149
 20
3.154882967972701
 30
0.0
 11
1.284563583406752
 21
3.154882967972701
 31
0.0
  0
LINE
  5
16E
330
15F
100
AcDbEntity
  8
4
100
AcDbLine
 10
1.284563583406752
 20
3.154882967972701
 30
0.0
 11
1.255737137125761
 21
2.882382967972701
 31
0.0
  0
LINE
  5
16F
330
15F
100
AcDbEntity
  8
4
100
AcDbLine
 10
1.158730973801141
 20
2.8823829679727
 30
0.0
 11
1.255737137125761
 21
2.882382967972701
 31
0.0
  0
LINE
  5
170
330
15F
100
AcDbEntity
  8
4
100
AcDbLine
 10
1.129904527520149
 20
3.154882967972701
 30
0.0
 11
1.158730973801141
 21
2.882382967972701
 31
0.0
  0
LINE
  5
171
330
15F
100
AcDbEntity
  8
4
100
AcDbLine
 10
1.145234055463451
 20
2.867382967972701
 30
0.0
 11
1.269234055463451
 21
2.867382967972701
 31
0.0
  0
LINE
  5
172
330
15F
100
AcDbEntity
  8
4
100
AcDbLine
 10
1.113234055463451
 20
3.169882967972701
 30
0.0
 11
1.145234055463451
 21
2.867382967972701
 31
0.0
  0
LINE
  5
173
330
15F
100
AcDbEntity
  8
4
100
AcDbLine
 10
1.301234055463451
 20
3.169882967972701
 30
0.0
 11
1.269234055463451
 21
2.867382967972701
 31
0.0
  0
LINE
  5
174
330
15F
100
AcDbEntity
  8
4
100
AcDbLine
 10
1.113234055463451
 20
3.169882967972701
 30
0.0
 11
1.301234055463451
 21
3.169882967972701
 31
0.0
  0
LINE
  5
175
330
15F
100
AcDbEntity
  8
4
100
AcDbLine
 10
5.0655
 20
1.594
 30
0.0
 11
5.1275
 21
1.594
 31
0.0
  0
LINE
  5
176
330
15F
100
AcDbEntity
  8
4
100
AcDbLine
 10
6.375499999999999
 20
1.594
 30
0.0
 11
6.4375
 21
1.594
 31
0.0
  0
LINE
  5
177
330
15F
100
AcDbEntity
  8
4
100
AcDbLine
 10
7.6245
 20
1.594
 30
0.0
 11
7.5625
 21
1.594
 31
0.0
  0
LINE
  5
178
330
15F
100
AcDbEntity
  8
4
100
AcDbLine
 10
5.065499999999999
 20
4.406
 30
0.0
 11
5.127499999999999
 21
4.406
 31
0.0
  0
LINE
  5
179
330
15F
100
AcDbEntity
  8
4
100
AcDbLine
 10
6.375499999999998
 20
4.406
 30
0.0
 11
6.437499999999999
 21
4.406
 31
0.0
  0
LINE
  5
17A
330
15F
100
AcDbEntity
  8
4
100
AcDbLine
 10
7.624500000000001
 20
4.406
 30
0.0
 11
7.5625
 21
4.406
 31
0.0
  0
LINE
  5
17B
330
15F
100
AcDbEntity
  8
4
100
AcDbLine
 10
7.6245
 20
4.406
 30
0.0
 11
7.6245
 21
1.594
 31
0.0
  0
LINE
  5
17C
330
15F
100
AcDbEntity
  8
4
100
AcDbLine
 10
6.375499999999999
 20
4.406
 30
0.0
 11
6.375499999999999
 21
1.594
 31
0.0
  0
LINE
  5
17D
330
15F
100
AcDbEntity
  8
4
100
AcDbLine
 10
5.0655
 20
4.406
 30
0.0
 11
5.0655
 21
1.594
 31
0.0
  0
LINE
  5
17E
330
15F
100
AcDbEntity
  8
4
100
AcDbLine
 10
1.094
 20
1.594
 30
0.0
 11
1.094
 21
4.406
 31
0.0
  0
LINE
  5
17F
330
15F
100
AcDbEntity
  8
4
100
AcDbLine
 10
1.094
 20
4.406
 30
0.0
 11
1.531
 21
4.406
 31
0.0
  0
LINE
  5
180
330
15F
100
AcDbEntity
  8
4
100
AcDbLine
 10
1.531
 20
4.406
 30
0.0
 11
1.530999999999999
 21
1.594
 31
0.0
  0
LINE
  5
181
330
15F
100
AcDbEntity
  8
4
100
AcDbLine
 10
1.530999999999999
 20
1.594
 30
0.0
 11
1.094
 21
1.594
 31
0.0
  0
LINE
  5
182
330
15F
100
AcDbEntity
  8
4
100
AcDbLine
 10
1.541
 20
4.156
 30
0.0
 11
1.541
 21
4.031
 31
0.0
  0
LINE
  5
183
330
15F
100
AcDbEntity
  8
4
100
AcDbLine
 10
1.541
 20
3.062
 30
0.0
 11
1.541
 21
2.937
 31
0.0
  0
LINE
  5
184
330
15F
100
AcDbEntity
  8
4
100
AcDbLine
 10
1.540999999999999
 20
1.968
 30
0.0
 11
1.540999999999999
 21
1.843
 31
0.0
  0
LINE
  5
185
330
15F
100
AcDbEntity
  8
4
100
AcDbLine
 10
0.9609118825233171
 20
3.128678671058805
 30
0.0
 11
0.5859118825233172
 21
3.128678671058805
 31
0.0
  0
LINE
  5
186
330
15F
100
AcDbEntity
  8
4
100
AcDbLine
 10
0.5859118825233172
 20
3.128678671058805
 30
0.0
 11
0.5859118825233172
 21
3.190678671058805
 31
0.0
  0
LINE
  5
187
330
15F
100
AcDbEntity
  8
4
100
AcDbLine
 10
0.9609118825233171
 20
2.988235734211761
 30
0.0
 11
0.5859118825233172
 21
2.988235734211761
 31
0.0
  0
LINE
  5
188
330
15F
100
AcDbEntity
  8
4
100
AcDbLine
 10
0.5859118825233172
 20
2.988235734211761
 30
0.0
 11
0.5859118825233172
 21
2.926235734211761
 31
0.0
  0
INSERT
  5
189
330
15F
100
AcDbEntity
  8
4
100
AcDbBlockReference
  2
ARRO
 10
0.9609118825233171
 20
3.128678671058805
 30
0.0
 50
180.0
  0
INSERT
  5
18A
330
15F
100
AcDbEntity
  8
4
100
AcDbBlockReference
  2
ARRO
 10
0.9609118825233171
 20
2.988235734211761
 30
0.0
 50
180.0
  0
LINE
  5
18B
330
15F
100
AcDbEntity
  8
2
100
AcDbLine
 10
7.425935503170872
 20
2.448533748315918
 30
0.0
 11
7.425935503170872
 21
2.173925926908309
 31
0.0
  0
LINE
  5
18C
330
15F
100
AcDbEntity
  8
2
100
AcDbLine
 10
7.113435503170872
 20
2.506533748315918
 30
0.0
 11
7.113435503170872
 21
2.231925926908309
 31
0.0
  0
LINE
  5
18D
330
15F
100
AcDbEntity
  8
2
100
AcDbLine
 10
7.157185503170871
 20
2.136425926908309
 30
0.0
 11
7.407185503170871
 21
2.136425926908309
 31
0.0
  0
LINE
  5
18E
330
15F
100
AcDbEntity
  8
2
100
AcDbLine
 10
7.132185503170872
 20
2.544033748315918
 30
0.0
 11
7.382185503170871
 21
2.544033748315917
 31
0.0
  0
LINE
  5
18F
330
15F
100
AcDbEntity
  8
2
100
AcDbLine
 10
6.886935503170871
 20
2.448533748315918
 30
0.0
 11
6.886935503170871
 21
2.173925926908309
 31
0.0
  0
LINE
  5
190
330
15F
100
AcDbEntity
  8
2
100
AcDbLine
 10
6.574435503170871
 20
2.506533748315918
 30
0.0
 11
6.574435503170871
 21
2.231925926908309
 31
0.0
  0
LINE
  5
191
330
15F
100
AcDbEntity
  8
2
100
AcDbLine
 10
6.61818550317087
 20
2.136425926908309
 30
0.0
 11
6.86818550317087
 21
2.136425926908309
 31
0.0
  0
LINE
  5
192
330
15F
100
AcDbEntity
  8
2
100
AcDbLine
 10
6.593185503170872
 20
2.544033748315918
 30
0.0
 11
6.843185503170871
 21
2.544033748315917
 31
0.0
  0
LINE
  5
193
330
15F
100
AcDbEntity
  8
2
100
AcDbLine
 10
5.283185503170872
 20
2.544033748315918
 30
0.0
 11
5.533185503170871
 21
2.544033748315917
 31
0.0
  0
LINE
  5
194
330
15F
100
AcDbEntity
  8
2
100
AcDbLine
 10
5.308185503170871
 20
2.136425926908309
 30
0.0
 11
5.558185503170871
 21
2.136425926908309
 31
0.0
  0
LINE
  5
195
330
15F
100
AcDbEntity
  8
2
100
AcDbLine
 10
5.264435503170871
 20
2.506533748315918
 30
0.0
 11
5.264435503170871
 21
2.231925926908309
 31
0.0
  0
LINE
  5
196
330
15F
100
AcDbEntity
  8
2
100
AcDbLine
 10
5.576935503170871
 20
2.448533748315918
 30
0.0
 11
5.576935503170871
 21
2.173925926908309
 31
0.0
  0
INSERT
  5
197
330
15F
100
AcDbEntity
  8
2
100
AcDbBlockReference
  2
LE029
 10
5.264435503170871
 20
2.506533748315918
 30
0.0
  0
INSERT
  5
198
330
15F
100
AcDbEntity
  8
2
100
AcDbBlockReference
  2
LE029
 10
5.26443550317087
 20
2.231925926908308
 30
0.0
  0
INSERT
  5
199
330
15F
100
AcDbEntity
  8
2
100
AcDbBlockReference
  2
LE029
 10
6.574435503170871
 20
2.506533748315918
 30
0.0
  0
INSERT
  5
19A
330
15F
100
AcDbEntity
  8
2
100
AcDbBlockReference
  2
LE029
 10
6.57443550317087
 20
2.231925926908308
 30
0.0
  0
INSERT
  5
19B
330
15F
100
AcDbEntity
  8
2
100
AcDbBlockReference
  2
LE029
 10
7.113435503170872
 20
2.506533748315918
 30
0.0
  0
INSERT
  5
19C
330
15F
100
AcDbEntity
  8
2
100
AcDbBlockReference
  2
LE029
 10
7.113435503170871
 20
2.231925926908308
 30
0.0
  0
INSERT
  5
19D
330
15F
100
AcDbEntity
  8
2
100
AcDbBlockReference
  2
LE029
 10
7.113435503170871
 20
1.724787141945809
 30
0.0
  0
INSERT
  5
19E
330
15F
100
AcDbEntity
  8
2
100
AcDbBlockReference
  2
LE029
 10
7.113435503170872
 20
1.941071857623925
 30
0.0
  0
INSERT
  5
19F
330
15F
100
AcDbEntity
  8
2
100
AcDbBlockReference
  2
LE029
 10
6.57443550317087
 20
1.724787141945809
 30
0.0
  0
INSERT
  5
1A0
330
15F
100
AcDbEntity
  8
2
100
AcDbBlockReference
  2
LE029
 10
6.574435503170871
 20
1.941071857623925
 30
0.0
  0
INSERT
  5
1A1
330
15F
100
AcDbEntity
  8
2
100
AcDbBlockReference
  2
LE029
 10
5.26443550317087
 20
1.724787141945809
 30
0.0
  0
INSERT
  5
1A2
330
15F
100
AcDbEntity
  8
2
100
AcDbBlockReference
  2
LE029
 10
5.264435503170871
 20
1.941071857623925
 30
0.0
  0
LINE
  5
1A3
330
15F
100
AcDbEntity
  8
2
100
AcDbLine
 10
5.576935503170871
 20
1.883071857623925
 30
0.0
 11
5.576935503170871
 21
1.66678714194581
 31
0.0
  0
LINE
  5
1A4
330
15F
100
AcDbEntity
  8
2
100
AcDbLine
 10
5.264435503170871
 20
1.941071857623925
 30
0.0
 11
5.264435503170871
 21
1.72478714194581
 31
0.0
  0
LINE
  5
1A5
330
15F
100
AcDbEntity
  8
2
100
AcDbLine
 10
5.308185503170871
 20
1.629287141945811
 30
0.0
 11
5.558185503170871
 21
1.629287141945811
 31
0.0
  0
LINE
  5
1A6
330
15F
100
AcDbEntity
  8
2
100
AcDbLine
 10
5.283185503170872
 20
1.978571857623926
 30
0.0
 11
5.533185503170871
 21
1.978571857623925
 31
0.0
  0
LINE
  5
1A7
330
15F
100
AcDbEntity
  8
2
100
AcDbLine
 10
6.593185503170872
 20
1.978571857623926
 30
0.0
 11
6.843185503170871
 21
1.978571857623925
 31
0.0
  0
LINE
  5
1A8
330
15F
100
AcDbEntity
  8
2
100
AcDbLine
 10
6.61818550317087
 20
1.629287141945811
 30
0.0
 11
6.86818550317087
 21
1.629287141945811
 31
0.0
  0
LINE
  5
1A9
330
15F
100
AcDbEntity
  8
2
100
AcDbLine
 10
6.574435503170871
 20
1.941071857623925
 30
0.0
 11
6.574435503170871
 21
1.72478714194581
 31
0.0
  0
LINE
  5
1AA
330
15F
100
AcDbEntity
  8
2
100
AcDbLine
 10
6.886935503170871
 20
1.883071857623925
 30
0.0
 11
6.886935503170871
 21
1.66678714194581
 31
0.0
  0
LINE
  5
1AB
330
15F
100
AcDbEntity
  8
2
100
AcDbLine
 10
7.132185503170872
 20
1.978571857623926
 30
0.0
 11
7.382185503170871
 21
1.978571857623925
 31
0.0
  0
LINE
  5
1AC
330
15F
100
AcDbEntity
  8
2
100
AcDbLine
 10
7.157185503170871
 20
1.629287141945811
 30
0.0
 11
7.407185503170871
 21
1.629287141945811
 31
0.0
  0
LINE
  5
1AD
330
15F
100
AcDbEntity
  8
2
100
AcDbLine
 10
7.113435503170872
 20
1.941071857623925
 30
0.0
 11
7.113435503170872
 21
1.72478714194581
 31
0.0
  0
LINE
  5
1AE
330
15F
100
AcDbEntity
  8
2
100
AcDbLine
 10
7.425935503170872
 20
1.883071857623925
 30
0.0
 11
7.425935503170872
 21
1.66678714194581
 31
0.0
  0
LINE
  5
1AF
330
15F
100
AcDbEntity
  8
2
100
AcDbLine
 10
7.425935503170872
 20
4.292851188933926
 30
0.0
 11
7.425935503170872
 21
4.076566473255812
 31
0.0
  0
LINE
  5
1B0
330
15F
100
AcDbEntity
  8
2
100
AcDbLine
 10
7.113435503170872
 20
4.350851188933926
 30
0.0
 11
7.113435503170872
 21
4.134566473255811
 31
0.0
  0
LINE
  5
1B1
330
15F
100
AcDbEntity
  8
2
100
AcDbLine
 10
7.157185503170871
 20
4.039066473255812
 30
0.0
 11
7.407185503170871
 21
4.039066473255812
 31
0.0
  0
LINE
  5
1B2
330
15F
100
AcDbEntity
  8
2
100
AcDbLine
 10
7.132185503170872
 20
4.388351188933927
 30
0.0
 11
7.382185503170871
 21
4.388351188933926
 31
0.0
  0
LINE
  5
1B3
330
15F
100
AcDbEntity
  8
2
100
AcDbLine
 10
6.886935503170871
 20
4.292851188933926
 30
0.0
 11
6.886935503170871
 21
4.076566473255812
 31
0.0
  0
LINE
  5
1B4
330
15F
100
AcDbEntity
  8
2
100
AcDbLine
 10
6.574435503170871
 20
4.350851188933926
 30
0.0
 11
6.574435503170871
 21
4.134566473255811
 31
0.0
  0
LINE
  5
1B5
330
15F
100
AcDbEntity
  8
2
100
AcDbLine
 10
6.61818550317087
 20
4.039066473255812
 30
0.0
 11
6.86818550317087
 21
4.039066473255812
 31
0.0
  0
LINE
  5
1B6
330
15F
100
AcDbEntity
  8
2
100
AcDbLine
 10
6.593185503170872
 20
4.388351188933927
 30
0.0
 11
6.843185503170871
 21
4.388351188933926
 31
0.0
  0
LINE
  5
1B7
330
15F
100
AcDbEntity
  8
2
100
AcDbLine
 10
5.283185503170872
 20
4.388351188933927
 30
0.0
 11
5.533185503170871
 21
4.388351188933926
 31
0.0
  0
LINE
  5
1B8
330
15F
100
AcDbEntity
  8
2
100
AcDbLine
 10
5.308185503170871
 20
4.039066473255812
 30
0.0
 11
5.558185503170871
 21
4.039066473255812
 31
0.0
  0
LINE
  5
1B9
330
15F
100
AcDbEntity
  8
2
100
AcDbLine
 10
5.264435503170871
 20
4.350851188933926
 30
0.0
 11
5.264435503170871
 21
4.134566473255811
 31
0.0
  0
LINE
  5
1BA
330
15F
100
AcDbEntity
  8
2
100
AcDbLine
 10
5.576935503170871
 20
4.292851188933926
 30
0.0
 11
5.576935503170871
 21
4.076566473255812
 31
0.0
  0
INSERT
  5
1BB
330
15F
100
AcDbEntity
  8
2
100
AcDbBlockReference
  2
LE029
 10
5.264435503170871
 20
4.350851188933926
 30
0.0
  0
INSERT
  5
1BC
330
15F
100
AcDbEntity
  8
2
100
AcDbBlockReference
  2
LE029
 10
5.26443550317087
 20
4.13456647325581
 30
0.0
  0
INSERT
  5
1BD
330
15F
100
AcDbEntity
  8
2
100
AcDbBlockReference
  2
LE029
 10
6.574435503170871
 20
4.350851188933926
 30
0.0
  0
INSERT
  5
1BE
330
15F
100
AcDbEntity
  8
2
100
AcDbBlockReference
  2
LE029
 10
6.57443550317087
 20
4.13456647325581
 30
0.0
  0
INSERT
  5
1BF
330
15F
100
AcDbEntity
  8
2
100
AcDbBlockReference
  2
LE029
 10
7.113435503170872
 20
4.350851188933926
 30
0.0
  0
INSERT
  5
1C0
330
15F
100
AcDbEntity
  8
2
100
AcDbBlockReference
  2
LE029
 10
7.113435503170871
 20
4.13456647325581
 30
0.0
  0
INSERT
  5
1C1
330
15F
100
AcDbEntity
  8
2
100
AcDbBlockReference
  2
LE029
 10
7.113435503170872
 20
2.810715382400034
 30
0.0
  0
INSERT
  5
1C2
330
15F
100
AcDbEntity
  8
2
100
AcDbBlockReference
  2
LE029
 10
6.574435503170871
 20
2.810715382400034
 30
0.0
  0
INSERT
  5
1C3
330
15F
100
AcDbEntity
  8
2
100
AcDbBlockReference
  2
LE029
 10
5.264435503170871
 20
2.810715382400034
 30
0.0
  0
INSERT
  5
1C4
330
15F
100
AcDbEntity
  8
2
100
AcDbBlockReference
  2
LE029
 10
7.113435503170872
 20
3.135715382400035
 30
0.0
  0
INSERT
  5
1C5
330
15F
100
AcDbEntity
  8
2
100
AcDbBlockReference
  2
LE029
 10
6.574435503170871
 20
3.135715382400035
 30
0.0
  0
INSERT
  5
1C6
330
15F
100
AcDbEntity
  8
2
100
AcDbBlockReference
  2
LE029
 10
5.264435503170871
 20
3.135715382400035
 30
0.0
  0
INSERT
  5
1C7
330
15F
100
AcDbEntity
  8
2
100
AcDbBlockReference
  2
LE029
 10
7.113435503170871
 20
3.461607560992424
 30
0.0
  0
INSERT
  5
1C8
330
15F
100
AcDbEntity
  8
2
100
AcDbBlockReference
  2
LE029
 10
7.113435503170872
 20
3.736215382400033
 30
0.0
  0
INSERT
  5
1C9
330
15F
100
AcDbEntity
  8
2
100
AcDbBlockReference
  2
LE029
 10
6.57443550317087
 20
3.461607560992424
 30
0.0
  0
INSERT
  5
1CA
330
15F
100
AcDbEntity
  8
2
100
AcDbBlockReference
  2
LE029
 10
6.574435503170871
 20
3.736215382400033
 30
0.0
  0
INSERT
  5
1CB
330
15F
100
AcDbEntity
  8
2
100
AcDbBlockReference
  2
LE029
 10
5.26443550317087
 20
3.461607560992424
 30
0.0
  0
INSERT
  5
1CC
330
15F
100
AcDbEntity
  8
2
100
AcDbBlockReference
  2
LE029
 10
5.264435503170871
 20
3.736215382400033
 30
0.0
  0
INSERT
  5
1CD
330
15F
100
AcDbEntity
  8
2
100
AcDbBlockReference
  2
LE029
 10
1.156
 20
1.742368818412938
 30
0.0
  0
INSERT
  5
1CE
330
15F
100
AcDbEntity
  8
2
100
AcDbBlockReference
  2
LE029
 10
1.156
 20
2.765868818412938
 30
0.0
  0
INSERT
  5
1CF
330
15F
100
AcDbEntity
  8
2
100
AcDbBlockReference
  2
LE029
 10
1.156
 20
3.306395832264234
 30
0.0
  0
INSERT
  5
1D0
330
15F
100
AcDbEntity
  8
2
100
AcDbBlockReference
  2
LE029
 10
1.156
 20
4.329895832264234
 30
0.0
  0
LINE
  5
1D1
330
15F
100
AcDbEntity
  8
2
100
AcDbLine
 10
1.4685
 20
4.271895832264235
 30
0.0
 11
1.4685
 21
3.248395832264234
 31
0.0
  0
LINE
  5
1D2
330
15F
100
AcDbEntity
  8
2
100
AcDbLine
 10
1.156
 20
4.329895832264234
 30
0.0
 11
1.156
 21
3.306395832264234
 31
0.0
  0
LINE
  5
1D3
330
15F
100
AcDbEntity
  8
2
100
AcDbLine
 10
1.19975
 20
3.210895832264235
 30
0.0
 11
1.44975
 21
3.210895832264235
 31
0.0
  0
LINE
  5
1D4
330
15F
100
AcDbEntity
  8
2
100
AcDbLine
 10
1.17475
 20
4.367395832264235
 30
0.0
 11
1.42475
 21
4.367395832264234
 31
0.0
  0
LINE
  5
1D5
330
15F
100
AcDbEntity
  8
2
100
AcDbLine
 10
1.17475
 20
2.803368818412939
 30
0.0
 11
1.42475
 21
2.803368818412938
 31
0.0
  0
LINE
  5
1D6
330
15F
100
AcDbEntity
  8
2
100
AcDbLine
 10
1.19975
 20
1.646868818412938
 30
0.0
 11
1.44975
 21
1.646868818412938
 31
0.0
  0
LINE
  5
1D7
330
15F
100
AcDbEntity
  8
2
100
AcDbLine
 10
1.156
 20
2.765868818412938
 30
0.0
 11
1.156
 21
1.742368818412938
 31
0.0
  0
LINE
  5
1D8
330
15F
100
AcDbEntity
  8
2
100
AcDbLine
 10
1.4685
 20
2.707868818412938
 30
0.0
 11
1.4685
 21
1.684368818412938
 31
0.0
  0
LINE
  5
1D9
330
15F
100
AcDbEntity
  8
2
100
AcDbLine
 10
5.576935503170871
 20
3.678215382400034
 30
0.0
 11
5.576935503170871
 21
3.403607560992425
 31
0.0
  0
LINE
  5
1DA
330
15F
100
AcDbEntity
  8
2
100
AcDbLine
 10
5.264435503170871
 20
3.736215382400033
 30
0.0
 11
5.264435503170871
 21
3.461607560992424
 31
0.0
  0
LINE
  5
1DB
330
15F
100
AcDbEntity
  8
2
100
AcDbLine
 10
5.308185503170871
 20
3.366107560992425
 30
0.0
 11
5.558185503170871
 21
3.366107560992425
 31
0.0
  0
LINE
  5
1DC
330
15F
100
AcDbEntity
  8
2
100
AcDbLine
 10
5.283185503170872
 20
3.773715382400034
 30
0.0
 11
5.533185503170871
 21
3.773715382400033
 31
0.0
  0
LINE
  5
1DD
330
15F
100
AcDbEntity
  8
2
100
AcDbLine
 10
6.593185503170872
 20
3.773715382400034
 30
0.0
 11
6.843185503170871
 21
3.773715382400033
 31
0.0
  0
LINE
  5
1DE
330
15F
100
AcDbEntity
  8
2
100
AcDbLine
 10
6.61818550317087
 20
3.366107560992425
 30
0.0
 11
6.86818550317087
 21
3.366107560992425
 31
0.0
  0
LINE
  5
1DF
330
15F
100
AcDbEntity
  8
2
100
AcDbLine
 10
6.574435503170871
 20
3.736215382400033
 30
0.0
 11
6.574435503170871
 21
3.461607560992424
 31
0.0
  0
LINE
  5
1E0
330
15F
100
AcDbEntity
  8
2
100
AcDbLine
 10
6.886935503170871
 20
3.678215382400034
 30
0.0
 11
6.886935503170871
 21
3.403607560992425
 31
0.0
  0
LINE
  5
1E1
330
15F
100
AcDbEntity
  8
2
100
AcDbLine
 10
7.132185503170872
 20
3.773715382400034
 30
0.0
 11
7.382185503170871
 21
3.773715382400033
 31
0.0
  0
LINE
  5
1E2
330
15F
100
AcDbEntity
  8
2
100
AcDbLine
 10
7.157185503170871
 20
3.366107560992425
 30
0.0
 11
7.407185503170871
 21
3.366107560992425
 31
0.0
  0
LINE
  5
1E3
330
15F
100
AcDbEntity
  8
2
100
AcDbLine
 10
7.113435503170872
 20
3.736215382400033
 30
0.0
 11
7.113435503170872
 21
3.461607560992424
 31
0.0
  0
LINE
  5
1E4
330
15F
100
AcDbEntity
  8
2
100
AcDbLine
 10
7.425935503170872
 20
3.678215382400034
 30
0.0
 11
7.425935503170872
 21
3.403607560992425
 31
0.0
  0
LINE
  5
1E5
330
15F
100
AcDbEntity
  8
2
100
AcDbLine
 10
5.283185503170872
 20
2.848215382400034
 30
0.0
 11
5.533185503170871
 21
2.848215382400033
 31
0.0
  0
LINE
  5
1E6
330
15F
100
AcDbEntity
  8
2
100
AcDbLine
 10
6.593185503170872
 20
2.848215382400034
 30
0.0
 11
6.843185503170871
 21
2.848215382400033
 31
0.0
  0
LINE
  5
1E7
330
15F
100
AcDbEntity
  8
2
100
AcDbLine
 10
7.132185503170872
 20
2.848215382400034
 30
0.0
 11
7.382185503170871
 21
2.848215382400033
 31
0.0
  0
LINE
  5
1E8
330
15F
100
AcDbEntity
  8
2
100
AcDbLine
 10
7.132185503170872
 20
3.173215382400034
 30
0.0
 11
7.382185503170871
 21
3.173215382400033
 31
0.0
  0
LINE
  5
1E9
330
15F
100
AcDbEntity
  8
2
100
AcDbLine
 10
6.593185503170872
 20
3.173215382400034
 30
0.0
 11
6.843185503170871
 21
3.173215382400033
 31
0.0
  0
LINE
  5
1EA
330
15F
100
AcDbEntity
  8
2
100
AcDbLine
 10
5.283185503170872
 20
3.173215382400034
 30
0.0
 11
5.533185503170871
 21
3.173215382400033
 31
0.0
  0
LINE
  5
1EB
330
15F
100
AcDbEntity
  8
2
100
AcDbLine
 10
5.308185503170872
 20
3.040215382400035
 30
0.0
 11
5.558185503170871
 21
3.040215382400033
 31
0.0
  0
LINE
  5
1EC
330
15F
100
AcDbEntity
  8
2
100
AcDbLine
 10
5.308185503170872
 20
2.715215382400034
 30
0.0
 11
5.558185503170871
 21
2.715215382400033
 31
0.0
  0
LINE
  5
1ED
330
15F
100
AcDbEntity
  8
2
100
AcDbLine
 10
6.618185503170872
 20
3.040215382400035
 30
0.0
 11
6.868185503170871
 21
3.040215382400033
 31
0.0
  0
LINE
  5
1EE
330
15F
100
AcDbEntity
  8
2
100
AcDbLine
 10
6.618185503170872
 20
2.715215382400034
 30
0.0
 11
6.868185503170871
 21
2.715215382400033
 31
0.0
  0
LINE
  5
1EF
330
15F
100
AcDbEntity
  8
2
100
AcDbLine
 10
7.157185503170872
 20
2.715215382400033
 30
0.0
 11
7.407185503170871
 21
2.715215382400032
 31
0.0
  0
LINE
  5
1F0
330
15F
100
AcDbEntity
  8
2
100
AcDbLine
 10
7.157185503170872
 20
3.040215382400034
 30
0.0
 11
7.407185503170871
 21
3.040215382400032
 31
0.0
  0
ENDBLK
  5
1F2
330
15F
100
AcDbEntity
  8
0
100
AcDbBlockEnd
  0
BLOCK
  5
1F6
330
1F4
100
AcDbEntity
  8
0
100
AcDbBlockBegin
  2
TEMP2
 70
     0
 10
0.0
 20
0.0
 30
0.0
  3
TEMP2
  1

  0
TEXT
  5
1F5
330
1F4
100
AcDbEntity
  8
8
100
AcDbText
 10
-0.0620000000000003
 20
0.1763333333333335
 30
0.0
 40
0.07
  1
1
 50
90.0
 72
     1
 11
-0.0620000000000003
 21
0.1880000000000002
 31
0.0
100
AcDbText
  0
ENDBLK
  5
1F7
330
1F4
100
AcDbEntity
  8
0
100
AcDbBlockEnd
  0
BLOCK
  5
2D1
330
1F8
100
AcDbEntity
  8
0
100
AcDbBlockBegin
  2
TEMP1
 70
     0
 10
0.0
 20
0.0
 30
0.0
  3
TEMP1
  1

  0
LINE
  5
1F9
330
1F8
100
AcDbEntity
  8
2
100
AcDbLine
 10
0.2176855031708724
 20
-2.406704550452606
 30
0.0
 11
0.4676855031708716
 21
-2.406704550452607
 31
0.0
  0
LINE
  5
1FA
330
1F8
100
AcDbEntity
  8
2
100
AcDbLine
 10
0.242685503170871
 20
-2.750012371860215
 30
0.0
 11
0.492685503170871
 21
-2.750012371860215
 31
0.0
  0
LINE
  5
1FB
330
1F8
100
AcDbEntity
  8
2
100
AcDbLine
 10
0.2176855031708724
 20
-1.532284617599966
 30
0.0
 11
0.4676855031708716
 21
-1.532284617599967
 31
0.0
  0
LINE
  5
1FC
330
1F8
100
AcDbEntity
  8
2
100
AcDbLine
 10
0.242685503170871
 20
-1.875592439007575
 30
0.0
 11
0.492685503170871
 21
-1.875592439007575
 31
0.0
  0
LINE
  5
1FD
330
1F8
100
AcDbEntity
  8
2
100
AcDbLine
 10
0.2176855031708724
 20
-1.051284617599966
 30
0.0
 11
0.4676855031708716
 21
-1.051284617599967
 31
0.0
  0
LINE
  5
1FE
330
1F8
100
AcDbEntity
  8
2
100
AcDbLine
 10
0.242685503170871
 20
-1.394592439007575
 30
0.0
 11
0.492685503170871
 21
-1.394592439007575
 31
0.0
  0
LINE
  5
1FF
330
1F8
100
AcDbEntity
  8
2
100
AcDbLine
 10
0.2176855031708724
 20
-0.6411896473072356
 30
0.0
 11
0.4676855031708716
 21
-0.6411896473072365
 31
0.0
  0
LINE
  5
200
330
1F8
100
AcDbEntity
  8
2
100
AcDbLine
 10
0.242685503170871
 20
-0.8937974687148443
 30
0.0
 11
0.492685503170871
 21
-0.8937974687148443
 31
0.0
  0
LINE
  5
201
330
1F8
100
AcDbEntity
  8
2
100
AcDbLine
 10
0.242685503170871
 20
-2.271313047195143
 30
0.0
 11
0.492685503170871
 21
-2.271313047195143
 31
0.0
  0
LINE
  5
202
330
1F8
100
AcDbEntity
  8
2
100
AcDbLine
 10
0.2176855031708724
 20
-2.018705225787534
 30
0.0
 11
0.4676855031708716
 21
-2.018705225787535
 31
0.0
  0
LINE
  5
203
330
1F8
100
AcDbEntity
  8
4
100
AcDbLine
 10
0.2176855031708715
 20
-2.213313047195143
 30
0.0
 11
0.2364355031708714
 21
-2.175813047195144
 31
0.0
  0
LINE
  5
204
330
1F8
100
AcDbEntity
  8
4
100
AcDbLine
 10
0.1989355031708717
 20
-2.175813047195144
 30
0.0
 11
0.2176855031708715
 21
-2.213313047195143
 31
0.0
  0
LINE
  5
205
330
1F8
100
AcDbEntity
  8
2
100
AcDbLine
 10
0.1989355031708717
 20
-2.444204550452607
 30
0.0
 11
0.1989355031708717
 21
-2.654512371860215
 31
0.0
  0
LINE
  5
206
330
1F8
100
AcDbEntity
  8
4
100
AcDbLine
 10
0.1989355031708717
 20
-2.654512371860215
 30
0.0
 11
0.2176855031708715
 21
-2.617012371860216
 31
0.0
  0
LINE
  5
207
330
1F8
100
AcDbEntity
  8
4
100
AcDbLine
 10
0.2176855031708715
 20
-2.617012371860216
 30
0.0
 11
0.2364355031708714
 21
-2.654512371860215
 31
0.0
  0
LINE
  5
208
330
1F8
100
AcDbEntity
  8
4
100
AcDbLine
 10
0.1989355031708717
 20
-2.654512371860215
 30
0.0
 11
0.2176855031708715
 21
-2.692012371860215
 31
0.0
  0
LINE
  5
209
330
1F8
100
AcDbEntity
  8
4
100
AcDbLine
 10
0.2176855031708715
 20
-2.692012371860215
 30
0.0
 11
0.2364355031708714
 21
-2.654512371860215
 31
0.0
  0
LINE
  5
20A
330
1F8
100
AcDbEntity
  8
4
100
AcDbLine
 10
0.242685503170871
 20
-2.750012371860215
 30
0.0
 11
0.2614355031708717
 21
-2.712512371860215
 31
0.0
  0
LINE
  5
20B
330
1F8
100
AcDbEntity
  8
4
100
AcDbLine
 10
0.2239355031708712
 20
-2.712512371860215
 30
0.0
 11
0.242685503170871
 21
-2.750012371860215
 31
0.0
  0
LINE
  5
20C
330
1F8
100
AcDbEntity
  8
4
100
AcDbLine
 10
0.242685503170871
 20
-2.675012371860216
 30
0.0
 11
0.2614355031708717
 21
-2.712512371860215
 31
0.0
  0
LINE
  5
20D
330
1F8
100
AcDbEntity
  8
4
100
AcDbLine
 10
0.2239355031708712
 20
-2.712512371860215
 30
0.0
 11
0.242685503170871
 21
-2.675012371860216
 31
0.0
  0
LINE
  5
20E
330
1F8
100
AcDbEntity
  8
4
100
AcDbLine
 10
0.2239355031708721
 20
-2.502204550452606
 30
0.0
 11
0.2426855031708719
 21
-2.464704550452607
 31
0.0
  0
LINE
  5
20F
330
1F8
100
AcDbEntity
  8
4
100
AcDbLine
 10
0.2426855031708719
 20
-2.464704550452607
 30
0.0
 11
0.2614355031708717
 21
-2.502204550452606
 31
0.0
  0
LINE
  5
210
330
1F8
100
AcDbEntity
  8
4
100
AcDbLine
 10
0.2239355031708721
 20
-2.502204550452606
 30
0.0
 11
0.2426855031708719
 21
-2.539704550452606
 31
0.0
  0
LINE
  5
211
330
1F8
100
AcDbEntity
  8
4
100
AcDbLine
 10
0.2426855031708719
 20
-2.539704550452606
 30
0.0
 11
0.2614355031708717
 21
-2.502204550452606
 31
0.0
  0
LINE
  5
212
330
1F8
100
AcDbEntity
  8
4
100
AcDbLine
 10
0.2176855031708715
 20
-2.481704550452606
 30
0.0
 11
0.2364355031708714
 21
-2.444204550452607
 31
0.0
  0
LINE
  5
213
330
1F8
100
AcDbEntity
  8
4
100
AcDbLine
 10
0.1989355031708717
 20
-2.444204550452607
 30
0.0
 11
0.2176855031708715
 21
-2.481704550452606
 31
0.0
  0
LINE
  5
214
330
1F8
100
AcDbEntity
  8
4
100
AcDbLine
 10
0.2176855031708715
 20
-2.406704550452607
 30
0.0
 11
0.2364355031708714
 21
-2.444204550452607
 31
0.0
  0
LINE
  5
215
330
1F8
100
AcDbEntity
  8
4
100
AcDbLine
 10
0.1989355031708717
 20
-2.444204550452607
 30
0.0
 11
0.2176855031708715
 21
-2.406704550452607
 31
0.0
  0
LINE
  5
216
330
1F8
100
AcDbEntity
  8
4
100
AcDbLine
 10
0.2239355031708712
 20
-2.233813047195143
 30
0.0
 11
0.242685503170871
 21
-2.196313047195144
 31
0.0
  0
LINE
  5
217
330
1F8
100
AcDbEntity
  8
4
100
AcDbLine
 10
0.242685503170871
 20
-2.196313047195144
 30
0.0
 11
0.2614355031708717
 21
-2.233813047195143
 31
0.0
  0
LINE
  5
218
330
1F8
100
AcDbEntity
  8
4
100
AcDbLine
 10
0.2239355031708712
 20
-2.233813047195143
 30
0.0
 11
0.242685503170871
 21
-2.271313047195143
 31
0.0
  0
LINE
  5
219
330
1F8
100
AcDbEntity
  8
4
100
AcDbLine
 10
0.242685503170871
 20
-2.271313047195143
 30
0.0
 11
0.2614355031708717
 21
-2.233813047195143
 31
0.0
  0
LINE
  5
21A
330
1F8
100
AcDbEntity
  8
2
100
AcDbLine
 10
0.1989355031708717
 20
-1.569784617599967
 30
0.0
 11
0.1989355031708717
 21
-1.780092439007575
 31
0.0
  0
LINE
  5
21B
330
1F8
100
AcDbEntity
  8
4
100
AcDbLine
 10
0.1989355031708717
 20
-1.780092439007575
 30
0.0
 11
0.2176855031708715
 21
-1.742592439007576
 31
0.0
  0
LINE
  5
21C
330
1F8
100
AcDbEntity
  8
4
100
AcDbLine
 10
0.2176855031708715
 20
-1.742592439007576
 30
0.0
 11
0.2364355031708714
 21
-1.780092439007575
 31
0.0
  0
LINE
  5
21D
330
1F8
100
AcDbEntity
  8
4
100
AcDbLine
 10
0.1989355031708717
 20
-1.780092439007575
 30
0.0
 11
0.2176855031708715
 21
-1.817592439007575
 31
0.0
  0
LINE
  5
21E
330
1F8
100
AcDbEntity
  8
4
100
AcDbLine
 10
0.2176855031708715
 20
-1.817592439007575
 30
0.0
 11
0.2364355031708714
 21
-1.780092439007575
 31
0.0
  0
LINE
  5
21F
330
1F8
100
AcDbEntity
  8
4
100
AcDbLine
 10
0.242685503170871
 20
-1.875592439007575
 30
0.0
 11
0.2614355031708717
 21
-1.838092439007575
 31
0.0
  0
LINE
  5
220
330
1F8
100
AcDbEntity
  8
4
100
AcDbLine
 10
0.2239355031708712
 20
-1.838092439007575
 30
0.0
 11
0.242685503170871
 21
-1.875592439007575
 31
0.0
  0
LINE
  5
221
330
1F8
100
AcDbEntity
  8
4
100
AcDbLine
 10
0.242685503170871
 20
-1.800592439007576
 30
0.0
 11
0.2614355031708717
 21
-1.838092439007575
 31
0.0
  0
LINE
  5
222
330
1F8
100
AcDbEntity
  8
4
100
AcDbLine
 10
0.2239355031708712
 20
-1.838092439007575
 30
0.0
 11
0.242685503170871
 21
-1.800592439007576
 31
0.0
  0
LINE
  5
223
330
1F8
100
AcDbEntity
  8
4
100
AcDbLine
 10
0.2239355031708721
 20
-1.627784617599966
 30
0.0
 11
0.2426855031708719
 21
-1.590284617599967
 31
0.0
  0
LINE
  5
224
330
1F8
100
AcDbEntity
  8
4
100
AcDbLine
 10
0.2426855031708719
 20
-1.590284617599967
 30
0.0
 11
0.2614355031708717
 21
-1.627784617599966
 31
0.0
  0
LINE
  5
225
330
1F8
100
AcDbEntity
  8
4
100
AcDbLine
 10
0.2239355031708721
 20
-1.627784617599966
 30
0.0
 11
0.2426855031708719
 21
-1.665284617599966
 31
0.0
  0
LINE
  5
226
330
1F8
100
AcDbEntity
  8
4
100
AcDbLine
 10
0.2426855031708719
 20
-1.665284617599966
 30
0.0
 11
0.2614355031708717
 21
-1.627784617599966
 31
0.0
  0
LINE
  5
227
330
1F8
100
AcDbEntity
  8
4
100
AcDbLine
 10
0.2176855031708715
 20
-1.607284617599966
 30
0.0
 11
0.2364355031708714
 21
-1.569784617599967
 31
0.0
  0
LINE
  5
228
330
1F8
100
AcDbEntity
  8
4
100
AcDbLine
 10
0.1989355031708717
 20
-1.569784617599967
 30
0.0
 11
0.2176855031708715
 21
-1.607284617599966
 31
0.0
  0
LINE
  5
229
330
1F8
100
AcDbEntity
  8
4
100
AcDbLine
 10
0.2176855031708715
 20
-1.532284617599967
 30
0.0
 11
0.2364355031708714
 21
-1.569784617599967
 31
0.0
  0
LINE
  5
22A
330
1F8
100
AcDbEntity
  8
4
100
AcDbLine
 10
0.1989355031708717
 20
-1.569784617599967
 30
0.0
 11
0.2176855031708715
 21
-1.532284617599967
 31
0.0
  0
LINE
  5
22B
330
1F8
100
AcDbEntity
  8
2
100
AcDbLine
 10
0.1989355031708717
 20
-1.088784617599966
 30
0.0
 11
0.1989355031708717
 21
-1.299092439007575
 31
0.0
  0
LINE
  5
22C
330
1F8
100
AcDbEntity
  8
4
100
AcDbLine
 10
0.1989355031708717
 20
-1.299092439007575
 30
0.0
 11
0.2176855031708715
 21
-1.261592439007575
 31
0.0
  0
LINE
  5
22D
330
1F8
100
AcDbEntity
  8
4
100
AcDbLine
 10
0.2176855031708715
 20
-1.261592439007575
 30
0.0
 11
0.2364355031708714
 21
-1.299092439007575
 31
0.0
  0
LINE
  5
22E
330
1F8
100
AcDbEntity
  8
4
100
AcDbLine
 10
0.1989355031708717
 20
-1.299092439007575
 30
0.0
 11
0.2176855031708715
 21
-1.336592439007575
 31
0.0
  0
LINE
  5
22F
330
1F8
100
AcDbEntity
  8
4
100
AcDbLine
 10
0.2176855031708715
 20
-1.336592439007575
 30
0.0
 11
0.2364355031708714
 21
-1.299092439007575
 31
0.0
  0
LINE
  5
230
330
1F8
100
AcDbEntity
  8
4
100
AcDbLine
 10
0.242685503170871
 20
-1.394592439007575
 30
0.0
 11
0.2614355031708717
 21
-1.357092439007575
 31
0.0
  0
LINE
  5
231
330
1F8
100
AcDbEntity
  8
4
100
AcDbLine
 10
0.2239355031708712
 20
-1.357092439007575
 30
0.0
 11
0.242685503170871
 21
-1.394592439007575
 31
0.0
  0
LINE
  5
232
330
1F8
100
AcDbEntity
  8
4
100
AcDbLine
 10
0.242685503170871
 20
-1.319592439007575
 30
0.0
 11
0.2614355031708717
 21
-1.357092439007575
 31
0.0
  0
LINE
  5
233
330
1F8
100
AcDbEntity
  8
4
100
AcDbLine
 10
0.2239355031708712
 20
-1.357092439007575
 30
0.0
 11
0.242685503170871
 21
-1.319592439007575
 31
0.0
  0
LINE
  5
234
330
1F8
100
AcDbEntity
  8
4
100
AcDbLine
 10
0.2239355031708721
 20
-1.146784617599966
 30
0.0
 11
0.2426855031708719
 21
-1.109284617599966
 31
0.0
  0
LINE
  5
235
330
1F8
100
AcDbEntity
  8
4
100
AcDbLine
 10
0.2426855031708719
 20
-1.109284617599966
 30
0.0
 11
0.2614355031708717
 21
-1.146784617599966
 31
0.0
  0
LINE
  5
236
330
1F8
100
AcDbEntity
  8
4
100
AcDbLine
 10
0.2239355031708721
 20
-1.146784617599966
 30
0.0
 11
0.2426855031708719
 21
-1.184284617599966
 31
0.0
  0
LINE
  5
237
330
1F8
100
AcDbEntity
  8
4
100
AcDbLine
 10
0.2426855031708719
 20
-1.184284617599966
 30
0.0
 11
0.2614355031708717
 21
-1.146784617599966
 31
0.0
  0
LINE
  5
238
330
1F8
100
AcDbEntity
  8
4
100
AcDbLine
 10
0.2176855031708715
 20
-1.126284617599966
 30
0.0
 11
0.2364355031708714
 21
-1.088784617599966
 31
0.0
  0
LINE
  5
239
330
1F8
100
AcDbEntity
  8
4
100
AcDbLine
 10
0.1989355031708717
 20
-1.088784617599966
 30
0.0
 11
0.2176855031708715
 21
-1.126284617599966
 31
0.0
  0
LINE
  5
23A
330
1F8
100
AcDbEntity
  8
4
100
AcDbLine
 10
0.2176855031708715
 20
-1.051284617599967
 30
0.0
 11
0.2364355031708714
 21
-1.088784617599966
 31
0.0
  0
LINE
  5
23B
330
1F8
100
AcDbEntity
  8
4
100
AcDbLine
 10
0.1989355031708717
 20
-1.088784617599966
 30
0.0
 11
0.2176855031708715
 21
-1.051284617599967
 31
0.0
  0
LINE
  5
23C
330
1F8
100
AcDbEntity
  8
2
100
AcDbLine
 10
0.1989355031708717
 20
-0.6786896473072362
 30
0.0
 11
0.1989355031708717
 21
-0.798297468714845
 31
0.0
  0
LINE
  5
23D
330
1F8
100
AcDbEntity
  8
4
100
AcDbLine
 10
0.1989355031708717
 20
-0.798297468714845
 30
0.0
 11
0.2176855031708715
 21
-0.7607974687148454
 31
0.0
  0
LINE
  5
23E
330
1F8
100
AcDbEntity
  8
4
100
AcDbLine
 10
0.2176855031708715
 20
-0.7607974687148454
 30
0.0
 11
0.2364355031708714
 21
-0.798297468714845
 31
0.0
  0
LINE
  5
23F
330
1F8
100
AcDbEntity
  8
4
100
AcDbLine
 10
0.1989355031708717
 20
-0.798297468714845
 30
0.0
 11
0.2176855031708715
 21
-0.8357974687148445
 31
0.0
  0
LINE
  5
240
330
1F8
100
AcDbEntity
  8
4
100
AcDbLine
 10
0.2176855031708715
 20
-0.8357974687148445
 30
0.0
 11
0.2364355031708714
 21
-0.798297468714845
 31
0.0
  0
LINE
  5
241
330
1F8
100
AcDbEntity
  8
4
100
AcDbLine
 10
0.242685503170871
 20
-0.8937974687148443
 30
0.0
 11
0.2614355031708717
 21
-0.8562974687148447
 31
0.0
  0
LINE
  5
242
330
1F8
100
AcDbEntity
  8
4
100
AcDbLine
 10
0.2239355031708712
 20
-0.8562974687148447
 30
0.0
 11
0.242685503170871
 21
-0.8937974687148443
 31
0.0
  0
LINE
  5
243
330
1F8
100
AcDbEntity
  8
4
100
AcDbLine
 10
0.242685503170871
 20
-0.818797468714845
 30
0.0
 11
0.2614355031708717
 21
-0.8562974687148447
 31
0.0
  0
LINE
  5
244
330
1F8
100
AcDbEntity
  8
4
100
AcDbLine
 10
0.2239355031708712
 20
-0.8562974687148447
 30
0.0
 11
0.242685503170871
 21
-0.818797468714845
 31
0.0
  0
LINE
  5
245
330
1F8
100
AcDbEntity
  8
4
100
AcDbLine
 10
0.2239355031708721
 20
-0.736689647307236
 30
0.0
 11
0.2426855031708719
 21
-0.6991896473072364
 31
0.0
  0
LINE
  5
246
330
1F8
100
AcDbEntity
  8
4
100
AcDbLine
 10
0.2426855031708719
 20
-0.6991896473072364
 30
0.0
 11
0.2614355031708717
 21
-0.736689647307236
 31
0.0
  0
LINE
  5
247
330
1F8
100
AcDbEntity
  8
4
100
AcDbLine
 10
0.2239355031708721
 20
-0.736689647307236
 30
0.0
 11
0.2426855031708719
 21
-0.7741896473072356
 31
0.0
  0
LINE
  5
248
330
1F8
100
AcDbEntity
  8
4
100
AcDbLine
 10
0.2426855031708719
 20
-0.7741896473072356
 30
0.0
 11
0.2614355031708717
 21
-0.736689647307236
 31
0.0
  0
LINE
  5
249
330
1F8
100
AcDbEntity
  8
4
100
AcDbLine
 10
0.2176855031708715
 20
-0.7161896473072358
 30
0.0
 11
0.2364355031708714
 21
-0.6786896473072362
 31
0.0
  0
LINE
  5
24A
330
1F8
100
AcDbEntity
  8
4
100
AcDbLine
 10
0.1989355031708717
 20
-0.6786896473072362
 30
0.0
 11
0.2176855031708715
 21
-0.7161896473072358
 31
0.0
  0
LINE
  5
24B
330
1F8
100
AcDbEntity
  8
4
100
AcDbLine
 10
0.2176855031708715
 20
-0.6411896473072365
 30
0.0
 11
0.2364355031708714
 21
-0.6786896473072362
 31
0.0
  0
LINE
  5
24C
330
1F8
100
AcDbEntity
  8
4
100
AcDbLine
 10
0.1989355031708717
 20
-0.6786896473072362
 30
0.0
 11
0.2176855031708715
 21
-0.6411896473072365
 31
0.0
  0
LINE
  5
24D
330
1F8
100
AcDbEntity
  8
4
100
AcDbLine
 10
0.1989355031708717
 20
-2.056205225787535
 30
0.0
 11
0.2176855031708715
 21
-2.018705225787535
 31
0.0
  0
LINE
  5
24E
330
1F8
100
AcDbEntity
  8
4
100
AcDbLine
 10
0.2176855031708715
 20
-2.018705225787535
 30
0.0
 11
0.2364355031708714
 21
-2.056205225787535
 31
0.0
  0
LINE
  5
24F
330
1F8
100
AcDbEntity
  8
4
100
AcDbLine
 10
0.1989355031708717
 20
-2.056205225787535
 30
0.0
 11
0.2176855031708715
 21
-2.093705225787534
 31
0.0
  0
LINE
  5
250
330
1F8
100
AcDbEntity
  8
4
100
AcDbLine
 10
0.2176855031708715
 20
-2.093705225787534
 30
0.0
 11
0.2364355031708714
 21
-2.056205225787535
 31
0.0
  0
LINE
  5
251
330
1F8
100
AcDbEntity
  8
4
100
AcDbLine
 10
0.2426855031708719
 20
-2.151705225787534
 30
0.0
 11
0.2614355031708717
 21
-2.114205225787535
 31
0.0
  0
LINE
  5
252
330
1F8
100
AcDbEntity
  8
4
100
AcDbLine
 10
0.2239355031708721
 20
-2.114205225787535
 30
0.0
 11
0.2426855031708719
 21
-2.151705225787534
 31
0.0
  0
LINE
  5
253
330
1F8
100
AcDbEntity
  8
4
100
AcDbLine
 10
0.2426855031708719
 20
-2.076705225787535
 30
0.0
 11
0.2614355031708717
 21
-2.114205225787535
 31
0.0
  0
LINE
  5
254
330
1F8
100
AcDbEntity
  8
4
100
AcDbLine
 10
0.2239355031708721
 20
-2.114205225787535
 30
0.0
 11
0.2426855031708719
 21
-2.076705225787535
 31
0.0
  0
LINE
  5
255
330
1F8
100
AcDbEntity
  8
4
100
AcDbLine
 10
0.2176855031708715
 20
-2.138313047195144
 30
0.0
 11
0.2364355031708714
 21
-2.175813047195144
 31
0.0
  0
LINE
  5
256
330
1F8
100
AcDbEntity
  8
4
100
AcDbLine
 10
0.1989355031708717
 20
-2.175813047195144
 30
0.0
 11
0.2176855031708715
 21
-2.138313047195144
 31
0.0
  0
LINE
  5
257
330
1F8
100
AcDbEntity
  8
2
100
AcDbLine
 10
0.1989355031708717
 20
-2.056205225787535
 30
0.0
 11
0.1989355031708717
 21
-2.175813047195144
 31
0.0
  0
LINE
  5
258
330
1F8
100
AcDbEntity
  8
4
100
AcDbLine
 10
0.4489355031708718
 20
-2.175813047195144
 30
0.0
 11
0.4676855031708716
 21
-2.213313047195143
 31
0.0
  0
LINE
  5
259
330
1F8
100
AcDbEntity
  8
4
100
AcDbLine
 10
0.4676855031708716
 20
-2.213313047195143
 30
0.0
 11
0.4864355031708714
 21
-2.175813047195144
 31
0.0
  0
LINE
  5
25A
330
1F8
100
AcDbEntity
  8
2
100
AcDbLine
 10
0.5114355031708718
 20
-2.114205225787535
 30
0.0
 11
0.5114355031708718
 21
-2.233813047195143
 31
0.0
  0
LINE
  5
25B
330
1F8
100
AcDbEntity
  8
2
100
AcDbLine
 10
0.5114355031708718
 20
-2.502204550452606
 30
0.0
 11
0.5114355031708718
 21
-2.712512371860215
 31
0.0
  0
LINE
  5
25C
330
1F8
100
AcDbEntity
  8
4
100
AcDbLine
 10
0.4489355031708718
 20
-2.444204550452607
 30
0.0
 11
0.4676855031708716
 21
-2.406704550452607
 31
0.0
  0
LINE
  5
25D
330
1F8
100
AcDbEntity
  8
4
100
AcDbLine
 10
0.4676855031708716
 20
-2.406704550452607
 30
0.0
 11
0.4864355031708714
 21
-2.444204550452607
 31
0.0
  0
LINE
  5
25E
330
1F8
100
AcDbEntity
  8
4
100
AcDbLine
 10
0.4489355031708718
 20
-2.444204550452607
 30
0.0
 11
0.4676855031708716
 21
-2.481704550452606
 31
0.0
  0
LINE
  5
25F
330
1F8
100
AcDbEntity
  8
4
100
AcDbLine
 10
0.4676855031708716
 20
-2.481704550452606
 30
0.0
 11
0.4864355031708714
 21
-2.444204550452607
 31
0.0
  0
LINE
  5
260
330
1F8
100
AcDbEntity
  8
4
100
AcDbLine
 10
0.492685503170871
 20
-2.539704550452606
 30
0.0
 11
0.5114355031708718
 21
-2.502204550452606
 31
0.0
  0
LINE
  5
261
330
1F8
100
AcDbEntity
  8
4
100
AcDbLine
 10
0.4739355031708712
 20
-2.502204550452606
 30
0.0
 11
0.492685503170871
 21
-2.539704550452606
 31
0.0
  0
LINE
  5
262
330
1F8
100
AcDbEntity
  8
4
100
AcDbLine
 10
0.492685503170871
 20
-2.464704550452607
 30
0.0
 11
0.5114355031708718
 21
-2.502204550452606
 31
0.0
  0
LINE
  5
263
330
1F8
100
AcDbEntity
  8
4
100
AcDbLine
 10
0.4739355031708712
 20
-2.502204550452606
 30
0.0
 11
0.492685503170871
 21
-2.464704550452607
 31
0.0
  0
LINE
  5
264
330
1F8
100
AcDbEntity
  8
4
100
AcDbLine
 10
0.4739355031708712
 20
-2.712512371860215
 30
0.0
 11
0.492685503170871
 21
-2.675012371860216
 31
0.0
  0
LINE
  5
265
330
1F8
100
AcDbEntity
  8
4
100
AcDbLine
 10
0.492685503170871
 20
-2.675012371860216
 30
0.0
 11
0.5114355031708718
 21
-2.712512371860215
 31
0.0
  0
LINE
  5
266
330
1F8
100
AcDbEntity
  8
4
100
AcDbLine
 10
0.4739355031708712
 20
-2.712512371860215
 30
0.0
 11
0.492685503170871
 21
-2.750012371860215
 31
0.0
  0
LINE
  5
267
330
1F8
100
AcDbEntity
  8
4
100
AcDbLine
 10
0.492685503170871
 20
-2.750012371860215
 30
0.0
 11
0.5114355031708718
 21
-2.712512371860215
 31
0.0
  0
LINE
  5
268
330
1F8
100
AcDbEntity
  8
4
100
AcDbLine
 10
0.4676855031708716
 20
-2.692012371860215
 30
0.0
 11
0.4864355031708714
 21
-2.654512371860215
 31
0.0
  0
LINE
  5
269
330
1F8
100
AcDbEntity
  8
4
100
AcDbLine
 10
0.4489355031708718
 20
-2.654512371860215
 30
0.0
 11
0.4676855031708716
 21
-2.692012371860215
 31
0.0
  0
LINE
  5
26A
330
1F8
100
AcDbEntity
  8
4
100
AcDbLine
 10
0.4676855031708716
 20
-2.617012371860216
 30
0.0
 11
0.4864355031708714
 21
-2.654512371860215
 31
0.0
  0
LINE
  5
26B
330
1F8
100
AcDbEntity
  8
4
100
AcDbLine
 10
0.4489355031708718
 20
-2.654512371860215
 30
0.0
 11
0.4676855031708716
 21
-2.617012371860216
 31
0.0
  0
LINE
  5
26C
330
1F8
100
AcDbEntity
  8
4
100
AcDbLine
 10
0.492685503170871
 20
-2.271313047195143
 30
0.0
 11
0.5114355031708718
 21
-2.233813047195143
 31
0.0
  0
LINE
  5
26D
330
1F8
100
AcDbEntity
  8
4
100
AcDbLine
 10
0.4739355031708712
 20
-2.233813047195143
 30
0.0
 11
0.492685503170871
 21
-2.271313047195143
 31
0.0
  0
LINE
  5
26E
330
1F8
100
AcDbEntity
  8
4
100
AcDbLine
 10
0.492685503170871
 20
-2.196313047195144
 30
0.0
 11
0.5114355031708718
 21
-2.233813047195143
 31
0.0
  0
LINE
  5
26F
330
1F8
100
AcDbEntity
  8
4
100
AcDbLine
 10
0.4739355031708712
 20
-2.233813047195143
 30
0.0
 11
0.492685503170871
 21
-2.196313047195144
 31
0.0
  0
LINE
  5
270
330
1F8
100
AcDbEntity
  8
2
100
AcDbLine
 10
0.5114355031708718
 20
-1.627784617599966
 30
0.0
 11
0.5114355031708718
 21
-1.838092439007575
 31
0.0
  0
LINE
  5
271
330
1F8
100
AcDbEntity
  8
4
100
AcDbLine
 10
0.4489355031708718
 20
-1.569784617599967
 30
0.0
 11
0.4676855031708716
 21
-1.532284617599967
 31
0.0
  0
LINE
  5
272
330
1F8
100
AcDbEntity
  8
4
100
AcDbLine
 10
0.4676855031708716
 20
-1.532284617599967
 30
0.0
 11
0.4864355031708714
 21
-1.569784617599967
 31
0.0
  0
LINE
  5
273
330
1F8
100
AcDbEntity
  8
4
100
AcDbLine
 10
0.4489355031708718
 20
-1.569784617599967
 30
0.0
 11
0.4676855031708716
 21
-1.607284617599966
 31
0.0
  0
LINE
  5
274
330
1F8
100
AcDbEntity
  8
4
100
AcDbLine
 10
0.4676855031708716
 20
-1.607284617599966
 30
0.0
 11
0.4864355031708714
 21
-1.569784617599967
 31
0.0
  0
LINE
  5
275
330
1F8
100
AcDbEntity
  8
4
100
AcDbLine
 10
0.492685503170871
 20
-1.665284617599966
 30
0.0
 11
0.5114355031708718
 21
-1.627784617599966
 31
0.0
  0
LINE
  5
276
330
1F8
100
AcDbEntity
  8
4
100
AcDbLine
 10
0.4739355031708712
 20
-1.627784617599966
 30
0.0
 11
0.492685503170871
 21
-1.665284617599966
 31
0.0
  0
LINE
  5
277
330
1F8
100
AcDbEntity
  8
4
100
AcDbLine
 10
0.492685503170871
 20
-1.590284617599967
 30
0.0
 11
0.5114355031708718
 21
-1.627784617599966
 31
0.0
  0
LINE
  5
278
330
1F8
100
AcDbEntity
  8
4
100
AcDbLine
 10
0.4739355031708712
 20
-1.627784617599966
 30
0.0
 11
0.492685503170871
 21
-1.590284617599967
 31
0.0
  0
LINE
  5
279
330
1F8
100
AcDbEntity
  8
4
100
AcDbLine
 10
0.4739355031708712
 20
-1.838092439007575
 30
0.0
 11
0.492685503170871
 21
-1.800592439007576
 31
0.0
  0
LINE
  5
27A
330
1F8
100
AcDbEntity
  8
4
100
AcDbLine
 10
0.492685503170871
 20
-1.800592439007576
 30
0.0
 11
0.5114355031708718
 21
-1.838092439007575
 31
0.0
  0
LINE
  5
27B
330
1F8
100
AcDbEntity
  8
4
100
AcDbLine
 10
0.4739355031708712
 20
-1.838092439007575
 30
0.0
 11
0.492685503170871
 21
-1.875592439007575
 31
0.0
  0
LINE
  5
27C
330
1F8
100
AcDbEntity
  8
4
100
AcDbLine
 10
0.492685503170871
 20
-1.875592439007575
 30
0.0
 11
0.5114355031708718
 21
-1.838092439007575
 31
0.0
  0
LINE
  5
27D
330
1F8
100
AcDbEntity
  8
4
100
AcDbLine
 10
0.4676855031708716
 20
-1.817592439007575
 30
0.0
 11
0.4864355031708714
 21
-1.780092439007575
 31
0.0
  0
LINE
  5
27E
330
1F8
100
AcDbEntity
  8
4
100
AcDbLine
 10
0.4489355031708718
 20
-1.780092439007575
 30
0.0
 11
0.4676855031708716
 21
-1.817592439007575
 31
0.0
  0
LINE
  5
27F
330
1F8
100
AcDbEntity
  8
4
100
AcDbLine
 10
0.4676855031708716
 20
-1.742592439007576
 30
0.0
 11
0.4864355031708714
 21
-1.780092439007575
 31
0.0
  0
LINE
  5
280
330
1F8
100
AcDbEntity
  8
4
100
AcDbLine
 10
0.4489355031708718
 20
-1.780092439007575
 30
0.0
 11
0.4676855031708716
 21
-1.742592439007576
 31
0.0
  0
LINE
  5
281
330
1F8
100
AcDbEntity
  8
2
100
AcDbLine
 10
0.5114355031708718
 20
-1.146784617599966
 30
0.0
 11
0.5114355031708718
 21
-1.357092439007575
 31
0.0
  0
LINE
  5
282
330
1F8
100
AcDbEntity
  8
4
100
AcDbLine
 10
0.4489355031708718
 20
-1.088784617599966
 30
0.0
 11
0.4676855031708716
 21
-1.051284617599967
 31
0.0
  0
LINE
  5
283
330
1F8
100
AcDbEntity
  8
4
100
AcDbLine
 10
0.4676855031708716
 20
-1.051284617599967
 30
0.0
 11
0.4864355031708714
 21
-1.088784617599966
 31
0.0
  0
LINE
  5
284
330
1F8
100
AcDbEntity
  8
4
100
AcDbLine
 10
0.4489355031708718
 20
-1.088784617599966
 30
0.0
 11
0.4676855031708716
 21
-1.126284617599966
 31
0.0
  0
LINE
  5
285
330
1F8
100
AcDbEntity
  8
4
100
AcDbLine
 10
0.4676855031708716
 20
-1.126284617599966
 30
0.0
 11
0.4864355031708714
 21
-1.088784617599966
 31
0.0
  0
LINE
  5
286
330
1F8
100
AcDbEntity
  8
4
100
AcDbLine
 10
0.492685503170871
 20
-1.184284617599966
 30
0.0
 11
0.5114355031708718
 21
-1.146784617599966
 31
0.0
  0
LINE
  5
287
330
1F8
100
AcDbEntity
  8
4
100
AcDbLine
 10
0.4739355031708712
 20
-1.146784617599966
 30
0.0
 11
0.492685503170871
 21
-1.184284617599966
 31
0.0
  0
LINE
  5
288
330
1F8
100
AcDbEntity
  8
4
100
AcDbLine
 10
0.492685503170871
 20
-1.109284617599966
 30
0.0
 11
0.5114355031708718
 21
-1.146784617599966
 31
0.0
  0
LINE
  5
289
330
1F8
100
AcDbEntity
  8
4
100
AcDbLine
 10
0.4739355031708712
 20
-1.146784617599966
 30
0.0
 11
0.492685503170871
 21
-1.109284617599966
 31
0.0
  0
LINE
  5
28A
330
1F8
100
AcDbEntity
  8
4
100
AcDbLine
 10
0.4739355031708712
 20
-1.357092439007575
 30
0.0
 11
0.492685503170871
 21
-1.319592439007575
 31
0.0
  0
LINE
  5
28B
330
1F8
100
AcDbEntity
  8
4
100
AcDbLine
 10
0.492685503170871
 20
-1.319592439007575
 30
0.0
 11
0.5114355031708718
 21
-1.357092439007575
 31
0.0
  0
LINE
  5
28C
330
1F8
100
AcDbEntity
  8
4
100
AcDbLine
 10
0.4739355031708712
 20
-1.357092439007575
 30
0.0
 11
0.492685503170871
 21
-1.394592439007575
 31
0.0
  0
LINE
  5
28D
330
1F8
100
AcDbEntity
  8
4
100
AcDbLine
 10
0.492685503170871
 20
-1.394592439007575
 30
0.0
 11
0.5114355031708718
 21
-1.357092439007575
 31
0.0
  0
LINE
  5
28E
330
1F8
100
AcDbEntity
  8
4
100
AcDbLine
 10
0.4676855031708716
 20
-1.336592439007575
 30
0.0
 11
0.4864355031708714
 21
-1.299092439007575
 31
0.0
  0
LINE
  5
28F
330
1F8
100
AcDbEntity
  8
4
100
AcDbLine
 10
0.4489355031708718
 20
-1.299092439007575
 30
0.0
 11
0.4676855031708716
 21
-1.336592439007575
 31
0.0
  0
LINE
  5
290
330
1F8
100
AcDbEntity
  8
4
100
AcDbLine
 10
0.4676855031708716
 20
-1.261592439007575
 30
0.0
 11
0.4864355031708714
 21
-1.299092439007575
 31
0.0
  0
LINE
  5
291
330
1F8
100
AcDbEntity
  8
4
100
AcDbLine
 10
0.4489355031708718
 20
-1.299092439007575
 30
0.0
 11
0.4676855031708716
 21
-1.261592439007575
 31
0.0
  0
LINE
  5
292
330
1F8
100
AcDbEntity
  8
2
100
AcDbLine
 10
0.5114355031708718
 20
-0.736689647307236
 30
0.0
 11
0.5114355031708718
 21
-0.8562974687148447
 31
0.0
  0
LINE
  5
293
330
1F8
100
AcDbEntity
  8
4
100
AcDbLine
 10
0.4489355031708718
 20
-0.6786896473072362
 30
0.0
 11
0.4676855031708716
 21
-0.6411896473072365
 31
0.0
  0
LINE
  5
294
330
1F8
100
AcDbEntity
  8
4
100
AcDbLine
 10
0.4676855031708716
 20
-0.6411896473072365
 30
0.0
 11
0.4864355031708714
 21
-0.6786896473072362
 31
0.0
  0
LINE
  5
295
330
1F8
100
AcDbEntity
  8
4
100
AcDbLine
 10
0.4489355031708718
 20
-0.6786896473072362
 30
0.0
 11
0.4676855031708716
 21
-0.7161896473072358
 31
0.0
  0
LINE
  5
296
330
1F8
100
AcDbEntity
  8
4
100
AcDbLine
 10
0.4676855031708716
 20
-0.7161896473072358
 30
0.0
 11
0.4864355031708714
 21
-0.6786896473072362
 31
0.0
  0
LINE
  5
297
330
1F8
100
AcDbEntity
  8
4
100
AcDbLine
 10
0.492685503170871
 20
-0.7741896473072356
 30
0.0
 11
0.5114355031708718
 21
-0.736689647307236
 31
0.0
  0
LINE
  5
298
330
1F8
100
AcDbEntity
  8
4
100
AcDbLine
 10
0.4739355031708712
 20
-0.736689647307236
 30
0.0
 11
0.492685503170871
 21
-0.7741896473072356
 31
0.0
  0
LINE
  5
299
330
1F8
100
AcDbEntity
  8
4
100
AcDbLine
 10
0.492685503170871
 20
-0.6991896473072364
 30
0.0
 11
0.5114355031708718
 21
-0.736689647307236
 31
0.0
  0
LINE
  5
29A
330
1F8
100
AcDbEntity
  8
4
100
AcDbLine
 10
0.4739355031708712
 20
-0.736689647307236
 30
0.0
 11
0.492685503170871
 21
-0.6991896473072364
 31
0.0
  0
LINE
  5
29B
330
1F8
100
AcDbEntity
  8
4
100
AcDbLine
 10
0.4739355031708712
 20
-0.8562974687148447
 30
0.0
 11
0.492685503170871
 21
-0.818797468714845
 31
0.0
  0
LINE
  5
29C
330
1F8
100
AcDbEntity
  8
4
100
AcDbLine
 10
0.492685503170871
 20
-0.818797468714845
 30
0.0
 11
0.5114355031708718
 21
-0.8562974687148447
 31
0.0
  0
LINE
  5
29D
330
1F8
100
AcDbEntity
  8
4
100
AcDbLine
 10
0.4739355031708712
 20
-0.8562974687148447
 30
0.0
 11
0.492685503170871
 21
-0.8937974687148443
 31
0.0
  0
LINE
  5
29E
330
1F8
100
AcDbEntity
  8
4
100
AcDbLine
 10
0.492685503170871
 20
-0.8937974687148443
 30
0.0
 11
0.5114355031708718
 21
-0.8562974687148447
 31
0.0
  0
LINE
  5
29F
330
1F8
100
AcDbEntity
  8
4
100
AcDbLine
 10
0.4676855031708716
 20
-0.8357974687148445
 30
0.0
 11
0.4864355031708714
 21
-0.798297468714845
 31
0.0
  0
LINE
  5
2A0
330
1F8
100
AcDbEntity
  8
4
100
AcDbLine
 10
0.4489355031708718
 20
-0.798297468714845
 30
0.0
 11
0.4676855031708716
 21
-0.8357974687148445
 31
0.0
  0
LINE
  5
2A1
330
1F8
100
AcDbEntity
  8
4
100
AcDbLine
 10
0.4676855031708716
 20
-0.7607974687148454
 30
0.0
 11
0.4864355031708714
 21
-0.798297468714845
 31
0.0
  0
LINE
  5
2A2
330
1F8
100
AcDbEntity
  8
4
100
AcDbLine
 10
0.4489355031708718
 20
-0.798297468714845
 30
0.0
 11
0.4676855031708716
 21
-0.7607974687148454
 31
0.0
  0
LINE
  5
2A3
330
1F8
100
AcDbEntity
  8
4
100
AcDbLine
 10
0.4489355031708718
 20
-2.175813047195144
 30
0.0
 11
0.4676855031708716
 21
-2.138313047195144
 31
0.0
  0
LINE
  5
2A4
330
1F8
100
AcDbEntity
  8
4
100
AcDbLine
 10
0.4676855031708716
 20
-2.138313047195144
 30
0.0
 11
0.4864355031708714
 21
-2.175813047195144
 31
0.0
  0
LINE
  5
2A5
330
1F8
100
AcDbEntity
  8
4
100
AcDbLine
 10
0.4739355031708712
 20
-2.114205225787535
 30
0.0
 11
0.492685503170871
 21
-2.076705225787535
 31
0.0
  0
LINE
  5
2A6
330
1F8
100
AcDbEntity
  8
4
100
AcDbLine
 10
0.492685503170871
 20
-2.076705225787535
 30
0.0
 11
0.5114355031708718
 21
-2.114205225787535
 31
0.0
  0
LINE
  5
2A7
330
1F8
100
AcDbEntity
  8
4
100
AcDbLine
 10
0.4739355031708712
 20
-2.114205225787535
 30
0.0
 11
0.492685503170871
 21
-2.151705225787534
 31
0.0
  0
LINE
  5
2A8
330
1F8
100
AcDbEntity
  8
4
100
AcDbLine
 10
0.492685503170871
 20
-2.151705225787534
 30
0.0
 11
0.5114355031708718
 21
-2.114205225787535
 31
0.0
  0
LINE
  5
2A9
330
1F8
100
AcDbEntity
  8
4
100
AcDbLine
 10
0.4676855031708716
 20
-2.093705225787534
 30
0.0
 11
0.4864355031708714
 21
-2.056205225787535
 31
0.0
  0
LINE
  5
2AA
330
1F8
100
AcDbEntity
  8
4
100
AcDbLine
 10
0.4489355031708718
 20
-2.056205225787535
 30
0.0
 11
0.4676855031708716
 21
-2.093705225787534
 31
0.0
  0
LINE
  5
2AB
330
1F8
100
AcDbEntity
  8
4
100
AcDbLine
 10
0.4676855031708716
 20
-2.018705225787535
 30
0.0
 11
0.4864355031708714
 21
-2.056205225787535
 31
0.0
  0
LINE
  5
2AC
330
1F8
100
AcDbEntity
  8
4
100
AcDbLine
 10
0.4489355031708718
 20
-2.056205225787535
 30
0.0
 11
0.4676855031708716
 21
-2.018705225787535
 31
0.0
  0
LINE
  5
2AD
330
1F8
100
AcDbEntity
  8
2
100
AcDbLine
 10
0.242685503170871
 20
-0.3628895867026092
 30
0.0
 11
0.492685503170871
 21
-0.3628895867026092
 31
0.0
  0
LINE
  5
2AE
330
1F8
100
AcDbEntity
  8
2
100
AcDbLine
 10
0.2176855031708724
 20
-0.0195817652950003
 30
0.0
 11
0.4676855031708716
 21
-0.0195817652950012
 31
0.0
  0
LINE
  5
2AF
330
1F8
100
AcDbEntity
  8
4
100
AcDbLine
 10
0.1989355031708717
 20
-0.0570817652950009
 30
0.0
 11
0.2176855031708715
 21
-0.0195817652950012
 31
0.0
  0
LINE
  5
2B0
330
1F8
100
AcDbEntity
  8
4
100
AcDbLine
 10
0.2176855031708715
 20
-0.0195817652950012
 30
0.0
 11
0.2364355031708714
 21
-0.0570817652950009
 31
0.0
  0
LINE
  5
2B1
330
1F8
100
AcDbEntity
  8
4
100
AcDbLine
 10
0.1989355031708717
 20
-0.0570817652950009
 30
0.0
 11
0.2176855031708715
 21
-0.0945817652950005
 31
0.0
  0
LINE
  5
2B2
330
1F8
100
AcDbEntity
  8
4
100
AcDbLine
 10
0.2176855031708715
 20
-0.0945817652950005
 30
0.0
 11
0.2364355031708714
 21
-0.0570817652950009
 31
0.0
  0
LINE
  5
2B3
330
1F8
100
AcDbEntity
  8
4
100
AcDbLine
 10
0.2426855031708719
 20
-0.1525817652950003
 30
0.0
 11
0.2614355031708717
 21
-0.1150817652950007
 31
0.0
  0
LINE
  5
2B4
330
1F8
100
AcDbEntity
  8
4
100
AcDbLine
 10
0.2239355031708721
 20
-0.1150817652950007
 30
0.0
 11
0.2426855031708719
 21
-0.1525817652950003
 31
0.0
  0
LINE
  5
2B5
330
1F8
100
AcDbEntity
  8
4
100
AcDbLine
 10
0.2426855031708719
 20
-0.0775817652950011
 30
0.0
 11
0.2614355031708717
 21
-0.1150817652950007
 31
0.0
  0
LINE
  5
2B6
330
1F8
100
AcDbEntity
  8
4
100
AcDbLine
 10
0.2239355031708721
 20
-0.1150817652950007
 30
0.0
 11
0.2426855031708719
 21
-0.0775817652950011
 31
0.0
  0
LINE
  5
2B7
330
1F8
100
AcDbEntity
  8
4
100
AcDbLine
 10
0.2239355031708712
 20
-0.3253895867026095
 30
0.0
 11
0.242685503170871
 21
-0.2878895867026099
 31
0.0
  0
LINE
  5
2B8
330
1F8
100
AcDbEntity
  8
4
100
AcDbLine
 10
0.242685503170871
 20
-0.2878895867026099
 30
0.0
 11
0.2614355031708717
 21
-0.3253895867026095
 31
0.0
  0
LINE
  5
2B9
330
1F8
100
AcDbEntity
  8
4
100
AcDbLine
 10
0.2239355031708712
 20
-0.3253895867026095
 30
0.0
 11
0.242685503170871
 21
-0.3628895867026092
 31
0.0
  0
LINE
  5
2BA
330
1F8
100
AcDbEntity
  8
4
100
AcDbLine
 10
0.242685503170871
 20
-0.3628895867026092
 30
0.0
 11
0.2614355031708717
 21
-0.3253895867026095
 31
0.0
  0
LINE
  5
2BB
330
1F8
100
AcDbEntity
  8
4
100
AcDbLine
 10
0.2176855031708715
 20
-0.3048895867026093
 30
0.0
 11
0.2364355031708714
 21
-0.2673895867026097
 31
0.0
  0
LINE
  5
2BC
330
1F8
100
AcDbEntity
  8
4
100
AcDbLine
 10
0.1989355031708717
 20
-0.2673895867026097
 30
0.0
 11
0.2176855031708715
 21
-0.3048895867026093
 31
0.0
  0
LINE
  5
2BD
330
1F8
100
AcDbEntity
  8
4
100
AcDbLine
 10
0.2176855031708715
 20
-0.2298895867026101
 30
0.0
 11
0.2364355031708714
 21
-0.2673895867026097
 31
0.0
  0
LINE
  5
2BE
330
1F8
100
AcDbEntity
  8
4
100
AcDbLine
 10
0.1989355031708717
 20
-0.2673895867026097
 30
0.0
 11
0.2176855031708715
 21
-0.2298895867026101
 31
0.0
  0
LINE
  5
2BF
330
1F8
100
AcDbEntity
  8
2
100
AcDbLine
 10
0.1989355031708717
 20
-0.0570817652950009
 30
0.0
 11
0.1989355031708717
 21
-0.2673895867026097
 31
0.0
  0
LINE
  5
2C0
330
1F8
100
AcDbEntity
  8
4
100
AcDbLine
 10
0.4489355031708718
 20
-0.2673895867026097
 30
0.0
 11
0.4676855031708716
 21
-0.2298895867026101
 31
0.0
  0
LINE
  5
2C1
330
1F8
100
AcDbEntity
  8
4
100
AcDbLine
 10
0.4676855031708716
 20
-0.2298895867026101
 30
0.0
 11
0.4864355031708714
 21
-0.2673895867026097
 31
0.0
  0
LINE
  5
2C2
330
1F8
100
AcDbEntity
  8
4
100
AcDbLine
 10
0.4489355031708718
 20
-0.2673895867026097
 30
0.0
 11
0.4676855031708716
 21
-0.3048895867026093
 31
0.0
  0
LINE
  5
2C3
330
1F8
100
AcDbEntity
  8
4
100
AcDbLine
 10
0.4676855031708716
 20
-0.3048895867026093
 30
0.0
 11
0.4864355031708714
 21
-0.2673895867026097
 31
0.0
  0
LINE
  5
2C4
330
1F8
100
AcDbEntity
  8
4
100
AcDbLine
 10
0.492685503170871
 20
-0.3628895867026092
 30
0.0
 11
0.5114355031708718
 21
-0.3253895867026095
 31
0.0
  0
LINE
  5
2C5
330
1F8
100
AcDbEntity
  8
4
100
AcDbLine
 10
0.4739355031708712
 20
-0.3253895867026095
 30
0.0
 11
0.492685503170871
 21
-0.3628895867026092
 31
0.0
  0
LINE
  5
2C6
330
1F8
100
AcDbEntity
  8
4
100
AcDbLine
 10
0.492685503170871
 20
-0.2878895867026099
 30
0.0
 11
0.5114355031708718
 21
-0.3253895867026095
 31
0.0
  0
LINE
  5
2C7
330
1F8
100
AcDbEntity
  8
4
100
AcDbLine
 10
0.4739355031708712
 20
-0.3253895867026095
 30
0.0
 11
0.492685503170871
 21
-0.2878895867026099
 31
0.0
  0
LINE
  5
2C8
330
1F8
100
AcDbEntity
  8
4
100
AcDbLine
 10
0.4739355031708712
 20
-0.1150817652950007
 30
0.0
 11
0.492685503170871
 21
-0.0775817652950011
 31
0.0
  0
LINE
  5
2C9
330
1F8
100
AcDbEntity
  8
4
100
AcDbLine
 10
0.492685503170871
 20
-0.0775817652950011
 30
0.0
 11
0.5114355031708718
 21
-0.1150817652950007
 31
0.0
  0
LINE
  5
2CA
330
1F8
100
AcDbEntity
  8
4
100
AcDbLine
 10
0.4739355031708712
 20
-0.1150817652950007
 30
0.0
 11
0.492685503170871
 21
-0.1525817652950003
 31
0.0
  0
LINE
  5
2CB
330
1F8
100
AcDbEntity
  8
4
100
AcDbLine
 10
0.492685503170871
 20
-0.1525817652950003
 30
0.0
 11
0.5114355031708718
 21
-0.1150817652950007
 31
0.0
  0
LINE
  5
2CC
330
1F8
100
AcDbEntity
  8
4
100
AcDbLine
 10
0.4676855031708716
 20
-0.0945817652950005
 30
0.0
 11
0.4864355031708714
 21
-0.0570817652950009
 31
0.0
  0
LINE
  5
2CD
330
1F8
100
AcDbEntity
  8
4
100
AcDbLine
 10
0.4489355031708718
 20
-0.0570817652950009
 30
0.0
 11
0.4676855031708716
 21
-0.0945817652950005
 31
0.0
  0
LINE
  5
2CE
330
1F8
100
AcDbEntity
  8
4
100
AcDbLine
 10
0.4676855031708716
 20
-0.0195817652950012
 30
0.0
 11
0.4864355031708714
 21
-0.0570817652950009
 31
0.0
  0
LINE
  5
2CF
330
1F8
100
AcDbEntity
  8
4
100
AcDbLine
 10
0.4489355031708718
 20
-0.0570817652950009
 30
0.0
 11
0.4676855031708716
 21
-0.0195817652950012
 31
0.0
  0
LINE
  5
2D0
330
1F8
100
AcDbEntity
  8
2
100
AcDbLine
 10
0.5114355031708718
 20
-0.1150817652950007
 30
0.0
 11
0.5114355031708718
 21
-0.3253895867026095
 31
0.0
  0
ENDBLK
  5
2D2
330
1F8
100
AcDbEntity
  8
0
100
AcDbBlockEnd
  0
BLOCK
  5
34B
330
2D3
100
AcDbEntity
  8
0
100
AcDbBlockBegin
  2
Le1037
 70
     0
 10
0.0
 20
0.0
 30
0.0
  3
Le1037
  1

  0
INSERT
  5
2D4
330
2D3
100
AcDbEntity
  8
2
100
AcDbBlockReference
  2
LE038
 10
0.0
 20
0.0
 30
0.0
  0
TEXT
  5
2D5
330
2D3
100
AcDbEntity
  8
8
100
AcDbText
 10
4.500499999999999
 20
2.303160567970794
 30
0.0
 40
0.07
  1
72
 50
90.0
 72
     1
 11
4.500499999999999
 21
2.361493901304128
 31
0.0
100
AcDbText
  0
TEXT
  5
2D6
330
2D3
100
AcDbEntity
  8
8
100
AcDbText
 10
4.750499999999999
 20
4.208106429059855
 30
0.0
 40
0.07
  1
12
 50
90.0
 72
     1
 11
4.750499999999999
 21
4.254773095726521
 31
0.0
100
AcDbText
  0
TEXT
  5
2D7
330
2D3
100
AcDbEntity
  8
8
100
AcDbText
 10
4.750499999999999
 20
2.820578484458902
 30
0.0
 40
0.07
  1
59
 50
90.0
 72
     1
 11
4.750499999999999
 21
2.878911817792235
 31
0.0
100
AcDbText
  0
INSERT
  5
2D8
330
2D3
100
AcDbEntity
  8
2
100
AcDbBlockReference
  2
TEMP2
 10
4.8125
 20
1.51496200759199
 30
0.0
  0
CIRCLE
  5
2D9
330
2D3
100
AcDbEntity
  8
4
100
AcDbCircle
 10
1.207234055463451
 20
2.987899612332098
 30
0.0
 40
0.023
  0
LWPOLYLINE
  5
2DA
330
2D3
100
AcDbEntity
  8
4
100
AcDbPolyline
 90
        2
 70
     1
 43
0.01
 10
1.202234055463451
 20
3.040399612332097
 42
1.0
 10
1.212234055463451
 20
3.040399612332097
 42
1.0
  0
LWPOLYLINE
  5
2DB
330
2D3
100
AcDbEntity
  8
4
100
AcDbPolyline
 90
        2
 70
     1
 43
0.01
 10
1.202234055463451
 20
2.935399612332097
 42
1.0
 10
1.212234055463451
 20
2.935399612332097
 42
1.0
  0
TEXT
  5
2DC
330
2D3
100
AcDbEntity
  8
8
100
AcDbText
 10
1.547619047619047
 20
0.094
 30
0.0
 40
0.125
  1
HEAVY DUTY VENTILATED LOCKER - 72" SINGLE TIER
  7
ROMANS
 72
     1
 11
4.125
 21
0.094
 31
0.0
100
AcDbText
  0
LINE
  5
2DD
330
2D3
100
AcDbEntity
  8
4
100
AcDbLine
 10
1.192234055463451
 20
3.107882967972701
 30
0.0
 11
1.192234055463451
 21
3.154882967972701
 31
0.0
  0
LINE
  5
2DE
330
2D3
100
AcDbEntity
  8
4
100
AcDbLine
 10
1.222234055463451
 20
3.107882967972701
 30
0.0
 11
1.192234055463451
 21
3.107882967972701
 31
0.0
  0
LINE
  5
2DF
330
2D3
100
AcDbEntity
  8
4
100
AcDbLine
 10
1.222234055463451
 20
3.154882967972701
 30
0.0
 11
1.222234055463451
 21
3.107882967972701
 31
0.0
  0
LINE
  5
2E0
330
2D3
100
AcDbEntity
  8
4
100
AcDbLine
 10
1.129904527520149
 20
3.154882967972701
 30
0.0
 11
1.284563583406752
 21
3.154882967972701
 31
0.0
  0
LINE
  5
2E1
330
2D3
100
AcDbEntity
  8
4
100
AcDbLine
 10
1.284563583406752
 20
3.154882967972701
 30
0.0
 11
1.255737137125761
 21
2.882382967972701
 31
0.0
  0
LINE
  5
2E2
330
2D3
100
AcDbEntity
  8
4
100
AcDbLine
 10
1.158730973801141
 20
2.8823829679727
 30
0.0
 11
1.255737137125761
 21
2.882382967972701
 31
0.0
  0
LINE
  5
2E3
330
2D3
100
AcDbEntity
  8
4
100
AcDbLine
 10
1.129904527520149
 20
3.154882967972701
 30
0.0
 11
1.158730973801141
 21
2.882382967972701
 31
0.0
  0
LINE
  5
2E4
330
2D3
100
AcDbEntity
  8
4
100
AcDbLine
 10
1.145234055463451
 20
2.867382967972701
 30
0.0
 11
1.269234055463451
 21
2.867382967972701
 31
0.0
  0
LINE
  5
2E5
330
2D3
100
AcDbEntity
  8
4
100
AcDbLine
 10
1.113234055463451
 20
3.169882967972701
 30
0.0
 11
1.145234055463451
 21
2.867382967972701
 31
0.0
  0
LINE
  5
2E6
330
2D3
100
AcDbEntity
  8
4
100
AcDbLine
 10
1.301234055463451
 20
3.169882967972701
 30
0.0
 11
1.269234055463451
 21
2.867382967972701
 31
0.0
  0
LINE
  5
2E7
330
2D3
100
AcDbEntity
  8
4
100
AcDbLine
 10
1.113234055463451
 20
3.169882967972701
 30
0.0
 11
1.301234055463451
 21
3.169882967972701
 31
0.0
  0
LINE
  5
2E8
330
2D3
100
AcDbEntity
  8
4
100
AcDbLine
 10
5.0655
 20
1.594
 30
0.0
 11
5.1275
 21
1.594
 31
0.0
  0
LINE
  5
2E9
330
2D3
100
AcDbEntity
  8
4
100
AcDbLine
 10
6.375499999999999
 20
1.594
 30
0.0
 11
6.4375
 21
1.594
 31
0.0
  0
LINE
  5
2EA
330
2D3
100
AcDbEntity
  8
4
100
AcDbLine
 10
7.6245
 20
1.594
 30
0.0
 11
7.5625
 21
1.594
 31
0.0
  0
LINE
  5
2EB
330
2D3
100
AcDbEntity
  8
4
100
AcDbLine
 10
5.065499999999999
 20
4.406
 30
0.0
 11
5.127499999999999
 21
4.406
 31
0.0
  0
LINE
  5
2EC
330
2D3
100
AcDbEntity
  8
4
100
AcDbLine
 10
6.375499999999998
 20
4.406
 30
0.0
 11
6.437499999999999
 21
4.406
 31
0.0
  0
LINE
  5
2ED
330
2D3
100
AcDbEntity
  8
4
100
AcDbLine
 10
7.624500000000001
 20
4.406
 30
0.0
 11
7.5625
 21
4.406
 31
0.0
  0
LINE
  5
2EE
330
2D3
100
AcDbEntity
  8
4
100
AcDbLine
 10
7.6245
 20
4.406
 30
0.0
 11
7.6245
 21
1.594
 31
0.0
  0
LINE
  5
2EF
330
2D3
100
AcDbEntity
  8
4
100
AcDbLine
 10
6.375499999999999
 20
4.406
 30
0.0
 11
6.375499999999999
 21
1.594
 31
0.0
  0
LINE
  5
2F0
330
2D3
100
AcDbEntity
  8
4
100
AcDbLine
 10
5.0655
 20
4.406
 30
0.0
 11
5.0655
 21
1.594
 31
0.0
  0
LINE
  5
2F1
330
2D3
100
AcDbEntity
  8
4
100
AcDbLine
 10
1.094
 20
1.594
 30
0.0
 11
1.094
 21
4.406
 31
0.0
  0
LINE
  5
2F2
330
2D3
100
AcDbEntity
  8
4
100
AcDbLine
 10
1.094
 20
4.406
 30
0.0
 11
1.531
 21
4.406
 31
0.0
  0
LINE
  5
2F3
330
2D3
100
AcDbEntity
  8
4
100
AcDbLine
 10
1.531
 20
4.406
 30
0.0
 11
1.530999999999999
 21
1.594
 31
0.0
  0
LINE
  5
2F4
330
2D3
100
AcDbEntity
  8
4
100
AcDbLine
 10
1.530999999999999
 20
1.594
 30
0.0
 11
1.094
 21
1.594
 31
0.0
  0
LINE
  5
2F5
330
2D3
100
AcDbEntity
  8
4
100
AcDbLine
 10
1.541
 20
4.156
 30
0.0
 11
1.541
 21
4.031
 31
0.0
  0
LINE
  5
2F6
330
2D3
100
AcDbEntity
  8
4
100
AcDbLine
 10
1.541
 20
3.062
 30
0.0
 11
1.541
 21
2.937
 31
0.0
  0
LINE
  5
2F7
330
2D3
100
AcDbEntity
  8
4
100
AcDbLine
 10
1.540999999999999
 20
1.968
 30
0.0
 11
1.540999999999999
 21
1.843
 31
0.0
  0
LINE
  5
2F8
330
2D3
100
AcDbEntity
  8
4
100
AcDbLine
 10
0.9609118825233171
 20
3.128678671058805
 30
0.0
 11
0.5859118825233172
 21
3.128678671058805
 31
0.0
  0
LINE
  5
2F9
330
2D3
100
AcDbEntity
  8
4
100
AcDbLine
 10
0.5859118825233172
 20
3.128678671058805
 30
0.0
 11
0.5859118825233172
 21
3.190678671058805
 31
0.0
  0
LINE
  5
2FA
330
2D3
100
AcDbEntity
  8
4
100
AcDbLine
 10
0.9609118825233171
 20
2.988235734211761
 30
0.0
 11
0.5859118825233172
 21
2.988235734211761
 31
0.0
  0
LINE
  5
2FB
330
2D3
100
AcDbEntity
  8
4
100
AcDbLine
 10
0.5859118825233172
 20
2.988235734211761
 30
0.0
 11
0.5859118825233172
 21
2.926235734211761
 31
0.0
  0
INSERT
  5
2FC
330
2D3
100
AcDbEntity
  8
4
100
AcDbBlockReference
  2
ARRO
 10
0.9609118825233171
 20
3.128678671058805
 30
0.0
 50
180.0
  0
INSERT
  5
2FD
330
2D3
100
AcDbEntity
  8
4
100
AcDbBlockReference
  2
ARRO
 10
0.9609118825233171
 20
2.988235734211761
 30
0.0
 50
180.0
  0
LINE
  5
2FE
330
2D3
100
AcDbEntity
  8
4
100
AcDbLine
 10
1.156
 20
2.765868818412938
 30
0.0
 11
1.17475
 21
2.803368818412938
 31
0.0
  0
LINE
  5
2FF
330
2D3
100
AcDbEntity
  8
4
100
AcDbLine
 10
1.17475
 20
2.803368818412938
 30
0.0
 11
1.1935
 21
2.765868818412938
 31
0.0
  0
LINE
  5
300
330
2D3
100
AcDbEntity
  8
4
100
AcDbLine
 10
1.156
 20
2.765868818412938
 30
0.0
 11
1.17475
 21
2.728368818412938
 31
0.0
  0
LINE
  5
301
330
2D3
100
AcDbEntity
  8
4
100
AcDbLine
 10
1.17475
 20
2.728368818412938
 30
0.0
 11
1.1935
 21
2.765868818412938
 31
0.0
  0
LINE
  5
302
330
2D3
100
AcDbEntity
  8
4
100
AcDbLine
 10
1.19975
 20
2.670368818412939
 30
0.0
 11
1.2185
 21
2.707868818412938
 31
0.0
  0
LINE
  5
303
330
2D3
100
AcDbEntity
  8
4
100
AcDbLine
 10
1.181
 20
2.707868818412938
 30
0.0
 11
1.19975
 21
2.670368818412939
 31
0.0
  0
LINE
  5
304
330
2D3
100
AcDbEntity
  8
4
100
AcDbLine
 10
1.19975
 20
2.745368818412938
 30
0.0
 11
1.2185
 21
2.707868818412938
 31
0.0
  0
LINE
  5
305
330
2D3
100
AcDbEntity
  8
4
100
AcDbLine
 10
1.181
 20
2.707868818412938
 30
0.0
 11
1.19975
 21
2.745368818412938
 31
0.0
  0
LINE
  5
306
330
2D3
100
AcDbEntity
  8
4
100
AcDbLine
 10
1.181
 20
1.684368818412938
 30
0.0
 11
1.19975
 21
1.721868818412938
 31
0.0
  0
LINE
  5
307
330
2D3
100
AcDbEntity
  8
4
100
AcDbLine
 10
1.19975
 20
1.721868818412938
 30
0.0
 11
1.2185
 21
1.684368818412938
 31
0.0
  0
LINE
  5
308
330
2D3
100
AcDbEntity
  8
4
100
AcDbLine
 10
1.181
 20
1.684368818412938
 30
0.0
 11
1.19975
 21
1.646868818412938
 31
0.0
  0
LINE
  5
309
330
2D3
100
AcDbEntity
  8
4
100
AcDbLine
 10
1.19975
 20
1.646868818412938
 30
0.0
 11
1.2185
 21
1.684368818412938
 31
0.0
  0
LINE
  5
30A
330
2D3
100
AcDbEntity
  8
4
100
AcDbLine
 10
1.17475
 20
1.704868818412938
 30
0.0
 11
1.1935
 21
1.742368818412938
 31
0.0
  0
LINE
  5
30B
330
2D3
100
AcDbEntity
  8
4
100
AcDbLine
 10
1.156
 20
1.742368818412938
 30
0.0
 11
1.17475
 21
1.704868818412938
 31
0.0
  0
LINE
  5
30C
330
2D3
100
AcDbEntity
  8
4
100
AcDbLine
 10
1.17475
 20
1.779868818412937
 30
0.0
 11
1.1935
 21
1.742368818412938
 31
0.0
  0
LINE
  5
30D
330
2D3
100
AcDbEntity
  8
4
100
AcDbLine
 10
1.156
 20
1.742368818412938
 30
0.0
 11
1.17475
 21
1.779868818412937
 31
0.0
  0
LINE
  5
30E
330
2D3
100
AcDbEntity
  8
4
100
AcDbLine
 10
1.406
 20
1.742368818412938
 30
0.0
 11
1.42475
 21
1.779868818412937
 31
0.0
  0
LINE
  5
30F
330
2D3
100
AcDbEntity
  8
4
100
AcDbLine
 10
1.42475
 20
1.779868818412937
 30
0.0
 11
1.4435
 21
1.742368818412938
 31
0.0
  0
LINE
  5
310
330
2D3
100
AcDbEntity
  8
4
100
AcDbLine
 10
1.406
 20
1.742368818412938
 30
0.0
 11
1.42475
 21
1.704868818412938
 31
0.0
  0
LINE
  5
311
330
2D3
100
AcDbEntity
  8
4
100
AcDbLine
 10
1.42475
 20
1.704868818412938
 30
0.0
 11
1.4435
 21
1.742368818412938
 31
0.0
  0
LINE
  5
312
330
2D3
100
AcDbEntity
  8
4
100
AcDbLine
 10
1.44975
 20
1.646868818412938
 30
0.0
 11
1.4685
 21
1.684368818412938
 31
0.0
  0
LINE
  5
313
330
2D3
100
AcDbEntity
  8
4
100
AcDbLine
 10
1.431
 20
1.684368818412938
 30
0.0
 11
1.44975
 21
1.646868818412938
 31
0.0
  0
LINE
  5
314
330
2D3
100
AcDbEntity
  8
4
100
AcDbLine
 10
1.44975
 20
1.721868818412938
 30
0.0
 11
1.4685
 21
1.684368818412938
 31
0.0
  0
LINE
  5
315
330
2D3
100
AcDbEntity
  8
4
100
AcDbLine
 10
1.431
 20
1.684368818412938
 30
0.0
 11
1.44975
 21
1.721868818412938
 31
0.0
  0
LINE
  5
316
330
2D3
100
AcDbEntity
  8
4
100
AcDbLine
 10
1.431
 20
2.707868818412938
 30
0.0
 11
1.44975
 21
2.745368818412938
 31
0.0
  0
LINE
  5
317
330
2D3
100
AcDbEntity
  8
4
100
AcDbLine
 10
1.44975
 20
2.745368818412938
 30
0.0
 11
1.4685
 21
2.707868818412938
 31
0.0
  0
LINE
  5
318
330
2D3
100
AcDbEntity
  8
4
100
AcDbLine
 10
1.431
 20
2.707868818412938
 30
0.0
 11
1.44975
 21
2.670368818412939
 31
0.0
  0
LINE
  5
319
330
2D3
100
AcDbEntity
  8
4
100
AcDbLine
 10
1.44975
 20
2.670368818412939
 30
0.0
 11
1.4685
 21
2.707868818412938
 31
0.0
  0
LINE
  5
31A
330
2D3
100
AcDbEntity
  8
4
100
AcDbLine
 10
1.42475
 20
2.728368818412938
 30
0.0
 11
1.4435
 21
2.765868818412938
 31
0.0
  0
LINE
  5
31B
330
2D3
100
AcDbEntity
  8
4
100
AcDbLine
 10
1.406
 20
2.765868818412938
 30
0.0
 11
1.42475
 21
2.728368818412938
 31
0.0
  0
LINE
  5
31C
330
2D3
100
AcDbEntity
  8
4
100
AcDbLine
 10
1.42475
 20
2.803368818412938
 30
0.0
 11
1.4435
 21
2.765868818412938
 31
0.0
  0
LINE
  5
31D
330
2D3
100
AcDbEntity
  8
4
100
AcDbLine
 10
1.406
 20
2.765868818412938
 30
0.0
 11
1.42475
 21
2.803368818412938
 31
0.0
  0
LINE
  5
31E
330
2D3
100
AcDbEntity
  8
2
100
AcDbLine
 10
1.4685
 20
2.707868818412938
 30
0.0
 11
1.4685
 21
1.684368818412938
 31
0.0
  0
LINE
  5
31F
330
2D3
100
AcDbEntity
  8
2
100
AcDbLine
 10
1.156
 20
2.765868818412938
 30
0.0
 11
1.156
 21
1.742368818412938
 31
0.0
  0
LINE
  5
320
330
2D3
100
AcDbEntity
  8
2
100
AcDbLine
 10
1.19975
 20
1.646868818412938
 30
0.0
 11
1.44975
 21
1.646868818412938
 31
0.0
  0
LINE
  5
321
330
2D3
100
AcDbEntity
  8
2
100
AcDbLine
 10
1.17475
 20
2.803368818412939
 30
0.0
 11
1.42475
 21
2.803368818412938
 31
0.0
  0
LINE
  5
322
330
2D3
100
AcDbEntity
  8
2
100
AcDbLine
 10
1.17475
 20
4.367395832264235
 30
0.0
 11
1.42475
 21
4.367395832264234
 31
0.0
  0
LINE
  5
323
330
2D3
100
AcDbEntity
  8
2
100
AcDbLine
 10
1.19975
 20
3.210895832264235
 30
0.0
 11
1.44975
 21
3.210895832264235
 31
0.0
  0
LINE
  5
324
330
2D3
100
AcDbEntity
  8
2
100
AcDbLine
 10
1.156
 20
4.329895832264234
 30
0.0
 11
1.156
 21
3.306395832264234
 31
0.0
  0
LINE
  5
325
330
2D3
100
AcDbEntity
  8
2
100
AcDbLine
 10
1.4685
 20
4.271895832264235
 30
0.0
 11
1.4685
 21
3.248395832264234
 31
0.0
  0
LINE
  5
326
330
2D3
100
AcDbEntity
  8
4
100
AcDbLine
 10
1.406
 20
4.329895832264234
 30
0.0
 11
1.42475
 21
4.367395832264234
 31
0.0
  0
LINE
  5
327
330
2D3
100
AcDbEntity
  8
4
100
AcDbLine
 10
1.42475
 20
4.367395832264234
 30
0.0
 11
1.4435
 21
4.329895832264234
 31
0.0
  0
LINE
  5
328
330
2D3
100
AcDbEntity
  8
4
100
AcDbLine
 10
1.406
 20
4.329895832264234
 30
0.0
 11
1.42475
 21
4.292395832264235
 31
0.0
  0
LINE
  5
329
330
2D3
100
AcDbEntity
  8
4
100
AcDbLine
 10
1.42475
 20
4.292395832264235
 30
0.0
 11
1.4435
 21
4.329895832264234
 31
0.0
  0
LINE
  5
32A
330
2D3
100
AcDbEntity
  8
4
100
AcDbLine
 10
1.44975
 20
4.234395832264235
 30
0.0
 11
1.4685
 21
4.271895832264235
 31
0.0
  0
LINE
  5
32B
330
2D3
100
AcDbEntity
  8
4
100
AcDbLine
 10
1.431
 20
4.271895832264235
 30
0.0
 11
1.44975
 21
4.234395832264235
 31
0.0
  0
LINE
  5
32C
330
2D3
100
AcDbEntity
  8
4
100
AcDbLine
 10
1.44975
 20
4.309395832264234
 30
0.0
 11
1.4685
 21
4.271895832264235
 31
0.0
  0
LINE
  5
32D
330
2D3
100
AcDbEntity
  8
4
100
AcDbLine
 10
1.431
 20
4.271895832264235
 30
0.0
 11
1.44975
 21
4.309395832264234
 31
0.0
  0
LINE
  5
32E
330
2D3
100
AcDbEntity
  8
4
100
AcDbLine
 10
1.431
 20
3.248395832264234
 30
0.0
 11
1.44975
 21
3.285895832264234
 31
0.0
  0
LINE
  5
32F
330
2D3
100
AcDbEntity
  8
4
100
AcDbLine
 10
1.44975
 20
3.285895832264234
 30
0.0
 11
1.4685
 21
3.248395832264234
 31
0.0
  0
LINE
  5
330
330
2D3
100
AcDbEntity
  8
4
100
AcDbLine
 10
1.431
 20
3.248395832264234
 30
0.0
 11
1.44975
 21
3.210895832264235
 31
0.0
  0
LINE
  5
331
330
2D3
100
AcDbEntity
  8
4
100
AcDbLine
 10
1.44975
 20
3.210895832264235
 30
0.0
 11
1.4685
 21
3.248395832264234
 31
0.0
  0
LINE
  5
332
330
2D3
100
AcDbEntity
  8
4
100
AcDbLine
 10
1.42475
 20
3.268895832264234
 30
0.0
 11
1.4435
 21
3.306395832264234
 31
0.0
  0
LINE
  5
333
330
2D3
100
AcDbEntity
  8
4
100
AcDbLine
 10
1.406
 20
3.306395832264234
 30
0.0
 11
1.42475
 21
3.268895832264234
 31
0.0
  0
LINE
  5
334
330
2D3
100
AcDbEntity
  8
4
100
AcDbLine
 10
1.42475
 20
3.343895832264234
 30
0.0
 11
1.4435
 21
3.306395832264234
 31
0.0
  0
LINE
  5
335
330
2D3
100
AcDbEntity
  8
4
100
AcDbLine
 10
1.406
 20
3.306395832264234
 30
0.0
 11
1.42475
 21
3.343895832264234
 31
0.0
  0
LINE
  5
336
330
2D3
100
AcDbEntity
  8
4
100
AcDbLine
 10
1.156
 20
3.306395832264234
 30
0.0
 11
1.17475
 21
3.343895832264234
 31
0.0
  0
LINE
  5
337
330
2D3
100
AcDbEntity
  8
4
100
AcDbLine
 10
1.17475
 20
3.343895832264234
 30
0.0
 11
1.1935
 21
3.306395832264234
 31
0.0
  0
LINE
  5
338
330
2D3
100
AcDbEntity
  8
4
100
AcDbLine
 10
1.156
 20
3.306395832264234
 30
0.0
 11
1.17475
 21
3.268895832264234
 31
0.0
  0
LINE
  5
339
330
2D3
100
AcDbEntity
  8
4
100
AcDbLine
 10
1.17475
 20
3.268895832264234
 30
0.0
 11
1.1935
 21
3.306395832264234
 31
0.0
  0
LINE
  5
33A
330
2D3
100
AcDbEntity
  8
4
100
AcDbLine
 10
1.19975
 20
3.210895832264235
 30
0.0
 11
1.2185
 21
3.248395832264234
 31
0.0
  0
LINE
  5
33B
330
2D3
100
AcDbEntity
  8
4
100
AcDbLine
 10
1.181
 20
3.248395832264234
 30
0.0
 11
1.19975
 21
3.210895832264235
 31
0.0
  0
LINE
  5
33C
330
2D3
100
AcDbEntity
  8
4
100
AcDbLine
 10
1.19975
 20
3.285895832264234
 30
0.0
 11
1.2185
 21
3.248395832264234
 31
0.0
  0
LINE
  5
33D
330
2D3
100
AcDbEntity
  8
4
100
AcDbLine
 10
1.181
 20
3.248395832264234
 30
0.0
 11
1.19975
 21
3.285895832264234
 31
0.0
  0
LINE
  5
33E
330
2D3
100
AcDbEntity
  8
4
100
AcDbLine
 10
1.181
 20
4.271895832264235
 30
0.0
 11
1.19975
 21
4.309395832264234
 31
0.0
  0
LINE
  5
33F
330
2D3
100
AcDbEntity
  8
4
100
AcDbLine
 10
1.19975
 20
4.309395832264234
 30
0.0
 11
1.2185
 21
4.271895832264235
 31
0.0
  0
LINE
  5
340
330
2D3
100
AcDbEntity
  8
4
100
AcDbLine
 10
1.181
 20
4.271895832264235
 30
0.0
 11
1.19975
 21
4.234395832264235
 31
0.0
  0
LINE
  5
341
330
2D3
100
AcDbEntity
  8
4
100
AcDbLine
 10
1.19975
 20
4.234395832264235
 30
0.0
 11
1.2185
 21
4.271895832264235
 31
0.0
  0
LINE
  5
342
330
2D3
100
AcDbEntity
  8
4
100
AcDbLine
 10
1.17475
 20
4.292395832264235
 30
0.0
 11
1.1935
 21
4.329895832264234
 31
0.0
  0
LINE
  5
343
330
2D3
100
AcDbEntity
  8
4
100
AcDbLine
 10
1.156
 20
4.329895832264234
 30
0.0
 11
1.17475
 21
4.292395832264235
 31
0.0
  0
LINE
  5
344
330
2D3
100
AcDbEntity
  8
4
100
AcDbLine
 10
1.17475
 20
4.367395832264234
 30
0.0
 11
1.1935
 21
4.329895832264234
 31
0.0
  0
LINE
  5
345
330
2D3
100
AcDbEntity
  8
4
100
AcDbLine
 10
1.156
 20
4.329895832264234
 30
0.0
 11
1.17475
 21
4.367395832264234
 31
0.0
  0
TEXT
  5
346
330
2D3
100
AcDbEntity
  8
8
100
AcDbText
 10
0.6159118825233172
 20
3.252678671058805
 30
0.0
 40
0.07
  1
HANDLE & P/A
 50
90.0
  7
ROMANS
100
AcDbText
  0
TEXT
  5
347
330
2D3
100
AcDbEntity
  8
8
100
AcDbText
 10
0.6159118825233171
 20
1.857569067545094
 30
0.0
 40
0.07
  1
LOCK ESCUTCHEON
 50
90.0
  7
ROMANS
 72
     2
 11
0.6159118825233172
 21
2.864235734211761
 31
0.0
100
AcDbText
  0
INSERT
  5
348
330
2D3
100
AcDbEntity
  8
2
100
AcDbBlockReference
  2
TEMP1
 10
5.0655
 20
4.406
 30
0.0
  0
INSERT
  5
349
330
2D3
100
AcDbEntity
  8
2
100
AcDbBlockReference
  2
TEMP1
 10
6.375499999999999
 20
4.406
 30
0.0
  0
INSERT
  5
34A
330
2D3
100
AcDbEntity
  8
2
100
AcDbBlockReference
  2
TEMP1
 10
6.914499999999999
 20
4.406
 30
0.0
  0
ENDBLK
  5
34C
330
2D3
100
AcDbEntity
  8
0
100
AcDbBlockEnd
  0
BLOCK
  5
353
330
34F
100
AcDbEntity
  8
4
100
AcDbBlockBegin
  2
FRACTION
 70
     2
 10
0.0
 20
0.0
 30
0.0
  3
FRACTION
  1

  0
ATTDEF
  5
350
330
34F
100
AcDbEntity
  8
8
100
AcDbText
 10
-0.0729108846144104
 20
0.0974999999999966
 30
0.0
 40
0.125
  1

 72
     2
 11
-0.0729108846144104
 21
0.0974999999999966
 31
0.0
100
AcDbAttributeDefinition
  3
ENTER WHOLE NUMBER
  2
A
 70
     0
  0
ATTDEF
  5
351
330
34F
100
AcDbEntity
  8
8
100
AcDbText
 10
0.0719999999999992
 20
0.1799999999999962
 30
0.0
 40
0.1
  1

 72
     1
 11
0.0719999999999992
 21
0.1799999999999962
 31
0.0
100
AcDbAttributeDefinition
  3
ENTER NUMERATOR
  2
B
 70
     0
  0
ATTDEF
  5
352
330
34F
100
AcDbEntity
  8
8
100
AcDbText
 10
0.0719999999999992
 20
0.0399999999999992
 30
0.0
 40
0.1
  1

 72
     1
 11
0.0719999999999992
 21
0.0399999999999992
 31
0.0
100
AcDbAttributeDefinition
  3
ENTER DENOMINATOR
  2
C
 70
     0
  0
ENDBLK
  5
354
330
34F
100
AcDbEntity
  8
4
100
AcDbBlockEnd
  0
BLOCK
  5
594
330
355
100
AcDbEntity
  8
0
100
AcDbBlockBegin
  2
Le1040
 70
     0
 10
0.0
 20
0.0
 30
0.0
  3
Le1040
  1

  0
TEXT
  5
356
330
355
100
AcDbEntity
  8
8
100
AcDbText
 10
4.500499999999999
 20
2.215407246131252
 30
0.0
 40
0.07
  1
60
 50
90.0
 72
     1
 11
4.500499999999999
 21
2.267907246131252
 31
0.0
100
AcDbText
  0
TEXT
  5
357
330
355
100
AcDbEntity
  8
8
100
AcDbText
 10
4.750499999999999
 20
1.437244412134201
 30
0.0
 40
0.07
  1
1
 50
90.0
 72
     1
 11
4.750499999999999
 21
1.448911078800868
 31
0.0
100
AcDbText
  0
INSERT
  5
358
330
355
100
AcDbEntity
  8
4
100
AcDbBlockReference
 66
     1
  2
FRACTION
 10
4.8125
 20
4.073714957276946
 30
0.0
 41
0.6
 42
0.6
 43
0.6
 50
90.0
  0
ATTRIB
  5
359
330
358
100
AcDbEntity
  8
8
100
AcDbText
 10
4.754000000000002
 20
3.929968426508299
 30
0.0
 40
0.075
  1
19
 50
90.0
 72
     2
 11
4.754000000000002
 21
4.0299684265083
 31
0.0
100
AcDbAttribute
  2
A
 70
     0
  0
ATTRIB
  5
35A
330
358
100
AcDbEntity
  8
8
100
AcDbText
 10
4.704500000000002
 20
4.076914957276945
 30
0.0
 40
0.06
  1
21
 50
90.0
 72
     1
 11
4.704500000000002
 21
4.116914957276945
 31
0.0
100
AcDbAttribute
  2
B
 70
     0
  0
ATTRIB
  5
35B
330
358
100
AcDbEntity
  8
8
100
AcDbText
 10
4.7885
 20
4.066914957276945
 30
0.0
 40
0.06
  1
32
 50
90.0
 72
     1
 11
4.7885
 21
4.116914957276945
 31
0.0
100
AcDbAttribute
  2
C
 70
     0
  0
SEQEND
  5
35C
330
358
100
AcDbEntity
  8
4
  0
INSERT
  5
35D
330
355
100
AcDbEntity
  8
4
100
AcDbBlockReference
 66
     1
  2
FRACTION
 10
4.8125
 20
3.038721790654931
 30
0.0
 41
0.6
 42
0.6
 43
0.6
 50
90.0
  0
ATTRIB
  5
35E
330
35D
100
AcDbEntity
  8
8
100
AcDbText
 10
4.754000000000002
 20
2.894975259886285
 30
0.0
 40
0.075
  1
19
 50
90.0
 72
     2
 11
4.754000000000002
 21
2.994975259886285
 31
0.0
100
AcDbAttribute
  2
A
 70
     0
  0
ATTRIB
  5
35F
330
35D
100
AcDbEntity
  8
8
100
AcDbText
 10
4.704500000000002
 20
3.051921790654931
 30
0.0
 40
0.06
  1
11
 50
90.0
 72
     1
 11
4.704500000000002
 21
3.081921790654931
 31
0.0
100
AcDbAttribute
  2
B
 70
     0
  0
ATTRIB
  5
360
330
35D
100
AcDbEntity
  8
8
100
AcDbText
 10
4.7885
 20
3.041921790654931
 30
0.0
 40
0.06
  1
16
 50
90.0
 72
     1
 11
4.7885
 21
3.081921790654931
 31
0.0
100
AcDbAttribute
  2
C
 70
     0
  0
SEQEND
  5
361
330
35D
100
AcDbEntity
  8
4
  0
INSERT
  5
362
330
355
100
AcDbEntity
  8
4
100
AcDbBlockReference
 66
     1
  2
FRACTION
 10
4.8125
 20
2.086528077362678
 30
0.0
 41
0.6
 42
0.6
 43
0.6
 50
90.0
  0
ATTRIB
  5
363
330
362
100
AcDbEntity
  8
8
100
AcDbText
 10
4.754000000000002
 20
1.942781546594031
 30
0.0
 40
0.075
  1
19
 50
90.0
 72
     2
 11
4.754000000000002
 21
2.042781546594031
 31
0.0
100
AcDbAttribute
  2
A
 70
     0
  0
ATTRIB
  5
364
330
362
100
AcDbEntity
  8
8
100
AcDbText
 10
4.704500000000002
 20
2.089728077362678
 30
0.0
 40
0.06
  1
21
 50
90.0
 72
     1
 11
4.704500000000002
 21
2.129728077362678
 31
0.0
100
AcDbAttribute
  2
B
 70
     0
  0
ATTRIB
  5
365
330
362
100
AcDbEntity
  8
8
100
AcDbText
 10
4.7885
 20
2.079728077362678
 30
0.0
 40
0.06
  1
32
 50
90.0
 72
     1
 11
4.7885
 21
2.129728077362678
 31
0.0
100
AcDbAttribute
  2
C
 70
     0
  0
SEQEND
  5
366
330
362
100
AcDbEntity
  8
4
  0
INSERT
  5
367
330
355
100
AcDbEntity
  8
2
100
AcDbBlockReference
  2
LE029
 10
5.26443550317087
 20
3.078955447504621
 30
0.0
  0
INSERT
  5
368
330
355
100
AcDbEntity
  8
2
100
AcDbBlockReference
  2
LE029
 10
5.264435503170872
 20
3.195376207275766
 30
0.0
  0
LINE
  5
369
330
355
100
AcDbEntity
  8
2
100
AcDbLine
 10
5.308185503170872
 20
2.983455447504623
 30
0.0
 11
5.558185503170872
 21
2.983455447504623
 31
0.0
  0
LINE
  5
36A
330
355
100
AcDbEntity
  8
2
100
AcDbLine
 10
5.283185503170873
 20
3.232876207275767
 30
0.0
 11
5.533185503170871
 21
3.232876207275766
 31
0.0
  0
INSERT
  5
36B
330
355
100
AcDbEntity
  8
2
100
AcDbBlockReference
  2
LE029
 10
7.113435503170871
 20
3.078955447504621
 30
0.0
  0
INSERT
  5
36C
330
355
100
AcDbEntity
  8
2
100
AcDbBlockReference
  2
LE029
 10
7.113435503170872
 20
3.195376207275766
 30
0.0
  0
INSERT
  5
36D
330
355
100
AcDbEntity
  8
2
100
AcDbBlockReference
  2
LE029
 10
6.574435503170871
 20
3.078955447504621
 30
0.0
  0
INSERT
  5
36E
330
355
100
AcDbEntity
  8
2
100
AcDbBlockReference
  2
LE029
 10
6.574435503170871
 20
3.195376207275766
 30
0.0
  0
LINE
  5
36F
330
355
100
AcDbEntity
  8
2
100
AcDbLine
 10
6.593185503170872
 20
3.232876207275767
 30
0.0
 11
6.843185503170872
 21
3.232876207275766
 31
0.0
  0
LINE
  5
370
330
355
100
AcDbEntity
  8
2
100
AcDbLine
 10
6.61818550317087
 20
2.983455447504623
 30
0.0
 11
6.86818550317087
 21
2.983455447504623
 31
0.0
  0
LINE
  5
371
330
355
100
AcDbEntity
  8
2
100
AcDbLine
 10
7.132185503170873
 20
3.232876207275767
 30
0.0
 11
7.382185503170871
 21
3.232876207275766
 31
0.0
  0
LINE
  5
372
330
355
100
AcDbEntity
  8
2
100
AcDbLine
 10
7.157185503170872
 20
2.983455447504623
 30
0.0
 11
7.407185503170872
 21
2.983455447504623
 31
0.0
  0
LINE
  5
373
330
355
100
AcDbEntity
  8
2
100
AcDbLine
 10
7.157185503170872
 20
2.618059974349355
 30
0.0
 11
7.407185503170872
 21
2.618059974349355
 31
0.0
  0
LINE
  5
374
330
355
100
AcDbEntity
  8
2
100
AcDbLine
 10
7.132185503170873
 20
2.867480734120499
 30
0.0
 11
7.382185503170871
 21
2.867480734120498
 31
0.0
  0
LINE
  5
375
330
355
100
AcDbEntity
  8
2
100
AcDbLine
 10
6.61818550317087
 20
2.618059974349355
 30
0.0
 11
6.86818550317087
 21
2.618059974349355
 31
0.0
  0
LINE
  5
376
330
355
100
AcDbEntity
  8
2
100
AcDbLine
 10
6.593185503170872
 20
2.867480734120499
 30
0.0
 11
6.843185503170872
 21
2.867480734120498
 31
0.0
  0
INSERT
  5
377
330
355
100
AcDbEntity
  8
2
100
AcDbBlockReference
  2
LE029
 10
6.574435503170871
 20
2.829980734120498
 30
0.0
  0
INSERT
  5
378
330
355
100
AcDbEntity
  8
2
100
AcDbBlockReference
  2
LE029
 10
6.574435503170871
 20
2.713559974349353
 30
0.0
  0
INSERT
  5
379
330
355
100
AcDbEntity
  8
2
100
AcDbBlockReference
  2
LE029
 10
7.113435503170872
 20
2.829980734120498
 30
0.0
  0
INSERT
  5
37A
330
355
100
AcDbEntity
  8
2
100
AcDbBlockReference
  2
LE029
 10
7.113435503170871
 20
2.713559974349353
 30
0.0
  0
LINE
  5
37B
330
355
100
AcDbEntity
  8
2
100
AcDbLine
 10
5.283185503170873
 20
2.867480734120499
 30
0.0
 11
5.533185503170871
 21
2.867480734120498
 31
0.0
  0
LINE
  5
37C
330
355
100
AcDbEntity
  8
2
100
AcDbLine
 10
5.308185503170872
 20
2.618059974349355
 30
0.0
 11
5.558185503170872
 21
2.618059974349355
 31
0.0
  0
INSERT
  5
37D
330
355
100
AcDbEntity
  8
2
100
AcDbBlockReference
  2
LE029
 10
5.264435503170872
 20
2.829980734120498
 30
0.0
  0
INSERT
  5
37E
330
355
100
AcDbEntity
  8
2
100
AcDbBlockReference
  2
LE029
 10
5.26443550317087
 20
2.713559974349353
 30
0.0
  0
LINE
  5
37F
330
355
100
AcDbEntity
  8
4
100
AcDbLine
 10
1.11323405546345
 20
2.173467157252412
 30
0.0
 11
1.30123405546345
 21
2.173467157252412
 31
0.0
  0
LINE
  5
380
330
355
100
AcDbEntity
  8
4
100
AcDbLine
 10
1.30123405546345
 20
2.173467157252412
 30
0.0
 11
1.26923405546345
 21
1.870967157252411
 31
0.0
  0
LINE
  5
381
330
355
100
AcDbEntity
  8
4
100
AcDbLine
 10
1.11323405546345
 20
2.173467157252412
 30
0.0
 11
1.14523405546345
 21
1.870967157252411
 31
0.0
  0
LINE
  5
382
330
355
100
AcDbEntity
  8
4
100
AcDbLine
 10
1.14523405546345
 20
1.870967157252411
 30
0.0
 11
1.26923405546345
 21
1.870967157252411
 31
0.0
  0
LINE
  5
383
330
355
100
AcDbEntity
  8
4
100
AcDbLine
 10
1.129904527520149
 20
2.158467157252411
 30
0.0
 11
1.15873097380114
 21
1.885967157252411
 31
0.0
  0
LINE
  5
384
330
355
100
AcDbEntity
  8
4
100
AcDbLine
 10
1.15873097380114
 20
1.885967157252411
 30
0.0
 11
1.25573713712576
 21
1.885967157252411
 31
0.0
  0
LINE
  5
385
330
355
100
AcDbEntity
  8
4
100
AcDbLine
 10
1.284563583406752
 20
2.158467157252411
 30
0.0
 11
1.25573713712576
 21
1.885967157252411
 31
0.0
  0
LINE
  5
386
330
355
100
AcDbEntity
  8
4
100
AcDbLine
 10
1.129904527520149
 20
2.158467157252411
 30
0.0
 11
1.284563583406752
 21
2.158467157252411
 31
0.0
  0
LINE
  5
387
330
355
100
AcDbEntity
  8
4
100
AcDbLine
 10
1.22223405546345
 20
2.158467157252411
 30
0.0
 11
1.22223405546345
 21
2.111467157252413
 31
0.0
  0
LINE
  5
388
330
355
100
AcDbEntity
  8
4
100
AcDbLine
 10
1.22223405546345
 20
2.111467157252413
 30
0.0
 11
1.19223405546345
 21
2.111467157252413
 31
0.0
  0
LINE
  5
389
330
355
100
AcDbEntity
  8
4
100
AcDbLine
 10
1.19223405546345
 20
2.111467157252413
 30
0.0
 11
1.19223405546345
 21
2.158467157252411
 31
0.0
  0
LWPOLYLINE
  5
38A
330
355
100
AcDbEntity
  8
4
100
AcDbPolyline
 90
        2
 70
     1
 43
0.01
 10
1.20223405546345
 20
1.938983801611808
 42
1.0
 10
1.21223405546345
 20
1.938983801611808
 42
1.0
  0
LWPOLYLINE
  5
38B
330
355
100
AcDbEntity
  8
4
100
AcDbPolyline
 90
        2
 70
     1
 43
0.01
 10
1.20223405546345
 20
2.043983801611808
 42
1.0
 10
1.21223405546345
 20
2.043983801611808
 42
1.0
  0
CIRCLE
  5
38C
330
355
100
AcDbEntity
  8
4
100
AcDbCircle
 10
1.20723405546345
 20
1.991483801611808
 30
0.0
 40
0.023
  0
LINE
  5
38D
330
355
100
AcDbEntity
  8
4
100
AcDbLine
 10
1.157009789033288
 20
2.391865507946047
 30
0.0
 11
1.175759789033287
 21
2.429365507946046
 31
0.0
  0
LINE
  5
38E
330
355
100
AcDbEntity
  8
4
100
AcDbLine
 10
1.175759789033287
 20
2.429365507946046
 30
0.0
 11
1.194509789033288
 21
2.391865507946047
 31
0.0
  0
LINE
  5
38F
330
355
100
AcDbEntity
  8
4
100
AcDbLine
 10
1.157009789033288
 20
2.391865507946047
 30
0.0
 11
1.175759789033287
 21
2.354365507946047
 31
0.0
  0
LINE
  5
390
330
355
100
AcDbEntity
  8
4
100
AcDbLine
 10
1.175759789033287
 20
2.354365507946047
 30
0.0
 11
1.194509789033288
 21
2.391865507946047
 31
0.0
  0
LINE
  5
391
330
355
100
AcDbEntity
  8
4
100
AcDbLine
 10
1.200759789033287
 20
2.296365507946047
 30
0.0
 11
1.219509789033288
 21
2.333865507946047
 31
0.0
  0
LINE
  5
392
330
355
100
AcDbEntity
  8
4
100
AcDbLine
 10
1.182009789033288
 20
2.333865507946047
 30
0.0
 11
1.200759789033287
 21
2.296365507946047
 31
0.0
  0
LINE
  5
393
330
355
100
AcDbEntity
  8
4
100
AcDbLine
 10
1.200759789033287
 20
2.371365507946046
 30
0.0
 11
1.219509789033288
 21
2.333865507946047
 31
0.0
  0
LINE
  5
394
330
355
100
AcDbEntity
  8
4
100
AcDbLine
 10
1.182009789033288
 20
2.333865507946047
 30
0.0
 11
1.200759789033287
 21
2.371365507946046
 31
0.0
  0
LINE
  5
395
330
355
100
AcDbEntity
  8
4
100
AcDbLine
 10
1.182009789033287
 20
2.226229048514197
 30
0.0
 11
1.200759789033287
 21
2.263729048514196
 31
0.0
  0
LINE
  5
396
330
355
100
AcDbEntity
  8
4
100
AcDbLine
 10
1.200759789033287
 20
2.263729048514196
 30
0.0
 11
1.219509789033288
 21
2.226229048514197
 31
0.0
  0
LINE
  5
397
330
355
100
AcDbEntity
  8
4
100
AcDbLine
 10
1.182009789033287
 20
2.226229048514197
 30
0.0
 11
1.200759789033287
 21
2.188729048514197
 31
0.0
  0
LINE
  5
398
330
355
100
AcDbEntity
  8
4
100
AcDbLine
 10
1.200759789033287
 20
2.188729048514197
 30
0.0
 11
1.219509789033288
 21
2.226229048514197
 31
0.0
  0
LINE
  5
399
330
355
100
AcDbEntity
  8
4
100
AcDbLine
 10
1.175759789033287
 20
2.246729048514197
 30
0.0
 11
1.194509789033288
 21
2.284229048514196
 31
0.0
  0
LINE
  5
39A
330
355
100
AcDbEntity
  8
4
100
AcDbLine
 10
1.157009789033288
 20
2.284229048514196
 30
0.0
 11
1.175759789033287
 21
2.246729048514197
 31
0.0
  0
LINE
  5
39B
330
355
100
AcDbEntity
  8
4
100
AcDbLine
 10
1.175759789033287
 20
2.321729048514196
 30
0.0
 11
1.194509789033288
 21
2.284229048514196
 31
0.0
  0
LINE
  5
39C
330
355
100
AcDbEntity
  8
4
100
AcDbLine
 10
1.157009789033288
 20
2.284229048514196
 30
0.0
 11
1.175759789033287
 21
2.321729048514196
 31
0.0
  0
LINE
  5
39D
330
355
100
AcDbEntity
  8
4
100
AcDbLine
 10
1.407009789033288
 20
2.284229048514196
 30
0.0
 11
1.425759789033287
 21
2.321729048514196
 31
0.0
  0
LINE
  5
39E
330
355
100
AcDbEntity
  8
4
100
AcDbLine
 10
1.425759789033287
 20
2.321729048514196
 30
0.0
 11
1.444509789033288
 21
2.284229048514196
 31
0.0
  0
LINE
  5
39F
330
355
100
AcDbEntity
  8
4
100
AcDbLine
 10
1.407009789033288
 20
2.284229048514196
 30
0.0
 11
1.425759789033287
 21
2.246729048514197
 31
0.0
  0
LINE
  5
3A0
330
355
100
AcDbEntity
  8
4
100
AcDbLine
 10
1.425759789033287
 20
2.246729048514197
 30
0.0
 11
1.444509789033288
 21
2.284229048514196
 31
0.0
  0
LINE
  5
3A1
330
355
100
AcDbEntity
  8
4
100
AcDbLine
 10
1.450759789033287
 20
2.188729048514197
 30
0.0
 11
1.469509789033288
 21
2.226229048514197
 31
0.0
  0
LINE
  5
3A2
330
355
100
AcDbEntity
  8
4
100
AcDbLine
 10
1.432009789033287
 20
2.226229048514197
 30
0.0
 11
1.450759789033287
 21
2.188729048514197
 31
0.0
  0
LINE
  5
3A3
330
355
100
AcDbEntity
  8
4
100
AcDbLine
 10
1.450759789033287
 20
2.263729048514196
 30
0.0
 11
1.469509789033288
 21
2.226229048514197
 31
0.0
  0
LINE
  5
3A4
330
355
100
AcDbEntity
  8
4
100
AcDbLine
 10
1.432009789033287
 20
2.226229048514197
 30
0.0
 11
1.450759789033287
 21
2.263729048514196
 31
0.0
  0
LINE
  5
3A5
330
355
100
AcDbEntity
  8
4
100
AcDbLine
 10
1.432009789033287
 20
2.333865507946047
 30
0.0
 11
1.450759789033287
 21
2.371365507946046
 31
0.0
  0
LINE
  5
3A6
330
355
100
AcDbEntity
  8
4
100
AcDbLine
 10
1.450759789033287
 20
2.371365507946046
 30
0.0
 11
1.469509789033288
 21
2.333865507946047
 31
0.0
  0
LINE
  5
3A7
330
355
100
AcDbEntity
  8
4
100
AcDbLine
 10
1.432009789033287
 20
2.333865507946047
 30
0.0
 11
1.450759789033287
 21
2.296365507946047
 31
0.0
  0
LINE
  5
3A8
330
355
100
AcDbEntity
  8
4
100
AcDbLine
 10
1.450759789033287
 20
2.296365507946047
 30
0.0
 11
1.469509789033288
 21
2.333865507946047
 31
0.0
  0
LINE
  5
3A9
330
355
100
AcDbEntity
  8
4
100
AcDbLine
 10
1.425759789033287
 20
2.354365507946047
 30
0.0
 11
1.444509789033288
 21
2.391865507946047
 31
0.0
  0
LINE
  5
3AA
330
355
100
AcDbEntity
  8
4
100
AcDbLine
 10
1.407009789033288
 20
2.391865507946047
 30
0.0
 11
1.425759789033287
 21
2.354365507946047
 31
0.0
  0
LINE
  5
3AB
330
355
100
AcDbEntity
  8
4
100
AcDbLine
 10
1.425759789033287
 20
2.429365507946046
 30
0.0
 11
1.444509789033288
 21
2.391865507946047
 31
0.0
  0
LINE
  5
3AC
330
355
100
AcDbEntity
  8
4
100
AcDbLine
 10
1.407009789033288
 20
2.391865507946047
 30
0.0
 11
1.425759789033287
 21
2.429365507946046
 31
0.0
  0
LINE
  5
3AD
330
355
100
AcDbEntity
  8
2
100
AcDbLine
 10
1.469509789033288
 20
2.333865507946047
 30
0.0
 11
1.469509789033288
 21
2.226229048514197
 31
0.0
  0
LINE
  5
3AE
330
355
100
AcDbEntity
  8
2
100
AcDbLine
 10
1.157009789033288
 20
2.391865507946047
 30
0.0
 11
1.157009789033288
 21
2.284229048514196
 31
0.0
  0
LINE
  5
3AF
330
355
100
AcDbEntity
  8
2
100
AcDbLine
 10
1.200759789033287
 20
2.188729048514197
 30
0.0
 11
1.450759789033287
 21
2.188729048514197
 31
0.0
  0
LINE
  5
3B0
330
355
100
AcDbEntity
  8
2
100
AcDbLine
 10
1.175759789033289
 20
2.429365507946048
 30
0.0
 11
1.425759789033287
 21
2.429365507946046
 31
0.0
  0
LINE
  5
3B1
330
355
100
AcDbEntity
  8
2
100
AcDbLine
 10
1.175759789033289
 20
1.846646755040739
 30
0.0
 11
1.425759789033287
 21
1.846646755040738
 31
0.0
  0
LINE
  5
3B2
330
355
100
AcDbEntity
  8
2
100
AcDbLine
 10
1.200759789033287
 20
1.606010295608888
 30
0.0
 11
1.450759789033287
 21
1.606010295608888
 31
0.0
  0
LINE
  5
3B3
330
355
100
AcDbEntity
  8
2
100
AcDbLine
 10
1.157009789033288
 20
1.809146755040738
 30
0.0
 11
1.157009789033288
 21
1.701510295608888
 31
0.0
  0
LINE
  5
3B4
330
355
100
AcDbEntity
  8
2
100
AcDbLine
 10
1.469509789033288
 20
1.751146755040738
 30
0.0
 11
1.469509789033288
 21
1.643510295608888
 31
0.0
  0
LINE
  5
3B5
330
355
100
AcDbEntity
  8
4
100
AcDbLine
 10
1.407009789033288
 20
1.809146755040738
 30
0.0
 11
1.425759789033287
 21
1.846646755040738
 31
0.0
  0
LINE
  5
3B6
330
355
100
AcDbEntity
  8
4
100
AcDbLine
 10
1.425759789033287
 20
1.846646755040738
 30
0.0
 11
1.444509789033288
 21
1.809146755040738
 31
0.0
  0
LINE
  5
3B7
330
355
100
AcDbEntity
  8
4
100
AcDbLine
 10
1.407009789033288
 20
1.809146755040738
 30
0.0
 11
1.425759789033287
 21
1.771646755040738
 31
0.0
  0
LINE
  5
3B8
330
355
100
AcDbEntity
  8
4
100
AcDbLine
 10
1.425759789033287
 20
1.771646755040738
 30
0.0
 11
1.444509789033288
 21
1.809146755040738
 31
0.0
  0
LINE
  5
3B9
330
355
100
AcDbEntity
  8
4
100
AcDbLine
 10
1.450759789033287
 20
1.713646755040739
 30
0.0
 11
1.469509789033288
 21
1.751146755040738
 31
0.0
  0
LINE
  5
3BA
330
355
100
AcDbEntity
  8
4
100
AcDbLine
 10
1.432009789033287
 20
1.751146755040738
 30
0.0
 11
1.450759789033287
 21
1.713646755040739
 31
0.0
  0
LINE
  5
3BB
330
355
100
AcDbEntity
  8
4
100
AcDbLine
 10
1.450759789033287
 20
1.788646755040738
 30
0.0
 11
1.469509789033288
 21
1.751146755040738
 31
0.0
  0
LINE
  5
3BC
330
355
100
AcDbEntity
  8
4
100
AcDbLine
 10
1.432009789033287
 20
1.751146755040738
 30
0.0
 11
1.450759789033287
 21
1.788646755040738
 31
0.0
  0
LINE
  5
3BD
330
355
100
AcDbEntity
  8
4
100
AcDbLine
 10
1.432009789033287
 20
1.643510295608888
 30
0.0
 11
1.450759789033287
 21
1.681010295608888
 31
0.0
  0
LINE
  5
3BE
330
355
100
AcDbEntity
  8
4
100
AcDbLine
 10
1.450759789033287
 20
1.681010295608888
 30
0.0
 11
1.469509789033288
 21
1.643510295608888
 31
0.0
  0
LINE
  5
3BF
330
355
100
AcDbEntity
  8
4
100
AcDbLine
 10
1.432009789033287
 20
1.643510295608888
 30
0.0
 11
1.450759789033287
 21
1.606010295608888
 31
0.0
  0
LINE
  5
3C0
330
355
100
AcDbEntity
  8
4
100
AcDbLine
 10
1.450759789033287
 20
1.606010295608888
 30
0.0
 11
1.469509789033288
 21
1.643510295608888
 31
0.0
  0
LINE
  5
3C1
330
355
100
AcDbEntity
  8
4
100
AcDbLine
 10
1.425759789033287
 20
1.664010295608888
 30
0.0
 11
1.444509789033288
 21
1.701510295608888
 31
0.0
  0
LINE
  5
3C2
330
355
100
AcDbEntity
  8
4
100
AcDbLine
 10
1.407009789033288
 20
1.701510295608888
 30
0.0
 11
1.425759789033287
 21
1.664010295608888
 31
0.0
  0
LINE
  5
3C3
330
355
100
AcDbEntity
  8
4
100
AcDbLine
 10
1.425759789033287
 20
1.739010295608887
 30
0.0
 11
1.444509789033288
 21
1.701510295608888
 31
0.0
  0
LINE
  5
3C4
330
355
100
AcDbEntity
  8
4
100
AcDbLine
 10
1.407009789033288
 20
1.701510295608888
 30
0.0
 11
1.425759789033287
 21
1.739010295608887
 31
0.0
  0
LINE
  5
3C5
330
355
100
AcDbEntity
  8
4
100
AcDbLine
 10
1.157009789033288
 20
1.701510295608888
 30
0.0
 11
1.175759789033287
 21
1.739010295608887
 31
0.0
  0
LINE
  5
3C6
330
355
100
AcDbEntity
  8
4
100
AcDbLine
 10
1.175759789033287
 20
1.739010295608887
 30
0.0
 11
1.194509789033288
 21
1.701510295608888
 31
0.0
  0
LINE
  5
3C7
330
355
100
AcDbEntity
  8
4
100
AcDbLine
 10
1.157009789033288
 20
1.701510295608888
 30
0.0
 11
1.175759789033287
 21
1.664010295608888
 31
0.0
  0
LINE
  5
3C8
330
355
100
AcDbEntity
  8
4
100
AcDbLine
 10
1.175759789033287
 20
1.664010295608888
 30
0.0
 11
1.194509789033288
 21
1.701510295608888
 31
0.0
  0
LINE
  5
3C9
330
355
100
AcDbEntity
  8
4
100
AcDbLine
 10
1.200759789033287
 20
1.606010295608888
 30
0.0
 11
1.219509789033288
 21
1.643510295608888
 31
0.0
  0
LINE
  5
3CA
330
355
100
AcDbEntity
  8
4
100
AcDbLine
 10
1.182009789033287
 20
1.643510295608888
 30
0.0
 11
1.200759789033287
 21
1.606010295608888
 31
0.0
  0
LINE
  5
3CB
330
355
100
AcDbEntity
  8
4
100
AcDbLine
 10
1.200759789033287
 20
1.681010295608888
 30
0.0
 11
1.219509789033288
 21
1.643510295608888
 31
0.0
  0
LINE
  5
3CC
330
355
100
AcDbEntity
  8
4
100
AcDbLine
 10
1.182009789033287
 20
1.643510295608888
 30
0.0
 11
1.200759789033287
 21
1.681010295608888
 31
0.0
  0
LINE
  5
3CD
330
355
100
AcDbEntity
  8
4
100
AcDbLine
 10
1.182009789033288
 20
1.751146755040738
 30
0.0
 11
1.200759789033287
 21
1.788646755040738
 31
0.0
  0
LINE
  5
3CE
330
355
100
AcDbEntity
  8
4
100
AcDbLine
 10
1.200759789033287
 20
1.788646755040738
 30
0.0
 11
1.219509789033288
 21
1.751146755040738
 31
0.0
  0
LINE
  5
3CF
330
355
100
AcDbEntity
  8
4
100
AcDbLine
 10
1.182009789033288
 20
1.751146755040738
 30
0.0
 11
1.200759789033287
 21
1.713646755040739
 31
0.0
  0
LINE
  5
3D0
330
355
100
AcDbEntity
  8
4
100
AcDbLine
 10
1.200759789033287
 20
1.713646755040739
 30
0.0
 11
1.219509789033288
 21
1.751146755040738
 31
0.0
  0
LINE
  5
3D1
330
355
100
AcDbEntity
  8
4
100
AcDbLine
 10
1.175759789033287
 20
1.771646755040738
 30
0.0
 11
1.194509789033288
 21
1.809146755040738
 31
0.0
  0
LINE
  5
3D2
330
355
100
AcDbEntity
  8
4
100
AcDbLine
 10
1.157009789033288
 20
1.809146755040738
 30
0.0
 11
1.175759789033287
 21
1.771646755040738
 31
0.0
  0
LINE
  5
3D3
330
355
100
AcDbEntity
  8
4
100
AcDbLine
 10
1.175759789033287
 20
1.846646755040738
 30
0.0
 11
1.194509789033288
 21
1.809146755040738
 31
0.0
  0
LINE
  5
3D4
330
355
100
AcDbEntity
  8
4
100
AcDbLine
 10
1.157009789033288
 20
1.809146755040738
 30
0.0
 11
1.175759789033287
 21
1.846646755040738
 31
0.0
  0
LINE
  5
3D5
330
355
100
AcDbEntity
  8
4
100
AcDbLine
 10
1.11323405546345
 20
3.152467157252412
 30
0.0
 11
1.30123405546345
 21
3.152467157252412
 31
0.0
  0
LINE
  5
3D6
330
355
100
AcDbEntity
  8
4
100
AcDbLine
 10
1.30123405546345
 20
3.152467157252412
 30
0.0
 11
1.26923405546345
 21
2.849967157252411
 31
0.0
  0
LINE
  5
3D7
330
355
100
AcDbEntity
  8
4
100
AcDbLine
 10
1.11323405546345
 20
3.152467157252412
 30
0.0
 11
1.145234055463451
 21
2.849967157252411
 31
0.0
  0
LINE
  5
3D8
330
355
100
AcDbEntity
  8
4
100
AcDbLine
 10
1.145234055463451
 20
2.849967157252411
 30
0.0
 11
1.26923405546345
 21
2.849967157252411
 31
0.0
  0
LINE
  5
3D9
330
355
100
AcDbEntity
  8
4
100
AcDbLine
 10
1.129904527520149
 20
3.137467157252411
 30
0.0
 11
1.158730973801141
 21
2.864967157252412
 31
0.0
  0
LINE
  5
3DA
330
355
100
AcDbEntity
  8
4
100
AcDbLine
 10
1.158730973801141
 20
2.864967157252412
 30
0.0
 11
1.25573713712576
 21
2.864967157252412
 31
0.0
  0
LINE
  5
3DB
330
355
100
AcDbEntity
  8
4
100
AcDbLine
 10
1.284563583406752
 20
3.137467157252411
 30
0.0
 11
1.25573713712576
 21
2.864967157252412
 31
0.0
  0
LINE
  5
3DC
330
355
100
AcDbEntity
  8
4
100
AcDbLine
 10
1.129904527520149
 20
3.137467157252411
 30
0.0
 11
1.284563583406752
 21
3.137467157252411
 31
0.0
  0
LINE
  5
3DD
330
355
100
AcDbEntity
  8
4
100
AcDbLine
 10
1.22223405546345
 20
3.137467157252411
 30
0.0
 11
1.22223405546345
 21
3.090467157252413
 31
0.0
  0
LINE
  5
3DE
330
355
100
AcDbEntity
  8
4
100
AcDbLine
 10
1.22223405546345
 20
3.090467157252413
 30
0.0
 11
1.19223405546345
 21
3.090467157252413
 31
0.0
  0
LINE
  5
3DF
330
355
100
AcDbEntity
  8
4
100
AcDbLine
 10
1.19223405546345
 20
3.090467157252413
 30
0.0
 11
1.19223405546345
 21
3.137467157252411
 31
0.0
  0
LWPOLYLINE
  5
3E0
330
355
100
AcDbEntity
  8
4
100
AcDbPolyline
 90
        2
 70
     1
 43
0.01
 10
1.202234055463451
 20
2.917983801611808
 42
1.0
 10
1.21223405546345
 20
2.917983801611808
 42
1.0
  0
LWPOLYLINE
  5
3E1
330
355
100
AcDbEntity
  8
4
100
AcDbPolyline
 90
        2
 70
     1
 43
0.01
 10
1.202234055463451
 20
3.022983801611808
 42
1.0
 10
1.21223405546345
 20
3.022983801611808
 42
1.0
  0
CIRCLE
  5
3E2
330
355
100
AcDbEntity
  8
4
100
AcDbCircle
 10
1.207234055463451
 20
2.970483801611808
 30
0.0
 40
0.023
  0
LINE
  5
3E3
330
355
100
AcDbEntity
  8
4
100
AcDbLine
 10
1.157009789033288
 20
3.370865507946047
 30
0.0
 11
1.175759789033287
 21
3.408365507946046
 31
0.0
  0
LINE
  5
3E4
330
355
100
AcDbEntity
  8
4
100
AcDbLine
 10
1.175759789033287
 20
3.408365507946046
 30
0.0
 11
1.194509789033288
 21
3.370865507946047
 31
0.0
  0
LINE
  5
3E5
330
355
100
AcDbEntity
  8
4
100
AcDbLine
 10
1.157009789033288
 20
3.370865507946047
 30
0.0
 11
1.175759789033287
 21
3.333365507946047
 31
0.0
  0
LINE
  5
3E6
330
355
100
AcDbEntity
  8
4
100
AcDbLine
 10
1.175759789033287
 20
3.333365507946047
 30
0.0
 11
1.194509789033288
 21
3.370865507946047
 31
0.0
  0
LINE
  5
3E7
330
355
100
AcDbEntity
  8
4
100
AcDbLine
 10
1.200759789033287
 20
3.275365507946047
 30
0.0
 11
1.219509789033288
 21
3.312865507946047
 31
0.0
  0
LINE
  5
3E8
330
355
100
AcDbEntity
  8
4
100
AcDbLine
 10
1.182009789033289
 20
3.312865507946047
 30
0.0
 11
1.200759789033287
 21
3.275365507946047
 31
0.0
  0
LINE
  5
3E9
330
355
100
AcDbEntity
  8
4
100
AcDbLine
 10
1.200759789033287
 20
3.350365507946047
 30
0.0
 11
1.219509789033288
 21
3.312865507946047
 31
0.0
  0
LINE
  5
3EA
330
355
100
AcDbEntity
  8
4
100
AcDbLine
 10
1.182009789033289
 20
3.312865507946047
 30
0.0
 11
1.200759789033287
 21
3.350365507946047
 31
0.0
  0
LINE
  5
3EB
330
355
100
AcDbEntity
  8
4
100
AcDbLine
 10
1.182009789033287
 20
3.205229048514197
 30
0.0
 11
1.200759789033287
 21
3.242729048514196
 31
0.0
  0
LINE
  5
3EC
330
355
100
AcDbEntity
  8
4
100
AcDbLine
 10
1.200759789033287
 20
3.242729048514196
 30
0.0
 11
1.219509789033288
 21
3.205229048514197
 31
0.0
  0
LINE
  5
3ED
330
355
100
AcDbEntity
  8
4
100
AcDbLine
 10
1.182009789033287
 20
3.205229048514197
 30
0.0
 11
1.200759789033287
 21
3.167729048514197
 31
0.0
  0
LINE
  5
3EE
330
355
100
AcDbEntity
  8
4
100
AcDbLine
 10
1.200759789033287
 20
3.167729048514197
 30
0.0
 11
1.219509789033288
 21
3.205229048514197
 31
0.0
  0
LINE
  5
3EF
330
355
100
AcDbEntity
  8
4
100
AcDbLine
 10
1.175759789033287
 20
3.225729048514197
 30
0.0
 11
1.194509789033288
 21
3.263229048514197
 31
0.0
  0
LINE
  5
3F0
330
355
100
AcDbEntity
  8
4
100
AcDbLine
 10
1.157009789033288
 20
3.263229048514197
 30
0.0
 11
1.175759789033287
 21
3.225729048514197
 31
0.0
  0
LINE
  5
3F1
330
355
100
AcDbEntity
  8
4
100
AcDbLine
 10
1.175759789033287
 20
3.300729048514196
 30
0.0
 11
1.194509789033288
 21
3.263229048514197
 31
0.0
  0
LINE
  5
3F2
330
355
100
AcDbEntity
  8
4
100
AcDbLine
 10
1.157009789033288
 20
3.263229048514197
 30
0.0
 11
1.175759789033287
 21
3.300729048514196
 31
0.0
  0
LINE
  5
3F3
330
355
100
AcDbEntity
  8
4
100
AcDbLine
 10
1.407009789033288
 20
3.263229048514197
 30
0.0
 11
1.425759789033287
 21
3.300729048514196
 31
0.0
  0
LINE
  5
3F4
330
355
100
AcDbEntity
  8
4
100
AcDbLine
 10
1.425759789033287
 20
3.300729048514196
 30
0.0
 11
1.444509789033288
 21
3.263229048514197
 31
0.0
  0
LINE
  5
3F5
330
355
100
AcDbEntity
  8
4
100
AcDbLine
 10
1.407009789033288
 20
3.263229048514197
 30
0.0
 11
1.425759789033287
 21
3.225729048514197
 31
0.0
  0
LINE
  5
3F6
330
355
100
AcDbEntity
  8
4
100
AcDbLine
 10
1.425759789033287
 20
3.225729048514197
 30
0.0
 11
1.444509789033288
 21
3.263229048514197
 31
0.0
  0
LINE
  5
3F7
330
355
100
AcDbEntity
  8
4
100
AcDbLine
 10
1.450759789033287
 20
3.167729048514197
 30
0.0
 11
1.469509789033288
 21
3.205229048514197
 31
0.0
  0
LINE
  5
3F8
330
355
100
AcDbEntity
  8
4
100
AcDbLine
 10
1.432009789033287
 20
3.205229048514197
 30
0.0
 11
1.450759789033287
 21
3.167729048514197
 31
0.0
  0
LINE
  5
3F9
330
355
100
AcDbEntity
  8
4
100
AcDbLine
 10
1.450759789033287
 20
3.242729048514196
 30
0.0
 11
1.469509789033288
 21
3.205229048514197
 31
0.0
  0
LINE
  5
3FA
330
355
100
AcDbEntity
  8
4
100
AcDbLine
 10
1.432009789033287
 20
3.205229048514197
 30
0.0
 11
1.450759789033287
 21
3.242729048514196
 31
0.0
  0
LINE
  5
3FB
330
355
100
AcDbEntity
  8
4
100
AcDbLine
 10
1.432009789033287
 20
3.312865507946047
 30
0.0
 11
1.450759789033287
 21
3.350365507946047
 31
0.0
  0
LINE
  5
3FC
330
355
100
AcDbEntity
  8
4
100
AcDbLine
 10
1.450759789033287
 20
3.350365507946047
 30
0.0
 11
1.469509789033288
 21
3.312865507946047
 31
0.0
  0
LINE
  5
3FD
330
355
100
AcDbEntity
  8
4
100
AcDbLine
 10
1.432009789033287
 20
3.312865507946047
 30
0.0
 11
1.450759789033287
 21
3.275365507946047
 31
0.0
  0
LINE
  5
3FE
330
355
100
AcDbEntity
  8
4
100
AcDbLine
 10
1.450759789033287
 20
3.275365507946047
 30
0.0
 11
1.469509789033288
 21
3.312865507946047
 31
0.0
  0
LINE
  5
3FF
330
355
100
AcDbEntity
  8
4
100
AcDbLine
 10
1.425759789033287
 20
3.333365507946047
 30
0.0
 11
1.444509789033288
 21
3.370865507946047
 31
0.0
  0
LINE
  5
400
330
355
100
AcDbEntity
  8
4
100
AcDbLine
 10
1.407009789033288
 20
3.370865507946047
 30
0.0
 11
1.425759789033287
 21
3.333365507946047
 31
0.0
  0
LINE
  5
401
330
355
100
AcDbEntity
  8
4
100
AcDbLine
 10
1.425759789033287
 20
3.408365507946046
 30
0.0
 11
1.444509789033288
 21
3.370865507946047
 31
0.0
  0
LINE
  5
402
330
355
100
AcDbEntity
  8
4
100
AcDbLine
 10
1.407009789033288
 20
3.370865507946047
 30
0.0
 11
1.425759789033287
 21
3.408365507946046
 31
0.0
  0
LINE
  5
403
330
355
100
AcDbEntity
  8
2
100
AcDbLine
 10
1.469509789033288
 20
3.312865507946047
 30
0.0
 11
1.469509789033288
 21
3.205229048514197
 31
0.0
  0
LINE
  5
404
330
355
100
AcDbEntity
  8
2
100
AcDbLine
 10
1.157009789033288
 20
3.370865507946047
 30
0.0
 11
1.157009789033288
 21
3.263229048514197
 31
0.0
  0
LINE
  5
405
330
355
100
AcDbEntity
  8
2
100
AcDbLine
 10
1.200759789033287
 20
3.167729048514197
 30
0.0
 11
1.450759789033287
 21
3.167729048514197
 31
0.0
  0
LINE
  5
406
330
355
100
AcDbEntity
  8
2
100
AcDbLine
 10
1.175759789033289
 20
3.408365507946048
 30
0.0
 11
1.425759789033287
 21
3.408365507946046
 31
0.0
  0
LINE
  5
407
330
355
100
AcDbEntity
  8
2
100
AcDbLine
 10
1.175759789033289
 20
2.82564675504074
 30
0.0
 11
1.425759789033287
 21
2.825646755040738
 31
0.0
  0
LINE
  5
408
330
355
100
AcDbEntity
  8
2
100
AcDbLine
 10
1.200759789033287
 20
2.585010295608888
 30
0.0
 11
1.450759789033287
 21
2.585010295608888
 31
0.0
  0
LINE
  5
409
330
355
100
AcDbEntity
  8
2
100
AcDbLine
 10
1.157009789033288
 20
2.788146755040738
 30
0.0
 11
1.157009789033288
 21
2.680510295608888
 31
0.0
  0
LINE
  5
40A
330
355
100
AcDbEntity
  8
2
100
AcDbLine
 10
1.469509789033288
 20
2.730146755040738
 30
0.0
 11
1.469509789033288
 21
2.622510295608888
 31
0.0
  0
LINE
  5
40B
330
355
100
AcDbEntity
  8
4
100
AcDbLine
 10
1.407009789033288
 20
2.788146755040738
 30
0.0
 11
1.425759789033287
 21
2.825646755040738
 31
0.0
  0
LINE
  5
40C
330
355
100
AcDbEntity
  8
4
100
AcDbLine
 10
1.425759789033287
 20
2.825646755040738
 30
0.0
 11
1.444509789033288
 21
2.788146755040738
 31
0.0
  0
LINE
  5
40D
330
355
100
AcDbEntity
  8
4
100
AcDbLine
 10
1.407009789033288
 20
2.788146755040738
 30
0.0
 11
1.425759789033287
 21
2.750646755040738
 31
0.0
  0
LINE
  5
40E
330
355
100
AcDbEntity
  8
4
100
AcDbLine
 10
1.425759789033287
 20
2.750646755040738
 30
0.0
 11
1.444509789033288
 21
2.788146755040738
 31
0.0
  0
LINE
  5
40F
330
355
100
AcDbEntity
  8
4
100
AcDbLine
 10
1.450759789033287
 20
2.692646755040739
 30
0.0
 11
1.469509789033288
 21
2.730146755040738
 31
0.0
  0
LINE
  5
410
330
355
100
AcDbEntity
  8
4
100
AcDbLine
 10
1.432009789033287
 20
2.730146755040738
 30
0.0
 11
1.450759789033287
 21
2.692646755040739
 31
0.0
  0
LINE
  5
411
330
355
100
AcDbEntity
  8
4
100
AcDbLine
 10
1.450759789033287
 20
2.767646755040738
 30
0.0
 11
1.469509789033288
 21
2.730146755040738
 31
0.0
  0
LINE
  5
412
330
355
100
AcDbEntity
  8
4
100
AcDbLine
 10
1.432009789033287
 20
2.730146755040738
 30
0.0
 11
1.450759789033287
 21
2.767646755040738
 31
0.0
  0
LINE
  5
413
330
355
100
AcDbEntity
  8
4
100
AcDbLine
 10
1.432009789033287
 20
2.622510295608888
 30
0.0
 11
1.450759789033287
 21
2.660010295608888
 31
0.0
  0
LINE
  5
414
330
355
100
AcDbEntity
  8
4
100
AcDbLine
 10
1.450759789033287
 20
2.660010295608888
 30
0.0
 11
1.469509789033288
 21
2.622510295608888
 31
0.0
  0
LINE
  5
415
330
355
100
AcDbEntity
  8
4
100
AcDbLine
 10
1.432009789033287
 20
2.622510295608888
 30
0.0
 11
1.450759789033287
 21
2.585010295608888
 31
0.0
  0
LINE
  5
416
330
355
100
AcDbEntity
  8
4
100
AcDbLine
 10
1.450759789033287
 20
2.585010295608888
 30
0.0
 11
1.469509789033288
 21
2.622510295608888
 31
0.0
  0
LINE
  5
417
330
355
100
AcDbEntity
  8
4
100
AcDbLine
 10
1.425759789033287
 20
2.643010295608888
 30
0.0
 11
1.444509789033288
 21
2.680510295608888
 31
0.0
  0
LINE
  5
418
330
355
100
AcDbEntity
  8
4
100
AcDbLine
 10
1.407009789033288
 20
2.680510295608888
 30
0.0
 11
1.425759789033287
 21
2.643010295608888
 31
0.0
  0
LINE
  5
419
330
355
100
AcDbEntity
  8
4
100
AcDbLine
 10
1.425759789033287
 20
2.718010295608888
 30
0.0
 11
1.444509789033288
 21
2.680510295608888
 31
0.0
  0
LINE
  5
41A
330
355
100
AcDbEntity
  8
4
100
AcDbLine
 10
1.407009789033288
 20
2.680510295608888
 30
0.0
 11
1.425759789033287
 21
2.718010295608888
 31
0.0
  0
LINE
  5
41B
330
355
100
AcDbEntity
  8
4
100
AcDbLine
 10
1.157009789033288
 20
2.680510295608888
 30
0.0
 11
1.175759789033287
 21
2.718010295608888
 31
0.0
  0
LINE
  5
41C
330
355
100
AcDbEntity
  8
4
100
AcDbLine
 10
1.175759789033287
 20
2.718010295608888
 30
0.0
 11
1.194509789033288
 21
2.680510295608888
 31
0.0
  0
LINE
  5
41D
330
355
100
AcDbEntity
  8
4
100
AcDbLine
 10
1.157009789033288
 20
2.680510295608888
 30
0.0
 11
1.175759789033287
 21
2.643010295608888
 31
0.0
  0
LINE
  5
41E
330
355
100
AcDbEntity
  8
4
100
AcDbLine
 10
1.175759789033287
 20
2.643010295608888
 30
0.0
 11
1.194509789033288
 21
2.680510295608888
 31
0.0
  0
LINE
  5
41F
330
355
100
AcDbEntity
  8
4
100
AcDbLine
 10
1.200759789033287
 20
2.585010295608888
 30
0.0
 11
1.219509789033288
 21
2.622510295608888
 31
0.0
  0
LINE
  5
420
330
355
100
AcDbEntity
  8
4
100
AcDbLine
 10
1.182009789033287
 20
2.622510295608888
 30
0.0
 11
1.200759789033287
 21
2.585010295608888
 31
0.0
  0
LINE
  5
421
330
355
100
AcDbEntity
  8
4
100
AcDbLine
 10
1.200759789033287
 20
2.660010295608888
 30
0.0
 11
1.219509789033288
 21
2.622510295608888
 31
0.0
  0
LINE
  5
422
330
355
100
AcDbEntity
  8
4
100
AcDbLine
 10
1.182009789033287
 20
2.622510295608888
 30
0.0
 11
1.200759789033287
 21
2.660010295608888
 31
0.0
  0
LINE
  5
423
330
355
100
AcDbEntity
  8
4
100
AcDbLine
 10
1.182009789033289
 20
2.730146755040738
 30
0.0
 11
1.200759789033287
 21
2.767646755040738
 31
0.0
  0
LINE
  5
424
330
355
100
AcDbEntity
  8
4
100
AcDbLine
 10
1.200759789033287
 20
2.767646755040738
 30
0.0
 11
1.219509789033288
 21
2.730146755040738
 31
0.0
  0
LINE
  5
425
330
355
100
AcDbEntity
  8
4
100
AcDbLine
 10
1.182009789033289
 20
2.730146755040738
 30
0.0
 11
1.200759789033287
 21
2.692646755040739
 31
0.0
  0
LINE
  5
426
330
355
100
AcDbEntity
  8
4
100
AcDbLine
 10
1.200759789033287
 20
2.692646755040739
 30
0.0
 11
1.219509789033288
 21
2.730146755040738
 31
0.0
  0
LINE
  5
427
330
355
100
AcDbEntity
  8
4
100
AcDbLine
 10
1.175759789033287
 20
2.750646755040738
 30
0.0
 11
1.194509789033288
 21
2.788146755040738
 31
0.0
  0
LINE
  5
428
330
355
100
AcDbEntity
  8
4
100
AcDbLine
 10
1.157009789033288
 20
2.788146755040738
 30
0.0
 11
1.175759789033287
 21
2.750646755040738
 31
0.0
  0
LINE
  5
429
330
355
100
AcDbEntity
  8
4
100
AcDbLine
 10
1.175759789033287
 20
2.825646755040738
 30
0.0
 11
1.194509789033288
 21
2.788146755040738
 31
0.0
  0
LINE
  5
42A
330
355
100
AcDbEntity
  8
4
100
AcDbLine
 10
1.157009789033288
 20
2.788146755040738
 30
0.0
 11
1.175759789033287
 21
2.825646755040738
 31
0.0
  0
LINE
  5
42B
330
355
100
AcDbEntity
  8
4
100
AcDbLine
 10
1.157009789033288
 20
3.767146755040738
 30
0.0
 11
1.175759789033287
 21
3.804646755040738
 31
0.0
  0
LINE
  5
42C
330
355
100
AcDbEntity
  8
4
100
AcDbLine
 10
1.175759789033287
 20
3.804646755040738
 30
0.0
 11
1.194509789033288
 21
3.767146755040738
 31
0.0
  0
LINE
  5
42D
330
355
100
AcDbEntity
  8
4
100
AcDbLine
 10
1.157009789033288
 20
3.767146755040738
 30
0.0
 11
1.175759789033287
 21
3.729646755040739
 31
0.0
  0
LINE
  5
42E
330
355
100
AcDbEntity
  8
4
100
AcDbLine
 10
1.175759789033287
 20
3.729646755040739
 30
0.0
 11
1.194509789033288
 21
3.767146755040738
 31
0.0
  0
LINE
  5
42F
330
355
100
AcDbEntity
  8
4
100
AcDbLine
 10
1.200759789033288
 20
3.671646755040739
 30
0.0
 11
1.219509789033288
 21
3.709146755040738
 31
0.0
  0
LINE
  5
430
330
355
100
AcDbEntity
  8
4
100
AcDbLine
 10
1.182009789033289
 20
3.709146755040738
 30
0.0
 11
1.200759789033288
 21
3.671646755040739
 31
0.0
  0
LINE
  5
431
330
355
100
AcDbEntity
  8
4
100
AcDbLine
 10
1.200759789033288
 20
3.746646755040738
 30
0.0
 11
1.219509789033288
 21
3.709146755040738
 31
0.0
  0
LINE
  5
432
330
355
100
AcDbEntity
  8
4
100
AcDbLine
 10
1.182009789033289
 20
3.709146755040738
 30
0.0
 11
1.200759789033288
 21
3.746646755040738
 31
0.0
  0
LINE
  5
433
330
355
100
AcDbEntity
  8
4
100
AcDbLine
 10
1.182009789033287
 20
3.601510295608888
 30
0.0
 11
1.200759789033288
 21
3.639010295608888
 31
0.0
  0
LINE
  5
434
330
355
100
AcDbEntity
  8
4
100
AcDbLine
 10
1.200759789033288
 20
3.639010295608888
 30
0.0
 11
1.219509789033288
 21
3.601510295608888
 31
0.0
  0
LINE
  5
435
330
355
100
AcDbEntity
  8
4
100
AcDbLine
 10
1.182009789033287
 20
3.601510295608888
 30
0.0
 11
1.200759789033288
 21
3.564010295608889
 31
0.0
  0
LINE
  5
436
330
355
100
AcDbEntity
  8
4
100
AcDbLine
 10
1.200759789033288
 20
3.564010295608889
 30
0.0
 11
1.219509789033288
 21
3.601510295608888
 31
0.0
  0
LINE
  5
437
330
355
100
AcDbEntity
  8
4
100
AcDbLine
 10
1.175759789033287
 20
3.622010295608888
 30
0.0
 11
1.194509789033288
 21
3.659510295608888
 31
0.0
  0
LINE
  5
438
330
355
100
AcDbEntity
  8
4
100
AcDbLine
 10
1.157009789033288
 20
3.659510295608888
 30
0.0
 11
1.175759789033287
 21
3.622010295608888
 31
0.0
  0
LINE
  5
439
330
355
100
AcDbEntity
  8
4
100
AcDbLine
 10
1.175759789033287
 20
3.697010295608888
 30
0.0
 11
1.194509789033288
 21
3.659510295608888
 31
0.0
  0
LINE
  5
43A
330
355
100
AcDbEntity
  8
4
100
AcDbLine
 10
1.157009789033288
 20
3.659510295608888
 30
0.0
 11
1.175759789033287
 21
3.697010295608888
 31
0.0
  0
LINE
  5
43B
330
355
100
AcDbEntity
  8
4
100
AcDbLine
 10
1.407009789033288
 20
3.659510295608888
 30
0.0
 11
1.425759789033287
 21
3.697010295608888
 31
0.0
  0
LINE
  5
43C
330
355
100
AcDbEntity
  8
4
100
AcDbLine
 10
1.425759789033287
 20
3.697010295608888
 30
0.0
 11
1.444509789033288
 21
3.659510295608888
 31
0.0
  0
LINE
  5
43D
330
355
100
AcDbEntity
  8
4
100
AcDbLine
 10
1.407009789033288
 20
3.659510295608888
 30
0.0
 11
1.425759789033287
 21
3.622010295608888
 31
0.0
  0
LINE
  5
43E
330
355
100
AcDbEntity
  8
4
100
AcDbLine
 10
1.425759789033287
 20
3.622010295608888
 30
0.0
 11
1.444509789033288
 21
3.659510295608888
 31
0.0
  0
LINE
  5
43F
330
355
100
AcDbEntity
  8
4
100
AcDbLine
 10
1.450759789033288
 20
3.564010295608889
 30
0.0
 11
1.469509789033288
 21
3.601510295608888
 31
0.0
  0
LINE
  5
440
330
355
100
AcDbEntity
  8
4
100
AcDbLine
 10
1.432009789033287
 20
3.601510295608888
 30
0.0
 11
1.450759789033288
 21
3.564010295608889
 31
0.0
  0
LINE
  5
441
330
355
100
AcDbEntity
  8
4
100
AcDbLine
 10
1.450759789033288
 20
3.639010295608888
 30
0.0
 11
1.469509789033288
 21
3.601510295608888
 31
0.0
  0
LINE
  5
442
330
355
100
AcDbEntity
  8
4
100
AcDbLine
 10
1.432009789033287
 20
3.601510295608888
 30
0.0
 11
1.450759789033288
 21
3.639010295608888
 31
0.0
  0
LINE
  5
443
330
355
100
AcDbEntity
  8
4
100
AcDbLine
 10
1.432009789033287
 20
3.709146755040738
 30
0.0
 11
1.450759789033288
 21
3.746646755040738
 31
0.0
  0
LINE
  5
444
330
355
100
AcDbEntity
  8
4
100
AcDbLine
 10
1.450759789033288
 20
3.746646755040738
 30
0.0
 11
1.469509789033288
 21
3.709146755040738
 31
0.0
  0
LINE
  5
445
330
355
100
AcDbEntity
  8
4
100
AcDbLine
 10
1.432009789033287
 20
3.709146755040738
 30
0.0
 11
1.450759789033288
 21
3.671646755040739
 31
0.0
  0
LINE
  5
446
330
355
100
AcDbEntity
  8
4
100
AcDbLine
 10
1.450759789033288
 20
3.671646755040739
 30
0.0
 11
1.469509789033288
 21
3.709146755040738
 31
0.0
  0
LINE
  5
447
330
355
100
AcDbEntity
  8
4
100
AcDbLine
 10
1.425759789033287
 20
3.729646755040739
 30
0.0
 11
1.444509789033288
 21
3.767146755040738
 31
0.0
  0
LINE
  5
448
330
355
100
AcDbEntity
  8
4
100
AcDbLine
 10
1.407009789033288
 20
3.767146755040738
 30
0.0
 11
1.425759789033287
 21
3.729646755040739
 31
0.0
  0
LINE
  5
449
330
355
100
AcDbEntity
  8
4
100
AcDbLine
 10
1.425759789033287
 20
3.804646755040738
 30
0.0
 11
1.444509789033288
 21
3.767146755040738
 31
0.0
  0
LINE
  5
44A
330
355
100
AcDbEntity
  8
4
100
AcDbLine
 10
1.407009789033288
 20
3.767146755040738
 30
0.0
 11
1.425759789033287
 21
3.804646755040738
 31
0.0
  0
LINE
  5
44B
330
355
100
AcDbEntity
  8
2
100
AcDbLine
 10
1.469509789033288
 20
3.709146755040738
 30
0.0
 11
1.469509789033288
 21
3.601510295608888
 31
0.0
  0
LINE
  5
44C
330
355
100
AcDbEntity
  8
2
100
AcDbLine
 10
1.157009789033288
 20
3.767146755040738
 30
0.0
 11
1.157009789033288
 21
3.659510295608888
 31
0.0
  0
LINE
  5
44D
330
355
100
AcDbEntity
  8
2
100
AcDbLine
 10
1.200759789033288
 20
3.564010295608889
 30
0.0
 11
1.450759789033288
 21
3.564010295608889
 31
0.0
  0
LINE
  5
44E
330
355
100
AcDbEntity
  8
2
100
AcDbLine
 10
1.175759789033289
 20
3.80464675504074
 30
0.0
 11
1.425759789033287
 21
3.804646755040738
 31
0.0
  0
LINE
  5
44F
330
355
100
AcDbEntity
  8
2
100
AcDbLine
 10
1.175759789033289
 20
4.387365507946048
 30
0.0
 11
1.425759789033287
 21
4.387365507946046
 31
0.0
  0
LINE
  5
450
330
355
100
AcDbEntity
  8
2
100
AcDbLine
 10
1.200759789033288
 20
4.146729048514197
 30
0.0
 11
1.450759789033288
 21
4.146729048514197
 31
0.0
  0
LINE
  5
451
330
355
100
AcDbEntity
  8
2
100
AcDbLine
 10
1.157009789033288
 20
4.349865507946047
 30
0.0
 11
1.157009789033288
 21
4.242229048514197
 31
0.0
  0
LINE
  5
452
330
355
100
AcDbEntity
  8
2
100
AcDbLine
 10
1.469509789033288
 20
4.291865507946047
 30
0.0
 11
1.469509789033288
 21
4.184229048514197
 31
0.0
  0
LINE
  5
453
330
355
100
AcDbEntity
  8
4
100
AcDbLine
 10
1.407009789033288
 20
4.349865507946047
 30
0.0
 11
1.425759789033287
 21
4.387365507946046
 31
0.0
  0
LINE
  5
454
330
355
100
AcDbEntity
  8
4
100
AcDbLine
 10
1.425759789033287
 20
4.387365507946046
 30
0.0
 11
1.444509789033288
 21
4.349865507946047
 31
0.0
  0
LINE
  5
455
330
355
100
AcDbEntity
  8
4
100
AcDbLine
 10
1.407009789033288
 20
4.349865507946047
 30
0.0
 11
1.425759789033287
 21
4.312365507946047
 31
0.0
  0
LINE
  5
456
330
355
100
AcDbEntity
  8
4
100
AcDbLine
 10
1.425759789033287
 20
4.312365507946047
 30
0.0
 11
1.444509789033288
 21
4.349865507946047
 31
0.0
  0
LINE
  5
457
330
355
100
AcDbEntity
  8
4
100
AcDbLine
 10
1.450759789033288
 20
4.254365507946047
 30
0.0
 11
1.469509789033288
 21
4.291865507946047
 31
0.0
  0
LINE
  5
458
330
355
100
AcDbEntity
  8
4
100
AcDbLine
 10
1.432009789033287
 20
4.291865507946047
 30
0.0
 11
1.450759789033288
 21
4.254365507946047
 31
0.0
  0
LINE
  5
459
330
355
100
AcDbEntity
  8
4
100
AcDbLine
 10
1.450759789033288
 20
4.329365507946047
 30
0.0
 11
1.469509789033288
 21
4.291865507946047
 31
0.0
  0
LINE
  5
45A
330
355
100
AcDbEntity
  8
4
100
AcDbLine
 10
1.432009789033287
 20
4.291865507946047
 30
0.0
 11
1.450759789033288
 21
4.329365507946047
 31
0.0
  0
LINE
  5
45B
330
355
100
AcDbEntity
  8
4
100
AcDbLine
 10
1.432009789033287
 20
4.184229048514197
 30
0.0
 11
1.450759789033288
 21
4.221729048514196
 31
0.0
  0
LINE
  5
45C
330
355
100
AcDbEntity
  8
4
100
AcDbLine
 10
1.450759789033288
 20
4.221729048514196
 30
0.0
 11
1.469509789033288
 21
4.184229048514197
 31
0.0
  0
LINE
  5
45D
330
355
100
AcDbEntity
  8
4
100
AcDbLine
 10
1.432009789033287
 20
4.184229048514197
 30
0.0
 11
1.450759789033288
 21
4.146729048514197
 31
0.0
  0
LINE
  5
45E
330
355
100
AcDbEntity
  8
4
100
AcDbLine
 10
1.450759789033288
 20
4.146729048514197
 30
0.0
 11
1.469509789033288
 21
4.184229048514197
 31
0.0
  0
LINE
  5
45F
330
355
100
AcDbEntity
  8
4
100
AcDbLine
 10
1.425759789033287
 20
4.204729048514197
 30
0.0
 11
1.444509789033288
 21
4.242229048514197
 31
0.0
  0
LINE
  5
460
330
355
100
AcDbEntity
  8
4
100
AcDbLine
 10
1.407009789033288
 20
4.242229048514197
 30
0.0
 11
1.425759789033287
 21
4.204729048514197
 31
0.0
  0
LINE
  5
461
330
355
100
AcDbEntity
  8
4
100
AcDbLine
 10
1.425759789033287
 20
4.279729048514196
 30
0.0
 11
1.444509789033288
 21
4.242229048514197
 31
0.0
  0
LINE
  5
462
330
355
100
AcDbEntity
  8
4
100
AcDbLine
 10
1.407009789033288
 20
4.242229048514197
 30
0.0
 11
1.425759789033287
 21
4.279729048514196
 31
0.0
  0
LINE
  5
463
330
355
100
AcDbEntity
  8
4
100
AcDbLine
 10
1.157009789033288
 20
4.242229048514197
 30
0.0
 11
1.175759789033287
 21
4.279729048514196
 31
0.0
  0
LINE
  5
464
330
355
100
AcDbEntity
  8
4
100
AcDbLine
 10
1.175759789033287
 20
4.279729048514196
 30
0.0
 11
1.194509789033288
 21
4.242229048514197
 31
0.0
  0
LINE
  5
465
330
355
100
AcDbEntity
  8
4
100
AcDbLine
 10
1.157009789033288
 20
4.242229048514197
 30
0.0
 11
1.175759789033287
 21
4.204729048514197
 31
0.0
  0
LINE
  5
466
330
355
100
AcDbEntity
  8
4
100
AcDbLine
 10
1.175759789033287
 20
4.204729048514197
 30
0.0
 11
1.194509789033288
 21
4.242229048514197
 31
0.0
  0
LINE
  5
467
330
355
100
AcDbEntity
  8
4
100
AcDbLine
 10
1.200759789033288
 20
4.146729048514197
 30
0.0
 11
1.219509789033288
 21
4.184229048514197
 31
0.0
  0
LINE
  5
468
330
355
100
AcDbEntity
  8
4
100
AcDbLine
 10
1.182009789033287
 20
4.184229048514197
 30
0.0
 11
1.200759789033288
 21
4.146729048514197
 31
0.0
  0
LINE
  5
469
330
355
100
AcDbEntity
  8
4
100
AcDbLine
 10
1.200759789033288
 20
4.221729048514196
 30
0.0
 11
1.219509789033288
 21
4.184229048514197
 31
0.0
  0
LINE
  5
46A
330
355
100
AcDbEntity
  8
4
100
AcDbLine
 10
1.182009789033287
 20
4.184229048514197
 30
0.0
 11
1.200759789033288
 21
4.221729048514196
 31
0.0
  0
LINE
  5
46B
330
355
100
AcDbEntity
  8
4
100
AcDbLine
 10
1.182009789033289
 20
4.291865507946047
 30
0.0
 11
1.200759789033288
 21
4.329365507946047
 31
0.0
  0
LINE
  5
46C
330
355
100
AcDbEntity
  8
4
100
AcDbLine
 10
1.200759789033288
 20
4.329365507946047
 30
0.0
 11
1.219509789033288
 21
4.291865507946047
 31
0.0
  0
LINE
  5
46D
330
355
100
AcDbEntity
  8
4
100
AcDbLine
 10
1.182009789033289
 20
4.291865507946047
 30
0.0
 11
1.200759789033288
 21
4.254365507946047
 31
0.0
  0
LINE
  5
46E
330
355
100
AcDbEntity
  8
4
100
AcDbLine
 10
1.200759789033288
 20
4.254365507946047
 30
0.0
 11
1.219509789033288
 21
4.291865507946047
 31
0.0
  0
LINE
  5
46F
330
355
100
AcDbEntity
  8
4
100
AcDbLine
 10
1.175759789033287
 20
4.312365507946047
 30
0.0
 11
1.194509789033288
 21
4.349865507946047
 31
0.0
  0
LINE
  5
470
330
355
100
AcDbEntity
  8
4
100
AcDbLine
 10
1.157009789033288
 20
4.349865507946047
 30
0.0
 11
1.175759789033287
 21
4.312365507946047
 31
0.0
  0
LINE
  5
471
330
355
100
AcDbEntity
  8
4
100
AcDbLine
 10
1.175759789033287
 20
4.387365507946046
 30
0.0
 11
1.194509789033288
 21
4.349865507946047
 31
0.0
  0
LINE
  5
472
330
355
100
AcDbEntity
  8
4
100
AcDbLine
 10
1.157009789033288
 20
4.349865507946047
 30
0.0
 11
1.175759789033287
 21
4.387365507946046
 31
0.0
  0
INSERT
  5
473
330
355
100
AcDbEntity
  8
2
100
AcDbBlockReference
  2
LE029
 10
7.113435503170871
 20
1.72478714194581
 30
0.0
  0
INSERT
  5
474
330
355
100
AcDbEntity
  8
2
100
AcDbBlockReference
  2
LE029
 10
7.113435503170872
 20
1.941071857623926
 30
0.0
  0
INSERT
  5
475
330
355
100
AcDbEntity
  8
2
100
AcDbBlockReference
  2
LE029
 10
6.574435503170871
 20
1.72478714194581
 30
0.0
  0
INSERT
  5
476
330
355
100
AcDbEntity
  8
2
100
AcDbBlockReference
  2
LE029
 10
6.574435503170871
 20
1.941071857623926
 30
0.0
  0
INSERT
  5
477
330
355
100
AcDbEntity
  8
2
100
AcDbBlockReference
  2
LE029
 10
5.26443550317087
 20
1.72478714194581
 30
0.0
  0
INSERT
  5
478
330
355
100
AcDbEntity
  8
2
100
AcDbBlockReference
  2
LE029
 10
5.264435503170872
 20
1.941071857623926
 30
0.0
  0
LINE
  5
479
330
355
100
AcDbEntity
  8
2
100
AcDbLine
 10
5.576935503170872
 20
1.883071857623926
 30
0.0
 11
5.576935503170872
 21
1.666787141945811
 31
0.0
  0
LINE
  5
47A
330
355
100
AcDbEntity
  8
2
100
AcDbLine
 10
5.264435503170872
 20
1.941071857623926
 30
0.0
 11
5.264435503170872
 21
1.724787141945811
 31
0.0
  0
LINE
  5
47B
330
355
100
AcDbEntity
  8
2
100
AcDbLine
 10
5.308185503170872
 20
1.629287141945811
 30
0.0
 11
5.558185503170872
 21
1.629287141945811
 31
0.0
  0
LINE
  5
47C
330
355
100
AcDbEntity
  8
2
100
AcDbLine
 10
5.283185503170873
 20
1.978571857623926
 30
0.0
 11
5.533185503170871
 21
1.978571857623925
 31
0.0
  0
LINE
  5
47D
330
355
100
AcDbEntity
  8
2
100
AcDbLine
 10
6.593185503170872
 20
1.978571857623926
 30
0.0
 11
6.843185503170872
 21
1.978571857623925
 31
0.0
  0
LINE
  5
47E
330
355
100
AcDbEntity
  8
2
100
AcDbLine
 10
6.61818550317087
 20
1.629287141945811
 30
0.0
 11
6.86818550317087
 21
1.629287141945811
 31
0.0
  0
LINE
  5
47F
330
355
100
AcDbEntity
  8
2
100
AcDbLine
 10
6.574435503170871
 20
1.941071857623926
 30
0.0
 11
6.574435503170871
 21
1.724787141945811
 31
0.0
  0
LINE
  5
480
330
355
100
AcDbEntity
  8
2
100
AcDbLine
 10
6.886935503170871
 20
1.883071857623926
 30
0.0
 11
6.886935503170871
 21
1.666787141945811
 31
0.0
  0
LINE
  5
481
330
355
100
AcDbEntity
  8
2
100
AcDbLine
 10
7.132185503170873
 20
1.978571857623926
 30
0.0
 11
7.382185503170871
 21
1.978571857623925
 31
0.0
  0
LINE
  5
482
330
355
100
AcDbEntity
  8
2
100
AcDbLine
 10
7.157185503170872
 20
1.629287141945811
 30
0.0
 11
7.407185503170872
 21
1.629287141945811
 31
0.0
  0
LINE
  5
483
330
355
100
AcDbEntity
  8
2
100
AcDbLine
 10
7.113435503170872
 20
1.941071857623926
 30
0.0
 11
7.113435503170872
 21
1.724787141945811
 31
0.0
  0
LINE
  5
484
330
355
100
AcDbEntity
  8
2
100
AcDbLine
 10
7.425935503170872
 20
1.883071857623926
 30
0.0
 11
7.425935503170872
 21
1.666787141945811
 31
0.0
  0
LINE
  5
485
330
355
100
AcDbEntity
  8
2
100
AcDbLine
 10
7.425935503170872
 20
4.196603523037241
 30
0.0
 11
7.425935503170872
 21
3.980318807359127
 31
0.0
  0
LINE
  5
486
330
355
100
AcDbEntity
  8
2
100
AcDbLine
 10
7.113435503170872
 20
4.254603523037241
 30
0.0
 11
7.113435503170872
 21
4.038318807359127
 31
0.0
  0
LINE
  5
487
330
355
100
AcDbEntity
  8
2
100
AcDbLine
 10
7.157185503170872
 20
3.942818807359127
 30
0.0
 11
7.407185503170872
 21
3.942818807359127
 31
0.0
  0
LINE
  5
488
330
355
100
AcDbEntity
  8
2
100
AcDbLine
 10
7.132185503170873
 20
4.292103523037242
 30
0.0
 11
7.382185503170871
 21
4.292103523037241
 31
0.0
  0
LINE
  5
489
330
355
100
AcDbEntity
  8
2
100
AcDbLine
 10
6.886935503170871
 20
4.196603523037241
 30
0.0
 11
6.886935503170871
 21
3.980318807359127
 31
0.0
  0
LINE
  5
48A
330
355
100
AcDbEntity
  8
2
100
AcDbLine
 10
6.574435503170871
 20
4.254603523037241
 30
0.0
 11
6.574435503170871
 21
4.038318807359127
 31
0.0
  0
LINE
  5
48B
330
355
100
AcDbEntity
  8
2
100
AcDbLine
 10
6.61818550317087
 20
3.942818807359127
 30
0.0
 11
6.86818550317087
 21
3.942818807359127
 31
0.0
  0
LINE
  5
48C
330
355
100
AcDbEntity
  8
2
100
AcDbLine
 10
6.593185503170872
 20
4.292103523037242
 30
0.0
 11
6.843185503170872
 21
4.292103523037241
 31
0.0
  0
LINE
  5
48D
330
355
100
AcDbEntity
  8
2
100
AcDbLine
 10
5.283185503170873
 20
4.292103523037242
 30
0.0
 11
5.533185503170871
 21
4.292103523037241
 31
0.0
  0
LINE
  5
48E
330
355
100
AcDbEntity
  8
2
100
AcDbLine
 10
5.308185503170872
 20
3.942818807359127
 30
0.0
 11
5.558185503170872
 21
3.942818807359127
 31
0.0
  0
LINE
  5
48F
330
355
100
AcDbEntity
  8
2
100
AcDbLine
 10
5.264435503170872
 20
4.254603523037241
 30
0.0
 11
5.264435503170872
 21
4.038318807359127
 31
0.0
  0
LINE
  5
490
330
355
100
AcDbEntity
  8
2
100
AcDbLine
 10
5.576935503170872
 20
4.196603523037241
 30
0.0
 11
5.576935503170872
 21
3.980318807359127
 31
0.0
  0
INSERT
  5
491
330
355
100
AcDbEntity
  8
2
100
AcDbBlockReference
  2
LE029
 10
5.264435503170872
 20
4.254603523037241
 30
0.0
  0
INSERT
  5
492
330
355
100
AcDbEntity
  8
2
100
AcDbBlockReference
  2
LE029
 10
5.26443550317087
 20
4.038318807359125
 30
0.0
  0
INSERT
  5
493
330
355
100
AcDbEntity
  8
2
100
AcDbBlockReference
  2
LE029
 10
6.574435503170871
 20
4.254603523037241
 30
0.0
  0
INSERT
  5
494
330
355
100
AcDbEntity
  8
2
100
AcDbBlockReference
  2
LE029
 10
6.574435503170871
 20
4.038318807359125
 30
0.0
  0
INSERT
  5
495
330
355
100
AcDbEntity
  8
2
100
AcDbBlockReference
  2
LE029
 10
7.113435503170872
 20
4.254603523037241
 30
0.0
  0
INSERT
  5
496
330
355
100
AcDbEntity
  8
2
100
AcDbBlockReference
  2
LE029
 10
7.113435503170871
 20
4.038318807359125
 30
0.0
  0
INSERT
  5
497
330
355
100
AcDbEntity
  8
2
100
AcDbBlockReference
  2
LE029
 10
7.113435503170872
 20
2.225131471947451
 30
0.0
  0
INSERT
  5
498
330
355
100
AcDbEntity
  8
2
100
AcDbBlockReference
  2
LE029
 10
6.574435503170871
 20
2.225131471947451
 30
0.0
  0
INSERT
  5
499
330
355
100
AcDbEntity
  8
2
100
AcDbBlockReference
  2
LE029
 10
5.264435503170872
 20
2.225131471947451
 30
0.0
  0
INSERT
  5
49A
330
355
100
AcDbEntity
  8
2
100
AcDbBlockReference
  2
LE029
 10
7.113435503170872
 20
3.749483026277344
 30
0.0
  0
INSERT
  5
49B
330
355
100
AcDbEntity
  8
2
100
AcDbBlockReference
  2
LE029
 10
6.574435503170871
 20
3.749483026277344
 30
0.0
  0
INSERT
  5
49C
330
355
100
AcDbEntity
  8
2
100
AcDbBlockReference
  2
LE029
 10
5.264435503170872
 20
3.749483026277344
 30
0.0
  0
LINE
  5
49D
330
355
100
AcDbEntity
  8
2
100
AcDbLine
 10
5.283185503170873
 20
2.262631471947451
 30
0.0
 11
5.533185503170871
 21
2.26263147194745
 31
0.0
  0
LINE
  5
49E
330
355
100
AcDbEntity
  8
2
100
AcDbLine
 10
6.593185503170872
 20
2.262631471947451
 30
0.0
 11
6.843185503170872
 21
2.26263147194745
 31
0.0
  0
LINE
  5
49F
330
355
100
AcDbEntity
  8
2
100
AcDbLine
 10
7.132185503170873
 20
2.262631471947451
 30
0.0
 11
7.382185503170871
 21
2.26263147194745
 31
0.0
  0
LINE
  5
4A0
330
355
100
AcDbEntity
  8
2
100
AcDbLine
 10
7.132185503170873
 20
3.786983026277344
 30
0.0
 11
7.382185503170871
 21
3.786983026277343
 31
0.0
  0
LINE
  5
4A1
330
355
100
AcDbEntity
  8
2
100
AcDbLine
 10
6.593185503170872
 20
3.786983026277344
 30
0.0
 11
6.843185503170872
 21
3.786983026277343
 31
0.0
  0
LINE
  5
4A2
330
355
100
AcDbEntity
  8
2
100
AcDbLine
 10
5.283185503170873
 20
3.786983026277344
 30
0.0
 11
5.533185503170871
 21
3.786983026277343
 31
0.0
  0
LINE
  5
4A3
330
355
100
AcDbEntity
  8
2
100
AcDbLine
 10
5.308185503170872
 20
3.653983026277344
 30
0.0
 11
5.558185503170872
 21
3.653983026277343
 31
0.0
  0
LINE
  5
4A4
330
355
100
AcDbEntity
  8
2
100
AcDbLine
 10
5.308185503170872
 20
2.129631471947451
 30
0.0
 11
5.558185503170872
 21
2.12963147194745
 31
0.0
  0
LINE
  5
4A5
330
355
100
AcDbEntity
  8
2
100
AcDbLine
 10
6.618185503170872
 20
3.653983026277344
 30
0.0
 11
6.86818550317087
 21
3.653983026277343
 31
0.0
  0
LINE
  5
4A6
330
355
100
AcDbEntity
  8
2
100
AcDbLine
 10
6.618185503170872
 20
2.129631471947451
 30
0.0
 11
6.86818550317087
 21
2.12963147194745
 31
0.0
  0
LINE
  5
4A7
330
355
100
AcDbEntity
  8
2
100
AcDbLine
 10
7.157185503170872
 20
2.12963147194745
 30
0.0
 11
7.407185503170872
 21
2.129631471947449
 31
0.0
  0
LINE
  5
4A8
330
355
100
AcDbEntity
  8
2
100
AcDbLine
 10
7.157185503170872
 20
3.653983026277343
 30
0.0
 11
7.407185503170872
 21
3.653983026277342
 31
0.0
  0
CIRCLE
  5
4A9
330
355
100
AcDbEntity
  8
4
100
AcDbCircle
 10
1.207234055463451
 20
3.949483801611808
 30
0.0
 40
0.023
  0
LWPOLYLINE
  5
4AA
330
355
100
AcDbEntity
  8
4
100
AcDbPolyline
 90
        2
 70
     1
 43
0.01
 10
1.202234055463451
 20
4.001983801611808
 42
1.0
 10
1.212234055463451
 20
4.001983801611808
 42
1.0
  0
LWPOLYLINE
  5
4AB
330
355
100
AcDbEntity
  8
4
100
AcDbPolyline
 90
        2
 70
     1
 43
0.01
 10
1.202234055463451
 20
3.896983801611808
 42
1.0
 10
1.212234055463451
 20
3.896983801611808
 42
1.0
  0
TEXT
  5
4AC
330
355
100
AcDbEntity
  8
8
100
AcDbText
 10
1.5625
 20
0.094
 30
0.0
 40
0.125
  1
HEAVY DUTY VENTILATED LOCKER - 60" TRIPLE TIER
  7
ROMANS
 72
     1
 11
4.125
 21
0.094
 31
0.0
100
AcDbText
  0
INSERT
  5
4AD
330
355
100
AcDbEntity
  8
4
100
AcDbBlockReference
  2
TEMP3
 10
0.5859118825233172
 20
3.181450161083614
 30
0.0
  0
LINE
  5
4AE
330
355
100
AcDbEntity
  8
4
100
AcDbLine
 10
7.6245
 20
1.594
 30
0.0
 11
7.5625
 21
1.594
 31
0.0
  0
LINE
  5
4AF
330
355
100
AcDbEntity
  8
4
100
AcDbLine
 10
6.375499999999999
 20
1.594
 30
0.0
 11
6.4375
 21
1.594
 31
0.0
  0
LINE
  5
4B0
330
355
100
AcDbEntity
  8
4
100
AcDbLine
 10
5.0655
 20
1.594
 30
0.0
 11
5.1275
 21
1.594
 31
0.0
  0
INSERT
  5
4B1
330
355
100
AcDbEntity
  8
4
100
AcDbBlockReference
  2
ARRO
 10
4.8125
 20
1.5
 30
0.0
 50
270.0
  0
INSERT
  5
4B2
330
355
100
AcDbEntity
  8
4
100
AcDbBlockReference
  2
ARRO
 10
4.8125
 20
1.562
 30
0.0
 50
90.0
  0
LINE
  5
4B3
330
355
100
AcDbEntity
  8
4
100
AcDbLine
 10
4.8125
 20
1.562
 30
0.0
 11
4.750499999999999
 21
1.562
 31
0.0
  0
LINE
  5
4B4
330
355
100
AcDbEntity
  8
4
100
AcDbLine
 10
5.0025
 20
1.562
 30
0.0
 11
4.8125
 21
1.562
 31
0.0
  0
LINE
  5
4B5
330
355
100
AcDbEntity
  8
4
100
AcDbLine
 10
4.8125
 20
1.5
 30
0.0
 11
4.8125
 21
1.375
 31
0.0
  0
LINE
  5
4B6
330
355
100
AcDbEntity
  8
4
100
AcDbLine
 10
7.301520109897514
 20
2.422046183989779
 30
0.0
 11
7.301520109897514
 21
2.360046183989779
 31
0.0
  0
LINE
  5
4B7
330
355
100
AcDbEntity
  8
4
100
AcDbLine
 10
7.332520109897513
 20
2.422046183989779
 30
0.0
 11
7.270520109897514
 21
2.422046183989779
 31
0.0
  0
LINE
  5
4B8
330
355
100
AcDbEntity
  8
4
100
AcDbLine
 10
7.019499999999998
 20
2.38504618398978
 30
0.0
 11
7.019499999999998
 21
2.43504618398978
 31
0.0
  0
ARC
  5
4B9
330
355
100
AcDbEntity
  8
4
100
AcDbCircle
 10
7.044499999999998
 20
2.38504618398978
 30
0.0
 40
0.025
100
AcDbArc
 50
180.0
 51
0.0
  0
LINE
  5
4BA
330
355
100
AcDbEntity
  8
4
100
AcDbLine
 10
7.624499999999999
 20
2.448005878557129
 30
0.0
 11
7.562499999999999
 21
2.448005878557129
 31
0.0
  0
LINE
  5
4BB
330
355
100
AcDbEntity
  8
4
100
AcDbLine
 10
7.624499999999999
 20
2.573961724666486
 30
0.0
 11
7.5625
 21
2.573961724666486
 31
0.0
  0
LINE
  5
4BC
330
355
100
AcDbEntity
  8
4
100
AcDbLine
 10
7.4865
 20
2.54200587855713
 30
0.0
 11
7.019499999999999
 21
2.54200587855713
 31
0.0
  0
LINE
  5
4BD
330
355
100
AcDbEntity
  8
4
100
AcDbLine
 10
7.5625
 20
2.480005878557129
 30
0.0
 11
7.6245
 21
2.480005878557129
 31
0.0
  0
LINE
  5
4BE
330
355
100
AcDbEntity
  8
4
100
AcDbLine
 10
7.6245
 20
2.480005878557129
 30
0.0
 11
7.6245
 21
2.54200587855713
 31
0.0
  0
LINE
  5
4BF
330
355
100
AcDbEntity
  8
4
100
AcDbLine
 10
7.6245
 20
2.54200587855713
 30
0.0
 11
7.5165
 21
2.54200587855713
 31
0.0
  0
LINE
  5
4C0
330
355
100
AcDbEntity
  8
4
100
AcDbLine
 10
7.019499999999999
 20
2.54200587855713
 30
0.0
 11
7.019499999999999
 21
2.480005878557129
 31
0.0
  0
LINE
  5
4C1
330
355
100
AcDbEntity
  8
4
100
AcDbLine
 10
7.059499999999999
 20
2.54200587855713
 30
0.0
 11
7.059499999999999
 21
2.480005878557129
 31
0.0
  0
LINE
  5
4C2
330
355
100
AcDbEntity
  8
4
100
AcDbLine
 10
7.059499999999999
 20
2.480005878557129
 30
0.0
 11
7.4245
 21
2.480005878557129
 31
0.0
  0
LINE
  5
4C3
330
355
100
AcDbEntity
  8
4
100
AcDbLine
 10
7.4245
 20
2.480005878557129
 30
0.0
 11
7.4865
 21
2.54200587855713
 31
0.0
  0
LINE
  5
4C4
330
355
100
AcDbEntity
  8
4
100
AcDbLine
 10
7.599499999999999
 20
2.527005878557129
 30
0.0
 11
7.599499999999999
 21
2.498759736119569
 31
0.0
  0
LINE
  5
4C5
330
355
100
AcDbEntity
  8
4
100
AcDbLine
 10
7.5015
 20
2.527005878557129
 30
0.0
 11
7.599499999999999
 21
2.527005878557129
 31
0.0
  0
LINE
  5
4C6
330
355
100
AcDbEntity
  8
4
100
AcDbLine
 10
7.4865
 20
2.54200587855713
 30
0.0
 11
7.5015
 21
2.527005878557129
 31
0.0
  0
LINE
  5
4C7
330
355
100
AcDbEntity
  8
4
100
AcDbLine
 10
6.513499999999999
 20
2.54200587855713
 30
0.0
 11
6.498499999999999
 21
2.527005878557129
 31
0.0
  0
LINE
  5
4C8
330
355
100
AcDbEntity
  8
4
100
AcDbLine
 10
6.498499999999999
 20
2.527005878557129
 30
0.0
 11
6.4005
 21
2.527005878557129
 31
0.0
  0
LINE
  5
4C9
330
355
100
AcDbEntity
  8
4
100
AcDbLine
 10
6.4005
 20
2.527005878557129
 30
0.0
 11
6.4005
 21
2.498759736119569
 31
0.0
  0
LINE
  5
4CA
330
355
100
AcDbEntity
  8
4
100
AcDbLine
 10
6.575499999999999
 20
2.480005878557129
 30
0.0
 11
6.513499999999999
 21
2.54200587855713
 31
0.0
  0
LINE
  5
4CB
330
355
100
AcDbEntity
  8
4
100
AcDbLine
 10
6.9405
 20
2.480005878557129
 30
0.0
 11
6.575499999999999
 21
2.480005878557129
 31
0.0
  0
LINE
  5
4CC
330
355
100
AcDbEntity
  8
4
100
AcDbLine
 10
6.9405
 20
2.54200587855713
 30
0.0
 11
6.9405
 21
2.480005878557129
 31
0.0
  0
LINE
  5
4CD
330
355
100
AcDbEntity
  8
4
100
AcDbLine
 10
6.9805
 20
2.54200587855713
 30
0.0
 11
6.9805
 21
2.480005878557129
 31
0.0
  0
LINE
  5
4CE
330
355
100
AcDbEntity
  8
4
100
AcDbLine
 10
6.375499999999999
 20
2.54200587855713
 30
0.0
 11
6.483499999999999
 21
2.54200587855713
 31
0.0
  0
LINE
  5
4CF
330
355
100
AcDbEntity
  8
4
100
AcDbLine
 10
6.375499999999999
 20
2.480005878557129
 30
0.0
 11
6.375499999999999
 21
2.54200587855713
 31
0.0
  0
LINE
  5
4D0
330
355
100
AcDbEntity
  8
4
100
AcDbLine
 10
6.4375
 20
2.480005878557129
 30
0.0
 11
6.375499999999999
 21
2.480005878557129
 31
0.0
  0
LINE
  5
4D1
330
355
100
AcDbEntity
  8
4
100
AcDbLine
 10
6.513499999999999
 20
2.54200587855713
 30
0.0
 11
6.9805
 21
2.54200587855713
 31
0.0
  0
LINE
  5
4D2
330
355
100
AcDbEntity
  8
4
100
AcDbLine
 10
6.3755
 20
2.573961724666486
 30
0.0
 11
6.4375
 21
2.573961724666486
 31
0.0
  0
LINE
  5
4D3
330
355
100
AcDbEntity
  8
4
100
AcDbLine
 10
6.3755
 20
2.448005878557129
 30
0.0
 11
6.4375
 21
2.448005878557129
 31
0.0
  0
ARC
  5
4D4
330
355
100
AcDbEntity
  8
4
100
AcDbCircle
 10
6.955500000000001
 20
2.38504618398978
 30
0.0
 40
0.025
100
AcDbArc
 50
180.0
 51
0.0
  0
LINE
  5
4D5
330
355
100
AcDbEntity
  8
4
100
AcDbLine
 10
6.980500000000001
 20
2.38504618398978
 30
0.0
 11
6.980500000000001
 21
2.43504618398978
 31
0.0
  0
LINE
  5
4D6
330
355
100
AcDbEntity
  8
4
100
AcDbLine
 10
6.667479890102486
 20
2.422046183989779
 30
0.0
 11
6.729479890102485
 21
2.422046183989779
 31
0.0
  0
LINE
  5
4D7
330
355
100
AcDbEntity
  8
4
100
AcDbLine
 10
6.698479890102485
 20
2.422046183989779
 30
0.0
 11
6.698479890102485
 21
2.360046183989779
 31
0.0
  0
LINE
  5
4D8
330
355
100
AcDbEntity
  8
4
100
AcDbLine
 10
5.002500000000002
 20
2.54200587855713
 30
0.0
 11
4.812500000000001
 21
2.54200587855713
 31
0.0
  0
LINE
  5
4D9
330
355
100
AcDbEntity
  8
4
100
AcDbLine
 10
4.812500000000001
 20
2.54200587855713
 30
0.0
 11
4.750500000000001
 21
2.54200587855713
 31
0.0
  0
INSERT
  5
4DA
330
355
100
AcDbEntity
  8
4
100
AcDbBlockReference
  2
ARRO2
 10
4.812500000000001
 20
2.54200587855713
 30
0.0
 50
90.0
  0
LINE
  5
4DB
330
355
100
AcDbEntity
  8
4
100
AcDbLine
 10
5.388479890102487
 20
2.422046183989779
 30
0.0
 11
5.388479890102487
 21
2.360046183989779
 31
0.0
  0
LINE
  5
4DC
330
355
100
AcDbEntity
  8
4
100
AcDbLine
 10
5.357479890102487
 20
2.422046183989779
 30
0.0
 11
5.419479890102486
 21
2.422046183989779
 31
0.0
  0
LINE
  5
4DD
330
355
100
AcDbEntity
  8
4
100
AcDbLine
 10
5.670500000000002
 20
2.38504618398978
 30
0.0
 11
5.670500000000002
 21
2.43504618398978
 31
0.0
  0
ARC
  5
4DE
330
355
100
AcDbEntity
  8
4
100
AcDbCircle
 10
5.645500000000002
 20
2.38504618398978
 30
0.0
 40
0.025
100
AcDbArc
 50
180.0
 51
0.0
  0
LINE
  5
4DF
330
355
100
AcDbEntity
  8
4
100
AcDbLine
 10
5.065500000000001
 20
2.448005878557129
 30
0.0
 11
5.127500000000002
 21
2.448005878557129
 31
0.0
  0
LINE
  5
4E0
330
355
100
AcDbEntity
  8
4
100
AcDbLine
 10
5.065500000000001
 20
2.573961724666486
 30
0.0
 11
5.127500000000001
 21
2.573961724666486
 31
0.0
  0
LINE
  5
4E1
330
355
100
AcDbEntity
  8
4
100
AcDbLine
 10
5.2035
 20
2.54200587855713
 30
0.0
 11
5.670500000000001
 21
2.54200587855713
 31
0.0
  0
LINE
  5
4E2
330
355
100
AcDbEntity
  8
4
100
AcDbLine
 10
5.127500000000001
 20
2.480005878557129
 30
0.0
 11
5.065500000000001
 21
2.480005878557129
 31
0.0
  0
LINE
  5
4E3
330
355
100
AcDbEntity
  8
4
100
AcDbLine
 10
5.065500000000001
 20
2.480005878557129
 30
0.0
 11
5.065500000000001
 21
2.54200587855713
 31
0.0
  0
LINE
  5
4E4
330
355
100
AcDbEntity
  8
4
100
AcDbLine
 10
5.065500000000001
 20
2.54200587855713
 30
0.0
 11
5.1735
 21
2.54200587855713
 31
0.0
  0
LINE
  5
4E5
330
355
100
AcDbEntity
  8
4
100
AcDbLine
 10
5.670500000000001
 20
2.54200587855713
 30
0.0
 11
5.670500000000001
 21
2.480005878557129
 31
0.0
  0
LINE
  5
4E6
330
355
100
AcDbEntity
  8
4
100
AcDbLine
 10
5.630500000000001
 20
2.54200587855713
 30
0.0
 11
5.630500000000001
 21
2.480005878557129
 31
0.0
  0
LINE
  5
4E7
330
355
100
AcDbEntity
  8
4
100
AcDbLine
 10
5.630500000000001
 20
2.480005878557129
 30
0.0
 11
5.265500000000001
 21
2.480005878557129
 31
0.0
  0
LINE
  5
4E8
330
355
100
AcDbEntity
  8
4
100
AcDbLine
 10
5.265500000000001
 20
2.480005878557129
 30
0.0
 11
5.2035
 21
2.54200587855713
 31
0.0
  0
LINE
  5
4E9
330
355
100
AcDbEntity
  8
4
100
AcDbLine
 10
5.090500000000001
 20
2.527005878557129
 30
0.0
 11
5.090500000000001
 21
2.498759736119569
 31
0.0
  0
LINE
  5
4EA
330
355
100
AcDbEntity
  8
4
100
AcDbLine
 10
5.188500000000001
 20
2.527005878557129
 30
0.0
 11
5.090500000000001
 21
2.527005878557129
 31
0.0
  0
LINE
  5
4EB
330
355
100
AcDbEntity
  8
4
100
AcDbLine
 10
5.2035
 20
2.54200587855713
 30
0.0
 11
5.188500000000001
 21
2.527005878557129
 31
0.0
  0
LINE
  5
4EC
330
355
100
AcDbEntity
  8
4
100
AcDbLine
 10
7.6245
 20
3.42700587855713
 30
0.0
 11
7.6245
 21
2.573961724666486
 31
0.0
  0
LINE
  5
4ED
330
355
100
AcDbEntity
  8
4
100
AcDbLine
 10
6.375499999999999
 20
3.42700587855713
 30
0.0
 11
6.375499999999999
 21
2.573961724666486
 31
0.0
  0
LINE
  5
4EE
330
355
100
AcDbEntity
  8
4
100
AcDbLine
 10
5.065500000000001
 20
3.42700587855713
 30
0.0
 11
5.065500000000001
 21
2.573961724666486
 31
0.0
  0
LINE
  5
4EF
330
355
100
AcDbEntity
  8
4
100
AcDbLine
 10
5.0655
 20
4.406
 30
0.0
 11
5.065500000000001
 21
3.552961724666487
 31
0.0
  0
LINE
  5
4F0
330
355
100
AcDbEntity
  8
4
100
AcDbLine
 10
6.375499999999999
 20
4.406
 30
0.0
 11
6.375499999999999
 21
3.552961724666486
 31
0.0
  0
LINE
  5
4F1
330
355
100
AcDbEntity
  8
4
100
AcDbLine
 10
7.6245
 20
4.406
 30
0.0
 11
7.6245
 21
3.552961724666487
 31
0.0
  0
LINE
  5
4F2
330
355
100
AcDbEntity
  8
4
100
AcDbLine
 10
7.624500000000001
 20
4.406
 30
0.0
 11
7.5625
 21
4.406
 31
0.0
  0
LINE
  5
4F3
330
355
100
AcDbEntity
  8
4
100
AcDbLine
 10
6.375499999999998
 20
4.406
 30
0.0
 11
6.437499999999999
 21
4.406
 31
0.0
  0
LINE
  5
4F4
330
355
100
AcDbEntity
  8
4
100
AcDbLine
 10
5.065499999999999
 20
4.406
 30
0.0
 11
5.127499999999999
 21
4.406
 31
0.0
  0
INSERT
  5
4F5
330
355
100
AcDbEntity
  8
4
100
AcDbBlockReference
  2
ARRO2
 10
4.8125
 20
3.52100587855713
 30
0.0
 50
90.0
  0
LINE
  5
4F6
330
355
100
AcDbEntity
  8
4
100
AcDbLine
 10
4.8125
 20
3.52100587855713
 30
0.0
 11
4.7505
 21
3.52100587855713
 31
0.0
  0
LINE
  5
4F7
330
355
100
AcDbEntity
  8
4
100
AcDbLine
 10
5.002500000000001
 20
3.52100587855713
 30
0.0
 11
4.8125
 21
3.52100587855713
 31
0.0
  0
LINE
  5
4F8
330
355
100
AcDbEntity
  8
4
100
AcDbLine
 10
7.301520109897515
 20
4.379999999999999
 30
0.0
 11
7.301520109897515
 21
4.318
 31
0.0
  0
LINE
  5
4F9
330
355
100
AcDbEntity
  8
4
100
AcDbLine
 10
7.332520109897515
 20
4.379999999999999
 30
0.0
 11
7.270520109897516
 21
4.379999999999999
 31
0.0
  0
LINE
  5
4FA
330
355
100
AcDbEntity
  8
4
100
AcDbLine
 10
7.0195
 20
4.343000000000001
 30
0.0
 11
7.0195
 21
4.393
 31
0.0
  0
ARC
  5
4FB
330
355
100
AcDbEntity
  8
4
100
AcDbCircle
 10
7.0445
 20
4.343000000000001
 30
0.0
 40
0.025
100
AcDbArc
 50
180.0
 51
0.0
  0
ARC
  5
4FC
330
355
100
AcDbEntity
  8
4
100
AcDbCircle
 10
6.9555
 20
4.343000000000001
 30
0.0
 40
0.025
100
AcDbArc
 50
180.0
 51
0.0
  0
LINE
  5
4FD
330
355
100
AcDbEntity
  8
4
100
AcDbLine
 10
6.9805
 20
4.343000000000001
 30
0.0
 11
6.9805
 21
4.393
 31
0.0
  0
LINE
  5
4FE
330
355
100
AcDbEntity
  8
4
100
AcDbLine
 10
6.667479890102485
 20
4.379999999999999
 30
0.0
 11
6.729479890102484
 21
4.379999999999999
 31
0.0
  0
LINE
  5
4FF
330
355
100
AcDbEntity
  8
4
100
AcDbLine
 10
6.698479890102484
 20
4.379999999999999
 30
0.0
 11
6.698479890102484
 21
4.318
 31
0.0
  0
LINE
  5
500
330
355
100
AcDbEntity
  8
4
100
AcDbLine
 10
5.388479890102485
 20
4.379999999999999
 30
0.0
 11
5.388479890102485
 21
4.318
 31
0.0
  0
LINE
  5
501
330
355
100
AcDbEntity
  8
4
100
AcDbLine
 10
5.357479890102485
 20
4.379999999999999
 30
0.0
 11
5.419479890102484
 21
4.379999999999999
 31
0.0
  0
LINE
  5
502
330
355
100
AcDbEntity
  8
4
100
AcDbLine
 10
5.6705
 20
4.343000000000001
 30
0.0
 11
5.6705
 21
4.393
 31
0.0
  0
ARC
  5
503
330
355
100
AcDbEntity
  8
4
100
AcDbCircle
 10
5.645500000000001
 20
4.343000000000001
 30
0.0
 40
0.025
100
AcDbArc
 50
180.0
 51
0.0
  0
INSERT
  5
504
330
355
100
AcDbEntity
  8
4
100
AcDbBlockReference
  2
ARRO
 10
4.8125
 20
4.5
 30
0.0
 50
270.0
  0
LINE
  5
505
330
355
100
AcDbEntity
  8
4
100
AcDbLine
 10
5.2035
 20
3.52100587855713
 30
0.0
 11
5.1885
 21
3.50600587855713
 31
0.0
  0
LINE
  5
506
330
355
100
AcDbEntity
  8
4
100
AcDbLine
 10
5.1885
 20
3.50600587855713
 30
0.0
 11
5.0905
 21
3.50600587855713
 31
0.0
  0
LINE
  5
507
330
355
100
AcDbEntity
  8
4
100
AcDbLine
 10
5.0905
 20
3.50600587855713
 30
0.0
 11
5.0905
 21
3.47775973611957
 31
0.0
  0
LINE
  5
508
330
355
100
AcDbEntity
  8
4
100
AcDbLine
 10
5.2655
 20
3.45900587855713
 30
0.0
 11
5.2035
 21
3.52100587855713
 31
0.0
  0
LINE
  5
509
330
355
100
AcDbEntity
  8
4
100
AcDbLine
 10
5.6305
 20
3.45900587855713
 30
0.0
 11
5.2655
 21
3.45900587855713
 31
0.0
  0
LINE
  5
50A
330
355
100
AcDbEntity
  8
4
100
AcDbLine
 10
5.6305
 20
3.52100587855713
 30
0.0
 11
5.6305
 21
3.45900587855713
 31
0.0
  0
LINE
  5
50B
330
355
100
AcDbEntity
  8
4
100
AcDbLine
 10
5.6705
 20
3.52100587855713
 30
0.0
 11
5.6705
 21
3.45900587855713
 31
0.0
  0
LINE
  5
50C
330
355
100
AcDbEntity
  8
4
100
AcDbLine
 10
5.0655
 20
3.52100587855713
 30
0.0
 11
5.173499999999999
 21
3.52100587855713
 31
0.0
  0
LINE
  5
50D
330
355
100
AcDbEntity
  8
4
100
AcDbLine
 10
5.0655
 20
3.45900587855713
 30
0.0
 11
5.0655
 21
3.52100587855713
 31
0.0
  0
LINE
  5
50E
330
355
100
AcDbEntity
  8
4
100
AcDbLine
 10
5.1275
 20
3.45900587855713
 30
0.0
 11
5.0655
 21
3.45900587855713
 31
0.0
  0
LINE
  5
50F
330
355
100
AcDbEntity
  8
4
100
AcDbLine
 10
5.2035
 20
3.52100587855713
 30
0.0
 11
5.6705
 21
3.52100587855713
 31
0.0
  0
LINE
  5
510
330
355
100
AcDbEntity
  8
4
100
AcDbLine
 10
6.513499999999998
 20
3.52100587855713
 30
0.0
 11
6.980499999999999
 21
3.52100587855713
 31
0.0
  0
LINE
  5
511
330
355
100
AcDbEntity
  8
4
100
AcDbLine
 10
6.437499999999999
 20
3.45900587855713
 30
0.0
 11
6.375499999999998
 21
3.45900587855713
 31
0.0
  0
LINE
  5
512
330
355
100
AcDbEntity
  8
4
100
AcDbLine
 10
6.375499999999998
 20
3.45900587855713
 30
0.0
 11
6.375499999999998
 21
3.52100587855713
 31
0.0
  0
LINE
  5
513
330
355
100
AcDbEntity
  8
4
100
AcDbLine
 10
6.375499999999998
 20
3.52100587855713
 30
0.0
 11
6.483499999999998
 21
3.52100587855713
 31
0.0
  0
LINE
  5
514
330
355
100
AcDbEntity
  8
4
100
AcDbLine
 10
6.980499999999999
 20
3.52100587855713
 30
0.0
 11
6.980499999999999
 21
3.45900587855713
 31
0.0
  0
LINE
  5
515
330
355
100
AcDbEntity
  8
4
100
AcDbLine
 10
6.940499999999999
 20
3.52100587855713
 30
0.0
 11
6.940499999999999
 21
3.45900587855713
 31
0.0
  0
LINE
  5
516
330
355
100
AcDbEntity
  8
4
100
AcDbLine
 10
6.940499999999999
 20
3.45900587855713
 30
0.0
 11
6.575499999999999
 21
3.45900587855713
 31
0.0
  0
LINE
  5
517
330
355
100
AcDbEntity
  8
4
100
AcDbLine
 10
6.575499999999999
 20
3.45900587855713
 30
0.0
 11
6.513499999999998
 21
3.52100587855713
 31
0.0
  0
LINE
  5
518
330
355
100
AcDbEntity
  8
4
100
AcDbLine
 10
6.400499999999999
 20
3.50600587855713
 30
0.0
 11
6.400499999999999
 21
3.47775973611957
 31
0.0
  0
LINE
  5
519
330
355
100
AcDbEntity
  8
4
100
AcDbLine
 10
6.498499999999999
 20
3.50600587855713
 30
0.0
 11
6.400499999999999
 21
3.50600587855713
 31
0.0
  0
LINE
  5
51A
330
355
100
AcDbEntity
  8
4
100
AcDbLine
 10
6.513499999999998
 20
3.52100587855713
 30
0.0
 11
6.498499999999999
 21
3.50600587855713
 31
0.0
  0
LINE
  5
51B
330
355
100
AcDbEntity
  8
4
100
AcDbLine
 10
7.486500000000001
 20
3.52100587855713
 30
0.0
 11
7.5015
 21
3.50600587855713
 31
0.0
  0
LINE
  5
51C
330
355
100
AcDbEntity
  8
4
100
AcDbLine
 10
7.5015
 20
3.50600587855713
 30
0.0
 11
7.5995
 21
3.50600587855713
 31
0.0
  0
LINE
  5
51D
330
355
100
AcDbEntity
  8
4
100
AcDbLine
 10
7.5995
 20
3.50600587855713
 30
0.0
 11
7.5995
 21
3.47775973611957
 31
0.0
  0
LINE
  5
51E
330
355
100
AcDbEntity
  8
4
100
AcDbLine
 10
7.4245
 20
3.45900587855713
 30
0.0
 11
7.486500000000001
 21
3.52100587855713
 31
0.0
  0
LINE
  5
51F
330
355
100
AcDbEntity
  8
4
100
AcDbLine
 10
7.0595
 20
3.45900587855713
 30
0.0
 11
7.4245
 21
3.45900587855713
 31
0.0
  0
LINE
  5
520
330
355
100
AcDbEntity
  8
4
100
AcDbLine
 10
7.0595
 20
3.52100587855713
 30
0.0
 11
7.0595
 21
3.45900587855713
 31
0.0
  0
LINE
  5
521
330
355
100
AcDbEntity
  8
4
100
AcDbLine
 10
7.0195
 20
3.52100587855713
 30
0.0
 11
7.0195
 21
3.45900587855713
 31
0.0
  0
LINE
  5
522
330
355
100
AcDbEntity
  8
4
100
AcDbLine
 10
7.624500000000001
 20
3.52100587855713
 30
0.0
 11
7.516500000000001
 21
3.52100587855713
 31
0.0
  0
LINE
  5
523
330
355
100
AcDbEntity
  8
4
100
AcDbLine
 10
7.624500000000001
 20
3.45900587855713
 30
0.0
 11
7.624500000000001
 21
3.52100587855713
 31
0.0
  0
LINE
  5
524
330
355
100
AcDbEntity
  8
4
100
AcDbLine
 10
7.5625
 20
3.45900587855713
 30
0.0
 11
7.624500000000001
 21
3.45900587855713
 31
0.0
  0
LINE
  5
525
330
355
100
AcDbEntity
  8
4
100
AcDbLine
 10
7.486500000000001
 20
3.52100587855713
 30
0.0
 11
7.0195
 21
3.52100587855713
 31
0.0
  0
LINE
  5
526
330
355
100
AcDbEntity
  8
4
100
AcDbLine
 10
5.065500000000001
 20
3.552961724666487
 30
0.0
 11
5.1275
 21
3.552961724666487
 31
0.0
  0
LINE
  5
527
330
355
100
AcDbEntity
  8
4
100
AcDbLine
 10
5.065500000000001
 20
3.42700587855713
 30
0.0
 11
5.127500000000001
 21
3.42700587855713
 31
0.0
  0
LINE
  5
528
330
355
100
AcDbEntity
  8
4
100
AcDbLine
 10
6.375499999999998
 20
3.552961724666487
 30
0.0
 11
6.437499999999999
 21
3.552961724666487
 31
0.0
  0
LINE
  5
529
330
355
100
AcDbEntity
  8
4
100
AcDbLine
 10
7.5625
 20
3.552961724666487
 30
0.0
 11
7.624499999999999
 21
3.552961724666487
 31
0.0
  0
LINE
  5
52A
330
355
100
AcDbEntity
  8
4
100
AcDbLine
 10
7.5625
 20
3.42700587855713
 30
0.0
 11
7.624499999999999
 21
3.42700587855713
 31
0.0
  0
LINE
  5
52B
330
355
100
AcDbEntity
  8
4
100
AcDbLine
 10
6.375499999999999
 20
3.42700587855713
 30
0.0
 11
6.437499999999999
 21
3.42700587855713
 31
0.0
  0
ARC
  5
52C
330
355
100
AcDbEntity
  8
4
100
AcDbCircle
 10
5.645500000000001
 20
3.364046183989781
 30
0.0
 40
0.025
100
AcDbArc
 50
180.0
 51
0.0
  0
LINE
  5
52D
330
355
100
AcDbEntity
  8
4
100
AcDbLine
 10
5.670500000000001
 20
3.364046183989781
 30
0.0
 11
5.670500000000001
 21
3.414046183989781
 31
0.0
  0
LINE
  5
52E
330
355
100
AcDbEntity
  8
4
100
AcDbLine
 10
5.357479890102486
 20
3.40104618398978
 30
0.0
 11
5.419479890102485
 21
3.40104618398978
 31
0.0
  0
LINE
  5
52F
330
355
100
AcDbEntity
  8
4
100
AcDbLine
 10
5.388479890102486
 20
3.40104618398978
 30
0.0
 11
5.388479890102486
 21
3.33904618398978
 31
0.0
  0
LINE
  5
530
330
355
100
AcDbEntity
  8
4
100
AcDbLine
 10
6.698479890102484
 20
3.40104618398978
 30
0.0
 11
6.698479890102484
 21
3.33904618398978
 31
0.0
  0
LINE
  5
531
330
355
100
AcDbEntity
  8
4
100
AcDbLine
 10
6.667479890102485
 20
3.40104618398978
 30
0.0
 11
6.729479890102484
 21
3.40104618398978
 31
0.0
  0
LINE
  5
532
330
355
100
AcDbEntity
  8
4
100
AcDbLine
 10
6.9805
 20
3.364046183989781
 30
0.0
 11
6.9805
 21
3.414046183989781
 31
0.0
  0
ARC
  5
533
330
355
100
AcDbEntity
  8
4
100
AcDbCircle
 10
6.9555
 20
3.364046183989781
 30
0.0
 40
0.025
100
AcDbArc
 50
180.0
 51
0.0
  0
ARC
  5
534
330
355
100
AcDbEntity
  8
4
100
AcDbCircle
 10
7.0445
 20
3.364046183989781
 30
0.0
 40
0.025
100
AcDbArc
 50
180.0
 51
0.0
  0
LINE
  5
535
330
355
100
AcDbEntity
  8
4
100
AcDbLine
 10
7.0195
 20
3.364046183989781
 30
0.0
 11
7.0195
 21
3.414046183989781
 31
0.0
  0
LINE
  5
536
330
355
100
AcDbEntity
  8
4
100
AcDbLine
 10
7.332520109897515
 20
3.40104618398978
 30
0.0
 11
7.270520109897516
 21
3.40104618398978
 31
0.0
  0
LINE
  5
537
330
355
100
AcDbEntity
  8
4
100
AcDbLine
 10
7.301520109897515
 20
3.40104618398978
 30
0.0
 11
7.301520109897515
 21
3.33904618398978
 31
0.0
  0
LINE
  5
538
330
355
100
AcDbEntity
  8
4
100
AcDbLine
 10
4.8125
 20
4.5
 30
0.0
 11
4.8125
 21
1.562
 31
0.0
  0
LINE
  5
539
330
355
100
AcDbEntity
  8
4
100
AcDbLine
 10
5.0655
 20
2.448005878557129
 30
0.0
 11
5.0655
 21
1.594
 31
0.0
  0
LINE
  5
53A
330
355
100
AcDbEntity
  8
4
100
AcDbLine
 10
6.375499999999999
 20
2.448005878557129
 30
0.0
 11
6.375499999999999
 21
1.594
 31
0.0
  0
LINE
  5
53B
330
355
100
AcDbEntity
  8
4
100
AcDbLine
 10
7.6245
 20
2.448005878557129
 30
0.0
 11
7.6245
 21
1.594
 31
0.0
  0
ARC
  5
53C
330
355
100
AcDbEntity
  8
4
100
AcDbCircle
 10
3.412999999999999
 20
2.385046183989781
 30
0.0
 40
0.025
100
AcDbArc
 50
180.0
 51
0.0
  0
ARC
  5
53D
330
355
100
AcDbEntity
  8
4
100
AcDbCircle
 10
2.961999999999999
 20
2.385046183989781
 30
0.0
 40
0.025
100
AcDbArc
 50
180.0
 51
0.0
  0
ARC
  5
53E
330
355
100
AcDbEntity
  8
4
100
AcDbCircle
 10
2.787999999999999
 20
2.385046183989781
 30
0.0
 40
0.025
100
AcDbArc
 50
180.0
 51
0.0
  0
ARC
  5
53F
330
355
100
AcDbEntity
  8
4
100
AcDbCircle
 10
2.336999999999999
 20
2.385046183989781
 30
0.0
 40
0.025
100
AcDbArc
 50
180.0
 51
0.0
  0
ARC
  5
540
330
355
100
AcDbEntity
  8
4
100
AcDbCircle
 10
2.163
 20
2.385046183989781
 30
0.0
 40
0.025
100
AcDbArc
 50
180.0
 51
0.0
  0
ARC
  5
541
330
355
100
AcDbEntity
  8
4
100
AcDbCircle
 10
1.712
 20
2.385046183989781
 30
0.0
 40
0.025
100
AcDbArc
 50
180.0
 51
0.0
  0
LINE
  5
542
330
355
100
AcDbEntity
  8
4
100
AcDbLine
 10
3.155
 20
2.42204618398978
 30
0.0
 11
3.217
 21
2.42204618398978
 31
0.0
  0
LINE
  5
543
330
355
100
AcDbEntity
  8
4
100
AcDbLine
 10
3.217
 20
2.42204618398978
 30
0.0
 11
3.217
 21
2.36004618398978
 31
0.0
  0
LINE
  5
544
330
355
100
AcDbEntity
  8
4
100
AcDbLine
 10
3.155
 20
2.42204618398978
 30
0.0
 11
3.155
 21
2.36004618398978
 31
0.0
  0
LINE
  5
545
330
355
100
AcDbEntity
  8
4
100
AcDbLine
 10
1.905
 20
2.42204618398978
 30
0.0
 11
1.905
 21
2.36004618398978
 31
0.0
  0
LINE
  5
546
330
355
100
AcDbEntity
  8
4
100
AcDbLine
 10
1.967
 20
2.42204618398978
 30
0.0
 11
1.967
 21
2.36004618398978
 31
0.0
  0
LINE
  5
547
330
355
100
AcDbEntity
  8
4
100
AcDbLine
 10
1.905
 20
2.42204618398978
 30
0.0
 11
1.967
 21
2.42204618398978
 31
0.0
  0
LINE
  5
548
330
355
100
AcDbEntity
  8
4
100
AcDbLine
 10
2.625
 20
2.48000587855713
 30
0.0
 11
2.812999999999999
 21
2.48000587855713
 31
0.0
  0
LINE
  5
549
330
355
100
AcDbEntity
  8
4
100
AcDbLine
 10
2.625
 20
2.54200587855713
 30
0.0
 11
2.812999999999999
 21
2.54200587855713
 31
0.0
  0
LINE
  5
54A
330
355
100
AcDbEntity
  8
4
100
AcDbLine
 10
2.937
 20
2.54200587855713
 30
0.0
 11
3.437999999999999
 21
2.54200587855713
 31
0.0
  0
LINE
  5
54B
330
355
100
AcDbEntity
  8
4
100
AcDbLine
 10
2.937
 20
2.48000587855713
 30
0.0
 11
3.437999999999999
 21
2.48000587855713
 31
0.0
  0
LINE
  5
54C
330
355
100
AcDbEntity
  8
4
100
AcDbLine
 10
2.312
 20
2.54200587855713
 30
0.0
 11
2.499999999999999
 21
2.54200587855713
 31
0.0
  0
LINE
  5
54D
330
355
100
AcDbEntity
  8
4
100
AcDbLine
 10
2.312
 20
2.48000587855713
 30
0.0
 11
2.499999999999999
 21
2.48000587855713
 31
0.0
  0
LINE
  5
54E
330
355
100
AcDbEntity
  8
4
100
AcDbLine
 10
1.686999999999999
 20
2.54200587855713
 30
0.0
 11
2.187999999999999
 21
2.54200587855713
 31
0.0
  0
LINE
  5
54F
330
355
100
AcDbEntity
  8
4
100
AcDbLine
 10
1.686999999999999
 20
2.48000587855713
 30
0.0
 11
2.187999999999999
 21
2.48000587855713
 31
0.0
  0
LINE
  5
550
330
355
100
AcDbEntity
  8
4
100
AcDbLine
 10
1.061999999999999
 20
2.54200587855713
 30
0.0
 11
1.562999999999999
 21
2.54200587855713
 31
0.0
  0
LINE
  5
551
330
355
100
AcDbEntity
  8
4
100
AcDbLine
 10
1.061999999999999
 20
2.48000587855713
 30
0.0
 11
1.562999999999999
 21
2.48000587855713
 31
0.0
  0
LINE
  5
552
330
355
100
AcDbEntity
  8
4
100
AcDbLine
 10
1.540999999999999
 20
1.843961724666487
 30
0.0
 11
1.540999999999999
 21
1.718961724666487
 31
0.0
  0
LINE
  5
553
330
355
100
AcDbEntity
  8
4
100
AcDbLine
 10
1.540999999999999
 20
2.32300587855713
 30
0.0
 11
1.540999999999999
 21
2.19800587855713
 31
0.0
  0
LINE
  5
554
330
355
100
AcDbEntity
  8
4
100
AcDbLine
 10
1.530999999999999
 20
1.594961724666487
 30
0.0
 11
1.093999999999999
 21
1.594961724666486
 31
0.0
  0
LINE
  5
555
330
355
100
AcDbEntity
  8
4
100
AcDbLine
 10
1.530999999999999
 20
2.44800587855713
 30
0.0
 11
1.530999999999999
 21
1.594961724666487
 31
0.0
  0
LINE
  5
556
330
355
100
AcDbEntity
  8
4
100
AcDbLine
 10
1.093999999999999
 20
2.44800587855713
 30
0.0
 11
1.530999999999999
 21
2.44800587855713
 31
0.0
  0
LINE
  5
557
330
355
100
AcDbEntity
  8
4
100
AcDbLine
 10
1.093999999999999
 20
1.594961724666486
 30
0.0
 11
1.093999999999999
 21
2.44800587855713
 31
0.0
  0
LINE
  5
558
330
355
100
AcDbEntity
  8
4
100
AcDbLine
 10
1.093999999999999
 20
2.573961724666486
 30
0.0
 11
1.094
 21
3.42700587855713
 31
0.0
  0
LINE
  5
559
330
355
100
AcDbEntity
  8
4
100
AcDbLine
 10
1.094
 20
3.42700587855713
 30
0.0
 11
1.531
 21
3.42700587855713
 31
0.0
  0
LINE
  5
55A
330
355
100
AcDbEntity
  8
4
100
AcDbLine
 10
1.531
 20
3.42700587855713
 30
0.0
 11
1.530999999999999
 21
2.573961724666487
 31
0.0
  0
LINE
  5
55B
330
355
100
AcDbEntity
  8
4
100
AcDbLine
 10
1.530999999999999
 20
2.573961724666487
 30
0.0
 11
1.093999999999999
 21
2.573961724666486
 31
0.0
  0
LINE
  5
55C
330
355
100
AcDbEntity
  8
4
100
AcDbLine
 10
1.541
 20
3.30200587855713
 30
0.0
 11
1.541
 21
3.17700587855713
 31
0.0
  0
LINE
  5
55D
330
355
100
AcDbEntity
  8
4
100
AcDbLine
 10
1.540999999999999
 20
2.822961724666487
 30
0.0
 11
1.540999999999999
 21
2.697961724666487
 31
0.0
  0
INSERT
  5
55E
330
355
100
AcDbEntity
  8
4
100
AcDbBlockReference
  2
ARRO
 10
0.9609118825233171
 20
2.970468298187233
 30
0.0
 50
180.0
  0
INSERT
  5
55F
330
355
100
AcDbEntity
  8
4
100
AcDbBlockReference
  2
ARRO
 10
0.9609118825233171
 20
3.119450161083614
 30
0.0
 50
180.0
  0
LINE
  5
560
330
355
100
AcDbEntity
  8
4
100
AcDbLine
 10
0.5859118825233172
 20
2.970468298187233
 30
0.0
 11
0.5859118825233172
 21
2.908468298187234
 31
0.0
  0
LINE
  5
561
330
355
100
AcDbEntity
  8
4
100
AcDbLine
 10
0.9609118825233171
 20
2.970468298187233
 30
0.0
 11
0.5859118825233172
 21
2.970468298187233
 31
0.0
  0
LINE
  5
562
330
355
100
AcDbEntity
  8
4
100
AcDbLine
 10
0.5859118825233172
 20
3.119450161083614
 30
0.0
 11
0.5859118825233172
 21
3.181450161083614
 31
0.0
  0
LINE
  5
563
330
355
100
AcDbEntity
  8
4
100
AcDbLine
 10
0.9609118825233171
 20
3.119450161083614
 30
0.0
 11
0.5859118825233172
 21
3.119450161083614
 31
0.0
  0
LINE
  5
564
330
355
100
AcDbEntity
  8
4
100
AcDbLine
 10
1.540999999999999
 20
3.801961724666487
 30
0.0
 11
1.540999999999999
 21
3.676961724666487
 31
0.0
  0
LINE
  5
565
330
355
100
AcDbEntity
  8
4
100
AcDbLine
 10
1.541
 20
4.28100587855713
 30
0.0
 11
1.541
 21
4.15600587855713
 31
0.0
  0
LINE
  5
566
330
355
100
AcDbEntity
  8
4
100
AcDbLine
 10
1.530999999999999
 20
3.552961724666487
 30
0.0
 11
1.094
 21
3.552961724666486
 31
0.0
  0
LINE
  5
567
330
355
100
AcDbEntity
  8
4
100
AcDbLine
 10
1.531
 20
4.40600587855713
 30
0.0
 11
1.530999999999999
 21
3.552961724666487
 31
0.0
  0
LINE
  5
568
330
355
100
AcDbEntity
  8
4
100
AcDbLine
 10
1.094
 20
4.40600587855713
 30
0.0
 11
1.531
 21
4.40600587855713
 31
0.0
  0
LINE
  5
569
330
355
100
AcDbEntity
  8
4
100
AcDbLine
 10
1.094
 20
3.552961724666486
 30
0.0
 11
1.094
 21
4.40600587855713
 31
0.0
  0
LINE
  5
56A
330
355
100
AcDbEntity
  8
4
100
AcDbLine
 10
1.062
 20
3.45900587855713
 30
0.0
 11
1.562999999999999
 21
3.45900587855713
 31
0.0
  0
LINE
  5
56B
330
355
100
AcDbEntity
  8
4
100
AcDbLine
 10
1.062
 20
3.52100587855713
 30
0.0
 11
1.562999999999999
 21
3.52100587855713
 31
0.0
  0
LINE
  5
56C
330
355
100
AcDbEntity
  8
4
100
AcDbLine
 10
1.687
 20
3.45900587855713
 30
0.0
 11
2.187999999999999
 21
3.45900587855713
 31
0.0
  0
LINE
  5
56D
330
355
100
AcDbEntity
  8
4
100
AcDbLine
 10
1.687
 20
3.52100587855713
 30
0.0
 11
2.187999999999999
 21
3.52100587855713
 31
0.0
  0
LINE
  5
56E
330
355
100
AcDbEntity
  8
4
100
AcDbLine
 10
2.312
 20
3.45900587855713
 30
0.0
 11
2.499999999999999
 21
3.45900587855713
 31
0.0
  0
LINE
  5
56F
330
355
100
AcDbEntity
  8
4
100
AcDbLine
 10
2.312
 20
3.52100587855713
 30
0.0
 11
2.512196030826981
 21
3.52100587855713
 31
0.0
  0
LINE
  5
570
330
355
100
AcDbEntity
  8
4
100
AcDbLine
 10
2.937
 20
3.45900587855713
 30
0.0
 11
3.437999999999999
 21
3.45900587855713
 31
0.0
  0
LINE
  5
571
330
355
100
AcDbEntity
  8
4
100
AcDbLine
 10
2.937
 20
3.52100587855713
 30
0.0
 11
3.437999999999999
 21
3.52100587855713
 31
0.0
  0
LINE
  5
572
330
355
100
AcDbEntity
  8
4
100
AcDbLine
 10
2.625
 20
3.52100587855713
 30
0.0
 11
2.812999999999999
 21
3.52100587855713
 31
0.0
  0
LINE
  5
573
330
355
100
AcDbEntity
  8
4
100
AcDbLine
 10
2.625
 20
3.45900587855713
 30
0.0
 11
2.812999999999999
 21
3.45900587855713
 31
0.0
  0
ARC
  5
574
330
355
100
AcDbEntity
  8
4
100
AcDbCircle
 10
3.412999999999999
 20
4.343
 30
0.0
 40
0.025
100
AcDbArc
 50
180.0
 51
0.0
  0
ARC
  5
575
330
355
100
AcDbEntity
  8
4
100
AcDbCircle
 10
2.962
 20
4.343
 30
0.0
 40
0.025
100
AcDbArc
 50
180.0
 51
0.0
  0
ARC
  5
576
330
355
100
AcDbEntity
  8
4
100
AcDbCircle
 10
2.787999999999999
 20
4.343
 30
0.0
 40
0.025
100
AcDbArc
 50
180.0
 51
0.0
  0
ARC
  5
577
330
355
100
AcDbEntity
  8
4
100
AcDbCircle
 10
2.337
 20
4.343
 30
0.0
 40
0.025
100
AcDbArc
 50
180.0
 51
0.0
  0
ARC
  5
578
330
355
100
AcDbEntity
  8
4
100
AcDbCircle
 10
2.163
 20
4.343
 30
0.0
 40
0.025
100
AcDbArc
 50
180.0
 51
0.0
  0
ARC
  5
579
330
355
100
AcDbEntity
  8
4
100
AcDbCircle
 10
1.712
 20
4.343
 30
0.0
 40
0.025
100
AcDbArc
 50
180.0
 51
0.0
  0
LINE
  5
57A
330
355
100
AcDbEntity
  8
4
100
AcDbLine
 10
3.155
 20
4.379999999999999
 30
0.0
 11
3.217
 21
4.379999999999999
 31
0.0
  0
LINE
  5
57B
330
355
100
AcDbEntity
  8
4
100
AcDbLine
 10
3.217
 20
4.379999999999999
 30
0.0
 11
3.217
 21
4.318
 31
0.0
  0
LINE
  5
57C
330
355
100
AcDbEntity
  8
4
100
AcDbLine
 10
3.155
 20
4.379999999999999
 30
0.0
 11
3.155
 21
4.318
 31
0.0
  0
LINE
  5
57D
330
355
100
AcDbEntity
  8
4
100
AcDbLine
 10
1.905
 20
3.40104618398978
 30
0.0
 11
1.967
 21
3.40104618398978
 31
0.0
  0
LINE
  5
57E
330
355
100
AcDbEntity
  8
4
100
AcDbLine
 10
1.967
 20
3.40104618398978
 30
0.0
 11
1.967
 21
3.33904618398978
 31
0.0
  0
LINE
  5
57F
330
355
100
AcDbEntity
  8
4
100
AcDbLine
 10
1.905
 20
3.40104618398978
 30
0.0
 11
1.905
 21
3.33904618398978
 31
0.0
  0
LINE
  5
580
330
355
100
AcDbEntity
  8
4
100
AcDbLine
 10
3.155
 20
3.40104618398978
 30
0.0
 11
3.155
 21
3.33904618398978
 31
0.0
  0
LINE
  5
581
330
355
100
AcDbEntity
  8
4
100
AcDbLine
 10
3.217
 20
3.40104618398978
 30
0.0
 11
3.217
 21
3.33904618398978
 31
0.0
  0
LINE
  5
582
330
355
100
AcDbEntity
  8
4
100
AcDbLine
 10
3.155
 20
3.40104618398978
 30
0.0
 11
3.217
 21
3.40104618398978
 31
0.0
  0
ARC
  5
583
330
355
100
AcDbEntity
  8
4
100
AcDbCircle
 10
1.712
 20
3.364046183989781
 30
0.0
 40
0.025
100
AcDbArc
 50
180.0
 51
0.0
  0
ARC
  5
584
330
355
100
AcDbEntity
  8
4
100
AcDbCircle
 10
2.163
 20
3.364046183989781
 30
0.0
 40
0.025
100
AcDbArc
 50
180.0
 51
0.0
  0
ARC
  5
585
330
355
100
AcDbEntity
  8
4
100
AcDbCircle
 10
2.337
 20
3.364046183989781
 30
0.0
 40
0.025
100
AcDbArc
 50
180.0
 51
0.0
  0
ARC
  5
586
330
355
100
AcDbEntity
  8
4
100
AcDbCircle
 10
2.787999999999999
 20
3.364046183989781
 30
0.0
 40
0.025
100
AcDbArc
 50
180.0
 51
0.0
  0
ARC
  5
587
330
355
100
AcDbEntity
  8
4
100
AcDbCircle
 10
2.962
 20
3.364046183989781
 30
0.0
 40
0.025
100
AcDbArc
 50
180.0
 51
0.0
  0
ARC
  5
588
330
355
100
AcDbEntity
  8
4
100
AcDbCircle
 10
3.412999999999999
 20
3.364046183989781
 30
0.0
 40
0.025
100
AcDbArc
 50
180.0
 51
0.0
  0
LINE
  5
589
330
355
100
AcDbEntity
  8
4
100
AcDbLine
 10
1.192234055463451
 20
4.069467157252413
 30
0.0
 11
1.192234055463451
 21
4.116467157252412
 31
0.0
  0
LINE
  5
58A
330
355
100
AcDbEntity
  8
4
100
AcDbLine
 10
1.222234055463451
 20
4.069467157252413
 30
0.0
 11
1.192234055463451
 21
4.069467157252413
 31
0.0
  0
LINE
  5
58B
330
355
100
AcDbEntity
  8
4
100
AcDbLine
 10
1.222234055463451
 20
4.116467157252412
 30
0.0
 11
1.222234055463451
 21
4.069467157252413
 31
0.0
  0
LINE
  5
58C
330
355
100
AcDbEntity
  8
4
100
AcDbLine
 10
1.129904527520149
 20
4.116467157252412
 30
0.0
 11
1.284563583406752
 21
4.116467157252412
 31
0.0
  0
LINE
  5
58D
330
355
100
AcDbEntity
  8
4
100
AcDbLine
 10
1.284563583406752
 20
4.116467157252412
 30
0.0
 11
1.255737137125761
 21
3.843967157252412
 31
0.0
  0
LINE
  5
58E
330
355
100
AcDbEntity
  8
4
100
AcDbLine
 10
1.158730973801141
 20
3.843967157252412
 30
0.0
 11
1.255737137125761
 21
3.843967157252412
 31
0.0
  0
LINE
  5
58F
330
355
100
AcDbEntity
  8
4
100
AcDbLine
 10
1.129904527520149
 20
4.116467157252412
 30
0.0
 11
1.158730973801141
 21
3.843967157252412
 31
0.0
  0
LINE
  5
590
330
355
100
AcDbEntity
  8
4
100
AcDbLine
 10
1.145234055463451
 20
3.828967157252411
 30
0.0
 11
1.269234055463451
 21
3.828967157252411
 31
0.0
  0
LINE
  5
591
330
355
100
AcDbEntity
  8
4
100
AcDbLine
 10
1.113234055463451
 20
4.131467157252412
 30
0.0
 11
1.145234055463451
 21
3.828967157252411
 31
0.0
  0
LINE
  5
592
330
355
100
AcDbEntity
  8
4
100
AcDbLine
 10
1.301234055463451
 20
4.131467157252412
 30
0.0
 11
1.269234055463451
 21
3.828967157252411
 31
0.0
  0
LINE
  5
593
330
355
100
AcDbEntity
  8
4
100
AcDbLine
 10
1.113234055463451
 20
4.131467157252412
 30
0.0
 11
1.301234055463451
 21
4.131467157252412
 31
0.0
  0
ENDBLK
  5
595
330
355
100
AcDbEntity
  8
0
100
AcDbBlockEnd
  0
BLOCK
  5
7F2
330
7DE
100
AcDbEntity
  8
0
100
AcDbBlockBegin
  2
HDV hooks
 70
     0
 10
0.0
 20
0.0
 30
0.0
  3
HDV hooks
  1

  0
ARC
  5
7DF
330
7DE
100
AcDbEntity
  8
4
100
AcDbCircle
 10
0.0477506151055565
 20
-0.094959694567347
 30
0.0
 40
0.025
100
AcDbArc
 50
180.0
 51
0.0
  0
LINE
  5
7E0
330
7DE
100
AcDbEntity
  8
4
100
AcDbLine
 10
0.0227506151055561
 20
-0.094959694567347
 30
0.0
 11
0.0227506151055561
 21
0.0
 31
0.0
  0
LINE
  5
7E1
330
7DE
100
AcDbEntity
  8
4
100
AcDbLine
 10
0.218
 20
0.0005777676988341
 30
0.0
 11
0.218
 21
-0.1199596945673473
 31
0.0
  0
LINE
  5
7E2
330
7DE
100
AcDbEntity
  8
4
100
AcDbLine
 10
0.2799999999999976
 20
0.0008254941851167
 30
0.0
 11
0.2799999999999976
 21
-0.1199596945673473
 31
0.0
  0
LINE
  5
7E3
330
7DE
100
AcDbEntity
  8
4
100
AcDbLine
 10
0.4869331585908921
 20
-0.094959694567347
 30
0.0
 11
0.4869331585908921
 21
0.0
 31
0.0
  0
ARC
  5
7E4
330
7DE
100
AcDbEntity
  8
4
100
AcDbCircle
 10
0.4619430241573639
 20
-0.094959694567347
 30
0.0
 40
0.025
100
AcDbArc
 50
180.0
 51
0.0
  0
ARC
  5
7E5
330
7DE
100
AcDbEntity
  8
4
100
AcDbCircle
 10
0.6714820743968737
 20
-0.094959694567347
 30
0.0
 40
0.025
100
AcDbArc
 50
180.0
 51
0.0
  0
LINE
  5
7E6
330
7DE
100
AcDbEntity
  8
4
100
AcDbLine
 10
0.6464820743968734
 20
-0.094959694567347
 30
0.0
 11
0.6464820743968734
 21
0.0
 31
0.0
  0
LINE
  5
7E7
330
7DE
100
AcDbEntity
  8
4
100
AcDbLine
 10
1.110664617882209
 20
-0.094959694567347
 30
0.0
 11
1.110664617882209
 21
0.0
 31
0.0
  0
ARC
  5
7E8
330
7DE
100
AcDbEntity
  8
4
100
AcDbCircle
 10
1.085674483448681
 20
-0.094959694567347
 30
0.0
 40
0.025
100
AcDbArc
 50
180.0
 51
0.0
  0
ARC
  5
7E9
330
7DE
100
AcDbEntity
  8
4
100
AcDbCircle
 10
1.290857194253597
 20
-0.094959694567347
 30
0.0
 40
0.025
100
AcDbArc
 50
180.0
 51
0.0
  0
LINE
  5
7EA
330
7DE
100
AcDbEntity
  8
4
100
AcDbLine
 10
1.265857194253596
 20
-0.094959694567347
 30
0.0
 11
1.265857194253596
 21
0.0
 31
0.0
  0
LINE
  5
7EB
330
7DE
100
AcDbEntity
  8
4
100
AcDbLine
 10
1.523106579148038
 20
0.0008254941851167
 30
0.0
 11
1.523106579148038
 21
-0.1199596945673473
 31
0.0
  0
LINE
  5
7EC
330
7DE
100
AcDbEntity
  8
4
100
AcDbLine
 10
1.46110657914804
 20
0.0005777676988341
 30
0.0
 11
1.46110657914804
 21
-0.1199596945673473
 31
0.0
  0
ARC
  5
7ED
330
7DE
100
AcDbEntity
  8
4
100
AcDbCircle
 10
1.705049603305404
 20
-0.094959694567347
 30
0.0
 40
0.025
100
AcDbArc
 50
180.0
 51
0.0
  0
LINE
  5
7EE
330
7DE
100
AcDbEntity
  8
4
100
AcDbLine
 10
1.730039737738932
 20
-0.094959694567347
 30
0.0
 11
1.730039737738932
 21
0.0
 31
0.0
  0
LINE
  5
7EF
330
7DE
100
AcDbEntity
  8
4
100
AcDbLine
 10
3.733499999999998
 20
0.0619999999999994
 30
0.0
 11
3.733499999999998
 21
-0.1198201480656689
 31
0.0
  0
LINE
  5
7F0
330
7DE
100
AcDbEntity
  8
4
100
AcDbLine
 10
3.954876537991797
 20
-0.094959694567347
 30
0.0
 11
3.954876537991797
 21
0.0619999999999994
 31
0.0
  0
ARC
  5
7F1
330
7DE
100
AcDbEntity
  8
4
100
AcDbCircle
 10
3.929886403558269
 20
-0.094959694567347
 30
0.0
 40
0.025
100
AcDbArc
 50
180.0
 51
0.0
  0
ENDBLK
  5
7F3
330
7DE
100
AcDbEntity
  8
0
100
AcDbBlockEnd
  0
ENDSEC
  0
SECTION
  2
ENTITIES
  0
TEXT
  5
59E
330
1F
100
AcDbEntity
  8
8
100
AcDbText
 10
8.412827574708931
 20
4.75270768819918
 30
0.0
 40
0.075
  1
60
 50
90.0
 72
     1
 11
8.412827574708931
 21
4.80895768819918
 31
0.0
100
AcDbText
  0
TEXT
  5
59F
330
1F
100
AcDbEntity
  8
8
100
AcDbText
 10
8.662827574708931
 20
3.86371500677918
 30
0.0
 40
0.07
  1
1
 50
90.0
 72
     1
 11
8.662827574708931
 21
3.875381673445847
 31
0.0
100
AcDbText
  0
INSERT
  5
5A0
330
1F
100
AcDbEntity
  8
4
100
AcDbBlockReference
 66
     1
  2
FRACTION
 10
8.724827574708932
 20
6.500185551921925
 30
0.0
 41
0.6000000000000001
 42
0.6000000000000001
 43
0.6
 50
90.0
  0
ATTRIB
  5
5A1
330
5A0
100
AcDbEntity
  8
8
100
AcDbText
 10
8.666327574708933
 20
6.356439021153279
 30
0.0
 40
0.075
  1
19
 50
90.0
 72
     2
 11
8.666327574708933
 21
6.456439021153278
 31
0.0
100
AcDbAttribute
  2
A
 70
     0
  0
ATTRIB
  5
5A2
330
5A0
100
AcDbEntity
  8
8
100
AcDbText
 10
8.616827574708935
 20
6.503385551921923
 30
0.0
 40
0.06
  1
21
 50
90.0
 72
     1
 11
8.616827574708935
 21
6.543385551921923
 31
0.0
100
AcDbAttribute
  2
B
 70
     0
  0
ATTRIB
  5
5A3
330
5A0
100
AcDbEntity
  8
8
100
AcDbText
 10
8.700827574708933
 20
6.493385551921924
 30
0.0
 40
0.06
  1
32
 50
90.0
 72
     1
 11
8.700827574708933
 21
6.543385551921923
 31
0.0
100
AcDbAttribute
  2
C
 70
     0
  0
SEQEND
  5
5A4
330
5A0
100
AcDbEntity
  8
4
  0
INSERT
  5
5A5
330
1F
100
AcDbEntity
  8
4
100
AcDbBlockReference
 66
     1
  2
FRACTION
 10
8.724827574708932
 20
5.465192385299911
 30
0.0
 41
0.6000000000000001
 42
0.6000000000000001
 43
0.6
 50
90.0
  0
ATTRIB
  5
5A6
330
5A5
100
AcDbEntity
  8
8
100
AcDbText
 10
8.666327574708933
 20
5.321445854531265
 30
0.0
 40
0.075
  1
19
 50
90.0
 72
     2
 11
8.666327574708933
 21
5.421445854531264
 31
0.0
100
AcDbAttribute
  2
A
 70
     0
  0
ATTRIB
  5
5A7
330
5A5
100
AcDbEntity
  8
8
100
AcDbText
 10
8.616827574708935
 20
5.478392385299909
 30
0.0
 40
0.06
  1
11
 50
90.0
 72
     1
 11
8.616827574708935
 21
5.508392385299909
 31
0.0
100
AcDbAttribute
  2
B
 70
     0
  0
ATTRIB
  5
5A8
330
5A5
100
AcDbEntity
  8
8
100
AcDbText
 10
8.700827574708933
 20
5.468392385299909
 30
0.0
 40
0.06
  1
16
 50
90.0
 72
     1
 11
8.700827574708933
 21
5.508392385299909
 31
0.0
100
AcDbAttribute
  2
C
 70
     0
  0
SEQEND
  5
5A9
330
5A5
100
AcDbEntity
  8
4
  0
INSERT
  5
5AA
330
1F
100
AcDbEntity
  8
4
100
AcDbBlockReference
 66
     1
  2
FRACTION
 10
8.724827574708932
 20
4.512998672007657
 30
0.0
 41
0.6000000000000001
 42
0.6000000000000001
 43
0.6
 50
90.0
  0
ATTRIB
  5
5AB
330
5AA
100
AcDbEntity
  8
8
100
AcDbText
 10
8.666327574708933
 20
4.369252141239011
 30
0.0
 40
0.075
  1
19
 50
90.0
 72
     2
 11
8.666327574708933
 21
4.46925214123901
 31
0.0
100
AcDbAttribute
  2
A
 70
     0
  0
ATTRIB
  5
5AC
330
5AA
100
AcDbEntity
  8
8
100
AcDbText
 10
8.616827574708935
 20
4.516198672007656
 30
0.0
 40
0.06
  1
21
 50
90.0
 72
     1
 11
8.616827574708935
 21
4.556198672007656
 31
0.0
100
AcDbAttribute
  2
B
 70
     0
  0
ATTRIB
  5
5AD
330
5AA
100
AcDbEntity
  8
8
100
AcDbText
 10
8.700827574708933
 20
4.506198672007657
 30
0.0
 40
0.06
  1
32
 50
90.0
 72
     1
 11
8.700827574708933
 21
4.556198672007656
 31
0.0
100
AcDbAttribute
  2
C
 70
     0
  0
SEQEND
  5
5AE
330
5AA
100
AcDbEntity
  8
4
  0
LINE
  5
5C7
330
1F
100
AcDbEntity
  8
4
100
AcDbLine
 10
5.025561630172383
 20
4.599937751897391
 30
0.0
 11
5.213561630172383
 21
4.599937751897391
 31
0.0
  0
LINE
  5
5C8
330
1F
100
AcDbEntity
  8
4
100
AcDbLine
 10
5.213561630172383
 20
4.599937751897391
 30
0.0
 11
5.181561630172383
 21
4.29743775189739
 31
0.0
  0
LINE
  5
5C9
330
1F
100
AcDbEntity
  8
4
100
AcDbLine
 10
5.025561630172383
 20
4.599937751897391
 30
0.0
 11
5.057561630172383
 21
4.29743775189739
 31
0.0
  0
LINE
  5
5CA
330
1F
100
AcDbEntity
  8
4
100
AcDbLine
 10
5.057561630172383
 20
4.29743775189739
 30
0.0
 11
5.181561630172383
 21
4.29743775189739
 31
0.0
  0
LINE
  5
5CB
330
1F
100
AcDbEntity
  8
4
100
AcDbLine
 10
5.042232102229081
 20
4.58493775189739
 30
0.0
 11
5.071058548510073
 21
4.31243775189739
 31
0.0
  0
LINE
  5
5CC
330
1F
100
AcDbEntity
  8
4
100
AcDbLine
 10
5.071058548510073
 20
4.31243775189739
 30
0.0
 11
5.168064711834692
 21
4.31243775189739
 31
0.0
  0
LINE
  5
5CD
330
1F
100
AcDbEntity
  8
4
100
AcDbLine
 10
5.196891158115684
 20
4.58493775189739
 30
0.0
 11
5.168064711834692
 21
4.31243775189739
 31
0.0
  0
LINE
  5
5CE
330
1F
100
AcDbEntity
  8
4
100
AcDbLine
 10
5.042232102229081
 20
4.58493775189739
 30
0.0
 11
5.196891158115684
 21
4.58493775189739
 31
0.0
  0
LINE
  5
5CF
330
1F
100
AcDbEntity
  8
4
100
AcDbLine
 10
5.134561630172383
 20
4.58493775189739
 30
0.0
 11
5.134561630172383
 21
4.537937751897391
 31
0.0
  0
LINE
  5
5D0
330
1F
100
AcDbEntity
  8
4
100
AcDbLine
 10
5.134561630172383
 20
4.537937751897391
 30
0.0
 11
5.104561630172383
 21
4.537937751897391
 31
0.0
  0
LINE
  5
5D1
330
1F
100
AcDbEntity
  8
4
100
AcDbLine
 10
5.104561630172383
 20
4.537937751897391
 30
0.0
 11
5.104561630172383
 21
4.58493775189739
 31
0.0
  0
LWPOLYLINE
  5
5D2
330
1F
100
AcDbEntity
  8
4
100
AcDbPolyline
 90
        2
 70
     1
 43
0.01
 10
5.114561630172383
 20
4.365454396256787
 42
1.0
 10
5.124561630172383
 20
4.365454396256787
 42
1.0
  0
LWPOLYLINE
  5
5D3
330
1F
100
AcDbEntity
  8
4
100
AcDbPolyline
 90
        2
 70
     1
 43
0.01
 10
5.114561630172383
 20
4.470454396256787
 42
1.0
 10
5.124561630172383
 20
4.470454396256787
 42
1.0
  0
CIRCLE
  5
5D4
330
1F
100
AcDbEntity
  8
4
100
AcDbCircle
 10
5.119561630172382
 20
4.417954396256787
 30
0.0
 40
0.023
  0
LINE
  5
5D5
330
1F
100
AcDbEntity
  8
4
100
AcDbLine
 10
5.069337363742221
 20
4.818336102591025
 30
0.0
 11
5.08808736374222
 21
4.855836102591025
 31
0.0
  0
LINE
  5
5D6
330
1F
100
AcDbEntity
  8
4
100
AcDbLine
 10
5.08808736374222
 20
4.855836102591025
 30
0.0
 11
5.10683736374222
 21
4.818336102591025
 31
0.0
  0
LINE
  5
5D7
330
1F
100
AcDbEntity
  8
4
100
AcDbLine
 10
5.069337363742221
 20
4.818336102591025
 30
0.0
 11
5.08808736374222
 21
4.780836102591026
 31
0.0
  0
LINE
  5
5D8
330
1F
100
AcDbEntity
  8
4
100
AcDbLine
 10
5.08808736374222
 20
4.780836102591026
 30
0.0
 11
5.10683736374222
 21
4.818336102591025
 31
0.0
  0
LINE
  5
5D9
330
1F
100
AcDbEntity
  8
4
100
AcDbLine
 10
5.11308736374222
 20
4.722836102591026
 30
0.0
 11
5.131837363742221
 21
4.760336102591026
 31
0.0
  0
LINE
  5
5DA
330
1F
100
AcDbEntity
  8
4
100
AcDbLine
 10
5.094337363742221
 20
4.760336102591026
 30
0.0
 11
5.11308736374222
 21
4.722836102591026
 31
0.0
  0
LINE
  5
5DB
330
1F
100
AcDbEntity
  8
4
100
AcDbLine
 10
5.11308736374222
 20
4.797836102591025
 30
0.0
 11
5.131837363742221
 21
4.760336102591026
 31
0.0
  0
LINE
  5
5DC
330
1F
100
AcDbEntity
  8
4
100
AcDbLine
 10
5.094337363742221
 20
4.760336102591026
 30
0.0
 11
5.11308736374222
 21
4.797836102591025
 31
0.0
  0
LINE
  5
5DD
330
1F
100
AcDbEntity
  8
4
100
AcDbLine
 10
5.094337363742219
 20
4.652699643159175
 30
0.0
 11
5.11308736374222
 21
4.690199643159175
 31
0.0
  0
LINE
  5
5DE
330
1F
100
AcDbEntity
  8
4
100
AcDbLine
 10
5.11308736374222
 20
4.690199643159175
 30
0.0
 11
5.131837363742221
 21
4.652699643159175
 31
0.0
  0
LINE
  5
5DF
330
1F
100
AcDbEntity
  8
4
100
AcDbLine
 10
5.094337363742219
 20
4.652699643159175
 30
0.0
 11
5.11308736374222
 21
4.615199643159176
 31
0.0
  0
LINE
  5
5E0
330
1F
100
AcDbEntity
  8
4
100
AcDbLine
 10
5.11308736374222
 20
4.615199643159176
 30
0.0
 11
5.131837363742221
 21
4.652699643159175
 31
0.0
  0
LINE
  5
5E1
330
1F
100
AcDbEntity
  8
4
100
AcDbLine
 10
5.08808736374222
 20
4.673199643159176
 30
0.0
 11
5.10683736374222
 21
4.710699643159175
 31
0.0
  0
LINE
  5
5E2
330
1F
100
AcDbEntity
  8
4
100
AcDbLine
 10
5.069337363742221
 20
4.710699643159175
 30
0.0
 11
5.08808736374222
 21
4.673199643159176
 31
0.0
  0
LINE
  5
5E3
330
1F
100
AcDbEntity
  8
4
100
AcDbLine
 10
5.08808736374222
 20
4.748199643159175
 30
0.0
 11
5.10683736374222
 21
4.710699643159175
 31
0.0
  0
LINE
  5
5E4
330
1F
100
AcDbEntity
  8
4
100
AcDbLine
 10
5.069337363742221
 20
4.710699643159175
 30
0.0
 11
5.08808736374222
 21
4.748199643159175
 31
0.0
  0
LINE
  5
5E5
330
1F
100
AcDbEntity
  8
4
100
AcDbLine
 10
5.319337363742221
 20
4.710699643159175
 30
0.0
 11
5.33808736374222
 21
4.748199643159175
 31
0.0
  0
LINE
  5
5E6
330
1F
100
AcDbEntity
  8
4
100
AcDbLine
 10
5.33808736374222
 20
4.748199643159175
 30
0.0
 11
5.35683736374222
 21
4.710699643159175
 31
0.0
  0
LINE
  5
5E7
330
1F
100
AcDbEntity
  8
4
100
AcDbLine
 10
5.319337363742221
 20
4.710699643159175
 30
0.0
 11
5.33808736374222
 21
4.673199643159176
 31
0.0
  0
LINE
  5
5E8
330
1F
100
AcDbEntity
  8
4
100
AcDbLine
 10
5.33808736374222
 20
4.673199643159176
 30
0.0
 11
5.35683736374222
 21
4.710699643159175
 31
0.0
  0
LINE
  5
5E9
330
1F
100
AcDbEntity
  8
4
100
AcDbLine
 10
5.36308736374222
 20
4.615199643159176
 30
0.0
 11
5.381837363742221
 21
4.652699643159175
 31
0.0
  0
LINE
  5
5EA
330
1F
100
AcDbEntity
  8
4
100
AcDbLine
 10
5.344337363742219
 20
4.652699643159175
 30
0.0
 11
5.36308736374222
 21
4.615199643159176
 31
0.0
  0
LINE
  5
5EB
330
1F
100
AcDbEntity
  8
4
100
AcDbLine
 10
5.36308736374222
 20
4.690199643159175
 30
0.0
 11
5.381837363742221
 21
4.652699643159175
 31
0.0
  0
LINE
  5
5EC
330
1F
100
AcDbEntity
  8
4
100
AcDbLine
 10
5.344337363742219
 20
4.652699643159175
 30
0.0
 11
5.36308736374222
 21
4.690199643159175
 31
0.0
  0
LINE
  5
5ED
330
1F
100
AcDbEntity
  8
4
100
AcDbLine
 10
5.344337363742219
 20
4.760336102591026
 30
0.0
 11
5.36308736374222
 21
4.797836102591025
 31
0.0
  0
LINE
  5
5EE
330
1F
100
AcDbEntity
  8
4
100
AcDbLine
 10
5.36308736374222
 20
4.797836102591025
 30
0.0
 11
5.381837363742221
 21
4.760336102591026
 31
0.0
  0
LINE
  5
5EF
330
1F
100
AcDbEntity
  8
4
100
AcDbLine
 10
5.344337363742219
 20
4.760336102591026
 30
0.0
 11
5.36308736374222
 21
4.722836102591026
 31
0.0
  0
LINE
  5
5F0
330
1F
100
AcDbEntity
  8
4
100
AcDbLine
 10
5.36308736374222
 20
4.722836102591026
 30
0.0
 11
5.381837363742221
 21
4.760336102591026
 31
0.0
  0
LINE
  5
5F1
330
1F
100
AcDbEntity
  8
4
100
AcDbLine
 10
5.33808736374222
 20
4.780836102591026
 30
0.0
 11
5.35683736374222
 21
4.818336102591025
 31
0.0
  0
LINE
  5
5F2
330
1F
100
AcDbEntity
  8
4
100
AcDbLine
 10
5.319337363742221
 20
4.818336102591025
 30
0.0
 11
5.33808736374222
 21
4.780836102591026
 31
0.0
  0
LINE
  5
5F3
330
1F
100
AcDbEntity
  8
4
100
AcDbLine
 10
5.33808736374222
 20
4.855836102591025
 30
0.0
 11
5.35683736374222
 21
4.818336102591025
 31
0.0
  0
LINE
  5
5F4
330
1F
100
AcDbEntity
  8
4
100
AcDbLine
 10
5.319337363742221
 20
4.818336102591025
 30
0.0
 11
5.33808736374222
 21
4.855836102591025
 31
0.0
  0
LINE
  5
5F5
330
1F
100
AcDbEntity
  8
2
100
AcDbLine
 10
5.381837363742221
 20
4.760336102591026
 30
0.0
 11
5.381837363742221
 21
4.652699643159175
 31
0.0
  0
LINE
  5
5F6
330
1F
100
AcDbEntity
  8
2
100
AcDbLine
 10
5.069337363742221
 20
4.818336102591025
 30
0.0
 11
5.069337363742221
 21
4.710699643159175
 31
0.0
  0
LINE
  5
5F7
330
1F
100
AcDbEntity
  8
2
100
AcDbLine
 10
5.11308736374222
 20
4.615199643159176
 30
0.0
 11
5.36308736374222
 21
4.615199643159176
 31
0.0
  0
LINE
  5
5F8
330
1F
100
AcDbEntity
  8
2
100
AcDbLine
 10
5.088087363742221
 20
4.855836102591027
 30
0.0
 11
5.33808736374222
 21
4.855836102591025
 31
0.0
  0
LINE
  5
5F9
330
1F
100
AcDbEntity
  8
2
100
AcDbLine
 10
5.088087363742221
 20
4.273117349685718
 30
0.0
 11
5.33808736374222
 21
4.273117349685716
 31
0.0
  0
LINE
  5
5FA
330
1F
100
AcDbEntity
  8
2
100
AcDbLine
 10
5.11308736374222
 20
4.032480890253867
 30
0.0
 11
5.36308736374222
 21
4.032480890253867
 31
0.0
  0
LINE
  5
5FB
330
1F
100
AcDbEntity
  8
2
100
AcDbLine
 10
5.069337363742221
 20
4.235617349685717
 30
0.0
 11
5.069337363742221
 21
4.127980890253867
 31
0.0
  0
LINE
  5
5FC
330
1F
100
AcDbEntity
  8
2
100
AcDbLine
 10
5.381837363742221
 20
4.177617349685717
 30
0.0
 11
5.381837363742221
 21
4.069980890253867
 31
0.0
  0
LINE
  5
5FD
330
1F
100
AcDbEntity
  8
4
100
AcDbLine
 10
5.319337363742221
 20
4.235617349685717
 30
0.0
 11
5.33808736374222
 21
4.273117349685716
 31
0.0
  0
LINE
  5
5FE
330
1F
100
AcDbEntity
  8
4
100
AcDbLine
 10
5.33808736374222
 20
4.273117349685716
 30
0.0
 11
5.35683736374222
 21
4.235617349685717
 31
0.0
  0
LINE
  5
5FF
330
1F
100
AcDbEntity
  8
4
100
AcDbLine
 10
5.319337363742221
 20
4.235617349685717
 30
0.0
 11
5.33808736374222
 21
4.198117349685717
 31
0.0
  0
LINE
  5
600
330
1F
100
AcDbEntity
  8
4
100
AcDbLine
 10
5.33808736374222
 20
4.198117349685717
 30
0.0
 11
5.35683736374222
 21
4.235617349685717
 31
0.0
  0
LINE
  5
601
330
1F
100
AcDbEntity
  8
4
100
AcDbLine
 10
5.36308736374222
 20
4.140117349685717
 30
0.0
 11
5.381837363742221
 21
4.177617349685717
 31
0.0
  0
LINE
  5
602
330
1F
100
AcDbEntity
  8
4
100
AcDbLine
 10
5.344337363742219
 20
4.177617349685717
 30
0.0
 11
5.36308736374222
 21
4.140117349685717
 31
0.0
  0
LINE
  5
603
330
1F
100
AcDbEntity
  8
4
100
AcDbLine
 10
5.36308736374222
 20
4.215117349685717
 30
0.0
 11
5.381837363742221
 21
4.177617349685717
 31
0.0
  0
LINE
  5
604
330
1F
100
AcDbEntity
  8
4
100
AcDbLine
 10
5.344337363742219
 20
4.177617349685717
 30
0.0
 11
5.36308736374222
 21
4.215117349685717
 31
0.0
  0
LINE
  5
605
330
1F
100
AcDbEntity
  8
4
100
AcDbLine
 10
5.344337363742219
 20
4.069980890253867
 30
0.0
 11
5.36308736374222
 21
4.107480890253866
 31
0.0
  0
LINE
  5
606
330
1F
100
AcDbEntity
  8
4
100
AcDbLine
 10
5.36308736374222
 20
4.107480890253866
 30
0.0
 11
5.381837363742221
 21
4.069980890253867
 31
0.0
  0
LINE
  5
607
330
1F
100
AcDbEntity
  8
4
100
AcDbLine
 10
5.344337363742219
 20
4.069980890253867
 30
0.0
 11
5.36308736374222
 21
4.032480890253867
 31
0.0
  0
LINE
  5
608
330
1F
100
AcDbEntity
  8
4
100
AcDbLine
 10
5.36308736374222
 20
4.032480890253867
 30
0.0
 11
5.381837363742221
 21
4.069980890253867
 31
0.0
  0
LINE
  5
609
330
1F
100
AcDbEntity
  8
4
100
AcDbLine
 10
5.33808736374222
 20
4.090480890253867
 30
0.0
 11
5.35683736374222
 21
4.127980890253867
 31
0.0
  0
LINE
  5
60A
330
1F
100
AcDbEntity
  8
4
100
AcDbLine
 10
5.319337363742221
 20
4.127980890253867
 30
0.0
 11
5.33808736374222
 21
4.090480890253867
 31
0.0
  0
LINE
  5
60B
330
1F
100
AcDbEntity
  8
4
100
AcDbLine
 10
5.33808736374222
 20
4.165480890253866
 30
0.0
 11
5.35683736374222
 21
4.127980890253867
 31
0.0
  0
LINE
  5
60C
330
1F
100
AcDbEntity
  8
4
100
AcDbLine
 10
5.319337363742221
 20
4.127980890253867
 30
0.0
 11
5.33808736374222
 21
4.165480890253866
 31
0.0
  0
LINE
  5
60D
330
1F
100
AcDbEntity
  8
4
100
AcDbLine
 10
5.069337363742221
 20
4.127980890253867
 30
0.0
 11
5.08808736374222
 21
4.165480890253866
 31
0.0
  0
LINE
  5
60E
330
1F
100
AcDbEntity
  8
4
100
AcDbLine
 10
5.08808736374222
 20
4.165480890253866
 30
0.0
 11
5.10683736374222
 21
4.127980890253867
 31
0.0
  0
LINE
  5
60F
330
1F
100
AcDbEntity
  8
4
100
AcDbLine
 10
5.069337363742221
 20
4.127980890253867
 30
0.0
 11
5.08808736374222
 21
4.090480890253867
 31
0.0
  0
LINE
  5
610
330
1F
100
AcDbEntity
  8
4
100
AcDbLine
 10
5.08808736374222
 20
4.090480890253867
 30
0.0
 11
5.10683736374222
 21
4.127980890253867
 31
0.0
  0
LINE
  5
611
330
1F
100
AcDbEntity
  8
4
100
AcDbLine
 10
5.11308736374222
 20
4.032480890253867
 30
0.0
 11
5.131837363742221
 21
4.069980890253867
 31
0.0
  0
LINE
  5
612
330
1F
100
AcDbEntity
  8
4
100
AcDbLine
 10
5.094337363742219
 20
4.069980890253867
 30
0.0
 11
5.11308736374222
 21
4.032480890253867
 31
0.0
  0
LINE
  5
613
330
1F
100
AcDbEntity
  8
4
100
AcDbLine
 10
5.11308736374222
 20
4.107480890253866
 30
0.0
 11
5.131837363742221
 21
4.069980890253867
 31
0.0
  0
LINE
  5
614
330
1F
100
AcDbEntity
  8
4
100
AcDbLine
 10
5.094337363742219
 20
4.069980890253867
 30
0.0
 11
5.11308736374222
 21
4.107480890253866
 31
0.0
  0
LINE
  5
615
330
1F
100
AcDbEntity
  8
4
100
AcDbLine
 10
5.094337363742221
 20
4.177617349685717
 30
0.0
 11
5.11308736374222
 21
4.215117349685717
 31
0.0
  0
LINE
  5
616
330
1F
100
AcDbEntity
  8
4
100
AcDbLine
 10
5.11308736374222
 20
4.215117349685717
 30
0.0
 11
5.131837363742221
 21
4.177617349685717
 31
0.0
  0
LINE
  5
617
330
1F
100
AcDbEntity
  8
4
100
AcDbLine
 10
5.094337363742221
 20
4.177617349685717
 30
0.0
 11
5.11308736374222
 21
4.140117349685717
 31
0.0
  0
LINE
  5
618
330
1F
100
AcDbEntity
  8
4
100
AcDbLine
 10
5.11308736374222
 20
4.140117349685717
 30
0.0
 11
5.131837363742221
 21
4.177617349685717
 31
0.0
  0
LINE
  5
619
330
1F
100
AcDbEntity
  8
4
100
AcDbLine
 10
5.08808736374222
 20
4.198117349685717
 30
0.0
 11
5.10683736374222
 21
4.235617349685717
 31
0.0
  0
LINE
  5
61A
330
1F
100
AcDbEntity
  8
4
100
AcDbLine
 10
5.069337363742221
 20
4.235617349685717
 30
0.0
 11
5.08808736374222
 21
4.198117349685717
 31
0.0
  0
LINE
  5
61B
330
1F
100
AcDbEntity
  8
4
100
AcDbLine
 10
5.08808736374222
 20
4.273117349685716
 30
0.0
 11
5.10683736374222
 21
4.235617349685717
 31
0.0
  0
LINE
  5
61C
330
1F
100
AcDbEntity
  8
4
100
AcDbLine
 10
5.069337363742221
 20
4.235617349685717
 30
0.0
 11
5.08808736374222
 21
4.273117349685716
 31
0.0
  0
LINE
  5
61D
330
1F
100
AcDbEntity
  8
4
100
AcDbLine
 10
5.025561630172383
 20
5.578937751897391
 30
0.0
 11
5.213561630172383
 21
5.578937751897391
 31
0.0
  0
LINE
  5
61E
330
1F
100
AcDbEntity
  8
4
100
AcDbLine
 10
5.213561630172383
 20
5.578937751897391
 30
0.0
 11
5.181561630172383
 21
5.27643775189739
 31
0.0
  0
LINE
  5
61F
330
1F
100
AcDbEntity
  8
4
100
AcDbLine
 10
5.025561630172383
 20
5.578937751897391
 30
0.0
 11
5.057561630172383
 21
5.27643775189739
 31
0.0
  0
LINE
  5
620
330
1F
100
AcDbEntity
  8
4
100
AcDbLine
 10
5.057561630172383
 20
5.27643775189739
 30
0.0
 11
5.181561630172383
 21
5.27643775189739
 31
0.0
  0
LINE
  5
621
330
1F
100
AcDbEntity
  8
4
100
AcDbLine
 10
5.042232102229081
 20
5.56393775189739
 30
0.0
 11
5.071058548510073
 21
5.29143775189739
 31
0.0
  0
LINE
  5
622
330
1F
100
AcDbEntity
  8
4
100
AcDbLine
 10
5.071058548510073
 20
5.29143775189739
 30
0.0
 11
5.168064711834693
 21
5.29143775189739
 31
0.0
  0
LINE
  5
623
330
1F
100
AcDbEntity
  8
4
100
AcDbLine
 10
5.196891158115684
 20
5.56393775189739
 30
0.0
 11
5.168064711834693
 21
5.29143775189739
 31
0.0
  0
LINE
  5
624
330
1F
100
AcDbEntity
  8
4
100
AcDbLine
 10
5.042232102229081
 20
5.56393775189739
 30
0.0
 11
5.196891158115684
 21
5.56393775189739
 31
0.0
  0
LINE
  5
625
330
1F
100
AcDbEntity
  8
4
100
AcDbLine
 10
5.134561630172383
 20
5.56393775189739
 30
0.0
 11
5.134561630172383
 21
5.516937751897391
 31
0.0
  0
LINE
  5
626
330
1F
100
AcDbEntity
  8
4
100
AcDbLine
 10
5.134561630172383
 20
5.516937751897391
 30
0.0
 11
5.104561630172383
 21
5.516937751897391
 31
0.0
  0
LINE
  5
627
330
1F
100
AcDbEntity
  8
4
100
AcDbLine
 10
5.104561630172383
 20
5.516937751897391
 30
0.0
 11
5.104561630172383
 21
5.56393775189739
 31
0.0
  0
LWPOLYLINE
  5
628
330
1F
100
AcDbEntity
  8
4
100
AcDbPolyline
 90
        2
 70
     1
 43
0.01
 10
5.114561630172383
 20
5.344454396256787
 42
1.0
 10
5.124561630172383
 20
5.344454396256787
 42
1.0
  0
LWPOLYLINE
  5
629
330
1F
100
AcDbEntity
  8
4
100
AcDbPolyline
 90
        2
 70
     1
 43
0.01
 10
5.114561630172383
 20
5.449454396256787
 42
1.0
 10
5.124561630172383
 20
5.449454396256787
 42
1.0
  0
CIRCLE
  5
62A
330
1F
100
AcDbEntity
  8
4
100
AcDbCircle
 10
5.119561630172383
 20
5.396954396256787
 30
0.0
 40
0.023
  0
LINE
  5
62B
330
1F
100
AcDbEntity
  8
4
100
AcDbLine
 10
5.069337363742221
 20
5.797336102591025
 30
0.0
 11
5.08808736374222
 21
5.834836102591025
 31
0.0
  0
LINE
  5
62C
330
1F
100
AcDbEntity
  8
4
100
AcDbLine
 10
5.08808736374222
 20
5.834836102591025
 30
0.0
 11
5.10683736374222
 21
5.797336102591025
 31
0.0
  0
LINE
  5
62D
330
1F
100
AcDbEntity
  8
4
100
AcDbLine
 10
5.069337363742221
 20
5.797336102591025
 30
0.0
 11
5.08808736374222
 21
5.759836102591026
 31
0.0
  0
LINE
  5
62E
330
1F
100
AcDbEntity
  8
4
100
AcDbLine
 10
5.08808736374222
 20
5.759836102591026
 30
0.0
 11
5.10683736374222
 21
5.797336102591025
 31
0.0
  0
LINE
  5
62F
330
1F
100
AcDbEntity
  8
4
100
AcDbLine
 10
5.11308736374222
 20
5.701836102591026
 30
0.0
 11
5.131837363742221
 21
5.739336102591026
 31
0.0
  0
LINE
  5
630
330
1F
100
AcDbEntity
  8
4
100
AcDbLine
 10
5.094337363742221
 20
5.739336102591026
 30
0.0
 11
5.11308736374222
 21
5.701836102591026
 31
0.0
  0
LINE
  5
631
330
1F
100
AcDbEntity
  8
4
100
AcDbLine
 10
5.11308736374222
 20
5.776836102591025
 30
0.0
 11
5.131837363742221
 21
5.739336102591026
 31
0.0
  0
LINE
  5
632
330
1F
100
AcDbEntity
  8
4
100
AcDbLine
 10
5.094337363742221
 20
5.739336102591026
 30
0.0
 11
5.11308736374222
 21
5.776836102591025
 31
0.0
  0
LINE
  5
633
330
1F
100
AcDbEntity
  8
4
100
AcDbLine
 10
5.094337363742219
 20
5.631699643159175
 30
0.0
 11
5.11308736374222
 21
5.669199643159175
 31
0.0
  0
LINE
  5
634
330
1F
100
AcDbEntity
  8
4
100
AcDbLine
 10
5.11308736374222
 20
5.669199643159175
 30
0.0
 11
5.131837363742221
 21
5.631699643159175
 31
0.0
  0
LINE
  5
635
330
1F
100
AcDbEntity
  8
4
100
AcDbLine
 10
5.094337363742219
 20
5.631699643159175
 30
0.0
 11
5.11308736374222
 21
5.594199643159176
 31
0.0
  0
LINE
  5
636
330
1F
100
AcDbEntity
  8
4
100
AcDbLine
 10
5.11308736374222
 20
5.594199643159176
 30
0.0
 11
5.131837363742221
 21
5.631699643159175
 31
0.0
  0
LINE
  5
637
330
1F
100
AcDbEntity
  8
4
100
AcDbLine
 10
5.08808736374222
 20
5.652199643159176
 30
0.0
 11
5.10683736374222
 21
5.689699643159175
 31
0.0
  0
LINE
  5
638
330
1F
100
AcDbEntity
  8
4
100
AcDbLine
 10
5.069337363742221
 20
5.689699643159175
 30
0.0
 11
5.08808736374222
 21
5.652199643159176
 31
0.0
  0
LINE
  5
639
330
1F
100
AcDbEntity
  8
4
100
AcDbLine
 10
5.08808736374222
 20
5.727199643159175
 30
0.0
 11
5.10683736374222
 21
5.689699643159175
 31
0.0
  0
LINE
  5
63A
330
1F
100
AcDbEntity
  8
4
100
AcDbLine
 10
5.069337363742221
 20
5.689699643159175
 30
0.0
 11
5.08808736374222
 21
5.727199643159175
 31
0.0
  0
LINE
  5
63B
330
1F
100
AcDbEntity
  8
4
100
AcDbLine
 10
5.319337363742221
 20
5.689699643159175
 30
0.0
 11
5.33808736374222
 21
5.727199643159175
 31
0.0
  0
LINE
  5
63C
330
1F
100
AcDbEntity
  8
4
100
AcDbLine
 10
5.33808736374222
 20
5.727199643159175
 30
0.0
 11
5.35683736374222
 21
5.689699643159175
 31
0.0
  0
LINE
  5
63D
330
1F
100
AcDbEntity
  8
4
100
AcDbLine
 10
5.319337363742221
 20
5.689699643159175
 30
0.0
 11
5.33808736374222
 21
5.652199643159176
 31
0.0
  0
LINE
  5
63E
330
1F
100
AcDbEntity
  8
4
100
AcDbLine
 10
5.33808736374222
 20
5.652199643159176
 30
0.0
 11
5.35683736374222
 21
5.689699643159175
 31
0.0
  0
LINE
  5
63F
330
1F
100
AcDbEntity
  8
4
100
AcDbLine
 10
5.36308736374222
 20
5.594199643159176
 30
0.0
 11
5.381837363742221
 21
5.631699643159175
 31
0.0
  0
LINE
  5
640
330
1F
100
AcDbEntity
  8
4
100
AcDbLine
 10
5.344337363742219
 20
5.631699643159175
 30
0.0
 11
5.36308736374222
 21
5.594199643159176
 31
0.0
  0
LINE
  5
641
330
1F
100
AcDbEntity
  8
4
100
AcDbLine
 10
5.36308736374222
 20
5.669199643159175
 30
0.0
 11
5.381837363742221
 21
5.631699643159175
 31
0.0
  0
LINE
  5
642
330
1F
100
AcDbEntity
  8
4
100
AcDbLine
 10
5.344337363742219
 20
5.631699643159175
 30
0.0
 11
5.36308736374222
 21
5.669199643159175
 31
0.0
  0
LINE
  5
643
330
1F
100
AcDbEntity
  8
4
100
AcDbLine
 10
5.344337363742219
 20
5.739336102591026
 30
0.0
 11
5.36308736374222
 21
5.776836102591025
 31
0.0
  0
LINE
  5
644
330
1F
100
AcDbEntity
  8
4
100
AcDbLine
 10
5.36308736374222
 20
5.776836102591025
 30
0.0
 11
5.381837363742221
 21
5.739336102591026
 31
0.0
  0
LINE
  5
645
330
1F
100
AcDbEntity
  8
4
100
AcDbLine
 10
5.344337363742219
 20
5.739336102591026
 30
0.0
 11
5.36308736374222
 21
5.701836102591026
 31
0.0
  0
LINE
  5
646
330
1F
100
AcDbEntity
  8
4
100
AcDbLine
 10
5.36308736374222
 20
5.701836102591026
 30
0.0
 11
5.381837363742221
 21
5.739336102591026
 31
0.0
  0
LINE
  5
647
330
1F
100
AcDbEntity
  8
4
100
AcDbLine
 10
5.33808736374222
 20
5.759836102591026
 30
0.0
 11
5.35683736374222
 21
5.797336102591025
 31
0.0
  0
LINE
  5
648
330
1F
100
AcDbEntity
  8
4
100
AcDbLine
 10
5.319337363742221
 20
5.797336102591025
 30
0.0
 11
5.33808736374222
 21
5.759836102591026
 31
0.0
  0
LINE
  5
649
330
1F
100
AcDbEntity
  8
4
100
AcDbLine
 10
5.33808736374222
 20
5.834836102591025
 30
0.0
 11
5.35683736374222
 21
5.797336102591025
 31
0.0
  0
LINE
  5
64A
330
1F
100
AcDbEntity
  8
4
100
AcDbLine
 10
5.319337363742221
 20
5.797336102591025
 30
0.0
 11
5.33808736374222
 21
5.834836102591025
 31
0.0
  0
LINE
  5
64B
330
1F
100
AcDbEntity
  8
2
100
AcDbLine
 10
5.381837363742221
 20
5.739336102591026
 30
0.0
 11
5.381837363742221
 21
5.631699643159175
 31
0.0
  0
LINE
  5
64C
330
1F
100
AcDbEntity
  8
2
100
AcDbLine
 10
5.069337363742221
 20
5.797336102591025
 30
0.0
 11
5.069337363742221
 21
5.689699643159175
 31
0.0
  0
LINE
  5
64D
330
1F
100
AcDbEntity
  8
2
100
AcDbLine
 10
5.11308736374222
 20
5.594199643159176
 30
0.0
 11
5.36308736374222
 21
5.594199643159176
 31
0.0
  0
LINE
  5
64E
330
1F
100
AcDbEntity
  8
2
100
AcDbLine
 10
5.088087363742221
 20
5.834836102591027
 30
0.0
 11
5.33808736374222
 21
5.834836102591025
 31
0.0
  0
LINE
  5
64F
330
1F
100
AcDbEntity
  8
2
100
AcDbLine
 10
5.088087363742221
 20
5.252117349685718
 30
0.0
 11
5.33808736374222
 21
5.252117349685716
 31
0.0
  0
LINE
  5
650
330
1F
100
AcDbEntity
  8
2
100
AcDbLine
 10
5.11308736374222
 20
5.011480890253867
 30
0.0
 11
5.36308736374222
 21
5.011480890253867
 31
0.0
  0
LINE
  5
651
330
1F
100
AcDbEntity
  8
2
100
AcDbLine
 10
5.069337363742221
 20
5.214617349685717
 30
0.0
 11
5.069337363742221
 21
5.106980890253867
 31
0.0
  0
LINE
  5
652
330
1F
100
AcDbEntity
  8
2
100
AcDbLine
 10
5.381837363742221
 20
5.156617349685717
 30
0.0
 11
5.381837363742221
 21
5.048980890253867
 31
0.0
  0
LINE
  5
653
330
1F
100
AcDbEntity
  8
4
100
AcDbLine
 10
5.319337363742221
 20
5.214617349685717
 30
0.0
 11
5.33808736374222
 21
5.252117349685716
 31
0.0
  0
LINE
  5
654
330
1F
100
AcDbEntity
  8
4
100
AcDbLine
 10
5.33808736374222
 20
5.252117349685716
 30
0.0
 11
5.35683736374222
 21
5.214617349685717
 31
0.0
  0
LINE
  5
655
330
1F
100
AcDbEntity
  8
4
100
AcDbLine
 10
5.319337363742221
 20
5.214617349685717
 30
0.0
 11
5.33808736374222
 21
5.177117349685717
 31
0.0
  0
LINE
  5
656
330
1F
100
AcDbEntity
  8
4
100
AcDbLine
 10
5.33808736374222
 20
5.177117349685717
 30
0.0
 11
5.35683736374222
 21
5.214617349685717
 31
0.0
  0
LINE
  5
657
330
1F
100
AcDbEntity
  8
4
100
AcDbLine
 10
5.36308736374222
 20
5.119117349685717
 30
0.0
 11
5.381837363742221
 21
5.156617349685717
 31
0.0
  0
LINE
  5
658
330
1F
100
AcDbEntity
  8
4
100
AcDbLine
 10
5.344337363742219
 20
5.156617349685717
 30
0.0
 11
5.36308736374222
 21
5.119117349685717
 31
0.0
  0
LINE
  5
659
330
1F
100
AcDbEntity
  8
4
100
AcDbLine
 10
5.36308736374222
 20
5.194117349685717
 30
0.0
 11
5.381837363742221
 21
5.156617349685717
 31
0.0
  0
LINE
  5
65A
330
1F
100
AcDbEntity
  8
4
100
AcDbLine
 10
5.344337363742219
 20
5.156617349685717
 30
0.0
 11
5.36308736374222
 21
5.194117349685717
 31
0.0
  0
LINE
  5
65B
330
1F
100
AcDbEntity
  8
4
100
AcDbLine
 10
5.344337363742219
 20
5.048980890253867
 30
0.0
 11
5.36308736374222
 21
5.086480890253866
 31
0.0
  0
LINE
  5
65C
330
1F
100
AcDbEntity
  8
4
100
AcDbLine
 10
5.36308736374222
 20
5.086480890253866
 30
0.0
 11
5.381837363742221
 21
5.048980890253867
 31
0.0
  0
LINE
  5
65D
330
1F
100
AcDbEntity
  8
4
100
AcDbLine
 10
5.344337363742219
 20
5.048980890253867
 30
0.0
 11
5.36308736374222
 21
5.011480890253867
 31
0.0
  0
LINE
  5
65E
330
1F
100
AcDbEntity
  8
4
100
AcDbLine
 10
5.36308736374222
 20
5.011480890253867
 30
0.0
 11
5.381837363742221
 21
5.048980890253867
 31
0.0
  0
LINE
  5
65F
330
1F
100
AcDbEntity
  8
4
100
AcDbLine
 10
5.33808736374222
 20
5.069480890253867
 30
0.0
 11
5.35683736374222
 21
5.106980890253867
 31
0.0
  0
LINE
  5
660
330
1F
100
AcDbEntity
  8
4
100
AcDbLine
 10
5.319337363742221
 20
5.106980890253867
 30
0.0
 11
5.33808736374222
 21
5.069480890253867
 31
0.0
  0
LINE
  5
661
330
1F
100
AcDbEntity
  8
4
100
AcDbLine
 10
5.33808736374222
 20
5.144480890253866
 30
0.0
 11
5.35683736374222
 21
5.106980890253867
 31
0.0
  0
LINE
  5
662
330
1F
100
AcDbEntity
  8
4
100
AcDbLine
 10
5.319337363742221
 20
5.106980890253867
 30
0.0
 11
5.33808736374222
 21
5.144480890253866
 31
0.0
  0
LINE
  5
663
330
1F
100
AcDbEntity
  8
4
100
AcDbLine
 10
5.069337363742221
 20
5.106980890253867
 30
0.0
 11
5.08808736374222
 21
5.144480890253866
 31
0.0
  0
LINE
  5
664
330
1F
100
AcDbEntity
  8
4
100
AcDbLine
 10
5.08808736374222
 20
5.144480890253866
 30
0.0
 11
5.10683736374222
 21
5.106980890253867
 31
0.0
  0
LINE
  5
665
330
1F
100
AcDbEntity
  8
4
100
AcDbLine
 10
5.069337363742221
 20
5.106980890253867
 30
0.0
 11
5.08808736374222
 21
5.069480890253867
 31
0.0
  0
LINE
  5
666
330
1F
100
AcDbEntity
  8
4
100
AcDbLine
 10
5.08808736374222
 20
5.069480890253867
 30
0.0
 11
5.10683736374222
 21
5.106980890253867
 31
0.0
  0
LINE
  5
667
330
1F
100
AcDbEntity
  8
4
100
AcDbLine
 10
5.11308736374222
 20
5.011480890253867
 30
0.0
 11
5.131837363742221
 21
5.048980890253867
 31
0.0
  0
LINE
  5
668
330
1F
100
AcDbEntity
  8
4
100
AcDbLine
 10
5.094337363742219
 20
5.048980890253867
 30
0.0
 11
5.11308736374222
 21
5.011480890253867
 31
0.0
  0
LINE
  5
669
330
1F
100
AcDbEntity
  8
4
100
AcDbLine
 10
5.11308736374222
 20
5.086480890253866
 30
0.0
 11
5.131837363742221
 21
5.048980890253867
 31
0.0
  0
LINE
  5
66A
330
1F
100
AcDbEntity
  8
4
100
AcDbLine
 10
5.094337363742219
 20
5.048980890253867
 30
0.0
 11
5.11308736374222
 21
5.086480890253866
 31
0.0
  0
LINE
  5
66B
330
1F
100
AcDbEntity
  8
4
100
AcDbLine
 10
5.094337363742221
 20
5.156617349685717
 30
0.0
 11
5.11308736374222
 21
5.194117349685717
 31
0.0
  0
LINE
  5
66C
330
1F
100
AcDbEntity
  8
4
100
AcDbLine
 10
5.11308736374222
 20
5.194117349685717
 30
0.0
 11
5.131837363742221
 21
5.156617349685717
 31
0.0
  0
LINE
  5
66D
330
1F
100
AcDbEntity
  8
4
100
AcDbLine
 10
5.094337363742221
 20
5.156617349685717
 30
0.0
 11
5.11308736374222
 21
5.119117349685717
 31
0.0
  0
LINE
  5
66E
330
1F
100
AcDbEntity
  8
4
100
AcDbLine
 10
5.11308736374222
 20
5.119117349685717
 30
0.0
 11
5.131837363742221
 21
5.156617349685717
 31
0.0
  0
LINE
  5
66F
330
1F
100
AcDbEntity
  8
4
100
AcDbLine
 10
5.08808736374222
 20
5.177117349685717
 30
0.0
 11
5.10683736374222
 21
5.214617349685717
 31
0.0
  0
LINE
  5
670
330
1F
100
AcDbEntity
  8
4
100
AcDbLine
 10
5.069337363742221
 20
5.214617349685717
 30
0.0
 11
5.08808736374222
 21
5.177117349685717
 31
0.0
  0
LINE
  5
671
330
1F
100
AcDbEntity
  8
4
100
AcDbLine
 10
5.08808736374222
 20
5.252117349685716
 30
0.0
 11
5.10683736374222
 21
5.214617349685717
 31
0.0
  0
LINE
  5
672
330
1F
100
AcDbEntity
  8
4
100
AcDbLine
 10
5.069337363742221
 20
5.214617349685717
 30
0.0
 11
5.08808736374222
 21
5.252117349685716
 31
0.0
  0
LINE
  5
673
330
1F
100
AcDbEntity
  8
4
100
AcDbLine
 10
5.069337363742221
 20
6.193617349685717
 30
0.0
 11
5.08808736374222
 21
6.231117349685717
 31
0.0
  0
LINE
  5
674
330
1F
100
AcDbEntity
  8
4
100
AcDbLine
 10
5.08808736374222
 20
6.231117349685717
 30
0.0
 11
5.10683736374222
 21
6.193617349685717
 31
0.0
  0
LINE
  5
675
330
1F
100
AcDbEntity
  8
4
100
AcDbLine
 10
5.069337363742221
 20
6.193617349685717
 30
0.0
 11
5.08808736374222
 21
6.156117349685717
 31
0.0
  0
LINE
  5
676
330
1F
100
AcDbEntity
  8
4
100
AcDbLine
 10
5.08808736374222
 20
6.156117349685717
 30
0.0
 11
5.10683736374222
 21
6.193617349685717
 31
0.0
  0
LINE
  5
677
330
1F
100
AcDbEntity
  8
4
100
AcDbLine
 10
5.11308736374222
 20
6.098117349685717
 30
0.0
 11
5.131837363742221
 21
6.135617349685717
 31
0.0
  0
LINE
  5
678
330
1F
100
AcDbEntity
  8
4
100
AcDbLine
 10
5.094337363742221
 20
6.135617349685717
 30
0.0
 11
5.11308736374222
 21
6.098117349685717
 31
0.0
  0
LINE
  5
679
330
1F
100
AcDbEntity
  8
4
100
AcDbLine
 10
5.11308736374222
 20
6.173117349685717
 30
0.0
 11
5.131837363742221
 21
6.135617349685717
 31
0.0
  0
LINE
  5
67A
330
1F
100
AcDbEntity
  8
4
100
AcDbLine
 10
5.094337363742221
 20
6.135617349685717
 30
0.0
 11
5.11308736374222
 21
6.173117349685717
 31
0.0
  0
LINE
  5
67B
330
1F
100
AcDbEntity
  8
4
100
AcDbLine
 10
5.094337363742219
 20
6.027980890253867
 30
0.0
 11
5.11308736374222
 21
6.065480890253867
 31
0.0
  0
LINE
  5
67C
330
1F
100
AcDbEntity
  8
4
100
AcDbLine
 10
5.11308736374222
 20
6.065480890253867
 30
0.0
 11
5.131837363742221
 21
6.027980890253867
 31
0.0
  0
LINE
  5
67D
330
1F
100
AcDbEntity
  8
4
100
AcDbLine
 10
5.094337363742219
 20
6.027980890253867
 30
0.0
 11
5.11308736374222
 21
5.990480890253867
 31
0.0
  0
LINE
  5
67E
330
1F
100
AcDbEntity
  8
4
100
AcDbLine
 10
5.11308736374222
 20
5.990480890253867
 30
0.0
 11
5.131837363742221
 21
6.027980890253867
 31
0.0
  0
LINE
  5
67F
330
1F
100
AcDbEntity
  8
4
100
AcDbLine
 10
5.08808736374222
 20
6.048480890253867
 30
0.0
 11
5.10683736374222
 21
6.085980890253867
 31
0.0
  0
LINE
  5
680
330
1F
100
AcDbEntity
  8
4
100
AcDbLine
 10
5.069337363742221
 20
6.085980890253867
 30
0.0
 11
5.08808736374222
 21
6.048480890253867
 31
0.0
  0
LINE
  5
681
330
1F
100
AcDbEntity
  8
4
100
AcDbLine
 10
5.08808736374222
 20
6.123480890253866
 30
0.0
 11
5.10683736374222
 21
6.085980890253867
 31
0.0
  0
LINE
  5
682
330
1F
100
AcDbEntity
  8
4
100
AcDbLine
 10
5.069337363742221
 20
6.085980890253867
 30
0.0
 11
5.08808736374222
 21
6.123480890253866
 31
0.0
  0
LINE
  5
683
330
1F
100
AcDbEntity
  8
4
100
AcDbLine
 10
5.319337363742221
 20
6.085980890253867
 30
0.0
 11
5.33808736374222
 21
6.123480890253866
 31
0.0
  0
LINE
  5
684
330
1F
100
AcDbEntity
  8
4
100
AcDbLine
 10
5.33808736374222
 20
6.123480890253866
 30
0.0
 11
5.35683736374222
 21
6.085980890253867
 31
0.0
  0
LINE
  5
685
330
1F
100
AcDbEntity
  8
4
100
AcDbLine
 10
5.319337363742221
 20
6.085980890253867
 30
0.0
 11
5.33808736374222
 21
6.048480890253867
 31
0.0
  0
LINE
  5
686
330
1F
100
AcDbEntity
  8
4
100
AcDbLine
 10
5.33808736374222
 20
6.048480890253867
 30
0.0
 11
5.35683736374222
 21
6.085980890253867
 31
0.0
  0
LINE
  5
687
330
1F
100
AcDbEntity
  8
4
100
AcDbLine
 10
5.36308736374222
 20
5.990480890253867
 30
0.0
 11
5.381837363742221
 21
6.027980890253867
 31
0.0
  0
LINE
  5
688
330
1F
100
AcDbEntity
  8
4
100
AcDbLine
 10
5.344337363742219
 20
6.027980890253867
 30
0.0
 11
5.36308736374222
 21
5.990480890253867
 31
0.0
  0
LINE
  5
689
330
1F
100
AcDbEntity
  8
4
100
AcDbLine
 10
5.36308736374222
 20
6.065480890253867
 30
0.0
 11
5.381837363742221
 21
6.027980890253867
 31
0.0
  0
LINE
  5
68A
330
1F
100
AcDbEntity
  8
4
100
AcDbLine
 10
5.344337363742219
 20
6.027980890253867
 30
0.0
 11
5.36308736374222
 21
6.065480890253867
 31
0.0
  0
LINE
  5
68B
330
1F
100
AcDbEntity
  8
4
100
AcDbLine
 10
5.344337363742219
 20
6.135617349685717
 30
0.0
 11
5.36308736374222
 21
6.173117349685717
 31
0.0
  0
LINE
  5
68C
330
1F
100
AcDbEntity
  8
4
100
AcDbLine
 10
5.36308736374222
 20
6.173117349685717
 30
0.0
 11
5.381837363742221
 21
6.135617349685717
 31
0.0
  0
LINE
  5
68D
330
1F
100
AcDbEntity
  8
4
100
AcDbLine
 10
5.344337363742219
 20
6.135617349685717
 30
0.0
 11
5.36308736374222
 21
6.098117349685717
 31
0.0
  0
LINE
  5
68E
330
1F
100
AcDbEntity
  8
4
100
AcDbLine
 10
5.36308736374222
 20
6.098117349685717
 30
0.0
 11
5.381837363742221
 21
6.135617349685717
 31
0.0
  0
LINE
  5
68F
330
1F
100
AcDbEntity
  8
4
100
AcDbLine
 10
5.33808736374222
 20
6.156117349685717
 30
0.0
 11
5.35683736374222
 21
6.193617349685717
 31
0.0
  0
LINE
  5
690
330
1F
100
AcDbEntity
  8
4
100
AcDbLine
 10
5.319337363742221
 20
6.193617349685717
 30
0.0
 11
5.33808736374222
 21
6.156117349685717
 31
0.0
  0
LINE
  5
691
330
1F
100
AcDbEntity
  8
4
100
AcDbLine
 10
5.33808736374222
 20
6.231117349685717
 30
0.0
 11
5.35683736374222
 21
6.193617349685717
 31
0.0
  0
LINE
  5
692
330
1F
100
AcDbEntity
  8
4
100
AcDbLine
 10
5.319337363742221
 20
6.193617349685717
 30
0.0
 11
5.33808736374222
 21
6.231117349685717
 31
0.0
  0
LINE
  5
693
330
1F
100
AcDbEntity
  8
2
100
AcDbLine
 10
5.381837363742221
 20
6.135617349685717
 30
0.0
 11
5.381837363742221
 21
6.027980890253867
 31
0.0
  0
LINE
  5
694
330
1F
100
AcDbEntity
  8
2
100
AcDbLine
 10
5.069337363742221
 20
6.193617349685717
 30
0.0
 11
5.069337363742221
 21
6.085980890253867
 31
0.0
  0
LINE
  5
695
330
1F
100
AcDbEntity
  8
2
100
AcDbLine
 10
5.11308736374222
 20
5.990480890253867
 30
0.0
 11
5.36308736374222
 21
5.990480890253867
 31
0.0
  0
LINE
  5
696
330
1F
100
AcDbEntity
  8
2
100
AcDbLine
 10
5.088087363742221
 20
6.231117349685718
 30
0.0
 11
5.33808736374222
 21
6.231117349685717
 31
0.0
  0
LINE
  5
697
330
1F
100
AcDbEntity
  8
2
100
AcDbLine
 10
5.088087363742221
 20
6.813836102591027
 30
0.0
 11
5.33808736374222
 21
6.813836102591025
 31
0.0
  0
LINE
  5
698
330
1F
100
AcDbEntity
  8
2
100
AcDbLine
 10
5.11308736374222
 20
6.573199643159176
 30
0.0
 11
5.36308736374222
 21
6.573199643159176
 31
0.0
  0
LINE
  5
699
330
1F
100
AcDbEntity
  8
2
100
AcDbLine
 10
5.069337363742221
 20
6.776336102591026
 30
0.0
 11
5.069337363742221
 21
6.668699643159175
 31
0.0
  0
LINE
  5
69A
330
1F
100
AcDbEntity
  8
2
100
AcDbLine
 10
5.381837363742221
 20
6.718336102591026
 30
0.0
 11
5.381837363742221
 21
6.610699643159176
 31
0.0
  0
LINE
  5
69B
330
1F
100
AcDbEntity
  8
4
100
AcDbLine
 10
5.319337363742221
 20
6.776336102591026
 30
0.0
 11
5.33808736374222
 21
6.813836102591025
 31
0.0
  0
LINE
  5
69C
330
1F
100
AcDbEntity
  8
4
100
AcDbLine
 10
5.33808736374222
 20
6.813836102591025
 30
0.0
 11
5.35683736374222
 21
6.776336102591026
 31
0.0
  0
LINE
  5
69D
330
1F
100
AcDbEntity
  8
4
100
AcDbLine
 10
5.319337363742221
 20
6.776336102591026
 30
0.0
 11
5.33808736374222
 21
6.738836102591026
 31
0.0
  0
LINE
  5
69E
330
1F
100
AcDbEntity
  8
4
100
AcDbLine
 10
5.33808736374222
 20
6.738836102591026
 30
0.0
 11
5.35683736374222
 21
6.776336102591026
 31
0.0
  0
LINE
  5
69F
330
1F
100
AcDbEntity
  8
4
100
AcDbLine
 10
5.36308736374222
 20
6.680836102591026
 30
0.0
 11
5.381837363742221
 21
6.718336102591026
 31
0.0
  0
LINE
  5
6A0
330
1F
100
AcDbEntity
  8
4
100
AcDbLine
 10
5.344337363742219
 20
6.718336102591026
 30
0.0
 11
5.36308736374222
 21
6.680836102591026
 31
0.0
  0
LINE
  5
6A1
330
1F
100
AcDbEntity
  8
4
100
AcDbLine
 10
5.36308736374222
 20
6.755836102591025
 30
0.0
 11
5.381837363742221
 21
6.718336102591026
 31
0.0
  0
LINE
  5
6A2
330
1F
100
AcDbEntity
  8
4
100
AcDbLine
 10
5.344337363742219
 20
6.718336102591026
 30
0.0
 11
5.36308736374222
 21
6.755836102591025
 31
0.0
  0
LINE
  5
6A3
330
1F
100
AcDbEntity
  8
4
100
AcDbLine
 10
5.344337363742219
 20
6.610699643159176
 30
0.0
 11
5.36308736374222
 21
6.648199643159175
 31
0.0
  0
LINE
  5
6A4
330
1F
100
AcDbEntity
  8
4
100
AcDbLine
 10
5.36308736374222
 20
6.648199643159175
 30
0.0
 11
5.381837363742221
 21
6.610699643159176
 31
0.0
  0
LINE
  5
6A5
330
1F
100
AcDbEntity
  8
4
100
AcDbLine
 10
5.344337363742219
 20
6.610699643159176
 30
0.0
 11
5.36308736374222
 21
6.573199643159176
 31
0.0
  0
LINE
  5
6A6
330
1F
100
AcDbEntity
  8
4
100
AcDbLine
 10
5.36308736374222
 20
6.573199643159176
 30
0.0
 11
5.381837363742221
 21
6.610699643159176
 31
0.0
  0
LINE
  5
6A7
330
1F
100
AcDbEntity
  8
4
100
AcDbLine
 10
5.33808736374222
 20
6.631199643159176
 30
0.0
 11
5.35683736374222
 21
6.668699643159175
 31
0.0
  0
LINE
  5
6A8
330
1F
100
AcDbEntity
  8
4
100
AcDbLine
 10
5.319337363742221
 20
6.668699643159175
 30
0.0
 11
5.33808736374222
 21
6.631199643159176
 31
0.0
  0
LINE
  5
6A9
330
1F
100
AcDbEntity
  8
4
100
AcDbLine
 10
5.33808736374222
 20
6.706199643159175
 30
0.0
 11
5.35683736374222
 21
6.668699643159175
 31
0.0
  0
LINE
  5
6AA
330
1F
100
AcDbEntity
  8
4
100
AcDbLine
 10
5.319337363742221
 20
6.668699643159175
 30
0.0
 11
5.33808736374222
 21
6.706199643159175
 31
0.0
  0
LINE
  5
6AB
330
1F
100
AcDbEntity
  8
4
100
AcDbLine
 10
5.069337363742221
 20
6.668699643159175
 30
0.0
 11
5.08808736374222
 21
6.706199643159175
 31
0.0
  0
LINE
  5
6AC
330
1F
100
AcDbEntity
  8
4
100
AcDbLine
 10
5.08808736374222
 20
6.706199643159175
 30
0.0
 11
5.10683736374222
 21
6.668699643159175
 31
0.0
  0
LINE
  5
6AD
330
1F
100
AcDbEntity
  8
4
100
AcDbLine
 10
5.069337363742221
 20
6.668699643159175
 30
0.0
 11
5.08808736374222
 21
6.631199643159176
 31
0.0
  0
LINE
  5
6AE
330
1F
100
AcDbEntity
  8
4
100
AcDbLine
 10
5.08808736374222
 20
6.631199643159176
 30
0.0
 11
5.10683736374222
 21
6.668699643159175
 31
0.0
  0
LINE
  5
6AF
330
1F
100
AcDbEntity
  8
4
100
AcDbLine
 10
5.11308736374222
 20
6.573199643159176
 30
0.0
 11
5.131837363742221
 21
6.610699643159176
 31
0.0
  0
LINE
  5
6B0
330
1F
100
AcDbEntity
  8
4
100
AcDbLine
 10
5.094337363742219
 20
6.610699643159176
 30
0.0
 11
5.11308736374222
 21
6.573199643159176
 31
0.0
  0
LINE
  5
6B1
330
1F
100
AcDbEntity
  8
4
100
AcDbLine
 10
5.11308736374222
 20
6.648199643159175
 30
0.0
 11
5.131837363742221
 21
6.610699643159176
 31
0.0
  0
LINE
  5
6B2
330
1F
100
AcDbEntity
  8
4
100
AcDbLine
 10
5.094337363742219
 20
6.610699643159176
 30
0.0
 11
5.11308736374222
 21
6.648199643159175
 31
0.0
  0
LINE
  5
6B3
330
1F
100
AcDbEntity
  8
4
100
AcDbLine
 10
5.094337363742221
 20
6.718336102591026
 30
0.0
 11
5.11308736374222
 21
6.755836102591025
 31
0.0
  0
LINE
  5
6B4
330
1F
100
AcDbEntity
  8
4
100
AcDbLine
 10
5.11308736374222
 20
6.755836102591025
 30
0.0
 11
5.131837363742221
 21
6.718336102591026
 31
0.0
  0
LINE
  5
6B5
330
1F
100
AcDbEntity
  8
4
100
AcDbLine
 10
5.094337363742221
 20
6.718336102591026
 30
0.0
 11
5.11308736374222
 21
6.680836102591026
 31
0.0
  0
LINE
  5
6B6
330
1F
100
AcDbEntity
  8
4
100
AcDbLine
 10
5.11308736374222
 20
6.680836102591026
 30
0.0
 11
5.131837363742221
 21
6.718336102591026
 31
0.0
  0
LINE
  5
6B7
330
1F
100
AcDbEntity
  8
4
100
AcDbLine
 10
5.08808736374222
 20
6.738836102591026
 30
0.0
 11
5.10683736374222
 21
6.776336102591026
 31
0.0
  0
LINE
  5
6B8
330
1F
100
AcDbEntity
  8
4
100
AcDbLine
 10
5.069337363742221
 20
6.776336102591026
 30
0.0
 11
5.08808736374222
 21
6.738836102591026
 31
0.0
  0
LINE
  5
6B9
330
1F
100
AcDbEntity
  8
4
100
AcDbLine
 10
5.08808736374222
 20
6.813836102591025
 30
0.0
 11
5.10683736374222
 21
6.776336102591026
 31
0.0
  0
LINE
  5
6BA
330
1F
100
AcDbEntity
  8
4
100
AcDbLine
 10
5.069337363742221
 20
6.776336102591026
 30
0.0
 11
5.08808736374222
 21
6.813836102591025
 31
0.0
  0
INSERT
  5
6BB
330
1F
100
AcDbEntity
  8
2
100
AcDbBlockReference
  2
LE029
 10
11.0577630778798
 20
4.151257736590789
 30
0.0
  0
INSERT
  5
6BD
330
1F
100
AcDbEntity
  8
2
100
AcDbBlockReference
  2
LE029
 10
10.4867630778798
 20
4.151257736590789
 30
0.0
  0
INSERT
  5
6BF
330
1F
100
AcDbEntity
  8
2
100
AcDbBlockReference
  2
LE029
 10
9.176763077879803
 20
4.151257736590789
 30
0.0
  0
LINE
  5
6C3
330
1F
100
AcDbEntity
  8
2
100
AcDbLine
 10
9.220513077879804
 20
4.055757736590789
 30
0.0
 11
9.470513077879804
 21
4.055757736590789
 31
0.0
  0
LINE
  5
6C6
330
1F
100
AcDbEntity
  8
2
100
AcDbLine
 10
10.5305130778798
 20
4.055757736590789
 30
0.0
 11
10.7805130778798
 21
4.055757736590789
 31
0.0
  0
LINE
  5
6CA
330
1F
100
AcDbEntity
  8
2
100
AcDbLine
 10
11.1015130778798
 20
4.055757736590789
 30
0.0
 11
11.3515130778798
 21
4.055757736590789
 31
0.0
  0
LINE
  5
6CD
330
1F
100
AcDbEntity
  8
2
100
AcDbLine
 10
11.3702630778798
 20
6.62307411768222
 30
0.0
 11
11.3702630778798
 21
4.093257736590789
 31
0.0
  0
LINE
  5
6CE
330
1F
100
AcDbEntity
  8
2
100
AcDbLine
 10
11.0577630778798
 20
6.68107411768222
 30
0.0
 11
11.0577630778798
 21
4.151257736590789
 31
0.0
  0
LINE
  5
6D0
330
1F
100
AcDbEntity
  8
2
100
AcDbLine
 10
11.0765130778798
 20
6.718574117682221
 30
0.0
 11
11.3265130778798
 21
6.718574117682219
 31
0.0
  0
LINE
  5
6D1
330
1F
100
AcDbEntity
  8
2
100
AcDbLine
 10
10.7992630778798
 20
6.62307411768222
 30
0.0
 11
10.7992630778798
 21
4.093257736590789
 31
0.0
  0
LINE
  5
6D2
330
1F
100
AcDbEntity
  8
2
100
AcDbLine
 10
10.4867630778798
 20
6.68107411768222
 30
0.0
 11
10.4867630778798
 21
4.151257736590789
 31
0.0
  0
LINE
  5
6D4
330
1F
100
AcDbEntity
  8
2
100
AcDbLine
 10
10.5055130778798
 20
6.718574117682221
 30
0.0
 11
10.7555130778798
 21
6.718574117682219
 31
0.0
  0
LINE
  5
6D5
330
1F
100
AcDbEntity
  8
2
100
AcDbLine
 10
9.195513077879805
 20
6.718574117682221
 30
0.0
 11
9.445513077879803
 21
6.718574117682219
 31
0.0
  0
LINE
  5
6D7
330
1F
100
AcDbEntity
  8
2
100
AcDbLine
 10
9.176763077879805
 20
6.68107411768222
 30
0.0
 11
9.176763077879803
 21
4.151257736590789
 31
0.0
  0
LINE
  5
6D8
330
1F
100
AcDbEntity
  8
2
100
AcDbLine
 10
9.489263077879805
 20
6.62307411768222
 30
0.0
 11
9.489263077879803
 21
4.093257736590789
 31
0.0
  0
INSERT
  5
6D9
330
1F
100
AcDbEntity
  8
2
100
AcDbBlockReference
  2
LE029
 10
9.176763077879805
 20
6.68107411768222
 30
0.0
  0
INSERT
  5
6DB
330
1F
100
AcDbEntity
  8
2
100
AcDbBlockReference
  2
LE029
 10
10.4867630778798
 20
6.68107411768222
 30
0.0
  0
INSERT
  5
6DD
330
1F
100
AcDbEntity
  8
2
100
AcDbBlockReference
  2
LE029
 10
11.0577630778798
 20
6.68107411768222
 30
0.0
  0
CIRCLE
  5
6F1
330
1F
100
AcDbEntity
  8
4
100
AcDbCircle
 10
5.119561630172383
 20
6.375954396256787
 30
0.0
 40
0.023
  0
LWPOLYLINE
  5
6F2
330
1F
100
AcDbEntity
  8
4
100
AcDbPolyline
 90
        2
 70
     1
 43
0.01
 10
5.114561630172383
 20
6.428454396256787
 42
1.0
 10
5.124561630172383
 20
6.428454396256787
 42
1.0
  0
LWPOLYLINE
  5
6F3
330
1F
100
AcDbEntity
  8
4
100
AcDbPolyline
 90
        2
 70
     1
 43
0.01
 10
5.114561630172383
 20
6.323454396256787
 42
1.0
 10
5.124561630172383
 20
6.323454396256787
 42
1.0
  0
TEXT
  5
6F4
330
1F
100
AcDbEntity
  8
8
100
AcDbText
 10
5.474827574708932
 20
2.520470594644978
 30
0.0
 40
0.125
  1
HEAVY DUTY VENTILATED LOCKER - 60" TRIPLE TIER
  7
ROMANS
 72
     1
 11
8.037327574708932
 21
2.520470594644978
 31
0.0
100
AcDbText
  0
INSERT
  5
6F5
330
1F
100
AcDbEntity
  8
4
100
AcDbBlockReference
  2
TEMP3
 10
4.498239457232249
 20
5.607920755728592
 30
0.0
  0
LINE
  5
6F6
330
1F
100
AcDbEntity
  8
4
100
AcDbLine
 10
11.56882757470893
 20
4.020470594644979
 30
0.0
 11
11.50682757470893
 21
4.020470594644979
 31
0.0
  0
LINE
  5
6F7
330
1F
100
AcDbEntity
  8
4
100
AcDbLine
 10
10.28782757470893
 20
4.020470594644979
 30
0.0
 11
10.34982757470893
 21
4.020470594644979
 31
0.0
  0
LINE
  5
6F8
330
1F
100
AcDbEntity
  8
4
100
AcDbLine
 10
8.977827574708932
 20
4.020470594644979
 30
0.0
 11
9.039827574708933
 21
4.020470594644979
 31
0.0
  0
INSERT
  5
6F9
330
1F
100
AcDbEntity
  8
4
100
AcDbBlockReference
  2
ARRO
 10
8.724827574708932
 20
3.926470594644978
 30
0.0
 50
270.0
  0
INSERT
  5
6FA
330
1F
100
AcDbEntity
  8
4
100
AcDbBlockReference
  2
ARRO
 10
8.724827574708932
 20
3.988470594644978
 30
0.0
 50
90.0
  0
LINE
  5
6FB
330
1F
100
AcDbEntity
  8
4
100
AcDbLine
 10
8.724827574708932
 20
3.988470594644978
 30
0.0
 11
8.662827574708931
 21
3.988470594644978
 31
0.0
  0
LINE
  5
6FC
330
1F
100
AcDbEntity
  8
4
100
AcDbLine
 10
8.914827574708933
 20
3.988470594644978
 30
0.0
 11
8.724827574708932
 21
3.988470594644978
 31
0.0
  0
LINE
  5
6FD
330
1F
100
AcDbEntity
  8
4
100
AcDbLine
 10
8.724827574708932
 20
3.926470594644978
 30
0.0
 11
8.724827574708932
 21
3.801470594644978
 31
0.0
  0
LINE
  5
702
330
1F
100
AcDbEntity
  8
4
100
AcDbLine
 10
11.56882757470893
 20
4.874476473202108
 30
0.0
 11
11.50682757470893
 21
4.874476473202108
 31
0.0
  0
LINE
  5
703
330
1F
100
AcDbEntity
  8
4
100
AcDbLine
 10
11.56882757470893
 20
5.000432319311466
 30
0.0
 11
11.50682757470893
 21
5.000432319311466
 31
0.0
  0
LINE
  5
704
330
1F
100
AcDbEntity
  8
4
100
AcDbLine
 10
11.43082757470893
 20
4.968476473202109
 30
0.0
 11
10.96382757470893
 21
4.968476473202109
 31
0.0
  0
LINE
  5
705
330
1F
100
AcDbEntity
  8
4
100
AcDbLine
 10
11.50682757470893
 20
4.906476473202108
 30
0.0
 11
11.56882757470893
 21
4.906476473202108
 31
0.0
  0
LINE
  5
706
330
1F
100
AcDbEntity
  8
4
100
AcDbLine
 10
11.56882757470893
 20
4.906476473202108
 30
0.0
 11
11.56882757470893
 21
4.968476473202109
 31
0.0
  0
LINE
  5
707
330
1F
100
AcDbEntity
  8
4
100
AcDbLine
 10
11.56882757470893
 20
4.968476473202109
 30
0.0
 11
11.46082757470893
 21
4.968476473202109
 31
0.0
  0
LINE
  5
708
330
1F
100
AcDbEntity
  8
4
100
AcDbLine
 10
10.96382757470893
 20
4.968476473202109
 30
0.0
 11
10.96382757470893
 21
4.906476473202108
 31
0.0
  0
LINE
  5
709
330
1F
100
AcDbEntity
  8
4
100
AcDbLine
 10
11.00382757470893
 20
4.968476473202109
 30
0.0
 11
11.00382757470893
 21
4.906476473202108
 31
0.0
  0
LINE
  5
70A
330
1F
100
AcDbEntity
  8
4
100
AcDbLine
 10
11.00382757470893
 20
4.906476473202108
 30
0.0
 11
11.36882757470893
 21
4.906476473202108
 31
0.0
  0
LINE
  5
70B
330
1F
100
AcDbEntity
  8
4
100
AcDbLine
 10
11.36882757470893
 20
4.906476473202108
 30
0.0
 11
11.43082757470893
 21
4.968476473202109
 31
0.0
  0
LINE
  5
70C
330
1F
100
AcDbEntity
  8
4
100
AcDbLine
 10
11.54382757470893
 20
4.953476473202108
 30
0.0
 11
11.54382757470893
 21
4.925230330764549
 31
0.0
  0
LINE
  5
70D
330
1F
100
AcDbEntity
  8
4
100
AcDbLine
 10
11.44582757470893
 20
4.953476473202108
 30
0.0
 11
11.54382757470893
 21
4.953476473202108
 31
0.0
  0
LINE
  5
70E
330
1F
100
AcDbEntity
  8
4
100
AcDbLine
 10
11.43082757470893
 20
4.968476473202109
 30
0.0
 11
11.44582757470893
 21
4.953476473202108
 31
0.0
  0
LINE
  5
70F
330
1F
100
AcDbEntity
  8
4
100
AcDbLine
 10
10.42582757470893
 20
4.968476473202109
 30
0.0
 11
10.41082757470893
 21
4.953476473202108
 31
0.0
  0
LINE
  5
710
330
1F
100
AcDbEntity
  8
4
100
AcDbLine
 10
10.41082757470893
 20
4.953476473202108
 30
0.0
 11
10.31282757470893
 21
4.953476473202108
 31
0.0
  0
LINE
  5
711
330
1F
100
AcDbEntity
  8
4
100
AcDbLine
 10
10.31282757470893
 20
4.953476473202108
 30
0.0
 11
10.31282757470893
 21
4.925230330764549
 31
0.0
  0
LINE
  5
712
330
1F
100
AcDbEntity
  8
4
100
AcDbLine
 10
10.48782757470893
 20
4.906476473202108
 30
0.0
 11
10.42582757470893
 21
4.968476473202109
 31
0.0
  0
LINE
  5
713
330
1F
100
AcDbEntity
  8
4
100
AcDbLine
 10
10.85282757470893
 20
4.906476473202108
 30
0.0
 11
10.48782757470893
 21
4.906476473202108
 31
0.0
  0
LINE
  5
714
330
1F
100
AcDbEntity
  8
4
100
AcDbLine
 10
10.85282757470893
 20
4.968476473202109
 30
0.0
 11
10.85282757470893
 21
4.906476473202108
 31
0.0
  0
LINE
  5
715
330
1F
100
AcDbEntity
  8
4
100
AcDbLine
 10
10.89282757470893
 20
4.968476473202109
 30
0.0
 11
10.89282757470893
 21
4.906476473202108
 31
0.0
  0
LINE
  5
716
330
1F
100
AcDbEntity
  8
4
100
AcDbLine
 10
10.28782757470893
 20
4.968476473202109
 30
0.0
 11
10.39582757470893
 21
4.968476473202109
 31
0.0
  0
LINE
  5
717
330
1F
100
AcDbEntity
  8
4
100
AcDbLine
 10
10.28782757470893
 20
4.906476473202108
 30
0.0
 11
10.28782757470893
 21
4.968476473202109
 31
0.0
  0
LINE
  5
718
330
1F
100
AcDbEntity
  8
4
100
AcDbLine
 10
10.34982757470893
 20
4.906476473202108
 30
0.0
 11
10.28782757470893
 21
4.906476473202108
 31
0.0
  0
LINE
  5
719
330
1F
100
AcDbEntity
  8
4
100
AcDbLine
 10
10.42582757470893
 20
4.968476473202109
 30
0.0
 11
10.89282757470893
 21
4.968476473202109
 31
0.0
  0
LINE
  5
71A
330
1F
100
AcDbEntity
  8
4
100
AcDbLine
 10
10.28782757470893
 20
5.000432319311466
 30
0.0
 11
10.34982757470893
 21
5.000432319311466
 31
0.0
  0
LINE
  5
71B
330
1F
100
AcDbEntity
  8
4
100
AcDbLine
 10
10.28782757470893
 20
4.874476473202108
 30
0.0
 11
10.34982757470893
 21
4.874476473202108
 31
0.0
  0
LINE
  5
720
330
1F
100
AcDbEntity
  8
4
100
AcDbLine
 10
8.914827574708933
 20
4.968476473202109
 30
0.0
 11
8.724827574708934
 21
4.968476473202109
 31
0.0
  0
LINE
  5
721
330
1F
100
AcDbEntity
  8
4
100
AcDbLine
 10
8.724827574708934
 20
4.968476473202109
 30
0.0
 11
8.662827574708934
 21
4.968476473202109
 31
0.0
  0
INSERT
  5
722
330
1F
100
AcDbEntity
  8
4
100
AcDbBlockReference
  2
ARRO2
 10
8.724827574708934
 20
4.968476473202109
 30
0.0
 50
90.0
  0
LINE
  5
727
330
1F
100
AcDbEntity
  8
4
100
AcDbLine
 10
8.977827574708934
 20
4.874476473202108
 30
0.0
 11
9.039827574708933
 21
4.874476473202108
 31
0.0
  0
LINE
  5
728
330
1F
100
AcDbEntity
  8
4
100
AcDbLine
 10
8.977827574708934
 20
5.000432319311466
 30
0.0
 11
9.039827574708933
 21
5.000432319311466
 31
0.0
  0
LINE
  5
729
330
1F
100
AcDbEntity
  8
4
100
AcDbLine
 10
9.115827574708934
 20
4.968476473202109
 30
0.0
 11
9.582827574708932
 21
4.968476473202109
 31
0.0
  0
LINE
  5
72A
330
1F
100
AcDbEntity
  8
4
100
AcDbLine
 10
9.039827574708933
 20
4.906476473202108
 30
0.0
 11
8.977827574708932
 21
4.906476473202108
 31
0.0
  0
LINE
  5
72B
330
1F
100
AcDbEntity
  8
4
100
AcDbLine
 10
8.977827574708932
 20
4.906476473202108
 30
0.0
 11
8.977827574708932
 21
4.968476473202109
 31
0.0
  0
LINE
  5
72C
330
1F
100
AcDbEntity
  8
4
100
AcDbLine
 10
8.977827574708932
 20
4.968476473202109
 30
0.0
 11
9.085827574708932
 21
4.968476473202109
 31
0.0
  0
LINE
  5
72D
330
1F
100
AcDbEntity
  8
4
100
AcDbLine
 10
9.582827574708932
 20
4.968476473202109
 30
0.0
 11
9.582827574708932
 21
4.906476473202108
 31
0.0
  0
LINE
  5
72E
330
1F
100
AcDbEntity
  8
4
100
AcDbLine
 10
9.542827574708933
 20
4.968476473202109
 30
0.0
 11
9.542827574708933
 21
4.906476473202108
 31
0.0
  0
LINE
  5
72F
330
1F
100
AcDbEntity
  8
4
100
AcDbLine
 10
9.542827574708933
 20
4.906476473202108
 30
0.0
 11
9.177827574708933
 21
4.906476473202108
 31
0.0
  0
LINE
  5
730
330
1F
100
AcDbEntity
  8
4
100
AcDbLine
 10
9.177827574708933
 20
4.906476473202108
 30
0.0
 11
9.115827574708934
 21
4.968476473202109
 31
0.0
  0
LINE
  5
731
330
1F
100
AcDbEntity
  8
4
100
AcDbLine
 10
9.002827574708934
 20
4.953476473202108
 30
0.0
 11
9.002827574708934
 21
4.925230330764549
 31
0.0
  0
LINE
  5
732
330
1F
100
AcDbEntity
  8
4
100
AcDbLine
 10
9.100827574708933
 20
4.953476473202108
 30
0.0
 11
9.002827574708934
 21
4.953476473202108
 31
0.0
  0
LINE
  5
733
330
1F
100
AcDbEntity
  8
4
100
AcDbLine
 10
9.115827574708934
 20
4.968476473202109
 30
0.0
 11
9.100827574708933
 21
4.953476473202108
 31
0.0
  0
LINE
  5
734
330
1F
100
AcDbEntity
  8
4
100
AcDbLine
 10
11.56882757470893
 20
5.853476473202109
 30
0.0
 11
11.56882757470893
 21
5.000432319311466
 31
0.0
  0
LINE
  5
735
330
1F
100
AcDbEntity
  8
4
100
AcDbLine
 10
10.28782757470893
 20
5.853476473202109
 30
0.0
 11
10.28782757470893
 21
5.000432319311466
 31
0.0
  0
LINE
  5
736
330
1F
100
AcDbEntity
  8
4
100
AcDbLine
 10
8.977827574708932
 20
5.853476473202109
 30
0.0
 11
8.977827574708932
 21
5.000432319311466
 31
0.0
  0
LINE
  5
737
330
1F
100
AcDbEntity
  8
4
100
AcDbLine
 10
8.977827574708932
 20
6.832470594644979
 30
0.0
 11
8.977827574708932
 21
5.979432319311465
 31
0.0
  0
LINE
  5
738
330
1F
100
AcDbEntity
  8
4
100
AcDbLine
 10
10.28782757470893
 20
6.832470594644979
 30
0.0
 11
10.28782757470893
 21
5.979432319311465
 31
0.0
  0
LINE
  5
739
330
1F
100
AcDbEntity
  8
4
100
AcDbLine
 10
11.56882757470893
 20
6.832470594644979
 30
0.0
 11
11.56882757470893
 21
5.979432319311465
 31
0.0
  0
LINE
  5
73A
330
1F
100
AcDbEntity
  8
4
100
AcDbLine
 10
11.56882757470893
 20
6.832470594644979
 30
0.0
 11
11.50682757470893
 21
6.832470594644979
 31
0.0
  0
LINE
  5
73B
330
1F
100
AcDbEntity
  8
4
100
AcDbLine
 10
10.28782757470893
 20
6.832470594644979
 30
0.0
 11
10.34982757470893
 21
6.832470594644979
 31
0.0
  0
LINE
  5
73C
330
1F
100
AcDbEntity
  8
4
100
AcDbLine
 10
8.977827574708932
 20
6.832470594644979
 30
0.0
 11
9.039827574708931
 21
6.832470594644979
 31
0.0
  0
INSERT
  5
73D
330
1F
100
AcDbEntity
  8
4
100
AcDbBlockReference
  2
ARRO2
 10
8.724827574708932
 20
5.947476473202109
 30
0.0
 50
90.0
  0
LINE
  5
73E
330
1F
100
AcDbEntity
  8
4
100
AcDbLine
 10
8.724827574708932
 20
5.947476473202109
 30
0.0
 11
8.662827574708932
 21
5.947476473202109
 31
0.0
  0
LINE
  5
73F
330
1F
100
AcDbEntity
  8
4
100
AcDbLine
 10
8.914827574708933
 20
5.947476473202109
 30
0.0
 11
8.724827574708932
 21
5.947476473202109
 31
0.0
  0
INSERT
  5
74C
330
1F
100
AcDbEntity
  8
4
100
AcDbBlockReference
  2
ARRO
 10
8.724827574708932
 20
6.926470594644978
 30
0.0
 50
270.0
  0
LINE
  5
74D
330
1F
100
AcDbEntity
  8
4
100
AcDbLine
 10
9.115827574708932
 20
5.947476473202109
 30
0.0
 11
9.100827574708933
 21
5.932476473202108
 31
0.0
  0
LINE
  5
74E
330
1F
100
AcDbEntity
  8
4
100
AcDbLine
 10
9.100827574708933
 20
5.932476473202108
 30
0.0
 11
9.002827574708932
 21
5.932476473202108
 31
0.0
  0
LINE
  5
74F
330
1F
100
AcDbEntity
  8
4
100
AcDbLine
 10
9.002827574708932
 20
5.932476473202108
 30
0.0
 11
9.002827574708932
 21
5.904230330764549
 31
0.0
  0
LINE
  5
750
330
1F
100
AcDbEntity
  8
4
100
AcDbLine
 10
9.177827574708931
 20
5.885476473202109
 30
0.0
 11
9.115827574708932
 21
5.947476473202109
 31
0.0
  0
LINE
  5
751
330
1F
100
AcDbEntity
  8
4
100
AcDbLine
 10
9.542827574708933
 20
5.885476473202109
 30
0.0
 11
9.177827574708931
 21
5.885476473202109
 31
0.0
  0
LINE
  5
752
330
1F
100
AcDbEntity
  8
4
100
AcDbLine
 10
9.542827574708933
 20
5.947476473202109
 30
0.0
 11
9.542827574708933
 21
5.885476473202109
 31
0.0
  0
LINE
  5
753
330
1F
100
AcDbEntity
  8
4
100
AcDbLine
 10
9.582827574708932
 20
5.947476473202109
 30
0.0
 11
9.582827574708932
 21
5.885476473202109
 31
0.0
  0
LINE
  5
754
330
1F
100
AcDbEntity
  8
4
100
AcDbLine
 10
8.977827574708932
 20
5.947476473202109
 30
0.0
 11
9.085827574708932
 21
5.947476473202109
 31
0.0
  0
LINE
  5
755
330
1F
100
AcDbEntity
  8
4
100
AcDbLine
 10
8.977827574708932
 20
5.885476473202109
 30
0.0
 11
8.977827574708932
 21
5.947476473202109
 31
0.0
  0
LINE
  5
756
330
1F
100
AcDbEntity
  8
4
100
AcDbLine
 10
9.039827574708933
 20
5.885476473202109
 30
0.0
 11
8.977827574708932
 21
5.885476473202109
 31
0.0
  0
LINE
  5
757
330
1F
100
AcDbEntity
  8
4
100
AcDbLine
 10
9.115827574708932
 20
5.947476473202109
 30
0.0
 11
9.582827574708932
 21
5.947476473202109
 31
0.0
  0
LINE
  5
758
330
1F
100
AcDbEntity
  8
4
100
AcDbLine
 10
10.42582757470893
 20
5.947476473202109
 30
0.0
 11
10.89282757470893
 21
5.947476473202109
 31
0.0
  0
LINE
  5
759
330
1F
100
AcDbEntity
  8
4
100
AcDbLine
 10
10.34982757470893
 20
5.885476473202109
 30
0.0
 11
10.28782757470893
 21
5.885476473202109
 31
0.0
  0
LINE
  5
75A
330
1F
100
AcDbEntity
  8
4
100
AcDbLine
 10
10.28782757470893
 20
5.885476473202109
 30
0.0
 11
10.28782757470893
 21
5.947476473202109
 31
0.0
  0
LINE
  5
75B
330
1F
100
AcDbEntity
  8
4
100
AcDbLine
 10
10.28782757470893
 20
5.947476473202109
 30
0.0
 11
10.39582757470893
 21
5.947476473202109
 31
0.0
  0
LINE
  5
75C
330
1F
100
AcDbEntity
  8
4
100
AcDbLine
 10
10.89282757470893
 20
5.947476473202109
 30
0.0
 11
10.89282757470893
 21
5.885476473202109
 31
0.0
  0
LINE
  5
75D
330
1F
100
AcDbEntity
  8
4
100
AcDbLine
 10
10.85282757470893
 20
5.947476473202109
 30
0.0
 11
10.85282757470893
 21
5.885476473202109
 31
0.0
  0
LINE
  5
75E
330
1F
100
AcDbEntity
  8
4
100
AcDbLine
 10
10.85282757470893
 20
5.885476473202109
 30
0.0
 11
10.48782757470893
 21
5.885476473202109
 31
0.0
  0
LINE
  5
75F
330
1F
100
AcDbEntity
  8
4
100
AcDbLine
 10
10.48782757470893
 20
5.885476473202109
 30
0.0
 11
10.42582757470893
 21
5.947476473202109
 31
0.0
  0
LINE
  5
760
330
1F
100
AcDbEntity
  8
4
100
AcDbLine
 10
10.31282757470893
 20
5.932476473202108
 30
0.0
 11
10.31282757470893
 21
5.904230330764549
 31
0.0
  0
LINE
  5
761
330
1F
100
AcDbEntity
  8
4
100
AcDbLine
 10
10.41082757470893
 20
5.932476473202108
 30
0.0
 11
10.31282757470893
 21
5.932476473202108
 31
0.0
  0
LINE
  5
762
330
1F
100
AcDbEntity
  8
4
100
AcDbLine
 10
10.42582757470893
 20
5.947476473202109
 30
0.0
 11
10.41082757470893
 21
5.932476473202108
 31
0.0
  0
LINE
  5
763
330
1F
100
AcDbEntity
  8
4
100
AcDbLine
 10
11.43082757470893
 20
5.947476473202109
 30
0.0
 11
11.44582757470893
 21
5.932476473202108
 31
0.0
  0
LINE
  5
764
330
1F
100
AcDbEntity
  8
4
100
AcDbLine
 10
11.44582757470893
 20
5.932476473202108
 30
0.0
 11
11.54382757470893
 21
5.932476473202108
 31
0.0
  0
LINE
  5
765
330
1F
100
AcDbEntity
  8
4
100
AcDbLine
 10
11.54382757470893
 20
5.932476473202108
 30
0.0
 11
11.54382757470893
 21
5.904230330764549
 31
0.0
  0
LINE
  5
766
330
1F
100
AcDbEntity
  8
4
100
AcDbLine
 10
11.36882757470893
 20
5.885476473202109
 30
0.0
 11
11.43082757470893
 21
5.947476473202109
 31
0.0
  0
LINE
  5
767
330
1F
100
AcDbEntity
  8
4
100
AcDbLine
 10
11.00382757470893
 20
5.885476473202109
 30
0.0
 11
11.36882757470893
 21
5.885476473202109
 31
0.0
  0
LINE
  5
768
330
1F
100
AcDbEntity
  8
4
100
AcDbLine
 10
11.00382757470893
 20
5.947476473202109
 30
0.0
 11
11.00382757470893
 21
5.885476473202109
 31
0.0
  0
LINE
  5
769
330
1F
100
AcDbEntity
  8
4
100
AcDbLine
 10
10.96382757470893
 20
5.947476473202109
 30
0.0
 11
10.96382757470893
 21
5.885476473202109
 31
0.0
  0
LINE
  5
76A
330
1F
100
AcDbEntity
  8
4
100
AcDbLine
 10
11.56882757470893
 20
5.947476473202109
 30
0.0
 11
11.46082757470893
 21
5.947476473202109
 31
0.0
  0
LINE
  5
76B
330
1F
100
AcDbEntity
  8
4
100
AcDbLine
 10
11.56882757470893
 20
5.885476473202109
 30
0.0
 11
11.56882757470893
 21
5.947476473202109
 31
0.0
  0
LINE
  5
76C
330
1F
100
AcDbEntity
  8
4
100
AcDbLine
 10
11.50682757470893
 20
5.885476473202109
 30
0.0
 11
11.56882757470893
 21
5.885476473202109
 31
0.0
  0
LINE
  5
76D
330
1F
100
AcDbEntity
  8
4
100
AcDbLine
 10
11.43082757470893
 20
5.947476473202109
 30
0.0
 11
10.96382757470893
 21
5.947476473202109
 31
0.0
  0
LINE
  5
76E
330
1F
100
AcDbEntity
  8
4
100
AcDbLine
 10
8.977827574708932
 20
5.979432319311466
 30
0.0
 11
9.039827574708933
 21
5.979432319311466
 31
0.0
  0
LINE
  5
76F
330
1F
100
AcDbEntity
  8
4
100
AcDbLine
 10
8.977827574708932
 20
5.853476473202109
 30
0.0
 11
9.039827574708933
 21
5.853476473202109
 31
0.0
  0
LINE
  5
770
330
1F
100
AcDbEntity
  8
4
100
AcDbLine
 10
10.28782757470893
 20
5.979432319311465
 30
0.0
 11
10.34982757470893
 21
5.979432319311465
 31
0.0
  0
LINE
  5
771
330
1F
100
AcDbEntity
  8
4
100
AcDbLine
 10
11.50682757470893
 20
5.979432319311465
 30
0.0
 11
11.56882757470893
 21
5.979432319311465
 31
0.0
  0
LINE
  5
772
330
1F
100
AcDbEntity
  8
4
100
AcDbLine
 10
11.50682757470893
 20
5.853476473202109
 30
0.0
 11
11.56882757470893
 21
5.853476473202109
 31
0.0
  0
LINE
  5
773
330
1F
100
AcDbEntity
  8
4
100
AcDbLine
 10
10.28782757470893
 20
5.853476473202109
 30
0.0
 11
10.34982757470893
 21
5.853476473202109
 31
0.0
  0
LINE
  5
780
330
1F
100
AcDbEntity
  8
4
100
AcDbLine
 10
8.724827574708932
 20
6.926470594644978
 30
0.0
 11
8.724827574708932
 21
3.988470594644978
 31
0.0
  0
LINE
  5
781
330
1F
100
AcDbEntity
  8
4
100
AcDbLine
 10
8.977827574708932
 20
4.874476473202108
 30
0.0
 11
8.977827574708932
 21
4.020470594644979
 31
0.0
  0
LINE
  5
782
330
1F
100
AcDbEntity
  8
4
100
AcDbLine
 10
10.28782757470893
 20
4.874476473202108
 30
0.0
 11
10.28782757470893
 21
4.020470594644979
 31
0.0
  0
LINE
  5
783
330
1F
100
AcDbEntity
  8
4
100
AcDbLine
 10
11.56882757470893
 20
4.874476473202108
 30
0.0
 11
11.56882757470893
 21
4.020470594644979
 31
0.0
  0
LINE
  5
790
330
1F
100
AcDbEntity
  8
4
100
AcDbLine
 10
6.537327574708932
 20
4.90647647320211
 30
0.0
 11
6.725327574708932
 21
4.90647647320211
 31
0.0
  0
LINE
  5
791
330
1F
100
AcDbEntity
  8
4
100
AcDbLine
 10
6.537327574708932
 20
4.968476473202109
 30
0.0
 11
6.725327574708932
 21
4.968476473202109
 31
0.0
  0
LINE
  5
792
330
1F
100
AcDbEntity
  8
4
100
AcDbLine
 10
6.849327574708932
 20
4.968476473202109
 30
0.0
 11
7.350327574708932
 21
4.968476473202109
 31
0.0
  0
LINE
  5
793
330
1F
100
AcDbEntity
  8
4
100
AcDbLine
 10
6.849327574708932
 20
4.90647647320211
 30
0.0
 11
7.350327574708932
 21
4.90647647320211
 31
0.0
  0
LINE
  5
794
330
1F
100
AcDbEntity
  8
4
100
AcDbLine
 10
6.224327574708932
 20
4.968476473202109
 30
0.0
 11
6.412327574708931
 21
4.968476473202109
 31
0.0
  0
LINE
  5
795
330
1F
100
AcDbEntity
  8
4
100
AcDbLine
 10
6.224327574708932
 20
4.90647647320211
 30
0.0
 11
6.412327574708931
 21
4.90647647320211
 31
0.0
  0
LINE
  5
796
330
1F
100
AcDbEntity
  8
4
100
AcDbLine
 10
5.599327574708931
 20
4.968476473202109
 30
0.0
 11
6.100327574708932
 21
4.968476473202109
 31
0.0
  0
LINE
  5
797
330
1F
100
AcDbEntity
  8
4
100
AcDbLine
 10
5.599327574708931
 20
4.90647647320211
 30
0.0
 11
6.100327574708932
 21
4.90647647320211
 31
0.0
  0
LINE
  5
798
330
1F
100
AcDbEntity
  8
4
100
AcDbLine
 10
4.974327574708931
 20
4.968476473202109
 30
0.0
 11
5.475327574708932
 21
4.968476473202109
 31
0.0
  0
LINE
  5
799
330
1F
100
AcDbEntity
  8
4
100
AcDbLine
 10
4.974327574708931
 20
4.90647647320211
 30
0.0
 11
5.475327574708932
 21
4.90647647320211
 31
0.0
  0
LINE
  5
79A
330
1F
100
AcDbEntity
  8
4
100
AcDbLine
 10
5.453327574708931
 20
4.270432319311465
 30
0.0
 11
5.453327574708931
 21
4.145432319311465
 31
0.0
  0
LINE
  5
79B
330
1F
100
AcDbEntity
  8
4
100
AcDbLine
 10
5.453327574708932
 20
4.749476473202109
 30
0.0
 11
5.453327574708932
 21
4.624476473202109
 31
0.0
  0
LINE
  5
79C
330
1F
100
AcDbEntity
  8
4
100
AcDbLine
 10
5.443327574708932
 20
4.021432319311466
 30
0.0
 11
5.006327574708931
 21
4.021432319311465
 31
0.0
  0
LINE
  5
79D
330
1F
100
AcDbEntity
  8
4
100
AcDbLine
 10
5.443327574708932
 20
4.874476473202109
 30
0.0
 11
5.443327574708932
 21
4.021432319311466
 31
0.0
  0
LINE
  5
79E
330
1F
100
AcDbEntity
  8
4
100
AcDbLine
 10
5.006327574708931
 20
4.874476473202109
 30
0.0
 11
5.443327574708932
 21
4.874476473202109
 31
0.0
  0
LINE
  5
79F
330
1F
100
AcDbEntity
  8
4
100
AcDbLine
 10
5.006327574708931
 20
4.021432319311465
 30
0.0
 11
5.006327574708931
 21
4.874476473202109
 31
0.0
  0
LINE
  5
7A0
330
1F
100
AcDbEntity
  8
4
100
AcDbLine
 10
5.006327574708931
 20
5.000432319311465
 30
0.0
 11
5.006327574708932
 21
5.853476473202109
 31
0.0
  0
LINE
  5
7A1
330
1F
100
AcDbEntity
  8
4
100
AcDbLine
 10
5.006327574708932
 20
5.853476473202109
 30
0.0
 11
5.443327574708932
 21
5.853476473202109
 31
0.0
  0
LINE
  5
7A2
330
1F
100
AcDbEntity
  8
4
100
AcDbLine
 10
5.443327574708932
 20
5.853476473202109
 30
0.0
 11
5.443327574708932
 21
5.000432319311466
 31
0.0
  0
LINE
  5
7A3
330
1F
100
AcDbEntity
  8
4
100
AcDbLine
 10
5.443327574708932
 20
5.000432319311466
 30
0.0
 11
5.006327574708931
 21
5.000432319311465
 31
0.0
  0
LINE
  5
7A4
330
1F
100
AcDbEntity
  8
4
100
AcDbLine
 10
5.453327574708932
 20
5.728476473202109
 30
0.0
 11
5.453327574708932
 21
5.603476473202109
 31
0.0
  0
LINE
  5
7A5
330
1F
100
AcDbEntity
  8
4
100
AcDbLine
 10
5.453327574708931
 20
5.249432319311465
 30
0.0
 11
5.453327574708931
 21
5.124432319311465
 31
0.0
  0
INSERT
  5
7A6
330
1F
100
AcDbEntity
  8
4
100
AcDbBlockReference
  2
ARRO
 10
4.873239457232249
 20
5.396938892832212
 30
0.0
 50
180.0
  0
INSERT
  5
7A7
330
1F
100
AcDbEntity
  8
4
100
AcDbBlockReference
  2
ARRO
 10
4.873239457232249
 20
5.545920755728593
 30
0.0
 50
180.0
  0
LINE
  5
7A8
330
1F
100
AcDbEntity
  8
4
100
AcDbLine
 10
4.498239457232249
 20
5.396938892832212
 30
0.0
 11
4.498239457232249
 21
5.334938892832212
 31
0.0
  0
LINE
  5
7A9
330
1F
100
AcDbEntity
  8
4
100
AcDbLine
 10
4.873239457232249
 20
5.396938892832212
 30
0.0
 11
4.498239457232249
 21
5.396938892832212
 31
0.0
  0
LINE
  5
7AA
330
1F
100
AcDbEntity
  8
4
100
AcDbLine
 10
4.498239457232249
 20
5.545920755728593
 30
0.0
 11
4.498239457232249
 21
5.607920755728592
 31
0.0
  0
LINE
  5
7AB
330
1F
100
AcDbEntity
  8
4
100
AcDbLine
 10
4.873239457232249
 20
5.545920755728593
 30
0.0
 11
4.498239457232249
 21
5.545920755728593
 31
0.0
  0
LINE
  5
7AC
330
1F
100
AcDbEntity
  8
4
100
AcDbLine
 10
5.453327574708932
 20
6.228432319311465
 30
0.0
 11
5.453327574708932
 21
6.103432319311465
 31
0.0
  0
LINE
  5
7AD
330
1F
100
AcDbEntity
  8
4
100
AcDbLine
 10
5.453327574708932
 20
6.707476473202109
 30
0.0
 11
5.453327574708932
 21
6.582476473202109
 31
0.0
  0
LINE
  5
7AE
330
1F
100
AcDbEntity
  8
4
100
AcDbLine
 10
5.443327574708932
 20
5.979432319311466
 30
0.0
 11
5.006327574708932
 21
5.979432319311465
 31
0.0
  0
LINE
  5
7AF
330
1F
100
AcDbEntity
  8
4
100
AcDbLine
 10
5.443327574708932
 20
6.832476473202109
 30
0.0
 11
5.443327574708932
 21
5.979432319311466
 31
0.0
  0
LINE
  5
7B0
330
1F
100
AcDbEntity
  8
4
100
AcDbLine
 10
5.006327574708932
 20
6.832476473202109
 30
0.0
 11
5.443327574708932
 21
6.832476473202109
 31
0.0
  0
LINE
  5
7B1
330
1F
100
AcDbEntity
  8
4
100
AcDbLine
 10
5.006327574708932
 20
5.979432319311465
 30
0.0
 11
5.006327574708932
 21
6.832476473202109
 31
0.0
  0
LINE
  5
7B2
330
1F
100
AcDbEntity
  8
4
100
AcDbLine
 10
4.974327574708932
 20
5.885476473202109
 30
0.0
 11
5.475327574708932
 21
5.885476473202109
 31
0.0
  0
LINE
  5
7B3
330
1F
100
AcDbEntity
  8
4
100
AcDbLine
 10
4.974327574708932
 20
5.947476473202109
 30
0.0
 11
5.475327574708932
 21
5.947476473202109
 31
0.0
  0
LINE
  5
7B4
330
1F
100
AcDbEntity
  8
4
100
AcDbLine
 10
5.599327574708932
 20
5.885476473202109
 30
0.0
 11
6.100327574708932
 21
5.885476473202109
 31
0.0
  0
LINE
  5
7B5
330
1F
100
AcDbEntity
  8
4
100
AcDbLine
 10
5.599327574708932
 20
5.947476473202109
 30
0.0
 11
6.100327574708932
 21
5.947476473202109
 31
0.0
  0
LINE
  5
7B6
330
1F
100
AcDbEntity
  8
4
100
AcDbLine
 10
6.224327574708932
 20
5.885476473202109
 30
0.0
 11
6.412327574708932
 21
5.885476473202109
 31
0.0
  0
LINE
  5
7B7
330
1F
100
AcDbEntity
  8
4
100
AcDbLine
 10
6.224327574708932
 20
5.947476473202109
 30
0.0
 11
6.424523605535913
 21
5.947476473202109
 31
0.0
  0
LINE
  5
7B8
330
1F
100
AcDbEntity
  8
4
100
AcDbLine
 10
6.849327574708932
 20
5.885476473202109
 30
0.0
 11
7.350327574708932
 21
5.885476473202109
 31
0.0
  0
LINE
  5
7B9
330
1F
100
AcDbEntity
  8
4
100
AcDbLine
 10
6.849327574708932
 20
5.947476473202109
 30
0.0
 11
7.350327574708932
 21
5.947476473202109
 31
0.0
  0
LINE
  5
7BA
330
1F
100
AcDbEntity
  8
4
100
AcDbLine
 10
6.537327574708932
 20
5.947476473202109
 30
0.0
 11
6.725327574708932
 21
5.947476473202109
 31
0.0
  0
LINE
  5
7BB
330
1F
100
AcDbEntity
  8
4
100
AcDbLine
 10
6.537327574708932
 20
5.885476473202109
 30
0.0
 11
6.725327574708932
 21
5.885476473202109
 31
0.0
  0
LINE
  5
7D1
330
1F
100
AcDbEntity
  8
4
100
AcDbLine
 10
5.104561630172383
 20
6.495937751897391
 30
0.0
 11
5.104561630172383
 21
6.54293775189739
 31
0.0
  0
LINE
  5
7D2
330
1F
100
AcDbEntity
  8
4
100
AcDbLine
 10
5.134561630172383
 20
6.495937751897391
 30
0.0
 11
5.104561630172383
 21
6.495937751897391
 31
0.0
  0
LINE
  5
7D3
330
1F
100
AcDbEntity
  8
4
100
AcDbLine
 10
5.134561630172383
 20
6.54293775189739
 30
0.0
 11
5.134561630172383
 21
6.495937751897391
 31
0.0
  0
LINE
  5
7D4
330
1F
100
AcDbEntity
  8
4
100
AcDbLine
 10
5.042232102229082
 20
6.54293775189739
 30
0.0
 11
5.196891158115684
 21
6.54293775189739
 31
0.0
  0
LINE
  5
7D5
330
1F
100
AcDbEntity
  8
4
100
AcDbLine
 10
5.196891158115684
 20
6.54293775189739
 30
0.0
 11
5.168064711834693
 21
6.27043775189739
 31
0.0
  0
LINE
  5
7D6
330
1F
100
AcDbEntity
  8
4
100
AcDbLine
 10
5.071058548510073
 20
6.27043775189739
 30
0.0
 11
5.168064711834693
 21
6.27043775189739
 31
0.0
  0
LINE
  5
7D7
330
1F
100
AcDbEntity
  8
4
100
AcDbLine
 10
5.042232102229082
 20
6.54293775189739
 30
0.0
 11
5.071058548510073
 21
6.27043775189739
 31
0.0
  0
LINE
  5
7D8
330
1F
100
AcDbEntity
  8
4
100
AcDbLine
 10
5.057561630172383
 20
6.25543775189739
 30
0.0
 11
5.181561630172383
 21
6.25543775189739
 31
0.0
  0
LINE
  5
7D9
330
1F
100
AcDbEntity
  8
4
100
AcDbLine
 10
5.025561630172383
 20
6.557937751897391
 30
0.0
 11
5.057561630172383
 21
6.25543775189739
 31
0.0
  0
LINE
  5
7DA
330
1F
100
AcDbEntity
  8
4
100
AcDbLine
 10
5.213561630172383
 20
6.557937751897391
 30
0.0
 11
5.181561630172383
 21
6.25543775189739
 31
0.0
  0
LINE
  5
7DB
330
1F
100
AcDbEntity
  8
4
100
AcDbLine
 10
5.025561630172383
 20
6.557937751897391
 30
0.0
 11
5.213561630172383
 21
6.557937751897391
 31
0.0
  0
INSERT
  5
7F5
330
1F
100
AcDbEntity
  8
0
100
AcDbBlockReference
  2
HDV hooks
 10
5.599327574708932
 20
5.885476473202109
 30
0.0
  0
INSERT
  5
7F6
330
1F
100
AcDbEntity
  8
0
100
AcDbBlockReference
  2
HDV hooks
 10
5.599327574708931
 20
4.90647647320211
 30
0.0
  0
ARC
  5
7F7
330
1F
100
AcDbEntity
  8
4
100
AcDbCircle
 10
5.647078189814489
 20
6.769510900077632
 30
0.0
 40
0.025
100
AcDbArc
 50
180.0
 51
0.0
  0
LINE
  5
7F8
330
1F
100
AcDbEntity
  8
4
100
AcDbLine
 10
5.622078189814488
 20
6.769510900077632
 30
0.0
 11
5.622078189814488
 21
6.864470594644979
 31
0.0
  0
LINE
  5
7F9
330
1F
100
AcDbEntity
  8
4
100
AcDbLine
 10
5.817327574708932
 20
6.865048362343813
 30
0.0
 11
5.817327574708932
 21
6.744510900077631
 31
0.0
  0
LINE
  5
7FA
330
1F
100
AcDbEntity
  8
4
100
AcDbLine
 10
5.87932757470893
 20
6.865296088830096
 30
0.0
 11
5.87932757470893
 21
6.744510900077631
 31
0.0
  0
LINE
  5
7FB
330
1F
100
AcDbEntity
  8
4
100
AcDbLine
 10
6.086260733299824
 20
6.769510900077632
 30
0.0
 11
6.086260733299824
 21
6.864470594644979
 31
0.0
  0
ARC
  5
7FC
330
1F
100
AcDbEntity
  8
4
100
AcDbCircle
 10
6.061270598866296
 20
6.769510900077632
 30
0.0
 40
0.025
100
AcDbArc
 50
180.0
 51
0.0
  0
ARC
  5
7FD
330
1F
100
AcDbEntity
  8
4
100
AcDbCircle
 10
6.270809649105806
 20
6.769510900077632
 30
0.0
 40
0.025
100
AcDbArc
 50
180.0
 51
0.0
  0
LINE
  5
7FE
330
1F
100
AcDbEntity
  8
4
100
AcDbLine
 10
6.245809649105805
 20
6.769510900077632
 30
0.0
 11
6.245809649105805
 21
6.864470594644979
 31
0.0
  0
LINE
  5
7FF
330
1F
100
AcDbEntity
  8
4
100
AcDbLine
 10
6.709992192591141
 20
6.769510900077632
 30
0.0
 11
6.709992192591141
 21
6.864470594644979
 31
0.0
  0
ARC
  5
800
330
1F
100
AcDbEntity
  8
4
100
AcDbCircle
 10
6.685002058157613
 20
6.769510900077632
 30
0.0
 40
0.025
100
AcDbArc
 50
180.0
 51
0.0
  0
ARC
  5
801
330
1F
100
AcDbEntity
  8
4
100
AcDbCircle
 10
6.890184768962529
 20
6.769510900077632
 30
0.0
 40
0.025
100
AcDbArc
 50
180.0
 51
0.0
  0
LINE
  5
802
330
1F
100
AcDbEntity
  8
4
100
AcDbLine
 10
6.865184768962529
 20
6.769510900077632
 30
0.0
 11
6.865184768962529
 21
6.864470594644979
 31
0.0
  0
LINE
  5
803
330
1F
100
AcDbEntity
  8
4
100
AcDbLine
 10
7.12243415385697
 20
6.865296088830096
 30
0.0
 11
7.12243415385697
 21
6.744510900077631
 31
0.0
  0
LINE
  5
804
330
1F
100
AcDbEntity
  8
4
100
AcDbLine
 10
7.060434153856973
 20
6.865048362343813
 30
0.0
 11
7.060434153856973
 21
6.744510900077631
 31
0.0
  0
ARC
  5
805
330
1F
100
AcDbEntity
  8
4
100
AcDbCircle
 10
7.304377178014337
 20
6.769510900077632
 30
0.0
 40
0.025
100
AcDbArc
 50
180.0
 51
0.0
  0
LINE
  5
806
330
1F
100
AcDbEntity
  8
4
100
AcDbLine
 10
7.329367312447865
 20
6.769510900077632
 30
0.0
 11
7.329367312447865
 21
6.864470594644979
 31
0.0
  0
LINE
  5
807
330
1F
100
AcDbEntity
  8
4
100
AcDbLine
 10
9.332827574708931
 20
6.926470594644978
 30
0.0
 11
9.332827574708931
 21
6.74465044657931
 31
0.0
  0
LINE
  5
808
330
1F
100
AcDbEntity
  8
4
100
AcDbLine
 10
9.55420411270073
 20
6.769510900077632
 30
0.0
 11
9.55420411270073
 21
6.926470594644978
 31
0.0
  0
ARC
  5
809
330
1F
100
AcDbEntity
  8
4
100
AcDbCircle
 10
9.5292139782672
 20
6.769510900077632
 30
0.0
 40
0.025
100
AcDbArc
 50
180.0
 51
0.0
  0
ARC
  5
80A
330
1F
100
AcDbEntity
  8
4
100
AcDbCircle
 10
10.8392139782672
 20
6.769510900077632
 30
0.0
 40
0.025
100
AcDbArc
 50
180.0
 51
0.0
  0
LINE
  5
80B
330
1F
100
AcDbEntity
  8
4
100
AcDbLine
 10
10.86420411270073
 20
6.769510900077632
 30
0.0
 11
10.86420411270073
 21
6.926470594644978
 31
0.0
  0
LINE
  5
80C
330
1F
100
AcDbEntity
  8
4
100
AcDbLine
 10
10.64282757470893
 20
6.926470594644978
 30
0.0
 11
10.64282757470893
 21
6.74465044657931
 31
0.0
  0
LINE
  5
80D
330
1F
100
AcDbEntity
  8
4
100
AcDbLine
 10
10.86420411270073
 20
5.790516778634763
 30
0.0
 11
10.86420411270073
 21
5.947476473202109
 31
0.0
  0
ARC
  5
80E
330
1F
100
AcDbEntity
  8
4
100
AcDbCircle
 10
10.8392139782672
 20
5.790516778634763
 30
0.0
 40
0.025
100
AcDbArc
 50
180.0
 51
0.0
  0
LINE
  5
80F
330
1F
100
AcDbEntity
  8
4
100
AcDbLine
 10
10.64282757470893
 20
5.947476473202109
 30
0.0
 11
10.64282757470893
 21
5.765656325136441
 31
0.0
  0
TEXT
  5
810
330
1F
100
AcDbEntity
  8
8
100
AcDbText
 10
9.124827574708934
 20
3.330318832590663
 30
0.0
 40
0.07
  1
DEPTH
  7
ROMANS
 72
     1
 11
9.289827574708933
 21
3.330318832590663
 31
0.0
100
AcDbText
  0
TEXT
  5
811
330
1F
100
AcDbEntity
  8
8
100
AcDbText
 10
10.74732757470893
 20
3.330318832590663
 30
0.0
 40
0.07
  1
DEPTH
  7
ROMANS
 72
     1
 11
10.91232757470893
 21
3.330318832590663
 31
0.0
100
AcDbText
  0
TEXT
  5
812
330
1F
100
AcDbEntity
  8
8
100
AcDbText
 10
10.19016606178247
 20
3.173071601470288
 30
0.0
 40
0.1
  1
SR BACK TO BACK
  7
ROMANS
 72
     1
 11
10.913975585592
 21
3.173071601470288
 31
0.0
100
AcDbText
  0
TEXT
  5
813
330
1F
100
AcDbEntity
  8
8
100
AcDbText
 10
9.706716899267311
 20
2.988470594644978
 30
0.0
 40
0.1
  1
SECTIONS
  7
ROMANS
 72
     1
 11
10.05909785164826
 21
2.988470594644978
 31
0.0
100
AcDbText
  0
TEXT
  5
814
330
1F
100
AcDbEntity
  8
8
100
AcDbText
 10
9.214380737835888
 20
3.173071601470288
 30
0.0
 40
0.1
  1
SR
  7
ROMANS
 72
     1
 11
9.311999785454936
 21
3.173071601470288
 31
0.0
100
AcDbText
  0
LINE
  5
815
330
1F
100
AcDbEntity
  8
4
100
AcDbLine
 10
9.540327574708932
 20
6.676470594644978
 30
0.0
 11
9.804059177374336
 21
6.676470594644978
 31
0.0
  0
LINE
  5
816
330
1F
100
AcDbEntity
  8
4
100
AcDbLine
 10
9.844486387046762
 20
6.676470594644978
 30
0.0
 11
10.0249501838707
 21
6.676470594644978
 31
0.0
  0
INSERT
  5
817
330
1F
100
AcDbEntity
  8
4
100
AcDbBlockReference
  2
ARRO
 10
9.844486387046762
 20
6.676470594644978
 30
0.0
  0
LINE
  5
818
330
1F
100
AcDbEntity
  8
4
100
AcDbLine
 10
10.0249501838707
 20
6.676470594644978
 30
0.0
 11
10.0249501838707
 21
6.473482924854466
 31
0.0
  0
TEXT
  5
819
330
1F
100
AcDbEntity
  8
8
100
AcDbText
 10
10.0599501838707
 20
5.098149591521132
 30
0.0
 40
0.07
  1
ANCHORING BY ERECTOR
 50
90.0
  7
ROMANS
 72
     2
 11
10.0599501838707
 21
6.411482924854466
 31
0.0
100
AcDbText
  0
TEXT
  5
81A
330
1F
100
AcDbEntity
  8
8
100
AcDbText
 10
8.412827574708931
 20
5.004803927978311
 30
0.0
 40
0.07
  1
LOCKER HEIGHT
 50
90.0
  7
ROMANS
 72
     1
 11
8.412827574708931
 21
5.426470594644978
 31
0.0
100
AcDbText
  0
TEXT
  5
81B
330
1F
100
AcDbEntity
  8
8
100
AcDbText
 10
5.257327574708931
 20
3.488470594644978
 30
0.0
 40
0.07
  1
LOCKER WIDTH - SEE SCHEDULE
  7
ROMANS
 72
     1
 11
6.162327574708932
 21
3.488470594644978
 31
0.0
100
AcDbText
  0
TEXT
  5
81C
330
1F
100
AcDbEntity
  8
8
100
AcDbText
 10
5.498041860423218
 20
2.988470594644978
 30
0.0
 40
0.1
  1
FRONT ELEVATION
  7
ROMANS
 72
     1
 11
6.162327574708932
 21
2.988470594644978
 31
0.0
100
AcDbText
  0
LINE
  5
81D
330
1F
100
AcDbEntity
  8
1
100
AcDbLine
 10
3.912327574708932
 20
2.426470594644978
 30
0.0
 11
12.16232757470893
 21
2.426470594644978
 31
0.0
  0
LINE
  5
81E
330
1F
100
AcDbEntity
  8
1
100
AcDbLine
 10
12.16232757470893
 20
2.426470594644978
 30
0.0
 11
12.16232757470893
 21
7.676470594644978
 31
0.0
  0
LINE
  5
81F
330
1F
100
AcDbEntity
  8
1
100
AcDbLine
 10
12.16232757470893
 20
7.676470594644978
 30
0.0
 11
3.912327574708932
 21
7.676470594644978
 31
0.0
  0
LINE
  5
820
330
1F
100
AcDbEntity
  8
1
100
AcDbLine
 10
3.912327574708932
 20
7.676470594644978
 30
0.0
 11
3.912327574708932
 21
2.426470594644978
 31
0.0
  0
LINE
  5
821
330
1F
100
AcDbEntity
  8
1
100
AcDbLine
 10
4.912327574708932
 20
3.926470594644978
 30
0.0
 11
6.412327574708932
 21
3.926470594644978
 31
0.0
  0
LINE
  5
822
330
1F
100
AcDbEntity
  8
1
100
AcDbLine
 10
4.912327574708932
 20
3.926470594644978
 30
0.0
 11
4.912327574708932
 21
6.926470594644978
 31
0.0
  0
LINE
  5
823
330
1F
100
AcDbEntity
  8
1
100
AcDbLine
 10
4.912327574708932
 20
6.926470594644978
 30
0.0
 11
6.412327574708932
 21
6.926470594644978
 31
0.0
  0
LINE
  5
824
330
1F
100
AcDbEntity
  8
1
100
AcDbLine
 10
6.537327574708932
 20
6.926470594644978
 30
0.0
 11
7.412327574708932
 21
6.926470594644978
 31
0.0
  0
LINE
  5
825
330
1F
100
AcDbEntity
  8
1
100
AcDbLine
 10
7.412327574708932
 20
6.926470594644978
 30
0.0
 11
7.412327574708932
 21
3.926470594644978
 31
0.0
  0
LINE
  5
826
330
1F
100
AcDbEntity
  8
1
100
AcDbLine
 10
7.412327574708932
 20
3.926470594644978
 30
0.0
 11
6.537327574708932
 21
3.926470594644978
 31
0.0
  0
LINE
  5
827
330
1F
100
AcDbEntity
  8
1
100
AcDbLine
 10
10.91232757470893
 20
3.926470594644978
 30
0.0
 11
10.91232757470893
 21
6.926470594644978
 31
0.0
  0
LINE
  5
828
330
1F
100
AcDbEntity
  8
1
100
AcDbLine
 10
9.662327574708932
 20
3.926470594644978
 30
0.0
 11
9.662327574708932
 21
7.301470594644978
 31
0.0
  0
CIRCLE
  5
829
330
1F
100
AcDbEntity
  8
1
100
AcDbCircle
 10
8.037327574708932
 20
2.926470594644978
 30
0.0
 40
0.1875
  0
LINE
  5
82A
330
1F
100
AcDbEntity
  8
1
100
AcDbLine
 10
6.537327574708932
 20
7.051470594644978
 30
0.0
 11
6.537327574708932
 21
6.136444773956558
 31
0.0
  0
LINE
  5
82B
330
1F
100
AcDbEntity
  8
1
100
AcDbLine
 10
6.412327574708932
 20
7.051470594644978
 30
0.0
 11
6.412327574708932
 21
6.771444773956558
 31
0.0
  0
LINE
  5
82C
330
1F
100
AcDbEntity
  8
1
100
AcDbLine
 10
6.367327574708932
 20
6.816444773956558
 30
0.0
 11
6.457327574708932
 21
6.726444773956558
 31
0.0
  0
LINE
  5
82D
330
1F
100
AcDbEntity
  8
1
100
AcDbLine
 10
6.457327574708932
 20
6.726444773956558
 30
0.0
 11
6.367327574708932
 21
6.726444773956558
 31
0.0
  0
LINE
  5
82E
330
1F
100
AcDbEntity
  8
1
100
AcDbLine
 10
6.367327574708932
 20
6.726444773956558
 30
0.0
 11
6.457327574708932
 21
6.636444773956558
 31
0.0
  0
LINE
  5
82F
330
1F
100
AcDbEntity
  8
1
100
AcDbLine
 10
6.424523605535914
 20
6.669248743129576
 30
0.0
 11
6.424523605535914
 21
5.502149123792648
 31
0.0
  0
LINE
  5
830
330
1F
100
AcDbEntity
  8
1
100
AcDbLine
 10
6.367327574708932
 20
5.476444773956558
 30
0.0
 11
6.457327574708932
 21
5.386444773956558
 31
0.0
  0
LINE
  5
831
330
1F
100
AcDbEntity
  8
1
100
AcDbLine
 10
6.457327574708932
 20
5.476444773956558
 30
0.0
 11
6.367327574708932
 21
5.476444773956558
 31
0.0
  0
LINE
  5
832
330
1F
100
AcDbEntity
  8
1
100
AcDbLine
 10
6.367327574708932
 20
5.566444773956558
 30
0.0
 11
6.457327574708932
 21
5.476444773956558
 31
0.0
  0
LINE
  5
833
330
1F
100
AcDbEntity
  8
1
100
AcDbLine
 10
6.367327574708932
 20
4.226444773956558
 30
0.0
 11
6.457327574708932
 21
4.136444773956558
 31
0.0
  0
LINE
  5
834
330
1F
100
AcDbEntity
  8
1
100
AcDbLine
 10
6.457327574708932
 20
4.226444773956558
 30
0.0
 11
6.367327574708932
 21
4.226444773956558
 31
0.0
  0
LINE
  5
835
330
1F
100
AcDbEntity
  8
1
100
AcDbLine
 10
6.367327574708932
 20
4.316444773956558
 30
0.0
 11
6.457327574708932
 21
4.226444773956558
 31
0.0
  0
LINE
  5
836
330
1F
100
AcDbEntity
  8
1
100
AcDbLine
 10
6.412327574708932
 20
5.431444773956558
 30
0.0
 11
6.412327574708932
 21
4.896444773956558
 31
0.0
  0
LINE
  5
837
330
1F
100
AcDbEntity
  8
1
100
AcDbLine
 10
6.412327574708932
 20
4.896444773956558
 30
0.0
 11
6.412327574708932
 21
4.271444773956558
 31
0.0
  0
LINE
  5
838
330
1F
100
AcDbEntity
  8
1
100
AcDbLine
 10
6.412327574708932
 20
4.181444773956558
 30
0.0
 11
6.412327574708932
 21
3.801470594644978
 31
0.0
  0
LINE
  5
839
330
1F
100
AcDbEntity
  8
1
100
AcDbLine
 10
6.492327574708932
 20
4.941444773956558
 30
0.0
 11
6.582327574708932
 21
4.851444773956558
 31
0.0
  0
LINE
  5
83A
330
1F
100
AcDbEntity
  8
1
100
AcDbLine
 10
6.582327574708932
 20
4.851444773956558
 30
0.0
 11
6.492327574708932
 21
4.851444773956558
 31
0.0
  0
LINE
  5
83B
330
1F
100
AcDbEntity
  8
1
100
AcDbLine
 10
6.492327574708932
 20
4.851444773956558
 30
0.0
 11
6.582327574708932
 21
4.761444773956558
 31
0.0
  0
LINE
  5
83C
330
1F
100
AcDbEntity
  8
1
100
AcDbLine
 10
6.492327574708932
 20
6.181444773956558
 30
0.0
 11
6.582327574708932
 21
6.091444773956558
 31
0.0
  0
LINE
  5
83D
330
1F
100
AcDbEntity
  8
1
100
AcDbLine
 10
6.582327574708932
 20
6.091444773956558
 30
0.0
 11
6.492327574708932
 21
6.091444773956558
 31
0.0
  0
LINE
  5
83E
330
1F
100
AcDbEntity
  8
1
100
AcDbLine
 10
6.492327574708932
 20
6.091444773956558
 30
0.0
 11
6.582327574708932
 21
6.001444773956558
 31
0.0
  0
LINE
  5
83F
330
1F
100
AcDbEntity
  8
1
100
AcDbLine
 10
6.537327574708932
 20
6.052438298796844
 30
0.0
 11
6.537327574708932
 21
5.208944773956558
 31
0.0
  0
LINE
  5
840
330
1F
100
AcDbEntity
  8
1
100
AcDbLine
 10
6.537327574708932
 20
5.208944773956558
 30
0.0
 11
6.537327574708932
 21
4.896444773956558
 31
0.0
  0
LINE
  5
841
330
1F
100
AcDbEntity
  8
1
100
AcDbLine
 10
6.537327574708932
 20
4.806444773956558
 30
0.0
 11
6.537327574708932
 21
3.801470594644978
 31
0.0
  0
LINE
  5
842
330
1F
100
AcDbEntity
  8
1
100
AcDbLine
 10
9.662327574708932
 20
3.926470594644978
 30
0.0
 11
9.850327574708931
 21
4.114470594644978
 31
0.0
  0
LINE
  5
843
330
1F
100
AcDbEntity
  8
1
100
AcDbLine
 10
9.662327574708932
 20
4.051470594644978
 30
0.0
 11
9.850327574708931
 21
4.239470594644978
 31
0.0
  0
LINE
  5
844
330
1F
100
AcDbEntity
  8
1
100
AcDbLine
 10
9.662327574708932
 20
4.426470594644978
 30
0.0
 11
9.850327574708931
 21
4.614470594644978
 31
0.0
  0
LINE
  5
845
330
1F
100
AcDbEntity
  8
1
100
AcDbLine
 10
9.662327574708932
 20
4.551470594644978
 30
0.0
 11
9.850327574708931
 21
4.739470594644978
 31
0.0
  0
LINE
  5
846
330
1F
100
AcDbEntity
  8
1
100
AcDbLine
 10
9.662327574708932
 20
4.676470594644978
 30
0.0
 11
9.850327574708931
 21
4.864470594644978
 31
0.0
  0
LINE
  5
847
330
1F
100
AcDbEntity
  8
1
100
AcDbLine
 10
9.662327574708932
 20
4.801470594644978
 30
0.0
 11
9.850327574708931
 21
4.989470594644978
 31
0.0
  0
LINE
  5
848
330
1F
100
AcDbEntity
  8
1
100
AcDbLine
 10
9.662327574708932
 20
4.926470594644978
 30
0.0
 11
9.850327574708931
 21
5.114470594644978
 31
0.0
  0
LINE
  5
849
330
1F
100
AcDbEntity
  8
1
100
AcDbLine
 10
9.662327574708932
 20
5.051470594644978
 30
0.0
 11
9.850327574708931
 21
5.239470594644978
 31
0.0
  0
LINE
  5
84A
330
1F
100
AcDbEntity
  8
1
100
AcDbLine
 10
9.662327574708932
 20
5.176470594644978
 30
0.0
 11
9.850327574708931
 21
5.364470594644978
 31
0.0
  0
LINE
  5
84B
330
1F
100
AcDbEntity
  8
1
100
AcDbLine
 10
9.662327574708932
 20
5.301470594644978
 30
0.0
 11
9.850327574708931
 21
5.489470594644978
 31
0.0
  0
LINE
  5
84C
330
1F
100
AcDbEntity
  8
1
100
AcDbLine
 10
9.662327574708932
 20
5.426470594644978
 30
0.0
 11
9.850327574708931
 21
5.614470594644978
 31
0.0
  0
LINE
  5
84D
330
1F
100
AcDbEntity
  8
1
100
AcDbLine
 10
9.662327574708932
 20
5.551470594644978
 30
0.0
 11
9.850327574708931
 21
5.739470594644978
 31
0.0
  0
LINE
  5
84E
330
1F
100
AcDbEntity
  8
1
100
AcDbLine
 10
9.662327574708932
 20
5.676470594644978
 30
0.0
 11
9.850327574708931
 21
5.864470594644978
 31
0.0
  0
LINE
  5
84F
330
1F
100
AcDbEntity
  8
1
100
AcDbLine
 10
9.662327574708932
 20
5.801470594644978
 30
0.0
 11
9.850327574708931
 21
5.989470594644978
 31
0.0
  0
LINE
  5
850
330
1F
100
AcDbEntity
  8
1
100
AcDbLine
 10
9.662327574708932
 20
5.926470594644978
 30
0.0
 11
9.850327574708931
 21
6.114470594644978
 31
0.0
  0
LINE
  5
851
330
1F
100
AcDbEntity
  8
1
100
AcDbLine
 10
9.662327574708932
 20
6.051470594644978
 30
0.0
 11
9.850327574708931
 21
6.239470594644978
 31
0.0
  0
LINE
  5
852
330
1F
100
AcDbEntity
  8
1
100
AcDbLine
 10
9.662327574708932
 20
6.176470594644978
 30
0.0
 11
9.850327574708931
 21
6.364470594644978
 31
0.0
  0
LINE
  5
853
330
1F
100
AcDbEntity
  8
1
100
AcDbLine
 10
9.662327574708932
 20
6.301470594644978
 30
0.0
 11
9.850327574708931
 21
6.489470594644978
 31
0.0
  0
LINE
  5
854
330
1F
100
AcDbEntity
  8
1
100
AcDbLine
 10
9.662327574708932
 20
6.426470594644978
 30
0.0
 11
9.850327574708931
 21
6.614470594644978
 31
0.0
  0
LINE
  5
855
330
1F
100
AcDbEntity
  8
1
100
AcDbLine
 10
9.662327574708932
 20
6.551470594644978
 30
0.0
 11
9.850327574708931
 21
6.739470594644978
 31
0.0
  0
LINE
  5
856
330
1F
100
AcDbEntity
  8
1
100
AcDbLine
 10
9.662327574708932
 20
6.676470594644978
 30
0.0
 11
9.850327574708931
 21
6.864470594644978
 31
0.0
  0
LINE
  5
857
330
1F
100
AcDbEntity
  8
1
100
AcDbLine
 10
9.662327574708932
 20
6.801470594644978
 30
0.0
 11
9.850327574708931
 21
6.989470594644978
 31
0.0
  0
LINE
  5
858
330
1F
100
AcDbEntity
  8
1
100
AcDbLine
 10
9.662327574708932
 20
6.926470594644978
 30
0.0
 11
9.850327574708931
 21
7.114470594644978
 31
0.0
  0
LINE
  5
859
330
1F
100
AcDbEntity
  8
1
100
AcDbLine
 10
9.662327574708932
 20
7.051470594644978
 30
0.0
 11
9.850327574708931
 21
7.239470594644978
 31
0.0
  0
LINE
  5
85A
330
1F
100
AcDbEntity
  8
1
100
AcDbLine
 10
9.662327574708932
 20
7.176470594644978
 30
0.0
 11
9.787327574708932
 21
7.301470594644978
 31
0.0
  0
LINE
  5
85B
330
1F
100
AcDbEntity
  8
1
100
AcDbLine
 10
9.602327574708933
 20
3.926470594644978
 30
0.0
 11
9.602327574708933
 21
6.926470594644978
 31
0.0
  0
LINE
  5
85C
330
1F
100
AcDbEntity
  8
4
100
AcDbLine
 10
4.912327574708932
 20
3.864470594644978
 30
0.0
 11
4.912327574708932
 21
3.364470594644978
 31
0.0
  0
LINE
  5
85D
330
1F
100
AcDbEntity
  8
4
100
AcDbLine
 10
7.412327574708932
 20
3.864470594644978
 30
0.0
 11
7.412327574708932
 21
3.364470594644978
 31
0.0
  0
LINE
  5
85E
330
1F
100
AcDbEntity
  8
4
100
AcDbLine
 10
7.412327574708932
 20
3.426470594644978
 30
0.0
 11
4.912327574708932
 21
3.426470594644979
 31
0.0
  0
INSERT
  5
85F
330
1F
100
AcDbEntity
  8
4
100
AcDbBlockReference
  2
ARRO
 10
4.912327574708932
 20
3.426470594644979
 30
0.0
  0
INSERT
  5
860
330
1F
100
AcDbEntity
  8
4
100
AcDbBlockReference
  2
ARRO
 10
7.412327574708932
 20
3.426470594644978
 30
0.0
 50
180.0
  0
LINE
  5
861
330
1F
100
AcDbEntity
  8
4
100
AcDbLine
 10
8.914827574708933
 20
3.926470594644978
 30
0.0
 11
8.414827574708933
 21
3.926470594644978
 31
0.0
  0
LINE
  5
862
330
1F
100
AcDbEntity
  8
4
100
AcDbLine
 10
8.474827574708932
 20
3.926470594644978
 30
0.0
 11
8.474827574708932
 21
6.926470594644978
 31
0.0
  0
LINE
  5
863
330
1F
100
AcDbEntity
  8
4
100
AcDbLine
 10
8.914827574708933
 20
6.926470594644978
 30
0.0
 11
8.414827574708933
 21
6.926470594644978
 31
0.0
  0
INSERT
  5
864
330
1F
100
AcDbEntity
  8
4
100
AcDbBlockReference
  2
ARRO
 10
8.474827574708932
 20
6.926470594644978
 30
0.0
 50
270.0
  0
INSERT
  5
865
330
1F
100
AcDbEntity
  8
4
100
AcDbBlockReference
  2
ARRO
 10
8.474827574708932
 20
3.926470594644978
 30
0.0
 50
90.0
  0
LINE
  5
866
330
1F
100
AcDbEntity
  8
4
100
AcDbLine
 10
9.602327574708933
 20
3.426470594644978
 30
0.0
 11
8.977327574708933
 21
3.426470594644978
 31
0.0
  0
LINE
  5
867
330
1F
100
AcDbEntity
  8
4
100
AcDbLine
 10
9.662327574708932
 20
3.426470594644978
 30
0.0
 11
9.912327574708932
 21
3.426470594644978
 31
0.0
  0
LINE
  5
868
330
1F
100
AcDbEntity
  8
4
100
AcDbLine
 10
10.28732757470893
 20
3.426470594644978
 30
0.0
 11
11.53732757470893
 21
3.426470594644978
 31
0.0
  0
INSERT
  5
869
330
1F
100
AcDbEntity
  8
4
100
AcDbBlockReference
  2
ARRO
 10
8.977327574708933
 20
3.426470594644978
 30
0.0
  0
INSERT
  5
86A
330
1F
100
AcDbEntity
  8
4
100
AcDbBlockReference
  2
ARRO
 10
9.602327574708933
 20
3.426470594644978
 30
0.0
 50
180.0
  0
INSERT
  5
86B
330
1F
100
AcDbEntity
  8
4
100
AcDbBlockReference
  2
ARRO
 10
9.662327574708932
 20
3.426470594644978
 30
0.0
  0
INSERT
  5
86C
330
1F
100
AcDbEntity
  8
4
100
AcDbBlockReference
  2
ARRO
 10
10.28732757470893
 20
3.426470594644978
 30
0.0
  0
INSERT
  5
86D
330
1F
100
AcDbEntity
  8
4
100
AcDbBlockReference
  2
ARRO
 10
11.53732757470893
 20
3.426470594644978
 30
0.0
 50
180.0
  0
LINE
  5
86E
330
1F
100
AcDbEntity
  8
1
100
AcDbLine
 10
4.974327574708932
 20
3.988470594644978
 30
0.0
 11
4.974327574708932
 21
6.864470594644979
 31
0.0
  0
LINE
  5
86F
330
1F
100
AcDbEntity
  8
1
100
AcDbLine
 10
4.974327574708932
 20
6.864470594644979
 30
0.0
 11
5.475327574708932
 21
6.864470594644979
 31
0.0
  0
LINE
  5
870
330
1F
100
AcDbEntity
  8
1
100
AcDbLine
 10
5.475327574708932
 20
6.864470594644979
 30
0.0
 11
5.475327574708932
 21
3.988470594644978
 31
0.0
  0
LINE
  5
871
330
1F
100
AcDbEntity
  8
1
100
AcDbLine
 10
5.599327574708932
 20
3.988470594644978
 30
0.0
 11
5.599327574708932
 21
6.864470594644979
 31
0.0
  0
LINE
  5
872
330
1F
100
AcDbEntity
  8
1
100
AcDbLine
 10
5.599327574708932
 20
6.864470594644979
 30
0.0
 11
6.100327574708932
 21
6.864470594644979
 31
0.0
  0
LINE
  5
873
330
1F
100
AcDbEntity
  8
1
100
AcDbLine
 10
6.100327574708932
 20
6.864470594644979
 30
0.0
 11
6.100327574708932
 21
3.988470594644978
 31
0.0
  0
LINE
  5
874
330
1F
100
AcDbEntity
  8
1
100
AcDbLine
 10
6.100327574708932
 20
3.988470594644978
 30
0.0
 11
5.599327574708932
 21
3.988470594644978
 31
0.0
  0
LINE
  5
875
330
1F
100
AcDbEntity
  8
1
100
AcDbLine
 10
6.224327574708932
 20
3.988470594644978
 30
0.0
 11
6.224327574708932
 21
6.864470594644979
 31
0.0
  0
LINE
  5
876
330
1F
100
AcDbEntity
  8
1
100
AcDbLine
 10
6.224327574708932
 20
6.864470594644979
 30
0.0
 11
6.412327574708932
 21
6.864470594644979
 31
0.0
  0
LINE
  5
877
330
1F
100
AcDbEntity
  8
1
100
AcDbLine
 10
6.725327574708932
 20
6.864470594644979
 30
0.0
 11
6.725327574708932
 21
3.988470594644978
 31
0.0
  0
LINE
  5
878
330
1F
100
AcDbEntity
  8
1
100
AcDbLine
 10
6.725327574708932
 20
3.988470594644978
 30
0.0
 11
6.537327574708932
 21
3.988470594644978
 31
0.0
  0
LINE
  5
879
330
1F
100
AcDbEntity
  8
1
100
AcDbLine
 10
6.849327574708932
 20
3.988470594644978
 30
0.0
 11
6.849327574708932
 21
6.864470594644979
 31
0.0
  0
LINE
  5
87A
330
1F
100
AcDbEntity
  8
1
100
AcDbLine
 10
6.849327574708932
 20
6.864470594644979
 30
0.0
 11
7.350327574708932
 21
6.864470594644979
 31
0.0
  0
LINE
  5
87B
330
1F
100
AcDbEntity
  8
1
100
AcDbLine
 10
7.350327574708932
 20
6.864470594644979
 30
0.0
 11
7.350327574708932
 21
3.988470594644978
 31
0.0
  0
LINE
  5
87C
330
1F
100
AcDbEntity
  8
1
100
AcDbLine
 10
7.350327574708932
 20
3.988470594644978
 30
0.0
 11
6.849327574708932
 21
3.988470594644978
 31
0.0
  0
LINE
  5
87D
330
1F
100
AcDbEntity
  8
1
100
AcDbLine
 10
5.537327574708932
 20
3.926470594644978
 30
0.0
 11
5.537327574708932
 21
6.926470594644978
 31
0.0
  0
LINE
  5
87E
330
1F
100
AcDbEntity
  8
1
100
AcDbLine
 10
6.162327574708932
 20
3.926470594644978
 30
0.0
 11
6.162327574708932
 21
6.926470594644978
 31
0.0
  0
LINE
  5
87F
330
1F
100
AcDbEntity
  8
1
100
AcDbLine
 10
6.787327574708932
 20
3.926470594644978
 30
0.0
 11
6.787327574708932
 21
6.926470594644978
 31
0.0
  0
LINE
  5
880
330
1F
100
AcDbEntity
  8
1
100
AcDbLine
 10
6.537327574708932
 20
6.864470594644979
 30
0.0
 11
6.725327574708932
 21
6.864470594644979
 31
0.0
  0
LINE
  5
881
330
1F
100
AcDbEntity
  8
1
100
AcDbLine
 10
6.412327574708931
 20
3.988470594644978
 30
0.0
 11
6.224327574708932
 21
3.988470594644978
 31
0.0
  0
LINE
  5
882
330
1F
100
AcDbEntity
  8
4
100
AcDbLine
 10
5.849827574708932
 20
6.691258526596021
 30
0.0
 11
5.849827574708932
 21
6.966166249337064
 31
0.0
  0
CIRCLE
  5
883
330
1F
100
AcDbEntity
  8
4
100
AcDbCircle
 10
5.849827574708932
 20
6.597258526596021
 30
0.0
 40
0.094
  0
CIRCLE
  5
884
330
1F
100
AcDbEntity
  8
4
100
AcDbCircle
 10
5.691194285016945
 20
3.800470594644978
 30
0.0
 40
0.094
  0
LINE
  5
885
330
1F
100
AcDbEntity
  8
4
100
AcDbLine
 10
5.691194285016945
 20
3.894470594644978
 30
0.0
 11
5.691194285016945
 21
4.019470594644978
 31
0.0
  0
CIRCLE
  5
886
330
1F
100
AcDbEntity
  8
4
100
AcDbCircle
 10
5.941194285016945
 20
3.800470594644978
 30
0.0
 40
0.094
  0
LINE
  5
887
330
1F
100
AcDbEntity
  8
4
100
AcDbLine
 10
5.785194285016945
 20
3.800470594644978
 30
0.0
 11
5.847194285016945
 21
3.800470594644978
 31
0.0
  0
LINE
  5
888
330
1F
100
AcDbEntity
  8
1
100
AcDbLine
 10
4.974327574708932
 20
3.988470594644978
 30
0.0
 11
5.475327574708932
 21
3.988470594644978
 31
0.0
  0
LINE
  5
889
330
1F
100
AcDbEntity
  8
1
100
AcDbLine
 10
9.11582757470893
 20
6.926470594644978
 30
0.0
 11
9.100827574708931
 21
6.911470594644978
 31
0.0
  0
LINE
  5
88A
330
1F
100
AcDbEntity
  8
1
100
AcDbLine
 10
9.100827574708931
 20
6.911470594644978
 30
0.0
 11
9.002827574708931
 21
6.911470594644978
 31
0.0
  0
LINE
  5
88B
330
1F
100
AcDbEntity
  8
1
100
AcDbLine
 10
9.002827574708931
 20
6.911470594644978
 30
0.0
 11
9.002827574708931
 21
6.883224452207418
 31
0.0
  0
LINE
  5
88C
330
1F
100
AcDbEntity
  8
1
100
AcDbLine
 10
9.177827574708931
 20
6.864470594644978
 30
0.0
 11
9.11582757470893
 21
6.926470594644978
 31
0.0
  0
LINE
  5
88D
330
1F
100
AcDbEntity
  8
1
100
AcDbLine
 10
9.542827574708931
 20
6.864470594644978
 30
0.0
 11
9.177827574708931
 21
6.864470594644978
 31
0.0
  0
LINE
  5
88E
330
1F
100
AcDbEntity
  8
1
100
AcDbLine
 10
9.542827574708931
 20
6.926470594644978
 30
0.0
 11
9.542827574708931
 21
6.864470594644978
 31
0.0
  0
LINE
  5
88F
330
1F
100
AcDbEntity
  8
1
100
AcDbLine
 10
9.582827574708932
 20
6.926470594644978
 30
0.0
 11
9.582827574708932
 21
6.864470594644978
 31
0.0
  0
LINE
  5
890
330
1F
100
AcDbEntity
  8
1
100
AcDbLine
 10
8.977827574708932
 20
6.926470594644978
 30
0.0
 11
9.085827574708931
 21
6.926470594644978
 31
0.0
  0
LINE
  5
891
330
1F
100
AcDbEntity
  8
1
100
AcDbLine
 10
8.977827574708932
 20
6.864470594644978
 30
0.0
 11
8.977827574708932
 21
6.926470594644978
 31
0.0
  0
LINE
  5
892
330
1F
100
AcDbEntity
  8
1
100
AcDbLine
 10
9.039827574708931
 20
6.864470594644978
 30
0.0
 11
8.977827574708932
 21
6.864470594644978
 31
0.0
  0
LINE
  5
893
330
1F
100
AcDbEntity
  8
1
100
AcDbLine
 10
9.11582757470893
 20
6.926470594644978
 30
0.0
 11
9.582827574708932
 21
6.926470594644978
 31
0.0
  0
LINE
  5
894
330
1F
100
AcDbEntity
  8
1
100
AcDbLine
 10
10.42582757470893
 20
6.926470594644978
 30
0.0
 11
10.89282757470893
 21
6.926470594644978
 31
0.0
  0
LINE
  5
895
330
1F
100
AcDbEntity
  8
1
100
AcDbLine
 10
10.34982757470893
 20
6.864470594644978
 30
0.0
 11
10.28782757470893
 21
6.864470594644978
 31
0.0
  0
LINE
  5
896
330
1F
100
AcDbEntity
  8
1
100
AcDbLine
 10
10.28782757470893
 20
6.864470594644978
 30
0.0
 11
10.28782757470893
 21
6.926470594644978
 31
0.0
  0
LINE
  5
897
330
1F
100
AcDbEntity
  8
1
100
AcDbLine
 10
10.28782757470893
 20
6.926470594644978
 30
0.0
 11
10.39582757470893
 21
6.926470594644978
 31
0.0
  0
LINE
  5
898
330
1F
100
AcDbEntity
  8
1
100
AcDbLine
 10
10.89282757470893
 20
6.926470594644978
 30
0.0
 11
10.89282757470893
 21
6.864470594644978
 31
0.0
  0
LINE
  5
899
330
1F
100
AcDbEntity
  8
1
100
AcDbLine
 10
10.85282757470893
 20
6.926470594644978
 30
0.0
 11
10.85282757470893
 21
6.864470594644978
 31
0.0
  0
LINE
  5
89A
330
1F
100
AcDbEntity
  8
1
100
AcDbLine
 10
10.85282757470893
 20
6.864470594644978
 30
0.0
 11
10.48782757470893
 21
6.864470594644978
 31
0.0
  0
LINE
  5
89B
330
1F
100
AcDbEntity
  8
1
100
AcDbLine
 10
10.48782757470893
 20
6.864470594644978
 30
0.0
 11
10.42582757470893
 21
6.926470594644978
 31
0.0
  0
LINE
  5
89C
330
1F
100
AcDbEntity
  8
1
100
AcDbLine
 10
10.31282757470893
 20
6.911470594644978
 30
0.0
 11
10.31282757470893
 21
6.883224452207418
 31
0.0
  0
LINE
  5
89D
330
1F
100
AcDbEntity
  8
1
100
AcDbLine
 10
10.41082757470893
 20
6.911470594644978
 30
0.0
 11
10.31282757470893
 21
6.911470594644978
 31
0.0
  0
LINE
  5
89E
330
1F
100
AcDbEntity
  8
1
100
AcDbLine
 10
10.42582757470893
 20
6.926470594644978
 30
0.0
 11
10.41082757470893
 21
6.911470594644978
 31
0.0
  0
LINE
  5
89F
330
1F
100
AcDbEntity
  8
1
100
AcDbLine
 10
11.43082757470893
 20
6.926470594644978
 30
0.0
 11
11.44582757470893
 21
6.911470594644978
 31
0.0
  0
LINE
  5
8A0
330
1F
100
AcDbEntity
  8
1
100
AcDbLine
 10
11.44582757470893
 20
6.911470594644978
 30
0.0
 11
11.54382757470893
 21
6.911470594644978
 31
0.0
  0
LINE
  5
8A1
330
1F
100
AcDbEntity
  8
1
100
AcDbLine
 10
11.54382757470893
 20
6.911470594644978
 30
0.0
 11
11.54382757470893
 21
6.883224452207418
 31
0.0
  0
LINE
  5
8A2
330
1F
100
AcDbEntity
  8
1
100
AcDbLine
 10
11.36882757470893
 20
6.864470594644978
 30
0.0
 11
11.43082757470893
 21
6.926470594644978
 31
0.0
  0
LINE
  5
8A3
330
1F
100
AcDbEntity
  8
1
100
AcDbLine
 10
11.00382757470893
 20
6.864470594644978
 30
0.0
 11
11.36882757470893
 21
6.864470594644978
 31
0.0
  0
LINE
  5
8A4
330
1F
100
AcDbEntity
  8
1
100
AcDbLine
 10
11.00382757470893
 20
6.926470594644978
 30
0.0
 11
11.00382757470893
 21
6.864470594644978
 31
0.0
  0
LINE
  5
8A5
330
1F
100
AcDbEntity
  8
1
100
AcDbLine
 10
10.96382757470893
 20
6.926470594644978
 30
0.0
 11
10.96382757470893
 21
6.864470594644978
 31
0.0
  0
LINE
  5
8A6
330
1F
100
AcDbEntity
  8
1
100
AcDbLine
 10
11.56882757470893
 20
6.926470594644978
 30
0.0
 11
11.46082757470893
 21
6.926470594644978
 31
0.0
  0
LINE
  5
8A7
330
1F
100
AcDbEntity
  8
1
100
AcDbLine
 10
11.56882757470893
 20
6.864470594644978
 30
0.0
 11
11.56882757470893
 21
6.926470594644978
 31
0.0
  0
LINE
  5
8A8
330
1F
100
AcDbEntity
  8
1
100
AcDbLine
 10
11.50682757470893
 20
6.864470594644978
 30
0.0
 11
11.56882757470893
 21
6.864470594644978
 31
0.0
  0
LINE
  5
8A9
330
1F
100
AcDbEntity
  8
1
100
AcDbLine
 10
11.43082757470893
 20
6.926470594644978
 30
0.0
 11
10.96382757470893
 21
6.926470594644978
 31
0.0
  0
LINE
  5
8AA
330
1F
100
AcDbEntity
  8
1
100
AcDbLine
 10
11.43082757470893
 20
3.988970594644978
 30
0.0
 11
10.96382757470893
 21
3.988970594644978
 31
0.0
  0
LINE
  5
8AB
330
1F
100
AcDbEntity
  8
1
100
AcDbLine
 10
11.50682757470893
 20
3.926970594644978
 30
0.0
 11
11.56882757470893
 21
3.926970594644978
 31
0.0
  0
LINE
  5
8AC
330
1F
100
AcDbEntity
  8
1
100
AcDbLine
 10
11.56882757470893
 20
3.926970594644978
 30
0.0
 11
11.56882757470893
 21
3.988970594644978
 31
0.0
  0
LINE
  5
8AD
330
1F
100
AcDbEntity
  8
1
100
AcDbLine
 10
11.56882757470893
 20
3.988970594644978
 30
0.0
 11
11.46082757470893
 21
3.988970594644978
 31
0.0
  0
LINE
  5
8AE
330
1F
100
AcDbEntity
  8
1
100
AcDbLine
 10
10.96382757470893
 20
3.988970594644978
 30
0.0
 11
10.96382757470893
 21
3.926970594644978
 31
0.0
  0
LINE
  5
8AF
330
1F
100
AcDbEntity
  8
1
100
AcDbLine
 10
11.00382757470893
 20
3.988970594644978
 30
0.0
 11
11.00382757470893
 21
3.926970594644978
 31
0.0
  0
LINE
  5
8B0
330
1F
100
AcDbEntity
  8
1
100
AcDbLine
 10
11.00382757470893
 20
3.926970594644978
 30
0.0
 11
11.36882757470893
 21
3.926970594644978
 31
0.0
  0
LINE
  5
8B1
330
1F
100
AcDbEntity
  8
1
100
AcDbLine
 10
11.36882757470893
 20
3.926970594644978
 30
0.0
 11
11.43082757470893
 21
3.988970594644978
 31
0.0
  0
LINE
  5
8B2
330
1F
100
AcDbEntity
  8
1
100
AcDbLine
 10
11.54382757470893
 20
3.973970594644978
 30
0.0
 11
11.54382757470893
 21
3.945724452207418
 31
0.0
  0
LINE
  5
8B3
330
1F
100
AcDbEntity
  8
1
100
AcDbLine
 10
11.44582757470893
 20
3.973970594644978
 30
0.0
 11
11.54382757470893
 21
3.973970594644978
 31
0.0
  0
LINE
  5
8B4
330
1F
100
AcDbEntity
  8
1
100
AcDbLine
 10
11.43082757470893
 20
3.988970594644978
 30
0.0
 11
11.44582757470893
 21
3.973970594644978
 31
0.0
  0
LINE
  5
8B5
330
1F
100
AcDbEntity
  8
1
100
AcDbLine
 10
10.42582757470893
 20
3.988970594644978
 30
0.0
 11
10.41082757470893
 21
3.973970594644978
 31
0.0
  0
LINE
  5
8B6
330
1F
100
AcDbEntity
  8
1
100
AcDbLine
 10
10.41082757470893
 20
3.973970594644978
 30
0.0
 11
10.31282757470893
 21
3.973970594644978
 31
0.0
  0
LINE
  5
8B7
330
1F
100
AcDbEntity
  8
1
100
AcDbLine
 10
10.31282757470893
 20
3.973970594644978
 30
0.0
 11
10.31282757470893
 21
3.945724452207418
 31
0.0
  0
LINE
  5
8B8
330
1F
100
AcDbEntity
  8
1
100
AcDbLine
 10
10.48782757470893
 20
3.926970594644978
 30
0.0
 11
10.42582757470893
 21
3.988970594644978
 31
0.0
  0
LINE
  5
8B9
330
1F
100
AcDbEntity
  8
1
100
AcDbLine
 10
10.85282757470893
 20
3.926970594644978
 30
0.0
 11
10.48782757470893
 21
3.926970594644978
 31
0.0
  0
LINE
  5
8BA
330
1F
100
AcDbEntity
  8
1
100
AcDbLine
 10
10.85282757470893
 20
3.988970594644978
 30
0.0
 11
10.85282757470893
 21
3.926970594644978
 31
0.0
  0
LINE
  5
8BB
330
1F
100
AcDbEntity
  8
1
100
AcDbLine
 10
10.89282757470893
 20
3.988970594644978
 30
0.0
 11
10.89282757470893
 21
3.926970594644978
 31
0.0
  0
LINE
  5
8BC
330
1F
100
AcDbEntity
  8
1
100
AcDbLine
 10
10.28782757470893
 20
3.988970594644978
 30
0.0
 11
10.39582757470893
 21
3.988970594644978
 31
0.0
  0
LINE
  5
8BD
330
1F
100
AcDbEntity
  8
1
100
AcDbLine
 10
10.28782757470893
 20
3.926970594644978
 30
0.0
 11
10.28782757470893
 21
3.988970594644978
 31
0.0
  0
LINE
  5
8BE
330
1F
100
AcDbEntity
  8
1
100
AcDbLine
 10
10.34982757470893
 20
3.926970594644978
 30
0.0
 11
10.28782757470893
 21
3.926970594644978
 31
0.0
  0
LINE
  5
8BF
330
1F
100
AcDbEntity
  8
1
100
AcDbLine
 10
10.42582757470893
 20
3.988970594644978
 30
0.0
 11
10.89282757470893
 21
3.988970594644978
 31
0.0
  0
LINE
  5
8C0
330
1F
100
AcDbEntity
  8
1
100
AcDbLine
 10
9.11582757470893
 20
3.988970594644978
 30
0.0
 11
9.582827574708932
 21
3.988970594644978
 31
0.0
  0
LINE
  5
8C1
330
1F
100
AcDbEntity
  8
1
100
AcDbLine
 10
9.039827574708931
 20
3.926970594644978
 30
0.0
 11
8.977827574708932
 21
3.926970594644978
 31
0.0
  0
LINE
  5
8C2
330
1F
100
AcDbEntity
  8
1
100
AcDbLine
 10
8.977827574708932
 20
3.926970594644978
 30
0.0
 11
8.977827574708932
 21
3.988970594644978
 31
0.0
  0
LINE
  5
8C3
330
1F
100
AcDbEntity
  8
1
100
AcDbLine
 10
8.977827574708932
 20
3.988970594644978
 30
0.0
 11
9.085827574708931
 21
3.988970594644978
 31
0.0
  0
LINE
  5
8C4
330
1F
100
AcDbEntity
  8
1
100
AcDbLine
 10
9.582827574708932
 20
3.988970594644978
 30
0.0
 11
9.582827574708932
 21
3.926970594644978
 31
0.0
  0
LINE
  5
8C5
330
1F
100
AcDbEntity
  8
1
100
AcDbLine
 10
9.542827574708931
 20
3.988970594644978
 30
0.0
 11
9.542827574708931
 21
3.926970594644978
 31
0.0
  0
LINE
  5
8C6
330
1F
100
AcDbEntity
  8
1
100
AcDbLine
 10
9.542827574708931
 20
3.926970594644978
 30
0.0
 11
9.177827574708931
 21
3.926970594644978
 31
0.0
  0
LINE
  5
8C7
330
1F
100
AcDbEntity
  8
1
100
AcDbLine
 10
9.177827574708931
 20
3.926970594644978
 30
0.0
 11
9.11582757470893
 21
3.988970594644978
 31
0.0
  0
LINE
  5
8C8
330
1F
100
AcDbEntity
  8
1
100
AcDbLine
 10
9.002827574708931
 20
3.973970594644978
 30
0.0
 11
9.002827574708931
 21
3.945724452207418
 31
0.0
  0
LINE
  5
8C9
330
1F
100
AcDbEntity
  8
1
100
AcDbLine
 10
9.100827574708931
 20
3.973970594644978
 30
0.0
 11
9.002827574708931
 21
3.973970594644978
 31
0.0
  0
LINE
  5
8CA
330
1F
100
AcDbEntity
  8
1
100
AcDbLine
 10
9.11582757470893
 20
3.988970594644978
 30
0.0
 11
9.100827574708931
 21
3.973970594644978
 31
0.0
  0
LINE
  5
8CB
330
1F
100
AcDbEntity
  8
1
100
AcDbLine
 10
9.662327574708932
 20
4.301470594644978
 30
0.0
 11
9.850327574708931
 21
4.489470594644978
 31
0.0
  0
LINE
  5
8CC
330
1F
100
AcDbEntity
  8
1
100
AcDbLine
 10
9.662327574708932
 20
4.176470594644978
 30
0.0
 11
9.850327574708931
 21
4.364470594644978
 31
0.0
  0
LINE
  5
8CD
330
1F
100
AcDbEntity
  8
4
100
AcDbLine
 10
8.977327574708933
 20
3.364470594644978
 30
0.0
 11
8.977327574708933
 21
3.552470594644978
 31
0.0
  0
LINE
  5
8CE
330
1F
100
AcDbEntity
  8
4
100
AcDbLine
 10
9.602327574708933
 20
3.364470594644978
 30
0.0
 11
9.602327574708933
 21
3.552470594644978
 31
0.0
  0
LINE
  5
8CF
330
1F
100
AcDbEntity
  8
4
100
AcDbLine
 10
9.662327574708932
 20
3.364470594644978
 30
0.0
 11
9.662327574708932
 21
3.552470594644978
 31
0.0
  0
LINE
  5
8D0
330
1F
100
AcDbEntity
  8
4
100
AcDbLine
 10
10.28732757470893
 20
3.364470594644978
 30
0.0
 11
10.28732757470893
 21
3.552470594644978
 31
0.0
  0
LINE
  5
8D1
330
1F
100
AcDbEntity
  8
4
100
AcDbLine
 10
11.53732757470893
 20
3.364470594644978
 30
0.0
 11
11.53732757470893
 21
3.552470594644978
 31
0.0
  0
LINE
  5
8D3
330
1F
100
AcDbEntity
  8
1
100
AcDbLine
 10
10.94432757470893
 20
3.926470594644978
 30
0.0
 11
10.94432757470893
 21
6.926470594644978
 31
0.0
  0
LINE
  5
8D7
330
1F
100
AcDbEntity
  8
4
100
AcDbLine
 10
10.64282757470893
 20
4.968476473202109
 30
0.0
 11
10.64282757470893
 21
4.786656325136441
 31
0.0
  0
ARC
  5
8D8
330
1F
100
AcDbEntity
  8
4
100
AcDbCircle
 10
10.8392139782672
 20
4.811516778634763
 30
0.0
 40
0.025
100
AcDbArc
 50
180.0
 51
0.0
  0
LINE
  5
8D9
330
1F
100
AcDbEntity
  8
4
100
AcDbLine
 10
10.86420411270073
 20
4.811516778634763
 30
0.0
 11
10.86420411270073
 21
4.968476473202109
 31
0.0
  0
LINE
  5
8DA
330
1F
100
AcDbEntity
  8
4
100
AcDbLine
 10
10.98953621082826
 20
4.811516778634763
 30
0.0
 11
10.98953621082826
 21
4.968476473202109
 31
0.0
  0
ARC
  5
8DB
330
1F
100
AcDbEntity
  8
4
100
AcDbCircle
 10
11.01452634526179
 20
4.811516778634763
 30
0.0
 40
0.025
100
AcDbArc
 50
180.0
 51
360.0
  0
LINE
  5
8DC
330
1F
100
AcDbEntity
  8
4
100
AcDbLine
 10
11.21091274882006
 20
4.968476473202109
 30
0.0
 11
11.21091274882006
 21
4.786656325136441
 31
0.0
  0
LINE
  5
8DD
330
1F
100
AcDbEntity
  8
4
100
AcDbLine
 10
11.21091274882006
 20
5.947476473202109
 30
0.0
 11
11.21091274882006
 21
5.765656325136441
 31
0.0
  0
ARC
  5
8DE
330
1F
100
AcDbEntity
  8
4
100
AcDbCircle
 10
11.01452634526179
 20
5.790516778634763
 30
0.0
 40
0.025
100
AcDbArc
 50
180.0
 51
360.0
  0
LINE
  5
8DF
330
1F
100
AcDbEntity
  8
4
100
AcDbLine
 10
10.98953621082826
 20
5.790516778634763
 30
0.0
 11
10.98953621082826
 21
5.947476473202109
 31
0.0
  0
LINE
  5
8E0
330
1F
100
AcDbEntity
  8
4
100
AcDbLine
 10
10.98953621082826
 20
6.769510900077632
 30
0.0
 11
10.98953621082826
 21
6.926470594644978
 31
0.0
  0
ARC
  5
8E1
330
1F
100
AcDbEntity
  8
4
100
AcDbCircle
 10
11.01452634526179
 20
6.769510900077632
 30
0.0
 40
0.025
100
AcDbArc
 50
180.0
 51
360.0
  0
LINE
  5
8E2
330
1F
100
AcDbEntity
  8
4
100
AcDbLine
 10
11.21091274882006
 20
6.926470594644978
 30
0.0
 11
11.21091274882006
 21
6.74465044657931
 31
0.0
  0
ENDSEC
  0
SECTION
  2
OBJECTS
  0
DICTIONARY
  5
C
330
0
100
AcDbDictionary
281
     1
  3
ACAD_COLOR
350
59A
  3
ACAD_GROUP
350
D
  3
ACAD_LAYOUT
350
1A
  3
ACAD_MATERIAL
350
599
  3
ACAD_MLINESTYLE
350
17
  3
ACAD_PLOTSETTINGS
350
19
  3
ACAD_PLOTSTYLENAME
350
E
  3
ACDBHEADERROUNDTRIPXREC
350
909
  3
AcDbVariableDictionary
350
905
  0
DICTIONARY
  5
7DC
330
2
100
AcDbDictionary
280
     1
281
     1
  3
ACAD_LAYERSTATES
360
7DD
  0
DICTIONARY
  5
59A
102
{ACAD_REACTORS
330
C
102
}
330
C
100
AcDbDictionary
281
     1
  0
DICTIONARY
  5
D
102
{ACAD_REACTORS
330
C
102
}
330
C
100
AcDbDictionary
281
     1
  0
DICTIONARY
  5
1A
102
{ACAD_REACTORS
330
C
102
}
330
C
100
AcDbDictionary
281
     1
  3
Layout1
350
1E
  3
Layout2
350
26
  3
Model
350
22
  0
DICTIONARY
  5
599
102
{ACAD_REACTORS
330
C
102
}
330
C
100
AcDbDictionary
281
     1
  0
DICTIONARY
  5
17
102
{ACAD_REACTORS
330
C
102
}
330
C
100
AcDbDictionary
281
     1
  3
Standard
350
18
  0
DICTIONARY
  5
19
102
{ACAD_REACTORS
330
C
102
}
330
C
100
AcDbDictionary
281
     1
  0
ACDBDICTIONARYWDFLT
  5
E
102
{ACAD_REACTORS
330
C
102
}
330
C
100
AcDbDictionary
281
     1
  3
Normal
350
F
100
AcDbDictionaryWithDefault
340
F
  0
DICTIONARY
  5
909
102
{ACAD_REACTORS
330
C
102
}
330
C
100
AcDbDictionary
281
     1
  3
COLORDICT
350
90B
  3
MATERIALDICT
350
90A
  0
DICTIONARY
  5
905
102
{ACAD_REACTORS
330
C
102
}
330
C
100
AcDbDictionary
281
     1
  3
DIMASSOC
350
906
  3
PROJECTNAME
350
907
  0
DICTIONARY
  5
7DD
102
{ACAD_REACTORS
330
7DC
102
}
330
7DC
100
AcDbDictionary
281
     1
  0
LAYOUT
  5
1E
102
{ACAD_XDICTIONARY
360
90C
102
}
102
{ACAD_REACTORS
330
1A
102
}
330
1A
100
AcDbPlotSettings
  1

  2
Lexmark 2050 ColorFine 2
  4

  6

 40
0.0
 41
0.0
 42
0.0
 43
0.0
 44
0.0
 45
0.0
 46
0.0
 47
0.0
 48
0.0
 49
0.0
140
0.0
141
0.0
142
1.0
143
1.0
 70
   688
 72
     0
 73
     0
 74
     5
  7
monochrome.ctb
 75
    16
147
1.0
148
0.0
149
0.0
100
AcDbLayout
  1
Layout1
 70
     1
 71
     1
 10
0.0
 20
0.0
 11
12.0
 21
9.0
 12
0.0
 22
0.0
 32
0.0
 14
1.000000000000000E+20
 24
1.000000000000000E+20
 34
1.000000000000000E+20
 15
-1.000000000000000E+20
 25
-1.000000000000000E+20
 35
-1.000000000000000E+20
146
0.0
 13
0.0
 23
0.0
 33
0.0
 16
1.0
 26
0.0
 36
0.0
 17
0.0
 27
1.0
 37
0.0
 76
     0
330
1B
  0
LAYOUT
  5
26
102
{ACAD_XDICTIONARY
360
910
102
}
102
{ACAD_REACTORS
330
1A
102
}
330
1A
100
AcDbPlotSettings
  1

  2
Lexmark 2050 ColorFine 2
  4

  6

 40
0.0
 41
0.0
 42
0.0
 43
0.0
 44
0.0
 45
0.0
 46
0.0
 47
0.0
 48
0.0
 49
0.0
140
0.0
141
0.0
142
1.0
143
1.0
 70
   688
 72
     0
 73
     0
 74
     5
  7
monochrome.ctb
 75
    16
147
1.0
148
0.0
149
0.0
100
AcDbLayout
  1
Layout2
 70
     1
 71
     2
 10
0.0
 20
0.0
 11
12.0
 21
9.0
 12
0.0
 22
0.0
 32
0.0
 14
0.0
 24
0.0
 34
0.0
 15
0.0
 25
0.0
 35
0.0
146
0.0
 13
0.0
 23
0.0
 33
0.0
 16
1.0
 26
0.0
 36
0.0
 17
0.0
 27
1.0
 37
0.0
 76
     0
330
23
  0
LAYOUT
  5
22
102
{ACAD_XDICTIONARY
360
90E
102
}
102
{ACAD_REACTORS
330
1A
102
}
330
1A
100
AcDbPlotSettings
  1

  2
none_device
  4
Letter_(8.50_x_11.00_Inches)
  6

 40
6.349999904632568
 41
6.349999904632568
 42
6.350006103515625
 43
6.350006103515625
 44
215.8999938964844
 45
279.3999938964844
 46
0.0
 47
0.0
 48
0.0
 49
0.0
140
0.0
141
0.0
142
1.0
143
1.0
 70
 11952
 72
     0
 73
     1
 74
     0
  7
monochrome.ctb
 75
     0
147
1.0
148
-136.7599895589673
149
-60.92561720446984
100
AcDbLayout
  1
Model
 70
     1
 71
     0
 10
0.0
 20
0.0
 11
12.0
 21
9.0
 12
0.0
 22
0.0
 32
0.0
 14
0.0
 24
0.0
 34
0.0
 15
0.0
 25
0.0
 35
0.0
146
0.0
 13
0.0
 23
0.0
 33
0.0
 16
1.0
 26
0.0
 36
0.0
 17
0.0
 27
1.0
 37
0.0
 76
     0
330
1F
  0
MLINESTYLE
  5
18
102
{ACAD_REACTORS
330
17
102
}
330
17
100
AcDbMlineStyle
  2
STANDARD
 70
     0
  3

 62
   256
 51
90.0
 52
90.0
 71
     2
 49
0.5
 62
   256
  6
BYLAYER
 49
-0.5
 62
   256
  6
BYLAYER
  0
ACDBPLACEHOLDER
  5
F
102
{ACAD_REACTORS
330
E
102
}
330
E
  0
XRECORD
  5
90B
102
{ACAD_REACTORS
330
909
102
}
330
909
100
AcDbXrecord
280
     1
340
59A
  0
XRECORD
  5
90A
102
{ACAD_REACTORS
330
909
102
}
330
909
100
AcDbXrecord
280
     1
340
599
  0
DICTIONARYVAR
  5
906
102
{ACAD_REACTORS
330
905
102
}
330
905
100
DictionaryVariables
280
     0
  1
1
  0
DICTIONARYVAR
  5
907
102
{ACAD_REACTORS
330
905
102
}
330
905
100
DictionaryVariables
280
     0
  1

  0
DICTIONARY
  5
90C
330
1E
100
AcDbDictionary
280
     1
281
     1
  3
ACAD_XREC_ROUNDTRIP
360
90D
  0
DICTIONARY
  5
910
330
26
100
AcDbDictionary
280
     1
281
     1
  3
ACAD_XREC_ROUNDTRIP
360
911
  0
DICTIONARY
  5
90E
330
22
100
AcDbDictionary
280
     1
281
     1
  3
ACAD_XREC_ROUNDTRIP
360
90F
  0
XRECORD
  5
90D
102
{ACAD_REACTORS
330
90C
102
}
330
90C
100
AcDbXrecord
280
     1
102
SHADEPLOT
 70
     0
102
SHADEPLOTRESLEVEL
 70
     2
102
SHADEPLOTCUSTOMDPI
 70
   300
  0
XRECORD
  5
911
102
{ACAD_REACTORS
330
910
102
}
330
910
100
AcDbXrecord
280
     1
102
SHADEPLOT
 70
     0
102
SHADEPLOTRESLEVEL
 70
     2
102
SHADEPLOTCUSTOMDPI
 70
   300
  0
XRECORD
  5
90F
102
{ACAD_REACTORS
330
90E
102
}
330
90E
100
AcDbXrecord
280
     1
102
SHADEPLOT
 70
     0
102
SHADEPLOTRESLEVEL
 70
     2
102
SHADEPLOTCUSTOMDPI
 70
   300
  0
ENDSEC
  0
EOF
