  0
SECTION
  2
HEADER
  9
$ACADVER
  1
AC1015
  9
$ACADMAINTVER
 70
    20
  9
$DWGCODEPAGE
  3
ANSI_1252
  9
$INSBASE
 10
0.0
 20
0.0
 30
0.0
  9
$EXTMIN
 10
8.119087543296821
 20
3.830441458580885
 30
-0.0000000000000058
  9
$EXTMAX
 10
16.37106597957106
 20
9.081484325832544
 30
0.0000000000000104
  9
$LIMMIN
 10
0.0
 20
0.0
  9
$LIMMAX
 10
12.0
 20
9.0
  9
$ORTHOMODE
 70
     1
  9
$REGENMODE
 70
     1
  9
$FILLMODE
 70
     1
  9
$QTEXTMODE
 70
     0
  9
$MIRRTEXT
 70
     1
  9
$LTSCALE
 40
1.0
  9
$ATTMODE
 70
     1
  9
$TEXTSIZE
 40
0.2
  9
$TRACEWID
 40
0.05
  9
$TEXTSTYLE
  7
Standard
  9
$CLAYER
  8
0
  9
$CELTYPE
  6
ByLayer
  9
$CECOLOR
 62
   256
  9
$CELTSCALE
 40
1.0
  9
$DISPSILH
 70
     0
  9
$DIMSCALE
 40
1.0
  9
$DIMASZ
 40
0.18
  9
$DIMEXO
 40
0.0625
  9
$DIMDLI
 40
0.38
  9
$DIMRND
 40
0.0
  9
$DIMDLE
 40
0.0
  9
$DIMEXE
 40
0.18
  9
$DIMTP
 40
0.0
  9
$DIMTM
 40
0.0
  9
$DIMTXT
 40
0.18
  9
$DIMCEN
 40
0.09
  9
$DIMTSZ
 40
0.0
  9
$DIMTOL
 70
     0
  9
$DIMLIM
 70
     0
  9
$DIMTIH
 70
     1
  9
$DIMTOH
 70
     1
  9
$DIMSE1
 70
     0
  9
$DIMSE2
 70
     0
  9
$DIMTAD
 70
     0
  9
$DIMZIN
 70
     0
  9
$DIMBLK
  1

  9
$DIMASO
 70
     1
  9
$DIMSHO
 70
     1
  9
$DIMPOST
  1

  9
$DIMAPOST
  1

  9
$DIMALT
 70
     0
  9
$DIMALTD
 70
     2
  9
$DIMALTF
 40
25.4
  9
$DIMLFAC
 40
1.0
  9
$DIMTOFL
 70
     0
  9
$DIMTVP
 40
0.0
  9
$DIMTIX
 70
     0
  9
$DIMSOXD
 70
     0
  9
$DIMSAH
 70
     0
  9
$DIMBLK1
  1

  9
$DIMBLK2
  1

  9
$DIMSTYLE
  2
Standard
  9
$DIMCLRD
 70
     0
  9
$DIMCLRE
 70
     0
  9
$DIMCLRT
 70
     0
  9
$DIMTFAC
 40
1.0
  9
$DIMGAP
 40
0.09
  9
$DIMJUST
 70
     0
  9
$DIMSD1
 70
     0
  9
$DIMSD2
 70
     0
  9
$DIMTOLJ
 70
     1
  9
$DIMTZIN
 70
     0
  9
$DIMALTZ
 70
     0
  9
$DIMALTTZ
 70
     0
  9
$DIMUPT
 70
     0
  9
$DIMDEC
 70
     4
  9
$DIMTDEC
 70
     4
  9
$DIMALTU
 70
     2
  9
$DIMALTTD
 70
     2
  9
$DIMTXSTY
  7
Standard
  9
$DIMAUNIT
 70
     0
  9
$DIMADEC
 70
     0
  9
$DIMALTRND
 40
0.0
  9
$DIMAZIN
 70
     0
  9
$DIMDSEP
 70
    46
  9
$DIMATFIT
 70
     3
  9
$DIMFRAC
 70
     0
  9
$DIMLDRBLK
  1

  9
$DIMLUNIT
 70
     2
  9
$DIMLWD
 70
    -2
  9
$DIMLWE
 70
    -2
  9
$DIMTMOVE
 70
     0
  9
$LUNITS
 70
     2
  9
$LUPREC
 70
     4
  9
$SKETCHINC
 40
0.1
  9
$FILLETRAD
 40
0.5
  9
$AUNITS
 70
     0
  9
$AUPREC
 70
     0
  9
$MENU
  1
.
  9
$ELEVATION
 40
0.0
  9
$PELEVATION
 40
0.0
  9
$THICKNESS
 40
0.0
  9
$LIMCHECK
 70
     0
  9
$CHAMFERA
 40
0.5
  9
$CHAMFERB
 40
0.5
  9
$CHAMFERC
 40
1.0
  9
$CHAMFERD
 40
0.0
  9
$SKPOLY
 70
     0
  9
$TDCREATE
 40
2452996.337606875
  9
$TDUCREATE
 40
2452996.545940208
  9
$TDUPDATE
 40
2454728.601259757
  9
$TDUUPDATE
 40
2454728.809593091
  9
$TDINDWG
 40
0.2906503125
  9
$TDUSRTIMER
 40
0.2906503125
  9
$USRTIMER
 70
     1
  9
$ANGBASE
 50
0.0
  9
$ANGDIR
 70
     0
  9
$PDMODE
 70
     0
  9
$PDSIZE
 40
0.0
  9
$PLINEWID
 40
0.0
  9
$SPLFRAME
 70
     0
  9
$SPLINETYPE
 70
     6
  9
$SPLINESEGS
 70
     8
  9
$HANDSEED
  5
616
  9
$SURFTAB1
 70
     6
  9
$SURFTAB2
 70
     6
  9
$SURFTYPE
 70
     6
  9
$SURFU
 70
     6
  9
$SURFV
 70
     6
  9
$UCSBASE
  2

  9
$UCSNAME
  2

  9
$UCSORG
 10
0.0
 20
0.0
 30
0.0
  9
$UCSXDIR
 10
1.0
 20
0.0
 30
0.0
  9
$UCSYDIR
 10
0.0
 20
1.0
 30
0.0
  9
$UCSORTHOREF
  2

  9
$UCSORTHOVIEW
 70
     0
  9
$UCSORGTOP
 10
0.0
 20
0.0
 30
0.0
  9
$UCSORGBOTTOM
 10
0.0
 20
0.0
 30
0.0
  9
$UCSORGLEFT
 10
0.0
 20
0.0
 30
0.0
  9
$UCSORGRIGHT
 10
0.0
 20
0.0
 30
0.0
  9
$UCSORGFRONT
 10
0.0
 20
0.0
 30
0.0
  9
$UCSORGBACK
 10
0.0
 20
0.0
 30
0.0
  9
$PUCSBASE
  2

  9
$PUCSNAME
  2

  9
$PUCSORG
 10
0.0
 20
0.0
 30
0.0
  9
$PUCSXDIR
 10
1.0
 20
0.0
 30
0.0
  9
$PUCSYDIR
 10
0.0
 20
1.0
 30
0.0
  9
$PUCSORTHOREF
  2

  9
$PUCSORTHOVIEW
 70
     0
  9
$PUCSORGTOP
 10
0.0
 20
0.0
 30
0.0
  9
$PUCSORGBOTTOM
 10
0.0
 20
0.0
 30
0.0
  9
$PUCSORGLEFT
 10
0.0
 20
0.0
 30
0.0
  9
$PUCSORGRIGHT
 10
0.0
 20
0.0
 30
0.0
  9
$PUCSORGFRONT
 10
0.0
 20
0.0
 30
0.0
  9
$PUCSORGBACK
 10
0.0
 20
0.0
 30
0.0
  9
$USERI1
 70
     0
  9
$USERI2
 70
     0
  9
$USERI3
 70
     0
  9
$USERI4
 70
     0
  9
$USERI5
 70
     0
  9
$USERR1
 40
0.0
  9
$USERR2
 40
0.0
  9
$USERR3
 40
0.0
  9
$USERR4
 40
0.0
  9
$USERR5
 40
0.0
  9
$WORLDVIEW
 70
     1
  9
$SHADEDGE
 70
     3
  9
$SHADEDIF
 70
    70
  9
$TILEMODE
 70
     1
  9
$MAXACTVP
 70
    64
  9
$PINSBASE
 10
0.0
 20
0.0
 30
0.0
  9
$PLIMCHECK
 70
     0
  9
$PEXTMIN
 10
1.000000000000000E+20
 20
1.000000000000000E+20
 30
1.000000000000000E+20
  9
$PEXTMAX
 10
-1.000000000000000E+20
 20
-1.000000000000000E+20
 30
-1.000000000000000E+20
  9
$PLIMMIN
 10
-0.2500002402958907
 20
-0.2499999962453767
  9
$PLIMMAX
 10
10.74999951940821
 20
8.249999763458731
  9
$UNITMODE
 70
     0
  9
$VISRETAIN
 70
     1
  9
$PLINEGEN
 70
     0
  9
$PSLTSCALE
 70
     1
  9
$TREEDEPTH
 70
  3020
  9
$CMLSTYLE
  2
Standard
  9
$CMLJUST
 70
     0
  9
$CMLSCALE
 40
1.0
  9
$PROXYGRAPHICS
 70
     1
  9
$MEASUREMENT
 70
     0
  9
$CELWEIGHT
370
    -1
  9
$ENDCAPS
280
     0
  9
$JOINSTYLE
280
     0
  9
$LWDISPLAY
290
     0
  9
$INSUNITS
 70
     1
  9
$HYPERLINKBASE
  1

  9
$STYLESHEET
  1
monochrome.ctb
  9
$XEDIT
290
     1
  9
$CEPSNTYPE
380
     0
  9
$PSTYLEMODE
290
     1
  9
$FINGERPRINTGUID
  2
{35BD88C0-9548-11D2-9A29-0060089B3A3F}
  9
$VERSIONGUID
  2
{8786B0CC-83BF-489A-AF18-611DA4058630}
  9
$EXTNAMES
290
     1
  9
$PSVPSCALE
 40
0.0
  9
$OLESTARTUP
290
     0
  0
ENDSEC
  0
SECTION
  2
CLASSES
  0
CLASS
  1
ACDBDICTIONARYWDFLT
  2
AcDbDictionaryWithDefault
  3
ObjectDBX Classes
 90
        0
280
     0
281
     0
  0
CLASS
  1
ACDBPLACEHOLDER
  2
AcDbPlaceHolder
  3
ObjectDBX Classes
 90
        0
280
     0
281
     0
  0
CLASS
  1
LAYOUT
  2
AcDbLayout
  3
ObjectDBX Classes
 90
        0
280
     0
281
     0
  0
CLASS
  1
DICTIONARYVAR
  2
AcDbDictionaryVar
  3
ObjectDBX Classes
 90
        0
280
     0
281
     0
  0
CLASS
  1
MATERIAL
  2
AcDbMaterial
  3
ObjectDBX Classes
 90
        0
280
     0
281
     0
  0
CLASS
  1
VISUALSTYLE
  2
AcDbVisualStyle
  3
ObjectDBX Classes
 90
     4095
280
     0
281
     0
  0
CLASS
  1
TABLESTYLE
  2
AcDbTableStyle
  3
ObjectDBX Classes
 90
     4095
280
     0
281
     0
  0
ENDSEC
  0
SECTION
  2
TABLES
  0
TABLE
  2
VPORT
  5
8
102
{ACAD_XDICTIONARY
360
5EF
102
}
330
0
100
AcDbSymbolTable
 70
     2
  0
VPORT
  5
60D
330
8
100
AcDbSymbolTableRecord
100
AcDbViewportTableRecord
  2
*Active
 70
     0
 10
0.0
 20
0.0
 11
1.0
 21
1.0
 12
12.24507676143394
 22
6.455962892206715
 13
0.0
 23
0.0
 14
0.5
 24
0.5
 15
0.5
 25
0.5
 16
0.0
 26
0.0
 36
1.0
 17
0.0
 27
0.0
 37
0.0
 40
5.546026927185468
 41
1.495145631067961
 42
50.0
 43
0.0
 44
0.0
 50
0.0
 51
0.0
 71
     0
 72
   100
 73
     1
 74
     3
 75
     0
 76
     0
 77
     0
 78
     0
281
     0
 65
     1
110
0.0
120
0.0
130
0.0
111
1.0
121
0.0
131
0.0
112
0.0
122
1.0
132
0.0
 79
     0
146
0.0
  0
ENDTAB
  0
TABLE
  2
LTYPE
  5
5
330
0
100
AcDbSymbolTable
 70
     2
  0
LTYPE
  5
14
330
5
100
AcDbSymbolTableRecord
100
AcDbLinetypeTableRecord
  2
ByBlock
 70
     0
  3

 72
    65
 73
     0
 40
0.0
  0
LTYPE
  5
15
330
5
100
AcDbSymbolTableRecord
100
AcDbLinetypeTableRecord
  2
ByLayer
 70
     0
  3

 72
    65
 73
     0
 40
0.0
  0
LTYPE
  5
16
330
5
100
AcDbSymbolTableRecord
100
AcDbLinetypeTableRecord
  2
Continuous
 70
     0
  3
Solid line
 72
    65
 73
     0
 40
0.0
  0
LTYPE
  5
1DF
330
5
100
AcDbSymbolTableRecord
100
AcDbLinetypeTableRecord
  2
HIDDEN
 70
     0
  3
_ _ _ _ _ _ _ _ _ _ _ _ _ _ _ _ _ _ _ _ _ _ _
 72
    65
 73
     2
 40
0.375
 49
0.25
 74
     0
 49
-0.125
 74
     0
  0
ENDTAB
  0
TABLE
  2
LAYER
  5
2
330
0
100
AcDbSymbolTable
 70
     5
  0
LAYER
  5
10
102
{ACAD_XDICTIONARY
360
5F1
102
}
330
2
100
AcDbSymbolTableRecord
100
AcDbLayerTableRecord
  2
0
 70
     0
 62
     7
  6
Continuous
370
    -3
390
F
  0
LAYER
  5
65
102
{ACAD_XDICTIONARY
360
5F5
102
}
330
2
100
AcDbSymbolTableRecord
100
AcDbLayerTableRecord
  2
1
 70
     0
 62
     1
  6
Continuous
370
    -3
390
F
  0
LAYER
  5
66
102
{ACAD_XDICTIONARY
360
5F7
102
}
330
2
100
AcDbSymbolTableRecord
100
AcDbLayerTableRecord
  2
4
 70
     0
 62
     4
  6
Continuous
370
    -3
390
F
  0
LAYER
  5
67
102
{ACAD_XDICTIONARY
360
5F9
102
}
330
2
100
AcDbSymbolTableRecord
100
AcDbLayerTableRecord
  2
8
 70
     0
 62
     2
  6
Continuous
370
    -3
390
F
  0
LAYER
  5
1E0
102
{ACAD_XDICTIONARY
360
5FB
102
}
330
2
100
AcDbSymbolTableRecord
100
AcDbLayerTableRecord
  2
2
 70
     0
 62
     2
  6
HIDDEN
370
    -3
390
F
  0
ENDTAB
  0
TABLE
  2
STYLE
  5
3
330
0
100
AcDbSymbolTable
 70
     2
  0
STYLE
  5
11
330
3
100
AcDbSymbolTableRecord
100
AcDbTextStyleTableRecord
  2
Standard
 70
     0
 40
0.0
 41
1.0
 50
0.0
 71
     0
 42
0.2
  3
txt
  4

  0
STYLE
  5
68
330
3
100
AcDbSymbolTableRecord
100
AcDbTextStyleTableRecord
  2
ROMANS
 70
     0
 40
0.0
 41
1.0
 50
0.0
 71
     0
 42
0.07
  3
ROMANS
  4

  0
ENDTAB
  0
TABLE
  2
VIEW
  5
6
330
0
100
AcDbSymbolTable
 70
     0
  0
ENDTAB
  0
TABLE
  2
UCS
  5
7
330
0
100
AcDbSymbolTable
 70
     0
  0
ENDTAB
  0
TABLE
  2
APPID
  5
9
330
0
100
AcDbSymbolTable
 70
     2
  0
APPID
  5
12
330
9
100
AcDbSymbolTableRecord
100
AcDbRegAppTableRecord
  2
ACAD
 70
     0
  0
APPID
  5
5B6
330
9
100
AcDbSymbolTableRecord
100
AcDbRegAppTableRecord
  2
ACAD_PSEXT
 70
     0
  0
ENDTAB
  0
TABLE
  2
DIMSTYLE
  5
A
330
0
100
AcDbSymbolTable
 70
     1
100
AcDbDimStyleTable
 71
     1
340
27
  0
DIMSTYLE
105
27
330
A
100
AcDbSymbolTableRecord
100
AcDbDimStyleTableRecord
  2
Standard
 70
     0
340
11
  0
ENDTAB
  0
TABLE
  2
BLOCK_RECORD
  5
1
330
0
100
AcDbSymbolTable
 70
    10
  0
BLOCK_RECORD
  5
1F
330
1
100
AcDbSymbolTableRecord
100
AcDbBlockTableRecord
  2
*Model_Space
340
22
  0
BLOCK_RECORD
  5
1B
330
1
100
AcDbSymbolTableRecord
100
AcDbBlockTableRecord
  2
*Paper_Space
340
1E
  0
BLOCK_RECORD
  5
5D
330
1
100
AcDbSymbolTableRecord
100
AcDbBlockTableRecord
  2
ARRO
340
0
102
{BLKREFS
331
71
331
B9
331
BA
331
BE
331
BF
331
C3
331
C4
331
C5
331
C6
331
C7
331
1E5
331
2BB
331
472
331
4BA
331
4BB
331
4BF
331
4C0
331
4C4
331
4C5
331
4C6
331
4C7
331
4C8
102
}
  0
BLOCK_RECORD
  5
69
330
1
100
AcDbSymbolTableRecord
100
AcDbBlockTableRecord
  2
LE1005
340
0
  0
BLOCK_RECORD
  5
130
330
1
100
AcDbSymbolTableRecord
100
AcDbBlockTableRecord
  2
TEMP4
340
0
102
{BLKREFS
331
1E4
331
2BA
102
}
  0
BLOCK_RECORD
  5
134
330
1
100
AcDbSymbolTableRecord
100
AcDbBlockTableRecord
  2
G1
340
0
102
{BLKREFS
331
1E2
331
2B8
102
}
  0
BLOCK_RECORD
  5
138
330
1
100
AcDbSymbolTableRecord
100
AcDbBlockTableRecord
  2
G2
340
0
102
{BLKREFS
331
175
102
}
  0
BLOCK_RECORD
  5
15F
330
1
100
AcDbSymbolTableRecord
100
AcDbBlockTableRecord
  2
G3
340
0
102
{BLKREFS
331
1A9
331
1AA
331
1AB
331
1AC
331
1AD
331
1AE
331
1AF
331
1B0
331
1B1
331
1B2
331
1B3
331
1B4
331
397
331
39E
331
3DF
331
3E6
331
427
331
42E
102
}
  0
BLOCK_RECORD
  5
172
330
1
100
AcDbSymbolTableRecord
100
AcDbBlockTableRecord
  2
TEMP1
340
0
102
{BLKREFS
331
299
331
29A
331
29B
331
29C
331
29D
331
29E
331
29F
331
2A0
331
2A1
331
36F
331
370
331
371
331
372
331
373
331
374
331
375
331
376
331
377
102
}
  0
BLOCK_RECORD
  5
189
330
1
100
AcDbSymbolTableRecord
100
AcDbBlockTableRecord
  2
TEMP2
340
0
102
{BLKREFS
331
2A2
331
2A3
331
2A4
331
2A5
331
2A6
331
2A7
331
2A8
331
2A9
331
378
331
379
331
37A
331
37B
331
37C
331
37D
331
37E
331
37F
102
}
  0
BLOCK_RECORD
  5
194
330
1
100
AcDbSymbolTableRecord
100
AcDbBlockTableRecord
  2
TEMP3
340
0
102
{BLKREFS
331
2AA
331
2AB
331
2AC
102
}
  0
BLOCK_RECORD
  5
1E1
330
1
100
AcDbSymbolTableRecord
100
AcDbBlockTableRecord
  2
LE1046
340
0
  0
ENDTAB
  0
ENDSEC
  0
SECTION
  2
BLOCKS
  0
BLOCK
  5
20
330
1F
100
AcDbEntity
  8
0
100
AcDbBlockBegin
  2
*Model_Space
 70
     0
 10
0.0
 20
0.0
 30
0.0
  3
*Model_Space
  1

  0
ENDBLK
  5
21
330
1F
100
AcDbEntity
  8
0
100
AcDbBlockEnd
  0
BLOCK
  5
1C
330
1B
100
AcDbEntity
 67
     1
  8
0
100
AcDbBlockBegin
  2
*Paper_Space
 70
     0
 10
0.0
 20
0.0
 30
0.0
  3
*Paper_Space
  1

  0
ENDBLK
  5
1D
330
1B
100
AcDbEntity
 67
     1
  8
0
100
AcDbBlockEnd
  0
BLOCK
  5
63
330
5D
100
AcDbEntity
  8
8
100
AcDbBlockBegin
  2
ARRO
 70
     0
 10
0.0
 20
0.0
 30
0.0
  3
ARRO
  1

  0
LINE
  5
5E
330
5D
100
AcDbEntity
  8
4
100
AcDbLine
 10
0.1250000000000018
 20
0.0199999999999996
 30
0.0
 11
0.1250000000000018
 21
-0.0200000000000005
 31
0.0
  0
LINE
  5
5F
330
5D
100
AcDbEntity
  8
4
100
AcDbLine
 10
0.1250000000000018
 20
-0.0100000000000007
 30
0.0
 11
0.0000000000000009
 21
0.0
 31
0.0
  0
LINE
  5
60
330
5D
100
AcDbEntity
  8
4
100
AcDbLine
 10
0.1250000000000018
 20
0.0099999999999989
 30
0.0
 11
0.0000000000000018
 21
0.0
 31
0.0
  0
LINE
  5
61
330
5D
100
AcDbEntity
  8
4
100
AcDbLine
 10
0.0000000000000018
 20
0.0
 30
0.0
 11
0.1250000000000018
 21
-0.0200000000000005
 31
0.0
  0
LINE
  5
62
330
5D
100
AcDbEntity
  8
4
100
AcDbLine
 10
0.1250000000000018
 20
0.0199999999999996
 30
0.0
 11
0.0000000000000018
 21
0.0
 31
0.0
  0
ENDBLK
  5
64
330
5D
100
AcDbEntity
  8
8
100
AcDbBlockEnd
  0
BLOCK
  5
12C
330
69
100
AcDbEntity
  8
0
100
AcDbBlockBegin
  2
LE1005
 70
     0
 10
0.0
 20
0.0
 30
0.0
  3
LE1005
  1

  0
TEXT
  5
6A
330
69
100
AcDbEntity
  8
8
100
AcDbText
 10
5.208892904073588
 20
0.9038482379456846
 30
0.0
 40
0.07
  1
DEPTH
  7
ROMANS
 72
     1
 11
5.3775
 21
0.9038482379456846
 31
0.0
100
AcDbText
  0
TEXT
  5
6B
330
69
100
AcDbEntity
  8
8
100
AcDbText
 10
6.831392904073587
 20
0.9038482379456846
 30
0.0
 40
0.07
  1
DEPTH
  7
ROMANS
 72
     1
 11
7.0
 21
0.9038482379456846
 31
0.0
100
AcDbText
  0
TEXT
  5
6C
330
69
100
AcDbEntity
  8
8
100
AcDbText
 10
6.900596762525643
 20
0.7466010068253098
 30
0.0
 40
0.1
  1
DR
  7
ROMANS
 72
     1
 11
7.001648010883068
 21
0.7466010068253098
 31
0.0
100
AcDbText
  0
TEXT
  5
6D
330
69
100
AcDbEntity
  8
8
100
AcDbText
 10
5.780213115309896
 20
0.5620000000000003
 30
0.0
 40
0.1
  1
SECTIONS
  7
ROMANS
 72
     1
 11
6.146770276939331
 21
0.5620000000000003
 31
0.0
100
AcDbText
  0
TEXT
  5
6E
330
69
100
AcDbEntity
  8
8
100
AcDbText
 10
5.300986271192784
 20
0.7466010068253098
 30
0.0
 40
0.1
  1
SR
  7
ROMANS
 72
     1
 11
5.399672210746004
 21
0.7466010068253098
 31
0.0
100
AcDbText
  0
LINE
  5
6F
330
69
100
AcDbEntity
  8
4
100
AcDbLine
 10
5.628
 20
4.25
 30
0.0
 11
5.891731602665403
 21
4.25
 31
0.0
  0
LINE
  5
70
330
69
100
AcDbEntity
  8
4
100
AcDbLine
 10
5.93215881233783
 20
4.25
 30
0.0
 11
6.112622609161773
 21
4.25
 31
0.0
  0
INSERT
  5
71
330
69
100
AcDbEntity
  8
4
100
AcDbBlockReference
  2
ARRO
 10
5.93215881233783
 20
4.25
 30
0.0
  0
LINE
  5
72
330
69
100
AcDbEntity
  8
4
100
AcDbLine
 10
6.112622609161773
 20
4.25
 30
0.0
 11
6.112622609161773
 21
4.047012330209487
 31
0.0
  0
TEXT
  5
73
330
69
100
AcDbEntity
  8
8
100
AcDbText
 10
6.147622609161773
 20
2.603133223770591
 30
0.0
 40
0.07
  1
ANCHORING BY ERECTOR
 50
90.0
  7
ROMANS
 72
     2
 11
6.147622609161773
 21
3.985012330209487
 31
0.0
100
AcDbText
  0
TEXT
  5
74
330
69
100
AcDbEntity
  8
8
100
AcDbText
 10
4.500499999999999
 20
2.568203022339027
 30
0.0
 40
0.07
  1
LOCKER HEIGHT
 50
90.0
  7
ROMANS
 72
     1
 11
4.500499999999999
 21
3.0
 31
0.0
100
AcDbText
  0
TEXT
  5
75
330
69
100
AcDbEntity
  8
8
100
AcDbText
 10
1.323028909329828
 20
1.062
 30
0.0
 40
0.07
  1
LOCKER WIDTH - SEE SCHEDULE
  7
ROMANS
 72
     1
 11
2.249999999999999
 21
1.062
 31
0.0
100
AcDbText
  0
TEXT
  5
76
330
69
100
AcDbEntity
  8
8
100
AcDbText
 10
1.579139290407358
 20
0.5620000000000003
 30
0.0
 40
0.1
  1
FRONT ELEVATION
  7
ROMANS
 72
     1
 11
2.249999999999999
 21
0.5620000000000003
 31
0.0
100
AcDbText
  0
LINE
  5
77
330
69
100
AcDbEntity
  8
1
100
AcDbLine
 10
0.0
 20
0.0
 30
0.0
 11
8.25
 21
0.0
 31
0.0
  0
LINE
  5
78
330
69
100
AcDbEntity
  8
1
100
AcDbLine
 10
8.25
 20
0.0
 30
0.0
 11
8.25
 21
5.25
 31
0.0
  0
LINE
  5
79
330
69
100
AcDbEntity
  8
1
100
AcDbLine
 10
8.25
 20
5.25
 30
0.0
 11
0.0
 21
5.25
 31
0.0
  0
LINE
  5
7A
330
69
100
AcDbEntity
  8
1
100
AcDbLine
 10
0.0
 20
5.25
 30
0.0
 11
0.0
 21
0.0
 31
0.0
  0
LINE
  5
7B
330
69
100
AcDbEntity
  8
1
100
AcDbLine
 10
1.0
 20
1.5
 30
0.0
 11
2.5
 21
1.5
 31
0.0
  0
LINE
  5
7C
330
69
100
AcDbEntity
  8
1
100
AcDbLine
 10
1.0
 20
1.5
 30
0.0
 11
1.0
 21
4.5
 31
0.0
  0
LINE
  5
7D
330
69
100
AcDbEntity
  8
1
100
AcDbLine
 10
1.0
 20
4.5
 30
0.0
 11
2.5
 21
4.5
 31
0.0
  0
LINE
  5
7E
330
69
100
AcDbEntity
  8
1
100
AcDbLine
 10
2.625
 20
4.5
 30
0.0
 11
3.5
 21
4.5
 31
0.0
  0
LINE
  5
7F
330
69
100
AcDbEntity
  8
1
100
AcDbLine
 10
3.5
 20
4.5
 30
0.0
 11
3.499999999999999
 21
1.5
 31
0.0
  0
LINE
  5
80
330
69
100
AcDbEntity
  8
1
100
AcDbLine
 10
3.499999999999999
 20
1.5
 30
0.0
 11
2.624999999999999
 21
1.5
 31
0.0
  0
LINE
  5
81
330
69
100
AcDbEntity
  8
1
100
AcDbLine
 10
7.0
 20
1.5
 30
0.0
 11
7.0
 21
4.5
 31
0.0
  0
LINE
  5
82
330
69
100
AcDbEntity
  8
1
100
AcDbLine
 10
5.75
 20
1.5
 30
0.0
 11
5.75
 21
4.875
 31
0.0
  0
CIRCLE
  5
83
330
69
100
AcDbEntity
  8
1
100
AcDbCircle
 10
4.125
 20
0.5
 30
0.0
 40
0.1875
  0
LINE
  5
84
330
69
100
AcDbEntity
  8
1
100
AcDbLine
 10
2.625
 20
4.625
 30
0.0
 11
2.625
 21
3.709974179311579
 31
0.0
  0
LINE
  5
85
330
69
100
AcDbEntity
  8
1
100
AcDbLine
 10
2.5
 20
4.625
 30
0.0
 11
2.5
 21
4.344974179311579
 31
0.0
  0
LINE
  5
86
330
69
100
AcDbEntity
  8
1
100
AcDbLine
 10
2.455
 20
4.389974179311579
 30
0.0
 11
2.544999999999999
 21
4.299974179311579
 31
0.0
  0
LINE
  5
87
330
69
100
AcDbEntity
  8
1
100
AcDbLine
 10
2.544999999999999
 20
4.299974179311579
 30
0.0
 11
2.455
 21
4.299974179311579
 31
0.0
  0
LINE
  5
88
330
69
100
AcDbEntity
  8
1
100
AcDbLine
 10
2.455
 20
4.299974179311579
 30
0.0
 11
2.544999999999999
 21
4.209974179311579
 31
0.0
  0
LINE
  5
89
330
69
100
AcDbEntity
  8
1
100
AcDbLine
 10
2.512196030826982
 20
4.242778148484597
 30
0.0
 11
2.512196030826982
 21
3.07567852914767
 31
0.0
  0
LINE
  5
8A
330
69
100
AcDbEntity
  8
1
100
AcDbLine
 10
2.454999999999999
 20
3.049974179311579
 30
0.0
 11
2.544999999999999
 21
2.959974179311579
 31
0.0
  0
LINE
  5
8B
330
69
100
AcDbEntity
  8
1
100
AcDbLine
 10
2.544999999999999
 20
3.049974179311579
 30
0.0
 11
2.454999999999999
 21
3.049974179311579
 31
0.0
  0
LINE
  5
8C
330
69
100
AcDbEntity
  8
1
100
AcDbLine
 10
2.454999999999999
 20
3.139974179311579
 30
0.0
 11
2.544999999999999
 21
3.049974179311579
 31
0.0
  0
LINE
  5
8D
330
69
100
AcDbEntity
  8
1
100
AcDbLine
 10
2.454999999999999
 20
1.799974179311579
 30
0.0
 11
2.544999999999999
 21
1.709974179311579
 31
0.0
  0
LINE
  5
8E
330
69
100
AcDbEntity
  8
1
100
AcDbLine
 10
2.544999999999999
 20
1.799974179311579
 30
0.0
 11
2.454999999999999
 21
1.799974179311579
 31
0.0
  0
LINE
  5
8F
330
69
100
AcDbEntity
  8
1
100
AcDbLine
 10
2.454999999999999
 20
1.889974179311579
 30
0.0
 11
2.544999999999999
 21
1.799974179311579
 31
0.0
  0
LINE
  5
90
330
69
100
AcDbEntity
  8
1
100
AcDbLine
 10
2.5
 20
3.004974179311579
 30
0.0
 11
2.5
 21
2.469974179311579
 31
0.0
  0
LINE
  5
91
330
69
100
AcDbEntity
  8
1
100
AcDbLine
 10
2.5
 20
2.469974179311579
 30
0.0
 11
2.499999999999999
 21
1.844974179311579
 31
0.0
  0
LINE
  5
92
330
69
100
AcDbEntity
  8
1
100
AcDbLine
 10
2.499999999999999
 20
1.754974179311579
 30
0.0
 11
2.499999999999999
 21
1.375
 31
0.0
  0
LINE
  5
93
330
69
100
AcDbEntity
  8
1
100
AcDbLine
 10
2.579999999999999
 20
2.514974179311579
 30
0.0
 11
2.669999999999999
 21
2.424974179311579
 31
0.0
  0
LINE
  5
94
330
69
100
AcDbEntity
  8
1
100
AcDbLine
 10
2.669999999999999
 20
2.424974179311579
 30
0.0
 11
2.579999999999999
 21
2.424974179311579
 31
0.0
  0
LINE
  5
95
330
69
100
AcDbEntity
  8
1
100
AcDbLine
 10
2.579999999999999
 20
2.424974179311579
 30
0.0
 11
2.669999999999999
 21
2.334974179311579
 31
0.0
  0
LINE
  5
96
330
69
100
AcDbEntity
  8
1
100
AcDbLine
 10
2.58
 20
3.754974179311579
 30
0.0
 11
2.669999999999999
 21
3.664974179311579
 31
0.0
  0
LINE
  5
97
330
69
100
AcDbEntity
  8
1
100
AcDbLine
 10
2.669999999999999
 20
3.664974179311579
 30
0.0
 11
2.58
 21
3.664974179311579
 31
0.0
  0
LINE
  5
98
330
69
100
AcDbEntity
  8
1
100
AcDbLine
 10
2.58
 20
3.664974179311579
 30
0.0
 11
2.669999999999999
 21
3.574974179311579
 31
0.0
  0
LINE
  5
99
330
69
100
AcDbEntity
  8
1
100
AcDbLine
 10
2.625
 20
3.625967704151865
 30
0.0
 11
2.625
 21
2.782474179311579
 31
0.0
  0
LINE
  5
9A
330
69
100
AcDbEntity
  8
1
100
AcDbLine
 10
2.625
 20
2.782474179311579
 30
0.0
 11
2.625
 21
2.469974179311579
 31
0.0
  0
LINE
  5
9B
330
69
100
AcDbEntity
  8
1
100
AcDbLine
 10
2.625
 20
2.379974179311579
 30
0.0
 11
2.624999999999999
 21
1.375
 31
0.0
  0
LINE
  5
9C
330
69
100
AcDbEntity
  8
1
100
AcDbLine
 10
5.75
 20
1.5
 30
0.0
 11
5.937999999999999
 21
1.687999999999999
 31
0.0
  0
LINE
  5
9D
330
69
100
AcDbEntity
  8
1
100
AcDbLine
 10
5.75
 20
1.625
 30
0.0
 11
5.937999999999999
 21
1.812999999999999
 31
0.0
  0
LINE
  5
9E
330
69
100
AcDbEntity
  8
1
100
AcDbLine
 10
5.75
 20
2.0
 30
0.0
 11
5.937999999999999
 21
2.187999999999999
 31
0.0
  0
LINE
  5
9F
330
69
100
AcDbEntity
  8
1
100
AcDbLine
 10
5.75
 20
2.125
 30
0.0
 11
5.937999999999999
 21
2.312999999999999
 31
0.0
  0
LINE
  5
A0
330
69
100
AcDbEntity
  8
1
100
AcDbLine
 10
5.75
 20
2.25
 30
0.0
 11
5.937999999999999
 21
2.437999999999999
 31
0.0
  0
LINE
  5
A1
330
69
100
AcDbEntity
  8
1
100
AcDbLine
 10
5.75
 20
2.375
 30
0.0
 11
5.937999999999999
 21
2.562999999999999
 31
0.0
  0
LINE
  5
A2
330
69
100
AcDbEntity
  8
1
100
AcDbLine
 10
5.75
 20
2.5
 30
0.0
 11
5.937999999999999
 21
2.687999999999999
 31
0.0
  0
LINE
  5
A3
330
69
100
AcDbEntity
  8
1
100
AcDbLine
 10
5.75
 20
2.625
 30
0.0
 11
5.937999999999999
 21
2.812999999999999
 31
0.0
  0
LINE
  5
A4
330
69
100
AcDbEntity
  8
1
100
AcDbLine
 10
5.75
 20
2.75
 30
0.0
 11
5.937999999999999
 21
2.937999999999999
 31
0.0
  0
LINE
  5
A5
330
69
100
AcDbEntity
  8
1
100
AcDbLine
 10
5.75
 20
2.875
 30
0.0
 11
5.937999999999999
 21
3.062999999999999
 31
0.0
  0
LINE
  5
A6
330
69
100
AcDbEntity
  8
1
100
AcDbLine
 10
5.75
 20
3.0
 30
0.0
 11
5.937999999999999
 21
3.187999999999999
 31
0.0
  0
LINE
  5
A7
330
69
100
AcDbEntity
  8
1
100
AcDbLine
 10
5.75
 20
3.125
 30
0.0
 11
5.937999999999999
 21
3.312999999999999
 31
0.0
  0
LINE
  5
A8
330
69
100
AcDbEntity
  8
1
100
AcDbLine
 10
5.75
 20
3.25
 30
0.0
 11
5.937999999999999
 21
3.437999999999999
 31
0.0
  0
LINE
  5
A9
330
69
100
AcDbEntity
  8
1
100
AcDbLine
 10
5.75
 20
3.375
 30
0.0
 11
5.937999999999999
 21
3.562999999999999
 31
0.0
  0
LINE
  5
AA
330
69
100
AcDbEntity
  8
1
100
AcDbLine
 10
5.75
 20
3.5
 30
0.0
 11
5.937999999999999
 21
3.687999999999999
 31
0.0
  0
LINE
  5
AB
330
69
100
AcDbEntity
  8
1
100
AcDbLine
 10
5.75
 20
3.625
 30
0.0
 11
5.937999999999999
 21
3.812999999999999
 31
0.0
  0
LINE
  5
AC
330
69
100
AcDbEntity
  8
1
100
AcDbLine
 10
5.75
 20
3.75
 30
0.0
 11
5.937999999999999
 21
3.937999999999999
 31
0.0
  0
LINE
  5
AD
330
69
100
AcDbEntity
  8
1
100
AcDbLine
 10
5.75
 20
3.875
 30
0.0
 11
5.937999999999999
 21
4.062999999999999
 31
0.0
  0
LINE
  5
AE
330
69
100
AcDbEntity
  8
1
100
AcDbLine
 10
5.75
 20
4.0
 30
0.0
 11
5.937999999999999
 21
4.187999999999999
 31
0.0
  0
LINE
  5
AF
330
69
100
AcDbEntity
  8
1
100
AcDbLine
 10
5.75
 20
4.125
 30
0.0
 11
5.937999999999999
 21
4.312999999999999
 31
0.0
  0
LINE
  5
B0
330
69
100
AcDbEntity
  8
1
100
AcDbLine
 10
5.75
 20
4.25
 30
0.0
 11
5.937999999999999
 21
4.437999999999999
 31
0.0
  0
LINE
  5
B1
330
69
100
AcDbEntity
  8
1
100
AcDbLine
 10
5.75
 20
4.375
 30
0.0
 11
5.937999999999999
 21
4.562999999999999
 31
0.0
  0
LINE
  5
B2
330
69
100
AcDbEntity
  8
1
100
AcDbLine
 10
5.75
 20
4.5
 30
0.0
 11
5.937999999999999
 21
4.687999999999999
 31
0.0
  0
LINE
  5
B3
330
69
100
AcDbEntity
  8
1
100
AcDbLine
 10
5.75
 20
4.625
 30
0.0
 11
5.937999999999999
 21
4.812999999999999
 31
0.0
  0
LINE
  5
B4
330
69
100
AcDbEntity
  8
1
100
AcDbLine
 10
5.75
 20
4.75
 30
0.0
 11
5.875
 21
4.875
 31
0.0
  0
LINE
  5
B5
330
69
100
AcDbEntity
  8
1
100
AcDbLine
 10
5.69
 20
1.5
 30
0.0
 11
5.69
 21
4.5
 31
0.0
  0
LINE
  5
B6
330
69
100
AcDbEntity
  8
4
100
AcDbLine
 10
1.0
 20
1.437999999999999
 30
0.0
 11
0.9999999999999998
 21
0.9379999999999999
 31
0.0
  0
LINE
  5
B7
330
69
100
AcDbEntity
  8
4
100
AcDbLine
 10
3.499999999999999
 20
1.437999999999999
 30
0.0
 11
3.499999999999999
 21
0.9379999999999999
 31
0.0
  0
LINE
  5
B8
330
69
100
AcDbEntity
  8
4
100
AcDbLine
 10
3.499999999999999
 20
1.0
 30
0.0
 11
0.9999999999999998
 21
1.0
 31
0.0
  0
INSERT
  5
B9
330
69
100
AcDbEntity
  8
4
100
AcDbBlockReference
  2
ARRO
 10
0.9999999999999998
 20
1.0
 30
0.0
  0
INSERT
  5
BA
330
69
100
AcDbEntity
  8
4
100
AcDbBlockReference
  2
ARRO
 10
3.499999999999999
 20
0.9999999999999998
 30
0.0
 50
180.0
  0
LINE
  5
BB
330
69
100
AcDbEntity
  8
4
100
AcDbLine
 10
5.0025
 20
1.5
 30
0.0
 11
4.5025
 21
1.5
 31
0.0
  0
LINE
  5
BC
330
69
100
AcDbEntity
  8
4
100
AcDbLine
 10
4.5625
 20
1.5
 30
0.0
 11
4.5625
 21
4.5
 31
0.0
  0
LINE
  5
BD
330
69
100
AcDbEntity
  8
4
100
AcDbLine
 10
5.0025
 20
4.5
 30
0.0
 11
4.5025
 21
4.5
 31
0.0
  0
INSERT
  5
BE
330
69
100
AcDbEntity
  8
4
100
AcDbBlockReference
  2
ARRO
 10
4.5625
 20
4.5
 30
0.0
 50
270.0
  0
INSERT
  5
BF
330
69
100
AcDbEntity
  8
4
100
AcDbBlockReference
  2
ARRO
 10
4.5625
 20
1.5
 30
0.0
 50
90.0
  0
LINE
  5
C0
330
69
100
AcDbEntity
  8
4
100
AcDbLine
 10
5.69
 20
0.9999999999999998
 30
0.0
 11
5.065
 21
0.9999999999999998
 31
0.0
  0
LINE
  5
C1
330
69
100
AcDbEntity
  8
4
100
AcDbLine
 10
5.75
 20
0.9999999999999998
 30
0.0
 11
6.0
 21
0.9999999999999998
 31
0.0
  0
LINE
  5
C2
330
69
100
AcDbEntity
  8
4
100
AcDbLine
 10
6.375
 20
0.9999999999999998
 30
0.0
 11
7.625
 21
0.9999999999999998
 31
0.0
  0
INSERT
  5
C3
330
69
100
AcDbEntity
  8
4
100
AcDbBlockReference
  2
ARRO
 10
5.065
 20
0.9999999999999998
 30
0.0
  0
INSERT
  5
C4
330
69
100
AcDbEntity
  8
4
100
AcDbBlockReference
  2
ARRO
 10
5.69
 20
0.9999999999999998
 30
0.0
 50
180.0
  0
INSERT
  5
C5
330
69
100
AcDbEntity
  8
4
100
AcDbBlockReference
  2
ARRO
 10
5.75
 20
0.9999999999999998
 30
0.0
  0
INSERT
  5
C6
330
69
100
AcDbEntity
  8
4
100
AcDbBlockReference
  2
ARRO
 10
6.375
 20
0.9999999999999998
 30
0.0
  0
INSERT
  5
C7
330
69
100
AcDbEntity
  8
4
100
AcDbBlockReference
  2
ARRO
 10
7.625
 20
0.9999999999999998
 30
0.0
 50
180.0
  0
LINE
  5
C8
330
69
100
AcDbEntity
  8
1
100
AcDbLine
 10
1.062
 20
1.562
 30
0.0
 11
1.062
 21
4.438
 31
0.0
  0
LINE
  5
C9
330
69
100
AcDbEntity
  8
1
100
AcDbLine
 10
1.062
 20
4.438
 30
0.0
 11
1.563
 21
4.438
 31
0.0
  0
LINE
  5
CA
330
69
100
AcDbEntity
  8
1
100
AcDbLine
 10
1.563
 20
4.438
 30
0.0
 11
1.562999999999999
 21
1.562
 31
0.0
  0
LINE
  5
CB
330
69
100
AcDbEntity
  8
1
100
AcDbLine
 10
1.687
 20
1.562
 30
0.0
 11
1.687
 21
4.438
 31
0.0
  0
LINE
  5
CC
330
69
100
AcDbEntity
  8
1
100
AcDbLine
 10
1.687
 20
4.438
 30
0.0
 11
2.188
 21
4.438
 31
0.0
  0
LINE
  5
CD
330
69
100
AcDbEntity
  8
1
100
AcDbLine
 10
2.188
 20
4.438
 30
0.0
 11
2.187999999999999
 21
1.562
 31
0.0
  0
LINE
  5
CE
330
69
100
AcDbEntity
  8
1
100
AcDbLine
 10
2.187999999999999
 20
1.562
 30
0.0
 11
1.687
 21
1.562
 31
0.0
  0
LINE
  5
CF
330
69
100
AcDbEntity
  8
1
100
AcDbLine
 10
2.312
 20
1.562
 30
0.0
 11
2.312
 21
4.438
 31
0.0
  0
LINE
  5
D0
330
69
100
AcDbEntity
  8
1
100
AcDbLine
 10
2.312
 20
4.438
 30
0.0
 11
2.5
 21
4.438
 31
0.0
  0
LINE
  5
D1
330
69
100
AcDbEntity
  8
1
100
AcDbLine
 10
2.813
 20
4.438
 30
0.0
 11
2.812999999999999
 21
1.562
 31
0.0
  0
LINE
  5
D2
330
69
100
AcDbEntity
  8
1
100
AcDbLine
 10
2.812999999999999
 20
1.562
 30
0.0
 11
2.625
 21
1.562
 31
0.0
  0
LINE
  5
D3
330
69
100
AcDbEntity
  8
1
100
AcDbLine
 10
2.937
 20
1.562
 30
0.0
 11
2.937
 21
4.438
 31
0.0
  0
LINE
  5
D4
330
69
100
AcDbEntity
  8
1
100
AcDbLine
 10
2.937
 20
4.438
 30
0.0
 11
3.438
 21
4.438
 31
0.0
  0
LINE
  5
D5
330
69
100
AcDbEntity
  8
1
100
AcDbLine
 10
3.438
 20
4.438
 30
0.0
 11
3.437999999999999
 21
1.562
 31
0.0
  0
LINE
  5
D6
330
69
100
AcDbEntity
  8
1
100
AcDbLine
 10
3.437999999999999
 20
1.562
 30
0.0
 11
2.937
 21
1.562
 31
0.0
  0
LINE
  5
D7
330
69
100
AcDbEntity
  8
1
100
AcDbLine
 10
1.625
 20
1.5
 30
0.0
 11
1.625
 21
4.5
 31
0.0
  0
LINE
  5
D8
330
69
100
AcDbEntity
  8
1
100
AcDbLine
 10
2.25
 20
1.5
 30
0.0
 11
2.25
 21
4.5
 31
0.0
  0
LINE
  5
D9
330
69
100
AcDbEntity
  8
1
100
AcDbLine
 10
2.875
 20
1.5
 30
0.0
 11
2.875
 21
4.5
 31
0.0
  0
LINE
  5
DA
330
69
100
AcDbEntity
  8
1
100
AcDbLine
 10
2.625
 20
4.438
 30
0.0
 11
2.813
 21
4.438
 31
0.0
  0
LINE
  5
DB
330
69
100
AcDbEntity
  8
1
100
AcDbLine
 10
2.499999999999999
 20
1.562
 30
0.0
 11
2.312
 21
1.562
 31
0.0
  0
LINE
  5
DC
330
69
100
AcDbEntity
  8
4
100
AcDbLine
 10
1.9375
 20
4.406
 30
0.0
 11
1.9375
 21
4.531
 31
0.0
  0
CIRCLE
  5
DD
330
69
100
AcDbEntity
  8
4
100
AcDbCircle
 10
1.9375
 20
4.312
 30
0.0
 40
0.094
  0
CIRCLE
  5
DE
330
69
100
AcDbEntity
  8
4
100
AcDbCircle
 10
1.778866710308013
 20
1.373999999999999
 30
0.0
 40
0.094
  0
LINE
  5
DF
330
69
100
AcDbEntity
  8
4
100
AcDbLine
 10
1.778866710308013
 20
1.467999999999999
 30
0.0
 11
1.778866710308013
 21
1.592999999999999
 31
0.0
  0
CIRCLE
  5
E0
330
69
100
AcDbEntity
  8
4
100
AcDbCircle
 10
2.028866710308013
 20
1.373999999999999
 30
0.0
 40
0.094
  0
LINE
  5
E1
330
69
100
AcDbEntity
  8
4
100
AcDbLine
 10
1.872866710308013
 20
1.373999999999999
 30
0.0
 11
1.934866710308013
 21
1.373999999999999
 31
0.0
  0
LINE
  5
E2
330
69
100
AcDbEntity
  8
1
100
AcDbLine
 10
1.062
 20
1.562
 30
0.0
 11
1.562999999999999
 21
1.562
 31
0.0
  0
LINE
  5
E3
330
69
100
AcDbEntity
  8
1
100
AcDbLine
 10
5.203499999999999
 20
4.5
 30
0.0
 11
5.188499999999999
 21
4.484999999999999
 31
0.0
  0
LINE
  5
E4
330
69
100
AcDbEntity
  8
1
100
AcDbLine
 10
5.188499999999999
 20
4.484999999999999
 30
0.0
 11
5.090499999999999
 21
4.484999999999999
 31
0.0
  0
LINE
  5
E5
330
69
100
AcDbEntity
  8
1
100
AcDbLine
 10
5.090499999999999
 20
4.484999999999999
 30
0.0
 11
5.090499999999999
 21
4.456753857562439
 31
0.0
  0
LINE
  5
E6
330
69
100
AcDbEntity
  8
1
100
AcDbLine
 10
5.265499999999999
 20
4.437999999999999
 30
0.0
 11
5.203499999999999
 21
4.5
 31
0.0
  0
LINE
  5
E7
330
69
100
AcDbEntity
  8
1
100
AcDbLine
 10
5.630499999999999
 20
4.437999999999999
 30
0.0
 11
5.265499999999999
 21
4.437999999999999
 31
0.0
  0
LINE
  5
E8
330
69
100
AcDbEntity
  8
1
100
AcDbLine
 10
5.630499999999999
 20
4.5
 30
0.0
 11
5.630499999999999
 21
4.437999999999999
 31
0.0
  0
LINE
  5
E9
330
69
100
AcDbEntity
  8
1
100
AcDbLine
 10
5.670499999999999
 20
4.5
 30
0.0
 11
5.670499999999999
 21
4.437999999999999
 31
0.0
  0
LINE
  5
EA
330
69
100
AcDbEntity
  8
1
100
AcDbLine
 10
5.065499999999999
 20
4.5
 30
0.0
 11
5.173499999999998
 21
4.5
 31
0.0
  0
LINE
  5
EB
330
69
100
AcDbEntity
  8
1
100
AcDbLine
 10
5.065499999999999
 20
4.437999999999999
 30
0.0
 11
5.065499999999999
 21
4.5
 31
0.0
  0
LINE
  5
EC
330
69
100
AcDbEntity
  8
1
100
AcDbLine
 10
5.127499999999999
 20
4.437999999999999
 30
0.0
 11
5.065499999999999
 21
4.437999999999999
 31
0.0
  0
LINE
  5
ED
330
69
100
AcDbEntity
  8
1
100
AcDbLine
 10
5.203499999999999
 20
4.5
 30
0.0
 11
5.670499999999999
 21
4.5
 31
0.0
  0
LINE
  5
EE
330
69
100
AcDbEntity
  8
1
100
AcDbLine
 10
6.513499999999998
 20
4.5
 30
0.0
 11
6.980499999999999
 21
4.5
 31
0.0
  0
LINE
  5
EF
330
69
100
AcDbEntity
  8
1
100
AcDbLine
 10
6.437499999999999
 20
4.437999999999999
 30
0.0
 11
6.375499999999998
 21
4.437999999999999
 31
0.0
  0
LINE
  5
F0
330
69
100
AcDbEntity
  8
1
100
AcDbLine
 10
6.375499999999998
 20
4.437999999999999
 30
0.0
 11
6.375499999999998
 21
4.5
 31
0.0
  0
LINE
  5
F1
330
69
100
AcDbEntity
  8
1
100
AcDbLine
 10
6.375499999999998
 20
4.5
 30
0.0
 11
6.483499999999998
 21
4.5
 31
0.0
  0
LINE
  5
F2
330
69
100
AcDbEntity
  8
1
100
AcDbLine
 10
6.980499999999999
 20
4.5
 30
0.0
 11
6.980499999999999
 21
4.437999999999999
 31
0.0
  0
LINE
  5
F3
330
69
100
AcDbEntity
  8
1
100
AcDbLine
 10
6.940499999999999
 20
4.5
 30
0.0
 11
6.940499999999999
 21
4.437999999999999
 31
0.0
  0
LINE
  5
F4
330
69
100
AcDbEntity
  8
1
100
AcDbLine
 10
6.940499999999999
 20
4.437999999999999
 30
0.0
 11
6.575499999999999
 21
4.437999999999999
 31
0.0
  0
LINE
  5
F5
330
69
100
AcDbEntity
  8
1
100
AcDbLine
 10
6.575499999999999
 20
4.437999999999999
 30
0.0
 11
6.513499999999998
 21
4.5
 31
0.0
  0
LINE
  5
F6
330
69
100
AcDbEntity
  8
1
100
AcDbLine
 10
6.400499999999999
 20
4.484999999999999
 30
0.0
 11
6.400499999999999
 21
4.456753857562439
 31
0.0
  0
LINE
  5
F7
330
69
100
AcDbEntity
  8
1
100
AcDbLine
 10
6.498499999999999
 20
4.484999999999999
 30
0.0
 11
6.400499999999999
 21
4.484999999999999
 31
0.0
  0
LINE
  5
F8
330
69
100
AcDbEntity
  8
1
100
AcDbLine
 10
6.513499999999998
 20
4.5
 30
0.0
 11
6.498499999999999
 21
4.484999999999999
 31
0.0
  0
LINE
  5
F9
330
69
100
AcDbEntity
  8
1
100
AcDbLine
 10
7.486500000000001
 20
4.5
 30
0.0
 11
7.5015
 21
4.484999999999999
 31
0.0
  0
LINE
  5
FA
330
69
100
AcDbEntity
  8
1
100
AcDbLine
 10
7.5015
 20
4.484999999999999
 30
0.0
 11
7.5995
 21
4.484999999999999
 31
0.0
  0
LINE
  5
FB
330
69
100
AcDbEntity
  8
1
100
AcDbLine
 10
7.5995
 20
4.484999999999999
 30
0.0
 11
7.5995
 21
4.456753857562439
 31
0.0
  0
LINE
  5
FC
330
69
100
AcDbEntity
  8
1
100
AcDbLine
 10
7.4245
 20
4.437999999999999
 30
0.0
 11
7.486500000000001
 21
4.5
 31
0.0
  0
LINE
  5
FD
330
69
100
AcDbEntity
  8
1
100
AcDbLine
 10
7.0595
 20
4.437999999999999
 30
0.0
 11
7.4245
 21
4.437999999999999
 31
0.0
  0
LINE
  5
FE
330
69
100
AcDbEntity
  8
1
100
AcDbLine
 10
7.0595
 20
4.5
 30
0.0
 11
7.0595
 21
4.437999999999999
 31
0.0
  0
LINE
  5
FF
330
69
100
AcDbEntity
  8
1
100
AcDbLine
 10
7.0195
 20
4.5
 30
0.0
 11
7.0195
 21
4.437999999999999
 31
0.0
  0
LINE
  5
100
330
69
100
AcDbEntity
  8
1
100
AcDbLine
 10
7.624500000000001
 20
4.5
 30
0.0
 11
7.516500000000001
 21
4.5
 31
0.0
  0
LINE
  5
101
330
69
100
AcDbEntity
  8
1
100
AcDbLine
 10
7.624500000000001
 20
4.437999999999999
 30
0.0
 11
7.624500000000001
 21
4.5
 31
0.0
  0
LINE
  5
102
330
69
100
AcDbEntity
  8
1
100
AcDbLine
 10
7.5625
 20
4.437999999999999
 30
0.0
 11
7.624500000000001
 21
4.437999999999999
 31
0.0
  0
LINE
  5
103
330
69
100
AcDbEntity
  8
1
100
AcDbLine
 10
7.486500000000001
 20
4.5
 30
0.0
 11
7.0195
 21
4.5
 31
0.0
  0
LINE
  5
104
330
69
100
AcDbEntity
  8
1
100
AcDbLine
 10
7.486500000000001
 20
1.5625
 30
0.0
 11
7.0195
 21
1.5625
 31
0.0
  0
LINE
  5
105
330
69
100
AcDbEntity
  8
1
100
AcDbLine
 10
7.5625
 20
1.500499999999999
 30
0.0
 11
7.624500000000001
 21
1.500499999999999
 31
0.0
  0
LINE
  5
106
330
69
100
AcDbEntity
  8
1
100
AcDbLine
 10
7.624500000000001
 20
1.500499999999999
 30
0.0
 11
7.624500000000001
 21
1.5625
 31
0.0
  0
LINE
  5
107
330
69
100
AcDbEntity
  8
1
100
AcDbLine
 10
7.624500000000001
 20
1.5625
 30
0.0
 11
7.516500000000001
 21
1.5625
 31
0.0
  0
LINE
  5
108
330
69
100
AcDbEntity
  8
1
100
AcDbLine
 10
7.0195
 20
1.5625
 30
0.0
 11
7.0195
 21
1.500499999999999
 31
0.0
  0
LINE
  5
109
330
69
100
AcDbEntity
  8
1
100
AcDbLine
 10
7.0595
 20
1.5625
 30
0.0
 11
7.0595
 21
1.500499999999999
 31
0.0
  0
LINE
  5
10A
330
69
100
AcDbEntity
  8
1
100
AcDbLine
 10
7.0595
 20
1.500499999999999
 30
0.0
 11
7.4245
 21
1.500499999999999
 31
0.0
  0
LINE
  5
10B
330
69
100
AcDbEntity
  8
1
100
AcDbLine
 10
7.4245
 20
1.500499999999999
 30
0.0
 11
7.486500000000001
 21
1.5625
 31
0.0
  0
LINE
  5
10C
330
69
100
AcDbEntity
  8
1
100
AcDbLine
 10
7.5995
 20
1.547499999999999
 30
0.0
 11
7.5995
 21
1.519253857562439
 31
0.0
  0
LINE
  5
10D
330
69
100
AcDbEntity
  8
1
100
AcDbLine
 10
7.5015
 20
1.547499999999999
 30
0.0
 11
7.5995
 21
1.547499999999999
 31
0.0
  0
LINE
  5
10E
330
69
100
AcDbEntity
  8
1
100
AcDbLine
 10
7.486500000000001
 20
1.5625
 30
0.0
 11
7.5015
 21
1.547499999999999
 31
0.0
  0
LINE
  5
10F
330
69
100
AcDbEntity
  8
1
100
AcDbLine
 10
6.513499999999998
 20
1.5625
 30
0.0
 11
6.498499999999999
 21
1.547499999999999
 31
0.0
  0
LINE
  5
110
330
69
100
AcDbEntity
  8
1
100
AcDbLine
 10
6.498499999999999
 20
1.547499999999999
 30
0.0
 11
6.400499999999999
 21
1.547499999999999
 31
0.0
  0
LINE
  5
111
330
69
100
AcDbEntity
  8
1
100
AcDbLine
 10
6.400499999999999
 20
1.547499999999999
 30
0.0
 11
6.400499999999999
 21
1.519253857562439
 31
0.0
  0
LINE
  5
112
330
69
100
AcDbEntity
  8
1
100
AcDbLine
 10
6.575499999999999
 20
1.500499999999999
 30
0.0
 11
6.513499999999998
 21
1.5625
 31
0.0
  0
LINE
  5
113
330
69
100
AcDbEntity
  8
1
100
AcDbLine
 10
6.940499999999999
 20
1.500499999999999
 30
0.0
 11
6.575499999999999
 21
1.500499999999999
 31
0.0
  0
LINE
  5
114
330
69
100
AcDbEntity
  8
1
100
AcDbLine
 10
6.940499999999999
 20
1.5625
 30
0.0
 11
6.940499999999999
 21
1.500499999999999
 31
0.0
  0
LINE
  5
115
330
69
100
AcDbEntity
  8
1
100
AcDbLine
 10
6.980499999999999
 20
1.5625
 30
0.0
 11
6.980499999999999
 21
1.500499999999999
 31
0.0
  0
LINE
  5
116
330
69
100
AcDbEntity
  8
1
100
AcDbLine
 10
6.375499999999998
 20
1.5625
 30
0.0
 11
6.483499999999998
 21
1.5625
 31
0.0
  0
LINE
  5
117
330
69
100
AcDbEntity
  8
1
100
AcDbLine
 10
6.375499999999998
 20
1.500499999999999
 30
0.0
 11
6.375499999999998
 21
1.5625
 31
0.0
  0
LINE
  5
118
330
69
100
AcDbEntity
  8
1
100
AcDbLine
 10
6.437499999999999
 20
1.500499999999999
 30
0.0
 11
6.375499999999998
 21
1.500499999999999
 31
0.0
  0
LINE
  5
119
330
69
100
AcDbEntity
  8
1
100
AcDbLine
 10
6.513499999999998
 20
1.5625
 30
0.0
 11
6.980499999999999
 21
1.5625
 31
0.0
  0
LINE
  5
11A
330
69
100
AcDbEntity
  8
1
100
AcDbLine
 10
5.203499999999999
 20
1.5625
 30
0.0
 11
5.670499999999999
 21
1.5625
 31
0.0
  0
LINE
  5
11B
330
69
100
AcDbEntity
  8
1
100
AcDbLine
 10
5.127499999999999
 20
1.500499999999999
 30
0.0
 11
5.065499999999999
 21
1.500499999999999
 31
0.0
  0
LINE
  5
11C
330
69
100
AcDbEntity
  8
1
100
AcDbLine
 10
5.065499999999999
 20
1.500499999999999
 30
0.0
 11
5.065499999999999
 21
1.5625
 31
0.0
  0
LINE
  5
11D
330
69
100
AcDbEntity
  8
1
100
AcDbLine
 10
5.065499999999999
 20
1.5625
 30
0.0
 11
5.173499999999998
 21
1.5625
 31
0.0
  0
LINE
  5
11E
330
69
100
AcDbEntity
  8
1
100
AcDbLine
 10
5.670499999999999
 20
1.5625
 30
0.0
 11
5.670499999999999
 21
1.500499999999999
 31
0.0
  0
LINE
  5
11F
330
69
100
AcDbEntity
  8
1
100
AcDbLine
 10
5.630499999999999
 20
1.5625
 30
0.0
 11
5.630499999999999
 21
1.500499999999999
 31
0.0
  0
LINE
  5
120
330
69
100
AcDbEntity
  8
1
100
AcDbLine
 10
5.630499999999999
 20
1.500499999999999
 30
0.0
 11
5.265499999999999
 21
1.500499999999999
 31
0.0
  0
LINE
  5
121
330
69
100
AcDbEntity
  8
1
100
AcDbLine
 10
5.265499999999999
 20
1.500499999999999
 30
0.0
 11
5.203499999999999
 21
1.5625
 31
0.0
  0
LINE
  5
122
330
69
100
AcDbEntity
  8
1
100
AcDbLine
 10
5.090499999999999
 20
1.547499999999999
 30
0.0
 11
5.090499999999999
 21
1.519253857562439
 31
0.0
  0
LINE
  5
123
330
69
100
AcDbEntity
  8
1
100
AcDbLine
 10
5.188499999999999
 20
1.547499999999999
 30
0.0
 11
5.090499999999999
 21
1.547499999999999
 31
0.0
  0
LINE
  5
124
330
69
100
AcDbEntity
  8
1
100
AcDbLine
 10
5.203499999999999
 20
1.5625
 30
0.0
 11
5.188499999999999
 21
1.547499999999999
 31
0.0
  0
LINE
  5
125
330
69
100
AcDbEntity
  8
1
100
AcDbLine
 10
5.75
 20
1.875
 30
0.0
 11
5.937999999999999
 21
2.062999999999999
 31
0.0
  0
LINE
  5
126
330
69
100
AcDbEntity
  8
1
100
AcDbLine
 10
5.75
 20
1.75
 30
0.0
 11
5.937999999999999
 21
1.937999999999999
 31
0.0
  0
LINE
  5
127
330
69
100
AcDbEntity
  8
4
100
AcDbLine
 10
5.065
 20
0.9379999999999999
 30
0.0
 11
5.065
 21
1.125999999999999
 31
0.0
  0
LINE
  5
128
330
69
100
AcDbEntity
  8
4
100
AcDbLine
 10
5.69
 20
0.9379999999999999
 30
0.0
 11
5.69
 21
1.125999999999999
 31
0.0
  0
LINE
  5
129
330
69
100
AcDbEntity
  8
4
100
AcDbLine
 10
5.75
 20
0.9379999999999999
 30
0.0
 11
5.75
 21
1.125999999999999
 31
0.0
  0
LINE
  5
12A
330
69
100
AcDbEntity
  8
4
100
AcDbLine
 10
6.375
 20
0.9379999999999999
 30
0.0
 11
6.375
 21
1.125999999999999
 31
0.0
  0
LINE
  5
12B
330
69
100
AcDbEntity
  8
4
100
AcDbLine
 10
7.625
 20
0.9379999999999999
 30
0.0
 11
7.625
 21
1.125999999999999
 31
0.0
  0
ENDBLK
  5
12D
330
69
100
AcDbEntity
  8
0
100
AcDbBlockEnd
  0
BLOCK
  5
132
330
130
100
AcDbEntity
  8
0
100
AcDbBlockBegin
  2
TEMP4
 70
     0
 10
0.0
 20
0.0
 30
0.0
  3
TEMP4
  1

  0
TEXT
  5
131
330
130
100
AcDbEntity
  8
8
100
AcDbText
 10
0.03
 20
0.0619999999999998
 30
0.0
 40
0.07
  1
LOCKING DEVICE AS SPECIFIED IN NOTES
 50
90.0
  7
ROMANS
100
AcDbText
  0
ENDBLK
  5
133
330
130
100
AcDbEntity
  8
0
100
AcDbBlockEnd
  0
BLOCK
  5
136
330
134
100
AcDbEntity
  8
0
100
AcDbBlockBegin
  2
G1
 70
     0
 10
0.0
 20
0.0
 30
0.0
  3
G1
  1

  0
TEXT
  5
135
330
134
100
AcDbEntity
  8
8
100
AcDbText
 10
4.499296217575065
 20
2.311420405781899
 30
0.0
 40
0.075
  1
72
 50
90.0
  7
ROMANS
 72
     2
 11
4.499296217575065
 21
2.45590135190542
 31
0.0
100
AcDbText
  0
ENDBLK
  5
137
330
134
100
AcDbEntity
  8
0
100
AcDbBlockEnd
  0
BLOCK
  5
15D
330
138
100
AcDbEntity
  8
0
100
AcDbBlockBegin
  2
G2
 70
     0
 10
0.0
 20
0.0
 30
0.0
  3
G2
  1

  0
LINE
  5
139
330
138
100
AcDbEntity
  8
4
100
AcDbLine
 10
0.1227031801076068
 20
-0.0969284023754282
 30
0.0
 11
0.1367656801076067
 21
-0.0688034023754289
 31
0.0
  0
LINE
  5
13A
330
138
100
AcDbEntity
  8
4
100
AcDbLine
 10
0.1367656801076067
 20
-0.0688034023754289
 30
0.0
 11
0.1508281801076068
 21
-0.0969284023754282
 31
0.0
  0
LINE
  5
13B
330
138
100
AcDbEntity
  8
4
100
AcDbLine
 10
0.1227031801076068
 20
-0.0969284023754282
 30
0.0
 11
0.1367656801076067
 21
-0.1250534023754275
 31
0.0
  0
LINE
  5
13C
330
138
100
AcDbEntity
  8
4
100
AcDbLine
 10
0.1367656801076067
 20
-0.1250534023754275
 30
0.0
 11
0.1508281801076068
 21
-0.0969284023754282
 31
0.0
  0
LINE
  5
13D
330
138
100
AcDbEntity
  8
4
100
AcDbLine
 10
0.1555156801076067
 20
-0.1685534023754274
 30
0.0
 11
0.1695781801076068
 21
-0.1404284023754281
 31
0.0
  0
LINE
  5
13E
330
138
100
AcDbEntity
  8
4
100
AcDbLine
 10
0.1414531801076067
 20
-0.1404284023754281
 30
0.0
 11
0.1555156801076067
 21
-0.1685534023754274
 31
0.0
  0
LINE
  5
13F
330
138
100
AcDbEntity
  8
4
100
AcDbLine
 10
0.1555156801076067
 20
-0.1123034023754288
 30
0.0
 11
0.1695781801076068
 21
-0.1404284023754281
 31
0.0
  0
LINE
  5
140
330
138
100
AcDbEntity
  8
4
100
AcDbLine
 10
0.1414531801076067
 20
-0.1404284023754281
 30
0.0
 11
0.1555156801076067
 21
-0.1123034023754288
 31
0.0
  0
LINE
  5
141
330
138
100
AcDbEntity
  8
4
100
AcDbLine
 10
0.1414531801076064
 20
-0.2358751026551982
 30
0.0
 11
0.1555156801076065
 21
-0.2077501026551989
 31
0.0
  0
LINE
  5
142
330
138
100
AcDbEntity
  8
4
100
AcDbLine
 10
0.1555156801076065
 20
-0.2077501026551989
 30
0.0
 11
0.1695781801076066
 21
-0.2358751026551982
 31
0.0
  0
LINE
  5
143
330
138
100
AcDbEntity
  8
4
100
AcDbLine
 10
0.1414531801076064
 20
-0.2358751026551982
 30
0.0
 11
0.1555156801076065
 21
-0.2640001026551983
 31
0.0
  0
LINE
  5
144
330
138
100
AcDbEntity
  8
4
100
AcDbLine
 10
0.1555156801076065
 20
-0.2640001026551983
 30
0.0
 11
0.1695781801076066
 21
-0.2358751026551982
 31
0.0
  0
LINE
  5
145
330
138
100
AcDbEntity
  8
4
100
AcDbLine
 10
0.1367656801076067
 20
-0.2205001026551976
 30
0.0
 11
0.1508281801076068
 21
-0.1923751026551983
 31
0.0
  0
LINE
  5
146
330
138
100
AcDbEntity
  8
4
100
AcDbLine
 10
0.1227031801076066
 20
-0.1923751026551983
 30
0.0
 11
0.1367656801076067
 21
-0.2205001026551976
 31
0.0
  0
LINE
  5
147
330
138
100
AcDbEntity
  8
4
100
AcDbLine
 10
0.1367656801076067
 20
-0.164250102655199
 30
0.0
 11
0.1508281801076068
 21
-0.1923751026551983
 31
0.0
  0
LINE
  5
148
330
138
100
AcDbEntity
  8
4
100
AcDbLine
 10
0.1227031801076066
 20
-0.1923751026551983
 30
0.0
 11
0.1367656801076067
 21
-0.164250102655199
 31
0.0
  0
LINE
  5
149
330
138
100
AcDbEntity
  8
4
100
AcDbLine
 10
0.3273898092315308
 20
-0.1923751026551983
 30
0.0
 11
0.3414523092315309
 21
-0.164250102655199
 31
0.0
  0
LINE
  5
14A
330
138
100
AcDbEntity
  8
4
100
AcDbLine
 10
0.3414523092315309
 20
-0.164250102655199
 30
0.0
 11
0.355514809231531
 21
-0.1923751026551983
 31
0.0
  0
LINE
  5
14B
330
138
100
AcDbEntity
  8
4
100
AcDbLine
 10
0.3273898092315308
 20
-0.1923751026551983
 30
0.0
 11
0.3414523092315309
 21
-0.2205001026551976
 31
0.0
  0
LINE
  5
14C
330
138
100
AcDbEntity
  8
4
100
AcDbLine
 10
0.3414523092315309
 20
-0.2205001026551976
 30
0.0
 11
0.355514809231531
 21
-0.1923751026551983
 31
0.0
  0
LINE
  5
14D
330
138
100
AcDbEntity
  8
4
100
AcDbLine
 10
0.360202309231531
 20
-0.2640001026551983
 30
0.0
 11
0.3742648092315308
 21
-0.2358751026551982
 31
0.0
  0
LINE
  5
14E
330
138
100
AcDbEntity
  8
4
100
AcDbLine
 10
0.3461398092315309
 20
-0.2358751026551982
 30
0.0
 11
0.360202309231531
 21
-0.2640001026551983
 31
0.0
  0
LINE
  5
14F
330
138
100
AcDbEntity
  8
4
100
AcDbLine
 10
0.360202309231531
 20
-0.2077501026551989
 30
0.0
 11
0.3742648092315308
 21
-0.2358751026551982
 31
0.0
  0
LINE
  5
150
330
138
100
AcDbEntity
  8
4
100
AcDbLine
 10
0.3461398092315309
 20
-0.2358751026551982
 30
0.0
 11
0.360202309231531
 21
-0.2077501026551989
 31
0.0
  0
LINE
  5
151
330
138
100
AcDbEntity
  8
4
100
AcDbLine
 10
0.3461398092315309
 20
-0.1404284023754281
 30
0.0
 11
0.360202309231531
 21
-0.1123034023754288
 31
0.0
  0
LINE
  5
152
330
138
100
AcDbEntity
  8
4
100
AcDbLine
 10
0.360202309231531
 20
-0.1123034023754288
 30
0.0
 11
0.374264809231531
 21
-0.1404284023754281
 31
0.0
  0
LINE
  5
153
330
138
100
AcDbEntity
  8
4
100
AcDbLine
 10
0.3461398092315309
 20
-0.1404284023754281
 30
0.0
 11
0.360202309231531
 21
-0.1685534023754274
 31
0.0
  0
LINE
  5
154
330
138
100
AcDbEntity
  8
4
100
AcDbLine
 10
0.360202309231531
 20
-0.1685534023754274
 30
0.0
 11
0.374264809231531
 21
-0.1404284023754281
 31
0.0
  0
LINE
  5
155
330
138
100
AcDbEntity
  8
4
100
AcDbLine
 10
0.3414523092315311
 20
-0.1250534023754275
 30
0.0
 11
0.3555148092315312
 21
-0.0969284023754282
 31
0.0
  0
LINE
  5
156
330
138
100
AcDbEntity
  8
4
100
AcDbLine
 10
0.327389809231531
 20
-0.0969284023754282
 30
0.0
 11
0.3414523092315311
 21
-0.1250534023754275
 31
0.0
  0
LINE
  5
157
330
138
100
AcDbEntity
  8
4
100
AcDbLine
 10
0.3414523092315311
 20
-0.0688034023754289
 30
0.0
 11
0.3555148092315312
 21
-0.0969284023754282
 31
0.0
  0
LINE
  5
158
330
138
100
AcDbEntity
  8
4
100
AcDbLine
 10
0.327389809231531
 20
-0.0969284023754282
 30
0.0
 11
0.3414523092315311
 21
-0.0688034023754289
 31
0.0
  0
LINE
  5
159
330
138
100
AcDbEntity
  8
2
100
AcDbLine
 10
0.374264809231531
 20
-0.1404284023754281
 30
0.0
 11
0.374264809231531
 21
-0.2358751026551982
 31
0.0
  0
LINE
  5
15A
330
138
100
AcDbEntity
  8
2
100
AcDbLine
 10
0.1227031801076068
 20
-0.0969284023754282
 30
0.0
 11
0.1227031801076066
 21
-0.1923751026551983
 31
0.0
  0
LINE
  5
15B
330
138
100
AcDbEntity
  8
2
100
AcDbLine
 10
0.1555156801076065
 20
-0.2640001026551983
 30
0.0
 11
0.360202309231531
 21
-0.2640001026551983
 31
0.0
  0
LINE
  5
15C
330
138
100
AcDbEntity
  8
2
100
AcDbLine
 10
0.1367656801076069
 20
-0.068803402375428
 30
0.0
 11
0.3414523092315311
 21
-0.0688034023754289
 31
0.0
  0
ENDBLK
  5
15E
330
138
100
AcDbEntity
  8
0
100
AcDbBlockEnd
  0
BLOCK
  5
170
330
15F
100
AcDbEntity
  8
0
100
AcDbBlockBegin
  2
G3
 70
     0
 10
0.0
 20
0.0
 30
0.0
  3
G3
  1

  0
LINE
  5
160
330
15F
100
AcDbEntity
  8
4
100
AcDbLine
 10
0.2562499999999996
 20
-0.0954999999999995
 30
0.0
 11
0.2749999999999995
 21
-0.0579999999999998
 31
0.0
  0
LINE
  5
161
330
15F
100
AcDbEntity
  8
4
100
AcDbLine
 10
0.2749999999999995
 20
-0.0579999999999998
 30
0.0
 11
0.2937500000000002
 21
-0.0954999999999995
 31
0.0
  0
LINE
  5
162
330
15F
100
AcDbEntity
  8
4
100
AcDbLine
 10
0.2562499999999996
 20
-0.0954999999999995
 30
0.0
 11
0.2749999999999995
 21
-0.1329999999999991
 31
0.0
  0
LINE
  5
163
330
15F
100
AcDbEntity
  8
4
100
AcDbLine
 10
0.2749999999999995
 20
-0.1329999999999991
 30
0.0
 11
0.2937500000000002
 21
-0.0954999999999995
 31
0.0
  0
LINE
  5
164
330
15F
100
AcDbEntity
  8
4
100
AcDbLine
 10
0.25
 20
-0.0749999999999993
 30
0.0
 11
0.2687499999999998
 21
-0.0374999999999997
 31
0.0
  0
LINE
  5
165
330
15F
100
AcDbEntity
  8
4
100
AcDbLine
 10
0.2312500000000002
 20
-0.0374999999999997
 30
0.0
 11
0.25
 21
-0.0749999999999993
 31
0.0
  0
LINE
  5
166
330
15F
100
AcDbEntity
  8
4
100
AcDbLine
 10
-0.0187499999999998
 20
-0.0374999999999997
 30
0.0
 11
0.0
 21
-0.0749999999999993
 31
0.0
  0
LINE
  5
167
330
15F
100
AcDbEntity
  8
4
100
AcDbLine
 10
0.0
 20
-0.0749999999999993
 30
0.0
 11
0.0187499999999998
 21
-0.0374999999999997
 31
0.0
  0
LINE
  5
168
330
15F
100
AcDbEntity
  8
4
100
AcDbLine
 10
0.0250000000000004
 20
-0.1329999999999991
 30
0.0
 11
0.0437500000000002
 21
-0.0954999999999995
 31
0.0
  0
LINE
  5
169
330
15F
100
AcDbEntity
  8
4
100
AcDbLine
 10
0.0062500000000005
 20
-0.0954999999999995
 30
0.0
 11
0.0250000000000004
 21
-0.1329999999999991
 31
0.0
  0
LINE
  5
16A
330
15F
100
AcDbEntity
  8
4
100
AcDbLine
 10
0.0250000000000004
 20
-0.0579999999999998
 30
0.0
 11
0.0437500000000002
 21
-0.0954999999999995
 31
0.0
  0
LINE
  5
16B
330
15F
100
AcDbEntity
  8
4
100
AcDbLine
 10
0.0062500000000005
 20
-0.0954999999999995
 30
0.0
 11
0.0250000000000004
 21
-0.0579999999999998
 31
0.0
  0
LINE
  5
16C
330
15F
100
AcDbEntity
  8
4
100
AcDbLine
 10
-0.0187499999999998
 20
-0.0374999999999997
 30
0.0
 11
0.0
 21
0.0
 31
0.0
  0
LINE
  5
16D
330
15F
100
AcDbEntity
  8
4
100
AcDbLine
 10
0.0
 20
0.0
 30
0.0
 11
0.0187499999999998
 21
-0.0374999999999997
 31
0.0
  0
LINE
  5
16E
330
15F
100
AcDbEntity
  8
4
100
AcDbLine
 10
0.25
 20
0.0
 30
0.0
 11
0.2687499999999998
 21
-0.0374999999999997
 31
0.0
  0
LINE
  5
16F
330
15F
100
AcDbEntity
  8
4
100
AcDbLine
 10
0.2312500000000002
 20
-0.0374999999999997
 30
0.0
 11
0.25
 21
0.0
 31
0.0
  0
ENDBLK
  5
171
330
15F
100
AcDbEntity
  8
0
100
AcDbBlockEnd
  0
BLOCK
  5
187
330
172
100
AcDbEntity
  8
0
100
AcDbBlockBegin
  2
TEMP1
 70
     0
 10
0.0
 20
0.0
 30
0.0
  3
TEMP1
  1

  0
LINE
  5
173
330
172
100
AcDbEntity
  8
4
100
AcDbLine
 10
0.0
 20
0.0
 30
0.0
 11
0.4370000000000001
 21
0.0
 31
0.0
  0
LINE
  5
174
330
172
100
AcDbEntity
  8
4
100
AcDbLine
 10
-0.0000000000000002
 20
-0.2839999999999998
 30
0.0
 11
0.4369999999999999
 21
-0.2839999999999998
 31
0.0
  0
INSERT
  5
175
330
172
100
AcDbEntity
  8
8
100
AcDbBlockReference
  2
G2
 10
0.0
 20
0.0
 30
0.0
  0
CIRCLE
  5
176
330
172
100
AcDbEntity
  8
4
100
AcDbCircle
 10
0.0764163831522053
 20
-0.0727822749895069
 30
0.0
 40
0.023
  0
LINE
  5
177
330
172
100
AcDbEntity
  8
4
100
AcDbLine
 10
0.0
 20
-0.2839999999999998
 30
0.0
 11
0.0
 21
0.0
 31
0.0
  0
LINE
  5
178
330
172
100
AcDbEntity
  8
4
100
AcDbLine
 10
0.0322672280635061
 20
-0.0859200672647189
 30
0.0
 11
0.0322672280635061
 21
-0.1818360114893913
 31
0.0
  0
LINE
  5
179
330
172
100
AcDbEntity
  8
4
100
AcDbLine
 10
0.047267228063506
 20
-0.1818360114893913
 30
0.0
 11
0.047267228063506
 21
-0.0859200672647189
 31
0.0
  0
CIRCLE
  5
17A
330
172
100
AcDbEntity
  8
4
100
AcDbCircle
 10
0.0594878115226343
 20
-0.2657023461967354
 30
0.0
 40
0.0125
  0
CIRCLE
  5
17B
330
172
100
AcDbEntity
  8
4
100
AcDbCircle
 10
0.0594878115226343
 20
-0.2037864019720628
 30
0.0
 40
0.0125
  0
LINE
  5
17C
330
172
100
AcDbEntity
  8
4
100
AcDbLine
 10
0.0322672280635061
 20
-0.1818360114893913
 30
0.0
 11
0.047267228063506
 21
-0.1818360114893913
 31
0.0
  0
LINE
  5
17D
330
172
100
AcDbEntity
  8
4
100
AcDbLine
 10
0.047267228063506
 20
-0.0859200672647189
 30
0.0
 11
0.0322672280635061
 21
-0.0859200672647189
 31
0.0
  0
LWPOLYLINE
  5
17E
330
172
100
AcDbEntity
  8
4
100
AcDbPolyline
 90
        2
 70
     1
 43
0.01
 10
0.0714163831522055
 20
-0.0202822749895066
 42
1.0
 10
0.0814163831522052
 20
-0.0202822749895066
 42
1.0
  0
LWPOLYLINE
  5
17F
330
172
100
AcDbEntity
  8
4
100
AcDbPolyline
 90
        2
 70
     1
 43
0.01
 10
0.0714163831522055
 20
-0.1252822749895071
 42
1.0
 10
0.0814163831522052
 20
-0.1252822749895071
 42
1.0
  0
LINE
  5
180
330
172
100
AcDbEntity
  8
4
100
AcDbLine
 10
0.1685000000000001
 20
-0.0049561499393302
 30
0.0
 11
0.2685000000000002
 21
-0.0049561499393302
 31
0.0
  0
LINE
  5
181
330
172
100
AcDbEntity
  8
4
100
AcDbLine
 10
0.2685000000000002
 20
-0.0519561499393309
 30
0.0
 11
0.1685000000000001
 21
-0.0519561499393309
 31
0.0
  0
LINE
  5
182
330
172
100
AcDbEntity
  8
4
100
AcDbLine
 10
0.1685000000000001
 20
-0.0519561499393309
 30
0.0
 11
0.1685000000000001
 21
-0.0049561499393302
 31
0.0
  0
LINE
  5
183
330
172
100
AcDbEntity
  8
4
100
AcDbLine
 10
0.2685000000000002
 20
-0.0049561499393302
 30
0.0
 11
0.2685000000000002
 21
-0.0519561499393309
 31
0.0
  0
LINE
  5
184
330
172
100
AcDbEntity
  8
4
100
AcDbLine
 10
0.4370000000000001
 20
0.0
 30
0.0
 11
0.4369999999999999
 21
-0.2839999999999989
 31
0.0
  0
LINE
  5
185
330
172
100
AcDbEntity
  8
4
100
AcDbLine
 10
0.4470000000000001
 20
-0.1680999999999999
 30
0.0
 11
0.4470000000000001
 21
-0.2310999999999996
 31
0.0
  0
LINE
  5
186
330
172
100
AcDbEntity
  8
4
100
AcDbLine
 10
0.4470000000000001
 20
-0.0519752934648423
 30
0.0
 11
0.4470000000000001
 21
-0.114975293464842
 31
0.0
  0
ENDBLK
  5
188
330
172
100
AcDbEntity
  8
0
100
AcDbBlockEnd
  0
BLOCK
  5
192
330
189
100
AcDbEntity
  8
0
100
AcDbBlockBegin
  2
TEMP2
 70
     0
 10
0.0
 20
0.0
 30
0.0
  3
TEMP2
  1

  0
LINE
  5
18A
330
189
100
AcDbEntity
  8
4
100
AcDbLine
 10
1.217999999999999
 20
-0.3299999999999992
 30
0.0
 11
1.405999999999999
 21
-0.3299999999999992
 31
0.0
  0
LINE
  5
18B
330
189
100
AcDbEntity
  8
4
100
AcDbLine
 10
1.217999999999999
 20
-0.2679999999999989
 30
0.0
 11
1.405999999999999
 21
-0.2679999999999989
 31
0.0
  0
LINE
  5
18C
330
189
100
AcDbEntity
  8
4
100
AcDbLine
 10
0.593
 20
-0.3299999999999992
 30
0.0
 11
1.093999999999999
 21
-0.3299999999999992
 31
0.0
  0
LINE
  5
18D
330
189
100
AcDbEntity
  8
4
100
AcDbLine
 10
0.593
 20
-0.2679999999999989
 30
0.0
 11
1.093999999999999
 21
-0.2679999999999989
 31
0.0
  0
LINE
  5
18E
330
189
100
AcDbEntity
  8
4
100
AcDbLine
 10
1.842999999999999
 20
-0.3299999999999992
 30
0.0
 11
2.343999999999999
 21
-0.3299999999999992
 31
0.0
  0
LINE
  5
18F
330
189
100
AcDbEntity
  8
4
100
AcDbLine
 10
1.842999999999999
 20
-0.2679999999999989
 30
0.0
 11
2.343999999999999
 21
-0.2679999999999989
 31
0.0
  0
LINE
  5
190
330
189
100
AcDbEntity
  8
4
100
AcDbLine
 10
1.530999999999999
 20
-0.3299999999999992
 30
0.0
 11
1.718999999999999
 21
-0.3299999999999992
 31
0.0
  0
LINE
  5
191
330
189
100
AcDbEntity
  8
4
100
AcDbLine
 10
1.530999999999999
 20
-0.2679999999999989
 30
0.0
 11
1.718999999999999
 21
-0.2679999999999989
 31
0.0
  0
ENDBLK
  5
193
330
189
100
AcDbEntity
  8
0
100
AcDbBlockEnd
  0
BLOCK
  5
1DD
330
194
100
AcDbEntity
  8
0
100
AcDbBlockBegin
  2
TEMP3
 70
     0
 10
0.0
 20
0.0
 30
0.0
  3
TEMP3
  1

  0
LINE
  5
195
330
194
100
AcDbEntity
  8
2
100
AcDbLine
 10
0.2176855031708724
 20
-2.300916026860167
 30
0.0
 11
0.4676855031708716
 21
-2.300916026860167
 31
0.0
  0
LINE
  5
196
330
194
100
AcDbEntity
  8
2
100
AcDbLine
 10
0.242685503170871
 20
-2.433916026860167
 30
0.0
 11
0.492685503170871
 21
-2.433916026860167
 31
0.0
  0
LINE
  5
197
330
194
100
AcDbEntity
  8
2
100
AcDbLine
 10
0.242685503170871
 20
-0.4694329817609729
 30
0.0
 11
0.492685503170871
 21
-0.4694329817609729
 31
0.0
  0
LINE
  5
198
330
194
100
AcDbEntity
  8
2
100
AcDbLine
 10
0.2176855031708724
 20
-0.3364329817609732
 30
0.0
 11
0.4676855031708716
 21
-0.3364329817609732
 31
0.0
  0
LINE
  5
199
330
194
100
AcDbEntity
  8
2
100
AcDbLine
 10
0.2176855031708724
 20
-1.322370533414725
 30
0.0
 11
0.4676855031708725
 21
-1.322370533414725
 31
0.0
  0
LINE
  5
19A
330
194
100
AcDbEntity
  8
2
100
AcDbLine
 10
0.2176855031708724
 20
-1.247370533414728
 30
0.0
 11
0.4676855031708716
 21
-1.247370533414728
 31
0.0
  0
LINE
  5
19B
330
194
100
AcDbEntity
  8
2
100
AcDbLine
 10
0.2176855031708724
 20
-1.40768875079885
 30
0.0
 11
0.4676855031708716
 21
-1.40768875079885
 31
0.0
  0
LINE
  5
19C
330
194
100
AcDbEntity
  8
2
100
AcDbLine
 10
0.2176855031708724
 20
-1.482688750798847
 30
0.0
 11
0.4676855031708725
 21
-1.482688750798847
 31
0.0
  0
LINE
  5
19D
330
194
100
AcDbEntity
  8
2
100
AcDbLine
 10
0.2176855031708724
 20
-1.603159736310766
 30
0.0
 11
0.4676855031708716
 21
-1.603159736310766
 31
0.0
  0
LINE
  5
19E
330
194
100
AcDbEntity
  8
2
100
AcDbLine
 10
0.2176855031708724
 20
-1.798767557718374
 30
0.0
 11
0.4676855031708725
 21
-1.798767557718374
 31
0.0
  0
LINE
  5
19F
330
194
100
AcDbEntity
  8
2
100
AcDbLine
 10
0.2176855031708724
 20
-1.166767557718374
 30
0.0
 11
0.4676855031708725
 21
-1.166767557718374
 31
0.0
  0
LINE
  5
1A0
330
194
100
AcDbEntity
  8
2
100
AcDbLine
 10
0.2176855031708724
 20
-0.9711597363107662
 30
0.0
 11
0.4676855031708716
 21
-0.9711597363107662
 31
0.0
  0
LINE
  5
1A1
330
194
100
AcDbEntity
  8
2
100
AcDbLine
 10
0.242685503170871
 20
-2.138526035168777
 30
0.0
 11
0.492685503170871
 21
-2.138526035168777
 31
0.0
  0
LINE
  5
1A2
330
194
100
AcDbEntity
  8
2
100
AcDbLine
 10
0.2176855031708724
 20
-1.884918213761169
 30
0.0
 11
0.4676855031708716
 21
-1.884918213761169
 31
0.0
  0
LINE
  5
1A3
330
194
100
AcDbEntity
  8
2
100
AcDbLine
 10
0.2426855031708683
 20
-2.770526035168777
 30
0.0
 11
0.4926855031708684
 21
-2.770526035168777
 31
0.0
  0
LINE
  5
1A4
330
194
100
AcDbEntity
  8
2
100
AcDbLine
 10
0.2176855031708698
 20
-2.516918213761169
 30
0.0
 11
0.4676855031708689
 21
-2.516918213761169
 31
0.0
  0
LINE
  5
1A5
330
194
100
AcDbEntity
  8
2
100
AcDbLine
 10
0.242685503170871
 20
-0.8745260351687775
 30
0.0
 11
0.492685503170871
 21
-0.8745260351687775
 31
0.0
  0
LINE
  5
1A6
330
194
100
AcDbEntity
  8
2
100
AcDbLine
 10
0.2176855031708724
 20
-0.6209182137611693
 30
0.0
 11
0.4676855031708716
 21
-0.6209182137611693
 31
0.0
  0
LINE
  5
1A7
330
194
100
AcDbEntity
  8
2
100
AcDbLine
 10
0.2176855031708715
 20
0.0110817862388295
 30
0.0
 11
0.4676855031708707
 21
0.0110817862388295
 31
0.0
  0
LINE
  5
1A8
330
194
100
AcDbEntity
  8
2
100
AcDbLine
 10
0.2426855031708701
 20
-0.2425260351687788
 30
0.0
 11
0.4926855031708702
 21
-0.2425260351687788
 31
0.0
  0
INSERT
  5
1A9
330
194
100
AcDbEntity
  8
8
100
AcDbBlockReference
  2
G3
 10
0.2176855031708715
 20
0.0110817862388295
 30
0.0
  0
INSERT
  5
1AA
330
194
100
AcDbEntity
  8
8
100
AcDbBlockReference
  2
G3
 10
0.4926855031708702
 20
-0.2425260351687788
 30
0.0
 50
180.0
  0
INSERT
  5
1AB
330
194
100
AcDbEntity
  8
8
100
AcDbBlockReference
  2
G3
 10
0.2176855031708698
 20
-2.516918213761169
 30
0.0
  0
INSERT
  5
1AC
330
194
100
AcDbEntity
  8
8
100
AcDbBlockReference
  2
G3
 10
0.2176855031708724
 20
-2.300916026860167
 30
0.0
  0
INSERT
  5
1AD
330
194
100
AcDbEntity
  8
8
100
AcDbBlockReference
  2
G3
 10
0.2176855031708724
 20
-1.884918213761169
 30
0.0
  0
INSERT
  5
1AE
330
194
100
AcDbEntity
  8
8
100
AcDbBlockReference
  2
G3
 10
0.2176855031708724
 20
-1.603159736310766
 30
0.0
  0
INSERT
  5
1AF
330
194
100
AcDbEntity
  8
8
100
AcDbBlockReference
  2
G3
 10
0.492685503170871
 20
-2.138526035168777
 30
0.0
 50
180.0
  0
INSERT
  5
1B0
330
194
100
AcDbEntity
  8
8
100
AcDbBlockReference
  2
G3
 10
0.4926855031708684
 20
-2.770526035168777
 30
0.0
 50
180.0
  0
INSERT
  5
1B1
330
194
100
AcDbEntity
  8
8
100
AcDbBlockReference
  2
G3
 10
0.2176855031708724
 20
-0.9711597363107662
 30
0.0
  0
INSERT
  5
1B2
330
194
100
AcDbEntity
  8
8
100
AcDbBlockReference
  2
G3
 10
0.2176855031708724
 20
-0.6209182137611693
 30
0.0
  0
INSERT
  5
1B3
330
194
100
AcDbEntity
  8
8
100
AcDbBlockReference
  2
G3
 10
0.2176855031708724
 20
-0.3364329817609732
 30
0.0
  0
INSERT
  5
1B4
330
194
100
AcDbEntity
  8
8
100
AcDbBlockReference
  2
G3
 10
0.492685503170871
 20
-0.8745260351687775
 30
0.0
 50
180.0
  0
LINE
  5
1B5
330
194
100
AcDbEntity
  8
2
100
AcDbLine
 10
0.1989355031708717
 20
-1.922418213761169
 30
0.0
 11
0.1989355031708717
 21
-2.043026035168779
 31
0.0
  0
LINE
  5
1B6
330
194
100
AcDbEntity
  8
2
100
AcDbLine
 10
0.198935503170869
 20
-2.554418213761169
 30
0.0
 11
0.198935503170869
 21
-2.675026035168779
 31
0.0
  0
LINE
  5
1B7
330
194
100
AcDbEntity
  8
4
100
AcDbLine
 10
0.1989355031708717
 20
-1.445188750798849
 30
0.0
 11
0.2176855031708715
 21
-1.407688750798849
 31
0.0
  0
LINE
  5
1B8
330
194
100
AcDbEntity
  8
4
100
AcDbLine
 10
0.2176855031708715
 20
-1.407688750798849
 30
0.0
 11
0.2364355031708714
 21
-1.445188750798849
 31
0.0
  0
LINE
  5
1B9
330
194
100
AcDbEntity
  8
4
100
AcDbLine
 10
0.1989355031708717
 20
-1.761267557718376
 30
0.0
 11
0.2176855031708715
 21
-1.723767557718376
 31
0.0
  0
LINE
  5
1BA
330
194
100
AcDbEntity
  8
4
100
AcDbLine
 10
0.2176855031708715
 20
-1.723767557718376
 30
0.0
 11
0.2364355031708714
 21
-1.761267557718376
 31
0.0
  0
LINE
  5
1BB
330
194
100
AcDbEntity
  8
4
100
AcDbLine
 10
0.1989355031708717
 20
-1.761267557718376
 30
0.0
 11
0.2176855031708715
 21
-1.798767557718375
 31
0.0
  0
LINE
  5
1BC
330
194
100
AcDbEntity
  8
4
100
AcDbLine
 10
0.2176855031708715
 20
-1.798767557718375
 30
0.0
 11
0.2364355031708714
 21
-1.761267557718376
 31
0.0
  0
LINE
  5
1BD
330
194
100
AcDbEntity
  8
4
100
AcDbLine
 10
0.1989355031708717
 20
-1.445188750798849
 30
0.0
 11
0.2176855031708715
 21
-1.482688750798848
 31
0.0
  0
LINE
  5
1BE
330
194
100
AcDbEntity
  8
4
100
AcDbLine
 10
0.2176855031708715
 20
-1.482688750798848
 30
0.0
 11
0.2364355031708714
 21
-1.445188750798849
 31
0.0
  0
LINE
  5
1BF
330
194
100
AcDbEntity
  8
4
100
AcDbLine
 10
0.2176855031708715
 20
-1.322370533414726
 30
0.0
 11
0.2364355031708714
 21
-1.284870533414727
 31
0.0
  0
LINE
  5
1C0
330
194
100
AcDbEntity
  8
4
100
AcDbLine
 10
0.1989355031708717
 20
-1.284870533414727
 30
0.0
 11
0.2176855031708715
 21
-1.322370533414726
 31
0.0
  0
LINE
  5
1C1
330
194
100
AcDbEntity
  8
4
100
AcDbLine
 10
0.2176855031708715
 20
-1.247370533414727
 30
0.0
 11
0.2364355031708714
 21
-1.284870533414727
 31
0.0
  0
LINE
  5
1C2
330
194
100
AcDbEntity
  8
4
100
AcDbLine
 10
0.1989355031708717
 20
-1.284870533414727
 30
0.0
 11
0.2176855031708715
 21
-1.247370533414727
 31
0.0
  0
LINE
  5
1C3
330
194
100
AcDbEntity
  8
4
100
AcDbLine
 10
0.2176855031708715
 20
-1.166767557718375
 30
0.0
 11
0.2364355031708714
 21
-1.129267557718375
 31
0.0
  0
LINE
  5
1C4
330
194
100
AcDbEntity
  8
4
100
AcDbLine
 10
0.1989355031708717
 20
-1.129267557718375
 30
0.0
 11
0.2176855031708715
 21
-1.166767557718375
 31
0.0
  0
LINE
  5
1C5
330
194
100
AcDbEntity
  8
4
100
AcDbLine
 10
0.2176855031708715
 20
-1.091767557718376
 30
0.0
 11
0.2364355031708714
 21
-1.129267557718375
 31
0.0
  0
LINE
  5
1C6
330
194
100
AcDbEntity
  8
4
100
AcDbLine
 10
0.1989355031708717
 20
-1.129267557718375
 30
0.0
 11
0.2176855031708715
 21
-1.091767557718376
 31
0.0
  0
LINE
  5
1C7
330
194
100
AcDbEntity
  8
2
100
AcDbLine
 10
0.1989355031708717
 20
-0.658418213761169
 30
0.0
 11
0.1989355031708717
 21
-0.779026035168779
 31
0.0
  0
LINE
  5
1C8
330
194
100
AcDbEntity
  8
2
100
AcDbLine
 10
0.1989355031708708
 20
-0.0264182137611702
 30
0.0
 11
0.1989355031708708
 21
-0.1470260351687802
 31
0.0
  0
LINE
  5
1C9
330
194
100
AcDbEntity
  8
2
100
AcDbLine
 10
0.5114355031708691
 20
-2.612418213761169
 30
0.0
 11
0.5114355031708691
 21
-2.733026035168779
 31
0.0
  0
LINE
  5
1CA
330
194
100
AcDbEntity
  8
2
100
AcDbLine
 10
0.5114355031708718
 20
-1.980418213761168
 30
0.0
 11
0.5114355031708718
 21
-2.101026035168779
 31
0.0
  0
LINE
  5
1CB
330
194
100
AcDbEntity
  8
4
100
AcDbLine
 10
0.4676855031708716
 20
-1.407688750798849
 30
0.0
 11
0.4864355031708714
 21
-1.445188750798849
 31
0.0
  0
LINE
  5
1CC
330
194
100
AcDbEntity
  8
4
100
AcDbLine
 10
0.4489355031708718
 20
-1.445188750798849
 30
0.0
 11
0.4676855031708716
 21
-1.407688750798849
 31
0.0
  0
LINE
  5
1CD
330
194
100
AcDbEntity
  8
4
100
AcDbLine
 10
0.4676855031708716
 20
-1.798767557718375
 30
0.0
 11
0.4864355031708714
 21
-1.761267557718376
 31
0.0
  0
LINE
  5
1CE
330
194
100
AcDbEntity
  8
4
100
AcDbLine
 10
0.4489355031708718
 20
-1.761267557718376
 30
0.0
 11
0.4676855031708716
 21
-1.798767557718375
 31
0.0
  0
LINE
  5
1CF
330
194
100
AcDbEntity
  8
4
100
AcDbLine
 10
0.4676855031708716
 20
-1.723767557718376
 30
0.0
 11
0.4864355031708714
 21
-1.761267557718376
 31
0.0
  0
LINE
  5
1D0
330
194
100
AcDbEntity
  8
4
100
AcDbLine
 10
0.4489355031708718
 20
-1.761267557718376
 30
0.0
 11
0.4676855031708716
 21
-1.723767557718376
 31
0.0
  0
LINE
  5
1D1
330
194
100
AcDbEntity
  8
4
100
AcDbLine
 10
0.4676855031708716
 20
-1.482688750798848
 30
0.0
 11
0.4864355031708714
 21
-1.445188750798849
 31
0.0
  0
LINE
  5
1D2
330
194
100
AcDbEntity
  8
4
100
AcDbLine
 10
0.4489355031708718
 20
-1.445188750798849
 30
0.0
 11
0.4676855031708716
 21
-1.482688750798848
 31
0.0
  0
LINE
  5
1D3
330
194
100
AcDbEntity
  8
4
100
AcDbLine
 10
0.4489355031708718
 20
-1.284870533414727
 30
0.0
 11
0.4676855031708716
 21
-1.247370533414727
 31
0.0
  0
LINE
  5
1D4
330
194
100
AcDbEntity
  8
4
100
AcDbLine
 10
0.4676855031708716
 20
-1.247370533414727
 30
0.0
 11
0.4864355031708714
 21
-1.284870533414727
 31
0.0
  0
LINE
  5
1D5
330
194
100
AcDbEntity
  8
4
100
AcDbLine
 10
0.4489355031708718
 20
-1.284870533414727
 30
0.0
 11
0.4676855031708716
 21
-1.322370533414726
 31
0.0
  0
LINE
  5
1D6
330
194
100
AcDbEntity
  8
4
100
AcDbLine
 10
0.4676855031708716
 20
-1.322370533414726
 30
0.0
 11
0.4864355031708714
 21
-1.284870533414727
 31
0.0
  0
LINE
  5
1D7
330
194
100
AcDbEntity
  8
4
100
AcDbLine
 10
0.4489355031708718
 20
-1.129267557718375
 30
0.0
 11
0.4676855031708716
 21
-1.091767557718376
 31
0.0
  0
LINE
  5
1D8
330
194
100
AcDbEntity
  8
4
100
AcDbLine
 10
0.4676855031708716
 20
-1.091767557718376
 30
0.0
 11
0.4864355031708714
 21
-1.129267557718375
 31
0.0
  0
LINE
  5
1D9
330
194
100
AcDbEntity
  8
4
100
AcDbLine
 10
0.4489355031708718
 20
-1.129267557718375
 30
0.0
 11
0.4676855031708716
 21
-1.166767557718375
 31
0.0
  0
LINE
  5
1DA
330
194
100
AcDbEntity
  8
4
100
AcDbLine
 10
0.4676855031708716
 20
-1.166767557718375
 30
0.0
 11
0.4864355031708714
 21
-1.129267557718375
 31
0.0
  0
LINE
  5
1DB
330
194
100
AcDbEntity
  8
2
100
AcDbLine
 10
0.5114355031708718
 20
-0.7164182137611688
 30
0.0
 11
0.5114355031708718
 21
-0.8370260351687788
 31
0.0
  0
LINE
  5
1DC
330
194
100
AcDbEntity
  8
2
100
AcDbLine
 10
0.5114355031708709
 20
-0.08441821376117
 30
0.0
 11
0.5114355031708709
 21
-0.20502603516878
 31
0.0
  0
ENDBLK
  5
1DE
330
194
100
AcDbEntity
  8
0
100
AcDbBlockEnd
  0
BLOCK
  5
2AD
330
1E1
100
AcDbEntity
  8
0
100
AcDbBlockBegin
  2
LE1046
 70
     0
 10
0.0
 20
0.0
 30
0.0
  3
LE1046
  1

  0
INSERT
  5
1E2
330
1E1
100
AcDbEntity
  8
8
100
AcDbBlockReference
  2
G1
 10
0.0
 20
0.0
 30
0.0
  0
TEXT
  5
1E3
330
1E1
100
AcDbEntity
  8
8
100
AcDbText
 10
1.588699080157687
 20
0.094
 30
0.0
 40
0.125
  1
HEAVY DUTY VENTILATED LOCKER - 72" 9-HI BOX
  7
ROMANS
 72
     1
 11
4.125
 21
0.094
 31
0.0
100
AcDbText
  0
INSERT
  5
1E4
330
1E1
100
AcDbEntity
  8
8
100
AcDbBlockReference
  2
TEMP4
 10
0.5859118825233172
 20
2.130671334323178
 30
0.0
  0
INSERT
  5
1E5
330
1E1
100
AcDbEntity
  8
4
100
AcDbBlockReference
  2
ARRO
 10
0.9609118825233171
 20
2.068671334323178
 30
0.0
 50
180.0
  0
LINE
  5
1E6
330
1E1
100
AcDbEntity
  8
4
100
AcDbLine
 10
0.5859118825233172
 20
2.068671334323178
 30
0.0
 11
0.5859118825233172
 21
2.130671334323178
 31
0.0
  0
LINE
  5
1E7
330
1E1
100
AcDbEntity
  8
4
100
AcDbLine
 10
0.9609118825233171
 20
2.068671334323178
 30
0.0
 11
0.5859118825233172
 21
2.068671334323178
 31
0.0
  0
LINE
  5
1E8
330
1E1
100
AcDbEntity
  8
4
100
AcDbLine
 10
7.624499999999996
 20
1.878000000000001
 30
0.0
 11
7.6245
 21
1.594
 31
0.0
  0
LINE
  5
1E9
330
1E1
100
AcDbEntity
  8
4
100
AcDbLine
 10
6.375499999999997
 20
1.878000000000001
 30
0.0
 11
6.3755
 21
1.594000000000001
 31
0.0
  0
LINE
  5
1EA
330
1E1
100
AcDbEntity
  8
4
100
AcDbLine
 10
7.6245
 20
1.594
 30
0.0
 11
7.5625
 21
1.594
 31
0.0
  0
LINE
  5
1EB
330
1E1
100
AcDbEntity
  8
4
100
AcDbLine
 10
6.375499999999999
 20
1.594
 30
0.0
 11
6.4375
 21
1.594
 31
0.0
  0
LINE
  5
1EC
330
1E1
100
AcDbEntity
  8
4
100
AcDbLine
 10
7.562499999999997
 20
4.076000000000002
 30
0.0
 11
7.531499999999997
 21
4.107000000000001
 31
0.0
  0
LINE
  5
1ED
330
1E1
100
AcDbEntity
  8
4
100
AcDbLine
 10
7.562499999999997
 20
4.138000000000001
 30
0.0
 11
7.562499999999997
 21
4.076000000000002
 31
0.0
  0
LINE
  5
1EE
330
1E1
100
AcDbEntity
  8
4
100
AcDbLine
 10
7.019499999999997
 20
4.138000000000001
 30
0.0
 11
7.562499999999997
 21
4.138000000000001
 31
0.0
  0
LINE
  5
1EF
330
1E1
100
AcDbEntity
  8
4
100
AcDbLine
 10
7.019499999999997
 20
4.076000000000002
 30
0.0
 11
7.019499999999997
 21
4.138000000000001
 31
0.0
  0
LINE
  5
1F0
330
1E1
100
AcDbEntity
  8
4
100
AcDbLine
 10
6.980499999999996
 20
4.076000000000002
 30
0.0
 11
6.980499999999996
 21
4.138000000000001
 31
0.0
  0
LINE
  5
1F1
330
1E1
100
AcDbEntity
  8
4
100
AcDbLine
 10
6.980499999999996
 20
4.138000000000001
 30
0.0
 11
6.437499999999995
 21
4.138000000000001
 31
0.0
  0
LINE
  5
1F2
330
1E1
100
AcDbEntity
  8
4
100
AcDbLine
 10
6.437499999999995
 20
4.138000000000001
 30
0.0
 11
6.437499999999995
 21
4.076000000000002
 31
0.0
  0
LINE
  5
1F3
330
1E1
100
AcDbEntity
  8
4
100
AcDbLine
 10
6.437499999999995
 20
4.076000000000002
 30
0.0
 11
6.468499999999995
 21
4.107000000000001
 31
0.0
  0
LINE
  5
1F4
330
1E1
100
AcDbEntity
  8
4
100
AcDbLine
 10
5.670499999999996
 20
4.076000000000002
 30
0.0
 11
5.670499999999996
 21
4.138000000000001
 31
0.0
  0
LINE
  5
1F5
330
1E1
100
AcDbEntity
  8
4
100
AcDbLine
 10
6.375499999999996
 20
4.122000000000001
 30
0.0
 11
6.437499999999995
 21
4.122000000000001
 31
0.0
  0
LINE
  5
1F6
330
1E1
100
AcDbEntity
  8
4
100
AcDbLine
 10
6.375499999999996
 20
4.090000000000001
 30
0.0
 11
6.437499999999995
 21
4.090000000000001
 31
0.0
  0
LINE
  5
1F7
330
1E1
100
AcDbEntity
  8
4
100
AcDbLine
 10
7.562499999999997
 20
4.122000000000001
 30
0.0
 11
7.624499999999996
 21
4.122000000000001
 31
0.0
  0
LINE
  5
1F8
330
1E1
100
AcDbEntity
  8
4
100
AcDbLine
 10
7.562499999999997
 20
4.090000000000001
 30
0.0
 11
7.624499999999996
 21
4.090000000000001
 31
0.0
  0
LINE
  5
1F9
330
1E1
100
AcDbEntity
  8
4
100
AcDbLine
 10
6.375499999999999
 20
4.406
 30
0.0
 11
6.375499999999996
 21
4.122000000000001
 31
0.0
  0
LINE
  5
1FA
330
1E1
100
AcDbEntity
  8
4
100
AcDbLine
 10
7.6245
 20
4.406
 30
0.0
 11
7.624499999999996
 21
4.122000000000001
 31
0.0
  0
LINE
  5
1FB
330
1E1
100
AcDbEntity
  8
4
100
AcDbLine
 10
7.624500000000001
 20
4.406
 30
0.0
 11
7.5625
 21
4.406
 31
0.0
  0
LINE
  5
1FC
330
1E1
100
AcDbEntity
  8
4
100
AcDbLine
 10
6.375499999999998
 20
4.406
 30
0.0
 11
6.437499999999999
 21
4.406
 31
0.0
  0
LINE
  5
1FD
330
1E1
100
AcDbEntity
  8
4
100
AcDbLine
 10
7.562499999999997
 20
3.774000000000001
 30
0.0
 11
7.624499999999996
 21
3.774000000000001
 31
0.0
  0
LINE
  5
1FE
330
1E1
100
AcDbEntity
  8
4
100
AcDbLine
 10
7.562499999999997
 20
3.806000000000001
 30
0.0
 11
7.624499999999996
 21
3.806000000000001
 31
0.0
  0
LINE
  5
1FF
330
1E1
100
AcDbEntity
  8
4
100
AcDbLine
 10
6.375499999999996
 20
3.774000000000001
 30
0.0
 11
6.437499999999995
 21
3.774000000000001
 31
0.0
  0
LINE
  5
200
330
1E1
100
AcDbEntity
  8
4
100
AcDbLine
 10
6.375499999999996
 20
3.806000000000001
 30
0.0
 11
6.437499999999995
 21
3.806000000000001
 31
0.0
  0
LINE
  5
201
330
1E1
100
AcDbEntity
  8
4
100
AcDbLine
 10
5.670499999999996
 20
3.760000000000002
 30
0.0
 11
5.670499999999996
 21
3.822000000000001
 31
0.0
  0
LINE
  5
202
330
1E1
100
AcDbEntity
  8
4
100
AcDbLine
 10
6.437499999999995
 20
3.760000000000002
 30
0.0
 11
6.468499999999995
 21
3.791000000000001
 31
0.0
  0
LINE
  5
203
330
1E1
100
AcDbEntity
  8
4
100
AcDbLine
 10
6.437499999999995
 20
3.822000000000001
 30
0.0
 11
6.437499999999995
 21
3.760000000000002
 31
0.0
  0
LINE
  5
204
330
1E1
100
AcDbEntity
  8
4
100
AcDbLine
 10
6.980499999999996
 20
3.822000000000001
 30
0.0
 11
6.437499999999995
 21
3.822000000000001
 31
0.0
  0
LINE
  5
205
330
1E1
100
AcDbEntity
  8
4
100
AcDbLine
 10
6.980499999999996
 20
3.760000000000002
 30
0.0
 11
6.980499999999996
 21
3.822000000000001
 31
0.0
  0
LINE
  5
206
330
1E1
100
AcDbEntity
  8
4
100
AcDbLine
 10
7.019499999999997
 20
3.760000000000002
 30
0.0
 11
7.019499999999997
 21
3.822000000000001
 31
0.0
  0
LINE
  5
207
330
1E1
100
AcDbEntity
  8
4
100
AcDbLine
 10
7.019499999999997
 20
3.822000000000001
 30
0.0
 11
7.562499999999997
 21
3.822000000000001
 31
0.0
  0
LINE
  5
208
330
1E1
100
AcDbEntity
  8
4
100
AcDbLine
 10
7.562499999999997
 20
3.822000000000001
 30
0.0
 11
7.562499999999997
 21
3.760000000000002
 31
0.0
  0
LINE
  5
209
330
1E1
100
AcDbEntity
  8
4
100
AcDbLine
 10
7.562499999999997
 20
3.760000000000002
 30
0.0
 11
7.531499999999997
 21
3.791000000000001
 31
0.0
  0
LINE
  5
20A
330
1E1
100
AcDbEntity
  8
4
100
AcDbLine
 10
7.6245
 20
4.09
 30
0.0
 11
7.624499999999996
 21
3.806000000000001
 31
0.0
  0
LINE
  5
20B
330
1E1
100
AcDbEntity
  8
4
100
AcDbLine
 10
6.375499999999999
 20
4.09
 30
0.0
 11
6.375499999999996
 21
3.806000000000001
 31
0.0
  0
LINE
  5
20C
330
1E1
100
AcDbEntity
  8
4
100
AcDbLine
 10
7.562499999999997
 20
3.458000000000001
 30
0.0
 11
7.624499999999996
 21
3.458000000000001
 31
0.0
  0
LINE
  5
20D
330
1E1
100
AcDbEntity
  8
4
100
AcDbLine
 10
7.562499999999997
 20
3.490000000000001
 30
0.0
 11
7.624499999999996
 21
3.490000000000001
 31
0.0
  0
LINE
  5
20E
330
1E1
100
AcDbEntity
  8
4
100
AcDbLine
 10
6.375499999999996
 20
3.458000000000001
 30
0.0
 11
6.437499999999995
 21
3.458000000000001
 31
0.0
  0
LINE
  5
20F
330
1E1
100
AcDbEntity
  8
4
100
AcDbLine
 10
6.375499999999996
 20
3.490000000000001
 30
0.0
 11
6.437499999999995
 21
3.490000000000001
 31
0.0
  0
LINE
  5
210
330
1E1
100
AcDbEntity
  8
4
100
AcDbLine
 10
5.670499999999996
 20
3.444000000000002
 30
0.0
 11
5.670499999999996
 21
3.506000000000001
 31
0.0
  0
LINE
  5
211
330
1E1
100
AcDbEntity
  8
4
100
AcDbLine
 10
6.437499999999995
 20
3.444000000000002
 30
0.0
 11
6.468499999999995
 21
3.475
 31
0.0
  0
LINE
  5
212
330
1E1
100
AcDbEntity
  8
4
100
AcDbLine
 10
6.437499999999995
 20
3.506000000000001
 30
0.0
 11
6.437499999999995
 21
3.444000000000002
 31
0.0
  0
LINE
  5
213
330
1E1
100
AcDbEntity
  8
4
100
AcDbLine
 10
6.980499999999996
 20
3.506000000000001
 30
0.0
 11
6.437499999999995
 21
3.506000000000001
 31
0.0
  0
LINE
  5
214
330
1E1
100
AcDbEntity
  8
4
100
AcDbLine
 10
6.980499999999996
 20
3.444000000000002
 30
0.0
 11
6.980499999999996
 21
3.506000000000001
 31
0.0
  0
LINE
  5
215
330
1E1
100
AcDbEntity
  8
4
100
AcDbLine
 10
7.019499999999997
 20
3.444000000000002
 30
0.0
 11
7.019499999999997
 21
3.506000000000001
 31
0.0
  0
LINE
  5
216
330
1E1
100
AcDbEntity
  8
4
100
AcDbLine
 10
7.019499999999997
 20
3.506000000000001
 30
0.0
 11
7.562499999999997
 21
3.506000000000001
 31
0.0
  0
LINE
  5
217
330
1E1
100
AcDbEntity
  8
4
100
AcDbLine
 10
7.562499999999997
 20
3.506000000000001
 30
0.0
 11
7.562499999999997
 21
3.444000000000002
 31
0.0
  0
LINE
  5
218
330
1E1
100
AcDbEntity
  8
4
100
AcDbLine
 10
7.562499999999997
 20
3.444000000000002
 30
0.0
 11
7.531499999999997
 21
3.475
 31
0.0
  0
LINE
  5
219
330
1E1
100
AcDbEntity
  8
4
100
AcDbLine
 10
7.6245
 20
3.774
 30
0.0
 11
7.624499999999996
 21
3.490000000000001
 31
0.0
  0
LINE
  5
21A
330
1E1
100
AcDbEntity
  8
4
100
AcDbLine
 10
6.375499999999999
 20
3.774
 30
0.0
 11
6.375499999999996
 21
3.490000000000001
 31
0.0
  0
LINE
  5
21B
330
1E1
100
AcDbEntity
  8
4
100
AcDbLine
 10
7.562499999999997
 20
3.142000000000001
 30
0.0
 11
7.624499999999996
 21
3.142000000000001
 31
0.0
  0
LINE
  5
21C
330
1E1
100
AcDbEntity
  8
4
100
AcDbLine
 10
7.562499999999997
 20
3.174000000000001
 30
0.0
 11
7.624499999999996
 21
3.174000000000001
 31
0.0
  0
LINE
  5
21D
330
1E1
100
AcDbEntity
  8
4
100
AcDbLine
 10
6.375499999999996
 20
3.142000000000001
 30
0.0
 11
6.437499999999995
 21
3.142000000000001
 31
0.0
  0
LINE
  5
21E
330
1E1
100
AcDbEntity
  8
4
100
AcDbLine
 10
6.375499999999996
 20
3.174000000000001
 30
0.0
 11
6.437499999999995
 21
3.174000000000001
 31
0.0
  0
LINE
  5
21F
330
1E1
100
AcDbEntity
  8
4
100
AcDbLine
 10
5.670499999999996
 20
3.128000000000002
 30
0.0
 11
5.670499999999996
 21
3.190000000000001
 31
0.0
  0
LINE
  5
220
330
1E1
100
AcDbEntity
  8
4
100
AcDbLine
 10
6.437499999999995
 20
3.128000000000002
 30
0.0
 11
6.468499999999995
 21
3.159000000000001
 31
0.0
  0
LINE
  5
221
330
1E1
100
AcDbEntity
  8
4
100
AcDbLine
 10
6.437499999999995
 20
3.190000000000001
 30
0.0
 11
6.437499999999995
 21
3.128000000000002
 31
0.0
  0
LINE
  5
222
330
1E1
100
AcDbEntity
  8
4
100
AcDbLine
 10
6.980499999999996
 20
3.190000000000001
 30
0.0
 11
6.437499999999995
 21
3.190000000000001
 31
0.0
  0
LINE
  5
223
330
1E1
100
AcDbEntity
  8
4
100
AcDbLine
 10
6.980499999999996
 20
3.128000000000002
 30
0.0
 11
6.980499999999996
 21
3.190000000000001
 31
0.0
  0
LINE
  5
224
330
1E1
100
AcDbEntity
  8
4
100
AcDbLine
 10
7.019499999999997
 20
3.128000000000002
 30
0.0
 11
7.019499999999997
 21
3.190000000000001
 31
0.0
  0
LINE
  5
225
330
1E1
100
AcDbEntity
  8
4
100
AcDbLine
 10
7.019499999999997
 20
3.190000000000001
 30
0.0
 11
7.562499999999997
 21
3.190000000000001
 31
0.0
  0
LINE
  5
226
330
1E1
100
AcDbEntity
  8
4
100
AcDbLine
 10
7.562499999999997
 20
3.190000000000001
 30
0.0
 11
7.562499999999997
 21
3.128000000000002
 31
0.0
  0
LINE
  5
227
330
1E1
100
AcDbEntity
  8
4
100
AcDbLine
 10
7.562499999999997
 20
3.128000000000002
 30
0.0
 11
7.531499999999997
 21
3.159000000000001
 31
0.0
  0
LINE
  5
228
330
1E1
100
AcDbEntity
  8
4
100
AcDbLine
 10
7.6245
 20
3.458
 30
0.0
 11
7.624499999999996
 21
3.174000000000001
 31
0.0
  0
LINE
  5
229
330
1E1
100
AcDbEntity
  8
4
100
AcDbLine
 10
6.375499999999999
 20
3.458
 30
0.0
 11
6.375499999999996
 21
3.174000000000001
 31
0.0
  0
LINE
  5
22A
330
1E1
100
AcDbEntity
  8
4
100
AcDbLine
 10
7.562499999999997
 20
2.826000000000001
 30
0.0
 11
7.624499999999996
 21
2.826000000000001
 31
0.0
  0
LINE
  5
22B
330
1E1
100
AcDbEntity
  8
4
100
AcDbLine
 10
7.562499999999997
 20
2.858000000000001
 30
0.0
 11
7.624499999999996
 21
2.858000000000001
 31
0.0
  0
LINE
  5
22C
330
1E1
100
AcDbEntity
  8
4
100
AcDbLine
 10
6.375499999999996
 20
2.826000000000001
 30
0.0
 11
6.437499999999995
 21
2.826000000000001
 31
0.0
  0
LINE
  5
22D
330
1E1
100
AcDbEntity
  8
4
100
AcDbLine
 10
6.375499999999996
 20
2.858000000000001
 30
0.0
 11
6.437499999999995
 21
2.858000000000001
 31
0.0
  0
LINE
  5
22E
330
1E1
100
AcDbEntity
  8
4
100
AcDbLine
 10
5.670499999999996
 20
2.812000000000002
 30
0.0
 11
5.670499999999996
 21
2.874000000000001
 31
0.0
  0
LINE
  5
22F
330
1E1
100
AcDbEntity
  8
4
100
AcDbLine
 10
6.437499999999995
 20
2.812000000000002
 30
0.0
 11
6.468499999999995
 21
2.843
 31
0.0
  0
LINE
  5
230
330
1E1
100
AcDbEntity
  8
4
100
AcDbLine
 10
6.437499999999995
 20
2.874000000000001
 30
0.0
 11
6.437499999999995
 21
2.812000000000002
 31
0.0
  0
LINE
  5
231
330
1E1
100
AcDbEntity
  8
4
100
AcDbLine
 10
6.980499999999996
 20
2.874000000000001
 30
0.0
 11
6.437499999999995
 21
2.874000000000001
 31
0.0
  0
LINE
  5
232
330
1E1
100
AcDbEntity
  8
4
100
AcDbLine
 10
6.980499999999996
 20
2.812000000000002
 30
0.0
 11
6.980499999999996
 21
2.874000000000001
 31
0.0
  0
LINE
  5
233
330
1E1
100
AcDbEntity
  8
4
100
AcDbLine
 10
7.019499999999997
 20
2.812000000000002
 30
0.0
 11
7.019499999999997
 21
2.874000000000001
 31
0.0
  0
LINE
  5
234
330
1E1
100
AcDbEntity
  8
4
100
AcDbLine
 10
7.019499999999997
 20
2.874000000000001
 30
0.0
 11
7.562499999999997
 21
2.874000000000001
 31
0.0
  0
LINE
  5
235
330
1E1
100
AcDbEntity
  8
4
100
AcDbLine
 10
7.562499999999997
 20
2.874000000000001
 30
0.0
 11
7.562499999999997
 21
2.812000000000002
 31
0.0
  0
LINE
  5
236
330
1E1
100
AcDbEntity
  8
4
100
AcDbLine
 10
7.562499999999997
 20
2.812000000000002
 30
0.0
 11
7.531499999999997
 21
2.843
 31
0.0
  0
LINE
  5
237
330
1E1
100
AcDbEntity
  8
4
100
AcDbLine
 10
7.6245
 20
3.142
 30
0.0
 11
7.624499999999996
 21
2.858000000000001
 31
0.0
  0
LINE
  5
238
330
1E1
100
AcDbEntity
  8
4
100
AcDbLine
 10
6.375499999999999
 20
3.142
 30
0.0
 11
6.375499999999996
 21
2.858000000000001
 31
0.0
  0
LINE
  5
239
330
1E1
100
AcDbEntity
  8
4
100
AcDbLine
 10
7.562499999999997
 20
2.510000000000001
 30
0.0
 11
7.624499999999996
 21
2.510000000000001
 31
0.0
  0
LINE
  5
23A
330
1E1
100
AcDbEntity
  8
4
100
AcDbLine
 10
7.562499999999997
 20
2.542000000000001
 30
0.0
 11
7.624499999999996
 21
2.542000000000001
 31
0.0
  0
LINE
  5
23B
330
1E1
100
AcDbEntity
  8
4
100
AcDbLine
 10
6.375499999999996
 20
2.510000000000001
 30
0.0
 11
6.437499999999995
 21
2.510000000000001
 31
0.0
  0
LINE
  5
23C
330
1E1
100
AcDbEntity
  8
4
100
AcDbLine
 10
6.375499999999996
 20
2.542000000000001
 30
0.0
 11
6.437499999999995
 21
2.542000000000001
 31
0.0
  0
LINE
  5
23D
330
1E1
100
AcDbEntity
  8
4
100
AcDbLine
 10
5.670499999999996
 20
2.496000000000002
 30
0.0
 11
5.670499999999996
 21
2.558000000000001
 31
0.0
  0
LINE
  5
23E
330
1E1
100
AcDbEntity
  8
4
100
AcDbLine
 10
6.437499999999995
 20
2.496000000000002
 30
0.0
 11
6.468499999999995
 21
2.527000000000001
 31
0.0
  0
LINE
  5
23F
330
1E1
100
AcDbEntity
  8
4
100
AcDbLine
 10
6.437499999999995
 20
2.558000000000001
 30
0.0
 11
6.437499999999995
 21
2.496000000000002
 31
0.0
  0
LINE
  5
240
330
1E1
100
AcDbEntity
  8
4
100
AcDbLine
 10
6.980499999999996
 20
2.558000000000001
 30
0.0
 11
6.437499999999995
 21
2.558000000000001
 31
0.0
  0
LINE
  5
241
330
1E1
100
AcDbEntity
  8
4
100
AcDbLine
 10
6.980499999999996
 20
2.496000000000002
 30
0.0
 11
6.980499999999996
 21
2.558000000000001
 31
0.0
  0
LINE
  5
242
330
1E1
100
AcDbEntity
  8
4
100
AcDbLine
 10
7.019499999999997
 20
2.496000000000002
 30
0.0
 11
7.019499999999997
 21
2.558000000000001
 31
0.0
  0
LINE
  5
243
330
1E1
100
AcDbEntity
  8
4
100
AcDbLine
 10
7.019499999999997
 20
2.558000000000001
 30
0.0
 11
7.562499999999997
 21
2.558000000000001
 31
0.0
  0
LINE
  5
244
330
1E1
100
AcDbEntity
  8
4
100
AcDbLine
 10
7.562499999999997
 20
2.558000000000001
 30
0.0
 11
7.562499999999997
 21
2.496000000000002
 31
0.0
  0
LINE
  5
245
330
1E1
100
AcDbEntity
  8
4
100
AcDbLine
 10
7.562499999999997
 20
2.496000000000002
 30
0.0
 11
7.531499999999997
 21
2.527000000000001
 31
0.0
  0
LINE
  5
246
330
1E1
100
AcDbEntity
  8
4
100
AcDbLine
 10
7.6245
 20
2.826
 30
0.0
 11
7.624499999999996
 21
2.542000000000001
 31
0.0
  0
LINE
  5
247
330
1E1
100
AcDbEntity
  8
4
100
AcDbLine
 10
6.375499999999999
 20
2.826
 30
0.0
 11
6.375499999999996
 21
2.542000000000001
 31
0.0
  0
LINE
  5
248
330
1E1
100
AcDbEntity
  8
4
100
AcDbLine
 10
7.562499999999997
 20
2.194000000000001
 30
0.0
 11
7.624499999999996
 21
2.194000000000001
 31
0.0
  0
LINE
  5
249
330
1E1
100
AcDbEntity
  8
4
100
AcDbLine
 10
7.562499999999997
 20
2.226000000000001
 30
0.0
 11
7.624499999999996
 21
2.226000000000001
 31
0.0
  0
LINE
  5
24A
330
1E1
100
AcDbEntity
  8
4
100
AcDbLine
 10
6.375499999999996
 20
2.194000000000001
 30
0.0
 11
6.437499999999995
 21
2.194000000000001
 31
0.0
  0
LINE
  5
24B
330
1E1
100
AcDbEntity
  8
4
100
AcDbLine
 10
6.375499999999996
 20
2.226000000000001
 30
0.0
 11
6.437499999999995
 21
2.226000000000001
 31
0.0
  0
LINE
  5
24C
330
1E1
100
AcDbEntity
  8
4
100
AcDbLine
 10
5.670499999999996
 20
2.180000000000002
 30
0.0
 11
5.670499999999996
 21
2.242000000000001
 31
0.0
  0
LINE
  5
24D
330
1E1
100
AcDbEntity
  8
4
100
AcDbLine
 10
6.437499999999995
 20
2.180000000000002
 30
0.0
 11
6.468499999999995
 21
2.211000000000001
 31
0.0
  0
LINE
  5
24E
330
1E1
100
AcDbEntity
  8
4
100
AcDbLine
 10
6.437499999999995
 20
2.242000000000001
 30
0.0
 11
6.437499999999995
 21
2.180000000000002
 31
0.0
  0
LINE
  5
24F
330
1E1
100
AcDbEntity
  8
4
100
AcDbLine
 10
6.980499999999996
 20
2.242000000000001
 30
0.0
 11
6.437499999999995
 21
2.242000000000001
 31
0.0
  0
LINE
  5
250
330
1E1
100
AcDbEntity
  8
4
100
AcDbLine
 10
6.980499999999996
 20
2.180000000000002
 30
0.0
 11
6.980499999999996
 21
2.242000000000001
 31
0.0
  0
LINE
  5
251
330
1E1
100
AcDbEntity
  8
4
100
AcDbLine
 10
7.019499999999997
 20
2.180000000000002
 30
0.0
 11
7.019499999999997
 21
2.242000000000001
 31
0.0
  0
LINE
  5
252
330
1E1
100
AcDbEntity
  8
4
100
AcDbLine
 10
7.019499999999997
 20
2.242000000000001
 30
0.0
 11
7.562499999999997
 21
2.242000000000001
 31
0.0
  0
LINE
  5
253
330
1E1
100
AcDbEntity
  8
4
100
AcDbLine
 10
7.562499999999997
 20
2.242000000000001
 30
0.0
 11
7.562499999999997
 21
2.180000000000002
 31
0.0
  0
LINE
  5
254
330
1E1
100
AcDbEntity
  8
4
100
AcDbLine
 10
7.562499999999997
 20
2.180000000000002
 30
0.0
 11
7.531499999999997
 21
2.211000000000001
 31
0.0
  0
LINE
  5
255
330
1E1
100
AcDbEntity
  8
4
100
AcDbLine
 10
7.6245
 20
2.51
 30
0.0
 11
7.624499999999996
 21
2.226000000000001
 31
0.0
  0
LINE
  5
256
330
1E1
100
AcDbEntity
  8
4
100
AcDbLine
 10
6.375499999999999
 20
2.51
 30
0.0
 11
6.375499999999996
 21
2.226000000000001
 31
0.0
  0
LINE
  5
257
330
1E1
100
AcDbEntity
  8
4
100
AcDbLine
 10
7.562499999999997
 20
1.878000000000001
 30
0.0
 11
7.624499999999996
 21
1.878000000000001
 31
0.0
  0
LINE
  5
258
330
1E1
100
AcDbEntity
  8
4
100
AcDbLine
 10
7.562499999999997
 20
1.910000000000001
 30
0.0
 11
7.624499999999996
 21
1.910000000000001
 31
0.0
  0
LINE
  5
259
330
1E1
100
AcDbEntity
  8
4
100
AcDbLine
 10
6.375499999999996
 20
1.878000000000001
 30
0.0
 11
6.437499999999995
 21
1.878000000000001
 31
0.0
  0
LINE
  5
25A
330
1E1
100
AcDbEntity
  8
4
100
AcDbLine
 10
6.375499999999996
 20
1.910000000000001
 30
0.0
 11
6.437499999999995
 21
1.910000000000001
 31
0.0
  0
LINE
  5
25B
330
1E1
100
AcDbEntity
  8
4
100
AcDbLine
 10
5.670499999999996
 20
1.864000000000002
 30
0.0
 11
5.670499999999996
 21
1.926000000000001
 31
0.0
  0
LINE
  5
25C
330
1E1
100
AcDbEntity
  8
4
100
AcDbLine
 10
6.437499999999995
 20
1.864000000000002
 30
0.0
 11
6.468499999999995
 21
1.895
 31
0.0
  0
LINE
  5
25D
330
1E1
100
AcDbEntity
  8
4
100
AcDbLine
 10
6.437499999999995
 20
1.926000000000001
 30
0.0
 11
6.437499999999995
 21
1.864000000000002
 31
0.0
  0
LINE
  5
25E
330
1E1
100
AcDbEntity
  8
4
100
AcDbLine
 10
6.980499999999996
 20
1.926000000000001
 30
0.0
 11
6.437499999999995
 21
1.926000000000001
 31
0.0
  0
LINE
  5
25F
330
1E1
100
AcDbEntity
  8
4
100
AcDbLine
 10
6.980499999999996
 20
1.864000000000002
 30
0.0
 11
6.980499999999996
 21
1.926000000000001
 31
0.0
  0
LINE
  5
260
330
1E1
100
AcDbEntity
  8
4
100
AcDbLine
 10
7.019499999999997
 20
1.864000000000002
 30
0.0
 11
7.019499999999997
 21
1.926000000000001
 31
0.0
  0
LINE
  5
261
330
1E1
100
AcDbEntity
  8
4
100
AcDbLine
 10
7.019499999999997
 20
1.926000000000001
 30
0.0
 11
7.562499999999997
 21
1.926000000000001
 31
0.0
  0
LINE
  5
262
330
1E1
100
AcDbEntity
  8
4
100
AcDbLine
 10
7.562499999999997
 20
1.926000000000001
 30
0.0
 11
7.562499999999997
 21
1.864000000000002
 31
0.0
  0
LINE
  5
263
330
1E1
100
AcDbEntity
  8
4
100
AcDbLine
 10
7.562499999999997
 20
1.864000000000002
 30
0.0
 11
7.531499999999997
 21
1.895
 31
0.0
  0
LINE
  5
264
330
1E1
100
AcDbEntity
  8
4
100
AcDbLine
 10
7.6245
 20
2.194
 30
0.0
 11
7.624499999999996
 21
1.910000000000001
 31
0.0
  0
LINE
  5
265
330
1E1
100
AcDbEntity
  8
4
100
AcDbLine
 10
6.375499999999999
 20
2.194
 30
0.0
 11
6.375499999999996
 21
1.910000000000001
 31
0.0
  0
LINE
  5
266
330
1E1
100
AcDbEntity
  8
4
100
AcDbLine
 10
5.670499999999996
 20
4.138000000000001
 30
0.0
 11
5.127499999999995
 21
4.138000000000001
 31
0.0
  0
LINE
  5
267
330
1E1
100
AcDbEntity
  8
4
100
AcDbLine
 10
5.670499999999996
 20
3.822000000000001
 30
0.0
 11
5.127499999999995
 21
3.822000000000001
 31
0.0
  0
LINE
  5
268
330
1E1
100
AcDbEntity
  8
4
100
AcDbLine
 10
5.670499999999996
 20
3.506000000000001
 30
0.0
 11
5.127499999999995
 21
3.506000000000001
 31
0.0
  0
LINE
  5
269
330
1E1
100
AcDbEntity
  8
4
100
AcDbLine
 10
5.670499999999996
 20
3.190000000000001
 30
0.0
 11
5.127499999999995
 21
3.190000000000001
 31
0.0
  0
LINE
  5
26A
330
1E1
100
AcDbEntity
  8
4
100
AcDbLine
 10
5.670499999999996
 20
2.874000000000001
 30
0.0
 11
5.127499999999995
 21
2.874000000000001
 31
0.0
  0
LINE
  5
26B
330
1E1
100
AcDbEntity
  8
4
100
AcDbLine
 10
5.670499999999996
 20
2.558000000000001
 30
0.0
 11
5.127499999999995
 21
2.558000000000001
 31
0.0
  0
LINE
  5
26C
330
1E1
100
AcDbEntity
  8
4
100
AcDbLine
 10
5.670499999999996
 20
2.242000000000001
 30
0.0
 11
5.127499999999995
 21
2.242000000000001
 31
0.0
  0
LINE
  5
26D
330
1E1
100
AcDbEntity
  8
4
100
AcDbLine
 10
5.670499999999996
 20
1.926000000000001
 30
0.0
 11
5.127499999999995
 21
1.926000000000001
 31
0.0
  0
LINE
  5
26E
330
1E1
100
AcDbEntity
  8
4
100
AcDbLine
 10
5.127499999999995
 20
4.076000000000002
 30
0.0
 11
5.158499999999995
 21
4.107000000000001
 31
0.0
  0
LINE
  5
26F
330
1E1
100
AcDbEntity
  8
4
100
AcDbLine
 10
5.127499999999995
 20
4.138000000000001
 30
0.0
 11
5.127499999999995
 21
4.076000000000002
 31
0.0
  0
LINE
  5
270
330
1E1
100
AcDbEntity
  8
4
100
AcDbLine
 10
5.065499999999996
 20
4.090000000000001
 30
0.0
 11
5.127499999999995
 21
4.090000000000001
 31
0.0
  0
LINE
  5
271
330
1E1
100
AcDbEntity
  8
4
100
AcDbLine
 10
5.065499999999996
 20
4.122000000000001
 30
0.0
 11
5.127499999999995
 21
4.122000000000001
 31
0.0
  0
LINE
  5
272
330
1E1
100
AcDbEntity
  8
4
100
AcDbLine
 10
5.0655
 20
1.594
 30
0.0
 11
5.1275
 21
1.594
 31
0.0
  0
LINE
  5
273
330
1E1
100
AcDbEntity
  8
4
100
AcDbLine
 10
5.0655
 20
4.406
 30
0.0
 11
5.065499999999996
 21
4.122000000000001
 31
0.0
  0
LINE
  5
274
330
1E1
100
AcDbEntity
  8
4
100
AcDbLine
 10
5.065499999999999
 20
4.406
 30
0.0
 11
5.127499999999999
 21
4.406
 31
0.0
  0
LINE
  5
275
330
1E1
100
AcDbEntity
  8
4
100
AcDbLine
 10
5.065499999999996
 20
3.806000000000001
 30
0.0
 11
5.127499999999995
 21
3.806000000000001
 31
0.0
  0
LINE
  5
276
330
1E1
100
AcDbEntity
  8
4
100
AcDbLine
 10
5.065499999999996
 20
3.774000000000001
 30
0.0
 11
5.127499999999995
 21
3.774000000000001
 31
0.0
  0
LINE
  5
277
330
1E1
100
AcDbEntity
  8
4
100
AcDbLine
 10
5.127499999999995
 20
3.822000000000001
 30
0.0
 11
5.127499999999995
 21
3.760000000000002
 31
0.0
  0
LINE
  5
278
330
1E1
100
AcDbEntity
  8
4
100
AcDbLine
 10
5.127499999999995
 20
3.760000000000002
 30
0.0
 11
5.158499999999995
 21
3.791000000000001
 31
0.0
  0
LINE
  5
279
330
1E1
100
AcDbEntity
  8
4
100
AcDbLine
 10
5.0655
 20
4.09
 30
0.0
 11
5.065499999999996
 21
3.806000000000001
 31
0.0
  0
LINE
  5
27A
330
1E1
100
AcDbEntity
  8
4
100
AcDbLine
 10
5.065499999999996
 20
3.490000000000001
 30
0.0
 11
5.127499999999995
 21
3.490000000000001
 31
0.0
  0
LINE
  5
27B
330
1E1
100
AcDbEntity
  8
4
100
AcDbLine
 10
5.065499999999996
 20
3.458000000000001
 30
0.0
 11
5.127499999999995
 21
3.458000000000001
 31
0.0
  0
LINE
  5
27C
330
1E1
100
AcDbEntity
  8
4
100
AcDbLine
 10
5.127499999999995
 20
3.506000000000001
 30
0.0
 11
5.127499999999995
 21
3.444000000000002
 31
0.0
  0
LINE
  5
27D
330
1E1
100
AcDbEntity
  8
4
100
AcDbLine
 10
5.127499999999995
 20
3.444000000000002
 30
0.0
 11
5.158499999999995
 21
3.475
 31
0.0
  0
LINE
  5
27E
330
1E1
100
AcDbEntity
  8
4
100
AcDbLine
 10
5.0655
 20
3.774
 30
0.0
 11
5.065499999999996
 21
3.490000000000001
 31
0.0
  0
LINE
  5
27F
330
1E1
100
AcDbEntity
  8
4
100
AcDbLine
 10
5.065499999999996
 20
3.174000000000001
 30
0.0
 11
5.127499999999995
 21
3.174000000000001
 31
0.0
  0
LINE
  5
280
330
1E1
100
AcDbEntity
  8
4
100
AcDbLine
 10
5.065499999999996
 20
3.142000000000001
 30
0.0
 11
5.127499999999995
 21
3.142000000000001
 31
0.0
  0
LINE
  5
281
330
1E1
100
AcDbEntity
  8
4
100
AcDbLine
 10
5.127499999999995
 20
3.190000000000001
 30
0.0
 11
5.127499999999995
 21
3.128000000000002
 31
0.0
  0
LINE
  5
282
330
1E1
100
AcDbEntity
  8
4
100
AcDbLine
 10
5.127499999999995
 20
3.128000000000002
 30
0.0
 11
5.158499999999995
 21
3.159000000000001
 31
0.0
  0
LINE
  5
283
330
1E1
100
AcDbEntity
  8
4
100
AcDbLine
 10
5.0655
 20
3.458
 30
0.0
 11
5.065499999999996
 21
3.174000000000001
 31
0.0
  0
LINE
  5
284
330
1E1
100
AcDbEntity
  8
4
100
AcDbLine
 10
5.065499999999996
 20
2.858000000000001
 30
0.0
 11
5.127499999999995
 21
2.858000000000001
 31
0.0
  0
LINE
  5
285
330
1E1
100
AcDbEntity
  8
4
100
AcDbLine
 10
5.065499999999996
 20
2.826000000000001
 30
0.0
 11
5.127499999999995
 21
2.826000000000001
 31
0.0
  0
LINE
  5
286
330
1E1
100
AcDbEntity
  8
4
100
AcDbLine
 10
5.127499999999995
 20
2.874000000000001
 30
0.0
 11
5.127499999999995
 21
2.812000000000002
 31
0.0
  0
LINE
  5
287
330
1E1
100
AcDbEntity
  8
4
100
AcDbLine
 10
5.127499999999995
 20
2.812000000000002
 30
0.0
 11
5.158499999999995
 21
2.843
 31
0.0
  0
LINE
  5
288
330
1E1
100
AcDbEntity
  8
4
100
AcDbLine
 10
5.0655
 20
3.142
 30
0.0
 11
5.065499999999996
 21
2.858000000000001
 31
0.0
  0
LINE
  5
289
330
1E1
100
AcDbEntity
  8
4
100
AcDbLine
 10
5.065499999999996
 20
2.542000000000001
 30
0.0
 11
5.127499999999995
 21
2.542000000000001
 31
0.0
  0
LINE
  5
28A
330
1E1
100
AcDbEntity
  8
4
100
AcDbLine
 10
5.065499999999996
 20
2.510000000000001
 30
0.0
 11
5.127499999999995
 21
2.510000000000001
 31
0.0
  0
LINE
  5
28B
330
1E1
100
AcDbEntity
  8
4
100
AcDbLine
 10
5.127499999999995
 20
2.558000000000001
 30
0.0
 11
5.127499999999995
 21
2.496000000000002
 31
0.0
  0
LINE
  5
28C
330
1E1
100
AcDbEntity
  8
4
100
AcDbLine
 10
5.127499999999995
 20
2.496000000000002
 30
0.0
 11
5.158499999999995
 21
2.527000000000001
 31
0.0
  0
LINE
  5
28D
330
1E1
100
AcDbEntity
  8
4
100
AcDbLine
 10
5.0655
 20
2.826
 30
0.0
 11
5.065499999999996
 21
2.542000000000001
 31
0.0
  0
LINE
  5
28E
330
1E1
100
AcDbEntity
  8
4
100
AcDbLine
 10
5.065499999999996
 20
2.226000000000001
 30
0.0
 11
5.127499999999995
 21
2.226000000000001
 31
0.0
  0
LINE
  5
28F
330
1E1
100
AcDbEntity
  8
4
100
AcDbLine
 10
5.065499999999996
 20
2.194000000000001
 30
0.0
 11
5.127499999999995
 21
2.194000000000001
 31
0.0
  0
LINE
  5
290
330
1E1
100
AcDbEntity
  8
4
100
AcDbLine
 10
5.127499999999995
 20
2.242000000000001
 30
0.0
 11
5.127499999999995
 21
2.180000000000002
 31
0.0
  0
LINE
  5
291
330
1E1
100
AcDbEntity
  8
4
100
AcDbLine
 10
5.127499999999995
 20
2.180000000000002
 30
0.0
 11
5.158499999999995
 21
2.211000000000001
 31
0.0
  0
LINE
  5
292
330
1E1
100
AcDbEntity
  8
4
100
AcDbLine
 10
5.0655
 20
2.51
 30
0.0
 11
5.065499999999996
 21
2.226000000000001
 31
0.0
  0
LINE
  5
293
330
1E1
100
AcDbEntity
  8
4
100
AcDbLine
 10
5.065499999999996
 20
1.910000000000001
 30
0.0
 11
5.127499999999995
 21
1.910000000000001
 31
0.0
  0
LINE
  5
294
330
1E1
100
AcDbEntity
  8
4
100
AcDbLine
 10
5.065499999999996
 20
1.878000000000001
 30
0.0
 11
5.127499999999995
 21
1.878000000000001
 31
0.0
  0
LINE
  5
295
330
1E1
100
AcDbEntity
  8
4
100
AcDbLine
 10
5.127499999999995
 20
1.926000000000001
 30
0.0
 11
5.127499999999995
 21
1.864000000000002
 31
0.0
  0
LINE
  5
296
330
1E1
100
AcDbEntity
  8
4
100
AcDbLine
 10
5.127499999999995
 20
1.864000000000002
 30
0.0
 11
5.158499999999995
 21
1.895
 31
0.0
  0
LINE
  5
297
330
1E1
100
AcDbEntity
  8
4
100
AcDbLine
 10
5.0655
 20
2.194
 30
0.0
 11
5.065499999999996
 21
1.910000000000001
 31
0.0
  0
LINE
  5
298
330
1E1
100
AcDbEntity
  8
4
100
AcDbLine
 10
5.065499999999997
 20
1.878000000000001
 30
0.0
 11
5.065500000000001
 21
1.594000000000001
 31
0.0
  0
INSERT
  5
299
330
1E1
100
AcDbEntity
  8
8
100
AcDbBlockReference
  2
TEMP1
 10
1.094
 20
4.406
 30
0.0
  0
INSERT
  5
29A
330
1E1
100
AcDbEntity
  8
8
100
AcDbBlockReference
  2
TEMP1
 10
1.094
 20
4.09
 30
0.0
  0
INSERT
  5
29B
330
1E1
100
AcDbEntity
  8
8
100
AcDbBlockReference
  2
TEMP1
 10
1.094
 20
3.774
 30
0.0
  0
INSERT
  5
29C
330
1E1
100
AcDbEntity
  8
8
100
AcDbBlockReference
  2
TEMP1
 10
1.094
 20
3.458
 30
0.0
  0
INSERT
  5
29D
330
1E1
100
AcDbEntity
  8
8
100
AcDbBlockReference
  2
TEMP1
 10
1.094
 20
3.142
 30
0.0
  0
INSERT
  5
29E
330
1E1
100
AcDbEntity
  8
8
100
AcDbBlockReference
  2
TEMP1
 10
1.094
 20
2.826
 30
0.0
  0
INSERT
  5
29F
330
1E1
100
AcDbEntity
  8
8
100
AcDbBlockReference
  2
TEMP1
 10
1.094
 20
2.51
 30
0.0
  0
INSERT
  5
2A0
330
1E1
100
AcDbEntity
  8
8
100
AcDbBlockReference
  2
TEMP1
 10
1.094
 20
2.194
 30
0.0
  0
INSERT
  5
2A1
330
1E1
100
AcDbEntity
  8
8
100
AcDbBlockReference
  2
TEMP1
 10
1.094
 20
1.878
 30
0.0
  0
INSERT
  5
2A2
330
1E1
100
AcDbEntity
  8
8
100
AcDbBlockReference
  2
TEMP2
 10
1.094
 20
4.406
 30
0.0
  0
INSERT
  5
2A3
330
1E1
100
AcDbEntity
  8
8
100
AcDbBlockReference
  2
TEMP2
 10
1.094
 20
4.09
 30
0.0
  0
INSERT
  5
2A4
330
1E1
100
AcDbEntity
  8
8
100
AcDbBlockReference
  2
TEMP2
 10
1.094
 20
3.774
 30
0.0
  0
INSERT
  5
2A5
330
1E1
100
AcDbEntity
  8
8
100
AcDbBlockReference
  2
TEMP2
 10
1.094
 20
3.458
 30
0.0
  0
INSERT
  5
2A6
330
1E1
100
AcDbEntity
  8
8
100
AcDbBlockReference
  2
TEMP2
 10
1.094
 20
3.142
 30
0.0
  0
INSERT
  5
2A7
330
1E1
100
AcDbEntity
  8
8
100
AcDbBlockReference
  2
TEMP2
 10
1.094
 20
2.826
 30
0.0
  0
INSERT
  5
2A8
330
1E1
100
AcDbEntity
  8
8
100
AcDbBlockReference
  2
TEMP2
 10
1.094
 20
2.51
 30
0.0
  0
INSERT
  5
2A9
330
1E1
100
AcDbEntity
  8
8
100
AcDbBlockReference
  2
TEMP2
 10
1.094
 20
2.194
 30
0.0
  0
INSERT
  5
2AA
330
1E1
100
AcDbEntity
  8
8
100
AcDbBlockReference
  2
TEMP3
 10
5.0655
 20
4.406
 30
0.0
  0
INSERT
  5
2AB
330
1E1
100
AcDbEntity
  8
8
100
AcDbBlockReference
  2
TEMP3
 10
6.375499999999999
 20
4.406
 30
0.0
  0
INSERT
  5
2AC
330
1E1
100
AcDbEntity
  8
8
100
AcDbBlockReference
  2
TEMP3
 10
6.914499999999999
 20
4.406
 30
0.0
  0
ENDBLK
  5
2AE
330
1E1
100
AcDbEntity
  8
0
100
AcDbBlockEnd
  0
ENDSEC
  0
SECTION
  2
ENTITIES
  0
INSERT
  5
2B8
330
1F
100
AcDbEntity
  8
8
100
AcDbBlockReference
  2
G1
 10
8.120316476357182
 20
3.831068555613473
 30
0.0
  0
TEXT
  5
2B9
330
1F
100
AcDbEntity
  8
8
100
AcDbText
 10
9.763173619214327
 20
3.925068555613473
 30
0.0
 40
0.125
  1
HEAVY DUTY VENTILATED LOCKER - 72" 9-HI BOX
  7
ROMANS
 72
     1
 11
12.24531647635718
 21
3.925068555613473
 31
0.0
100
AcDbText
  0
INSERT
  5
2BA
330
1F
100
AcDbEntity
  8
8
100
AcDbBlockReference
  2
TEMP4
 10
8.706228358880499
 20
5.961739889936652
 30
0.0
  0
INSERT
  5
2BB
330
1F
100
AcDbEntity
  8
4
100
AcDbBlockReference
  2
ARRO
 10
9.081228358880499
 20
5.899739889936652
 30
0.0
 50
180.0
  0
LINE
  5
2BC
330
1F
100
AcDbEntity
  8
4
100
AcDbLine
 10
8.706228358880499
 20
5.899739889936652
 30
0.0
 11
8.706228358880499
 21
5.961739889936652
 31
0.0
  0
LINE
  5
2BD
330
1F
100
AcDbEntity
  8
4
100
AcDbLine
 10
9.081228358880499
 20
5.899739889936652
 30
0.0
 11
8.706228358880499
 21
5.899739889936652
 31
0.0
  0
LINE
  5
2BE
330
1F
100
AcDbEntity
  8
4
100
AcDbLine
 10
15.77681647635718
 20
5.709068555613475
 30
0.0
 11
15.77681647635718
 21
5.425068555613474
 31
0.0
  0
LINE
  5
2BF
330
1F
100
AcDbEntity
  8
4
100
AcDbLine
 10
14.49581647635718
 20
5.709068555613475
 30
0.0
 11
14.49581647635718
 21
5.425068555613474
 31
0.0
  0
LINE
  5
2C0
330
1F
100
AcDbEntity
  8
4
100
AcDbLine
 10
15.77681647635718
 20
5.425068555613474
 30
0.0
 11
15.71481647635718
 21
5.425068555613474
 31
0.0
  0
LINE
  5
2C1
330
1F
100
AcDbEntity
  8
4
100
AcDbLine
 10
14.49581647635718
 20
5.425068555613474
 30
0.0
 11
14.55781647635718
 21
5.425068555613474
 31
0.0
  0
LINE
  5
2C2
330
1F
100
AcDbEntity
  8
4
100
AcDbLine
 10
15.71481647635718
 20
7.907068555613475
 30
0.0
 11
15.68381647635718
 21
7.938068555613474
 31
0.0
  0
LINE
  5
2C3
330
1F
100
AcDbEntity
  8
4
100
AcDbLine
 10
15.71481647635718
 20
7.969068555613475
 30
0.0
 11
15.71481647635718
 21
7.907068555613475
 31
0.0
  0
LINE
  5
2C4
330
1F
100
AcDbEntity
  8
4
100
AcDbLine
 10
15.17181647635718
 20
7.969068555613475
 30
0.0
 11
15.71481647635718
 21
7.969068555613475
 31
0.0
  0
LINE
  5
2C5
330
1F
100
AcDbEntity
  8
4
100
AcDbLine
 10
15.17181647635718
 20
7.907068555613475
 30
0.0
 11
15.17181647635718
 21
7.969068555613475
 31
0.0
  0
LINE
  5
2C6
330
1F
100
AcDbEntity
  8
4
100
AcDbLine
 10
15.10081647635718
 20
7.907068555613475
 30
0.0
 11
15.10081647635718
 21
7.969068555613475
 31
0.0
  0
LINE
  5
2C7
330
1F
100
AcDbEntity
  8
4
100
AcDbLine
 10
15.10081647635718
 20
7.969068555613475
 30
0.0
 11
14.55781647635718
 21
7.969068555613475
 31
0.0
  0
LINE
  5
2C8
330
1F
100
AcDbEntity
  8
4
100
AcDbLine
 10
14.55781647635718
 20
7.969068555613475
 30
0.0
 11
14.55781647635718
 21
7.907068555613475
 31
0.0
  0
LINE
  5
2C9
330
1F
100
AcDbEntity
  8
4
100
AcDbLine
 10
14.55781647635718
 20
7.907068555613475
 30
0.0
 11
14.58881647635718
 21
7.938068555613474
 31
0.0
  0
LINE
  5
2CA
330
1F
100
AcDbEntity
  8
4
100
AcDbLine
 10
13.79081647635718
 20
7.907068555613475
 30
0.0
 11
13.79081647635718
 21
7.969068555613475
 31
0.0
  0
LINE
  5
2CB
330
1F
100
AcDbEntity
  8
4
100
AcDbLine
 10
14.49581647635717
 20
7.953068555613475
 30
0.0
 11
14.55781647635718
 21
7.953068555613475
 31
0.0
  0
LINE
  5
2CC
330
1F
100
AcDbEntity
  8
4
100
AcDbLine
 10
14.49581647635717
 20
7.921068555613475
 30
0.0
 11
14.55781647635718
 21
7.921068555613475
 31
0.0
  0
LINE
  5
2CD
330
1F
100
AcDbEntity
  8
4
100
AcDbLine
 10
15.71481647635718
 20
7.953068555613475
 30
0.0
 11
15.77681647635718
 21
7.953068555613475
 31
0.0
  0
LINE
  5
2CE
330
1F
100
AcDbEntity
  8
4
100
AcDbLine
 10
15.71481647635718
 20
7.921068555613475
 30
0.0
 11
15.77681647635718
 21
7.921068555613475
 31
0.0
  0
LINE
  5
2CF
330
1F
100
AcDbEntity
  8
4
100
AcDbLine
 10
14.49581647635718
 20
8.237068555613474
 30
0.0
 11
14.49581647635717
 21
7.953068555613475
 31
0.0
  0
LINE
  5
2D0
330
1F
100
AcDbEntity
  8
4
100
AcDbLine
 10
15.77681647635718
 20
8.237068555613474
 30
0.0
 11
15.77681647635718
 21
7.953068555613475
 31
0.0
  0
LINE
  5
2D1
330
1F
100
AcDbEntity
  8
4
100
AcDbLine
 10
15.77681647635718
 20
8.237068555613474
 30
0.0
 11
15.71481647635718
 21
8.237068555613474
 31
0.0
  0
LINE
  5
2D2
330
1F
100
AcDbEntity
  8
4
100
AcDbLine
 10
14.49581647635718
 20
8.237068555613474
 30
0.0
 11
14.55781647635718
 21
8.237068555613474
 31
0.0
  0
LINE
  5
2D3
330
1F
100
AcDbEntity
  8
4
100
AcDbLine
 10
15.71481647635718
 20
7.605068555613475
 30
0.0
 11
15.77681647635718
 21
7.605068555613475
 31
0.0
  0
LINE
  5
2D4
330
1F
100
AcDbEntity
  8
4
100
AcDbLine
 10
15.71481647635718
 20
7.637068555613475
 30
0.0
 11
15.77681647635718
 21
7.637068555613475
 31
0.0
  0
LINE
  5
2D5
330
1F
100
AcDbEntity
  8
4
100
AcDbLine
 10
14.49581647635717
 20
7.605068555613475
 30
0.0
 11
14.55781647635718
 21
7.605068555613475
 31
0.0
  0
LINE
  5
2D6
330
1F
100
AcDbEntity
  8
4
100
AcDbLine
 10
14.49581647635717
 20
7.637068555613475
 30
0.0
 11
14.55781647635718
 21
7.637068555613475
 31
0.0
  0
LINE
  5
2D7
330
1F
100
AcDbEntity
  8
4
100
AcDbLine
 10
13.79081647635718
 20
7.591068555613476
 30
0.0
 11
13.79081647635718
 21
7.653068555613475
 31
0.0
  0
LINE
  5
2D8
330
1F
100
AcDbEntity
  8
4
100
AcDbLine
 10
14.55781647635718
 20
7.591068555613476
 30
0.0
 11
14.58881647635718
 21
7.622068555613474
 31
0.0
  0
LINE
  5
2D9
330
1F
100
AcDbEntity
  8
4
100
AcDbLine
 10
14.55781647635718
 20
7.653068555613475
 30
0.0
 11
14.55781647635718
 21
7.591068555613476
 31
0.0
  0
LINE
  5
2DA
330
1F
100
AcDbEntity
  8
4
100
AcDbLine
 10
15.10081647635718
 20
7.653068555613475
 30
0.0
 11
14.55781647635718
 21
7.653068555613475
 31
0.0
  0
LINE
  5
2DB
330
1F
100
AcDbEntity
  8
4
100
AcDbLine
 10
15.10081647635718
 20
7.591068555613476
 30
0.0
 11
15.10081647635718
 21
7.653068555613475
 31
0.0
  0
LINE
  5
2DC
330
1F
100
AcDbEntity
  8
4
100
AcDbLine
 10
15.17181647635718
 20
7.591068555613476
 30
0.0
 11
15.17181647635718
 21
7.653068555613475
 31
0.0
  0
LINE
  5
2DD
330
1F
100
AcDbEntity
  8
4
100
AcDbLine
 10
15.17181647635718
 20
7.653068555613475
 30
0.0
 11
15.71481647635718
 21
7.653068555613475
 31
0.0
  0
LINE
  5
2DE
330
1F
100
AcDbEntity
  8
4
100
AcDbLine
 10
15.71481647635718
 20
7.653068555613475
 30
0.0
 11
15.71481647635718
 21
7.591068555613476
 31
0.0
  0
LINE
  5
2DF
330
1F
100
AcDbEntity
  8
4
100
AcDbLine
 10
15.71481647635718
 20
7.591068555613476
 30
0.0
 11
15.68381647635718
 21
7.622068555613474
 31
0.0
  0
LINE
  5
2E0
330
1F
100
AcDbEntity
  8
4
100
AcDbLine
 10
15.77681647635718
 20
7.921068555613474
 30
0.0
 11
15.77681647635718
 21
7.637068555613475
 31
0.0
  0
LINE
  5
2E1
330
1F
100
AcDbEntity
  8
4
100
AcDbLine
 10
14.49581647635718
 20
7.921068555613474
 30
0.0
 11
14.49581647635717
 21
7.637068555613475
 31
0.0
  0
LINE
  5
2E2
330
1F
100
AcDbEntity
  8
4
100
AcDbLine
 10
15.71481647635718
 20
7.289068555613475
 30
0.0
 11
15.77681647635718
 21
7.289068555613475
 31
0.0
  0
LINE
  5
2E3
330
1F
100
AcDbEntity
  8
4
100
AcDbLine
 10
15.71481647635718
 20
7.321068555613475
 30
0.0
 11
15.77681647635718
 21
7.321068555613475
 31
0.0
  0
LINE
  5
2E4
330
1F
100
AcDbEntity
  8
4
100
AcDbLine
 10
14.49581647635717
 20
7.289068555613475
 30
0.0
 11
14.55781647635718
 21
7.289068555613475
 31
0.0
  0
LINE
  5
2E5
330
1F
100
AcDbEntity
  8
4
100
AcDbLine
 10
14.49581647635717
 20
7.321068555613475
 30
0.0
 11
14.55781647635718
 21
7.321068555613475
 31
0.0
  0
LINE
  5
2E6
330
1F
100
AcDbEntity
  8
4
100
AcDbLine
 10
13.79081647635718
 20
7.275068555613476
 30
0.0
 11
13.79081647635718
 21
7.337068555613475
 31
0.0
  0
LINE
  5
2E7
330
1F
100
AcDbEntity
  8
4
100
AcDbLine
 10
14.55781647635718
 20
7.275068555613476
 30
0.0
 11
14.58881647635718
 21
7.306068555613475
 31
0.0
  0
LINE
  5
2E8
330
1F
100
AcDbEntity
  8
4
100
AcDbLine
 10
14.55781647635718
 20
7.337068555613475
 30
0.0
 11
14.55781647635718
 21
7.275068555613476
 31
0.0
  0
LINE
  5
2E9
330
1F
100
AcDbEntity
  8
4
100
AcDbLine
 10
15.10081647635718
 20
7.337068555613475
 30
0.0
 11
14.55781647635718
 21
7.337068555613475
 31
0.0
  0
LINE
  5
2EA
330
1F
100
AcDbEntity
  8
4
100
AcDbLine
 10
15.10081647635718
 20
7.275068555613476
 30
0.0
 11
15.10081647635718
 21
7.337068555613475
 31
0.0
  0
LINE
  5
2EB
330
1F
100
AcDbEntity
  8
4
100
AcDbLine
 10
15.17181647635718
 20
7.275068555613476
 30
0.0
 11
15.17181647635718
 21
7.337068555613475
 31
0.0
  0
LINE
  5
2EC
330
1F
100
AcDbEntity
  8
4
100
AcDbLine
 10
15.17181647635718
 20
7.337068555613475
 30
0.0
 11
15.71481647635718
 21
7.337068555613475
 31
0.0
  0
LINE
  5
2ED
330
1F
100
AcDbEntity
  8
4
100
AcDbLine
 10
15.71481647635718
 20
7.337068555613475
 30
0.0
 11
15.71481647635718
 21
7.275068555613476
 31
0.0
  0
LINE
  5
2EE
330
1F
100
AcDbEntity
  8
4
100
AcDbLine
 10
15.71481647635718
 20
7.275068555613476
 30
0.0
 11
15.68381647635718
 21
7.306068555613475
 31
0.0
  0
LINE
  5
2EF
330
1F
100
AcDbEntity
  8
4
100
AcDbLine
 10
15.77681647635718
 20
7.605068555613474
 30
0.0
 11
15.77681647635718
 21
7.321068555613475
 31
0.0
  0
LINE
  5
2F0
330
1F
100
AcDbEntity
  8
4
100
AcDbLine
 10
14.49581647635718
 20
7.605068555613474
 30
0.0
 11
14.49581647635717
 21
7.321068555613475
 31
0.0
  0
LINE
  5
2F1
330
1F
100
AcDbEntity
  8
4
100
AcDbLine
 10
15.71481647635718
 20
6.973068555613474
 30
0.0
 11
15.77681647635718
 21
6.973068555613474
 31
0.0
  0
LINE
  5
2F2
330
1F
100
AcDbEntity
  8
4
100
AcDbLine
 10
15.71481647635718
 20
7.005068555613474
 30
0.0
 11
15.77681647635718
 21
7.005068555613474
 31
0.0
  0
LINE
  5
2F3
330
1F
100
AcDbEntity
  8
4
100
AcDbLine
 10
14.49581647635717
 20
6.973068555613474
 30
0.0
 11
14.55781647635718
 21
6.973068555613474
 31
0.0
  0
LINE
  5
2F4
330
1F
100
AcDbEntity
  8
4
100
AcDbLine
 10
14.49581647635717
 20
7.005068555613474
 30
0.0
 11
14.55781647635718
 21
7.005068555613474
 31
0.0
  0
LINE
  5
2F5
330
1F
100
AcDbEntity
  8
4
100
AcDbLine
 10
13.79081647635718
 20
6.959068555613475
 30
0.0
 11
13.79081647635718
 21
7.021068555613474
 31
0.0
  0
LINE
  5
2F6
330
1F
100
AcDbEntity
  8
4
100
AcDbLine
 10
14.55781647635718
 20
6.959068555613475
 30
0.0
 11
14.58881647635718
 21
6.990068555613474
 31
0.0
  0
LINE
  5
2F7
330
1F
100
AcDbEntity
  8
4
100
AcDbLine
 10
14.55781647635718
 20
7.021068555613474
 30
0.0
 11
14.55781647635718
 21
6.959068555613475
 31
0.0
  0
LINE
  5
2F8
330
1F
100
AcDbEntity
  8
4
100
AcDbLine
 10
15.10081647635718
 20
7.021068555613474
 30
0.0
 11
14.55781647635718
 21
7.021068555613474
 31
0.0
  0
LINE
  5
2F9
330
1F
100
AcDbEntity
  8
4
100
AcDbLine
 10
15.10081647635718
 20
6.959068555613475
 30
0.0
 11
15.10081647635718
 21
7.021068555613474
 31
0.0
  0
LINE
  5
2FA
330
1F
100
AcDbEntity
  8
4
100
AcDbLine
 10
15.17181647635718
 20
6.959068555613475
 30
0.0
 11
15.17181647635718
 21
7.021068555613474
 31
0.0
  0
LINE
  5
2FB
330
1F
100
AcDbEntity
  8
4
100
AcDbLine
 10
15.17181647635718
 20
7.021068555613474
 30
0.0
 11
15.71481647635718
 21
7.021068555613474
 31
0.0
  0
LINE
  5
2FC
330
1F
100
AcDbEntity
  8
4
100
AcDbLine
 10
15.71481647635718
 20
7.021068555613474
 30
0.0
 11
15.71481647635718
 21
6.959068555613475
 31
0.0
  0
LINE
  5
2FD
330
1F
100
AcDbEntity
  8
4
100
AcDbLine
 10
15.71481647635718
 20
6.959068555613475
 30
0.0
 11
15.68381647635718
 21
6.990068555613474
 31
0.0
  0
LINE
  5
2FE
330
1F
100
AcDbEntity
  8
4
100
AcDbLine
 10
15.77681647635718
 20
7.289068555613473
 30
0.0
 11
15.77681647635718
 21
7.005068555613474
 31
0.0
  0
LINE
  5
2FF
330
1F
100
AcDbEntity
  8
4
100
AcDbLine
 10
14.49581647635718
 20
7.289068555613473
 30
0.0
 11
14.49581647635717
 21
7.005068555613474
 31
0.0
  0
LINE
  5
300
330
1F
100
AcDbEntity
  8
4
100
AcDbLine
 10
15.71481647635718
 20
6.657068555613474
 30
0.0
 11
15.77681647635718
 21
6.657068555613474
 31
0.0
  0
LINE
  5
301
330
1F
100
AcDbEntity
  8
4
100
AcDbLine
 10
15.71481647635718
 20
6.689068555613475
 30
0.0
 11
15.77681647635718
 21
6.689068555613475
 31
0.0
  0
LINE
  5
302
330
1F
100
AcDbEntity
  8
4
100
AcDbLine
 10
14.49581647635717
 20
6.657068555613474
 30
0.0
 11
14.55781647635718
 21
6.657068555613474
 31
0.0
  0
LINE
  5
303
330
1F
100
AcDbEntity
  8
4
100
AcDbLine
 10
14.49581647635717
 20
6.689068555613475
 30
0.0
 11
14.55781647635718
 21
6.689068555613475
 31
0.0
  0
LINE
  5
304
330
1F
100
AcDbEntity
  8
4
100
AcDbLine
 10
13.79081647635718
 20
6.643068555613475
 30
0.0
 11
13.79081647635718
 21
6.705068555613475
 31
0.0
  0
LINE
  5
305
330
1F
100
AcDbEntity
  8
4
100
AcDbLine
 10
14.55781647635718
 20
6.643068555613475
 30
0.0
 11
14.58881647635718
 21
6.674068555613474
 31
0.0
  0
LINE
  5
306
330
1F
100
AcDbEntity
  8
4
100
AcDbLine
 10
14.55781647635718
 20
6.705068555613475
 30
0.0
 11
14.55781647635718
 21
6.643068555613475
 31
0.0
  0
LINE
  5
307
330
1F
100
AcDbEntity
  8
4
100
AcDbLine
 10
15.10081647635718
 20
6.705068555613475
 30
0.0
 11
14.55781647635718
 21
6.705068555613475
 31
0.0
  0
LINE
  5
308
330
1F
100
AcDbEntity
  8
4
100
AcDbLine
 10
15.10081647635718
 20
6.643068555613475
 30
0.0
 11
15.10081647635718
 21
6.705068555613475
 31
0.0
  0
LINE
  5
309
330
1F
100
AcDbEntity
  8
4
100
AcDbLine
 10
15.17181647635718
 20
6.643068555613475
 30
0.0
 11
15.17181647635718
 21
6.705068555613475
 31
0.0
  0
LINE
  5
30A
330
1F
100
AcDbEntity
  8
4
100
AcDbLine
 10
15.17181647635718
 20
6.705068555613475
 30
0.0
 11
15.71481647635718
 21
6.705068555613475
 31
0.0
  0
LINE
  5
30B
330
1F
100
AcDbEntity
  8
4
100
AcDbLine
 10
15.71481647635718
 20
6.705068555613475
 30
0.0
 11
15.71481647635718
 21
6.643068555613475
 31
0.0
  0
LINE
  5
30C
330
1F
100
AcDbEntity
  8
4
100
AcDbLine
 10
15.71481647635718
 20
6.643068555613475
 30
0.0
 11
15.68381647635718
 21
6.674068555613474
 31
0.0
  0
LINE
  5
30D
330
1F
100
AcDbEntity
  8
4
100
AcDbLine
 10
15.77681647635718
 20
6.973068555613473
 30
0.0
 11
15.77681647635718
 21
6.689068555613475
 31
0.0
  0
LINE
  5
30E
330
1F
100
AcDbEntity
  8
4
100
AcDbLine
 10
14.49581647635718
 20
6.973068555613473
 30
0.0
 11
14.49581647635717
 21
6.689068555613475
 31
0.0
  0
LINE
  5
30F
330
1F
100
AcDbEntity
  8
4
100
AcDbLine
 10
15.71481647635718
 20
6.341068555613475
 30
0.0
 11
15.77681647635718
 21
6.341068555613475
 31
0.0
  0
LINE
  5
310
330
1F
100
AcDbEntity
  8
4
100
AcDbLine
 10
15.71481647635718
 20
6.373068555613475
 30
0.0
 11
15.77681647635718
 21
6.373068555613475
 31
0.0
  0
LINE
  5
311
330
1F
100
AcDbEntity
  8
4
100
AcDbLine
 10
14.49581647635717
 20
6.341068555613475
 30
0.0
 11
14.55781647635718
 21
6.341068555613475
 31
0.0
  0
LINE
  5
312
330
1F
100
AcDbEntity
  8
4
100
AcDbLine
 10
14.49581647635717
 20
6.373068555613475
 30
0.0
 11
14.55781647635718
 21
6.373068555613475
 31
0.0
  0
LINE
  5
313
330
1F
100
AcDbEntity
  8
4
100
AcDbLine
 10
13.79081647635718
 20
6.327068555613475
 30
0.0
 11
13.79081647635718
 21
6.389068555613475
 31
0.0
  0
LINE
  5
314
330
1F
100
AcDbEntity
  8
4
100
AcDbLine
 10
14.55781647635718
 20
6.327068555613475
 30
0.0
 11
14.58881647635718
 21
6.358068555613474
 31
0.0
  0
LINE
  5
315
330
1F
100
AcDbEntity
  8
4
100
AcDbLine
 10
14.55781647635718
 20
6.389068555613475
 30
0.0
 11
14.55781647635718
 21
6.327068555613475
 31
0.0
  0
LINE
  5
316
330
1F
100
AcDbEntity
  8
4
100
AcDbLine
 10
15.10081647635718
 20
6.389068555613475
 30
0.0
 11
14.55781647635718
 21
6.389068555613475
 31
0.0
  0
LINE
  5
317
330
1F
100
AcDbEntity
  8
4
100
AcDbLine
 10
15.10081647635718
 20
6.327068555613475
 30
0.0
 11
15.10081647635718
 21
6.389068555613475
 31
0.0
  0
LINE
  5
318
330
1F
100
AcDbEntity
  8
4
100
AcDbLine
 10
15.17181647635718
 20
6.327068555613475
 30
0.0
 11
15.17181647635718
 21
6.389068555613475
 31
0.0
  0
LINE
  5
319
330
1F
100
AcDbEntity
  8
4
100
AcDbLine
 10
15.17181647635718
 20
6.389068555613475
 30
0.0
 11
15.71481647635718
 21
6.389068555613475
 31
0.0
  0
LINE
  5
31A
330
1F
100
AcDbEntity
  8
4
100
AcDbLine
 10
15.71481647635718
 20
6.389068555613475
 30
0.0
 11
15.71481647635718
 21
6.327068555613475
 31
0.0
  0
LINE
  5
31B
330
1F
100
AcDbEntity
  8
4
100
AcDbLine
 10
15.71481647635718
 20
6.327068555613475
 30
0.0
 11
15.68381647635718
 21
6.358068555613474
 31
0.0
  0
LINE
  5
31C
330
1F
100
AcDbEntity
  8
4
100
AcDbLine
 10
15.77681647635718
 20
6.657068555613474
 30
0.0
 11
15.77681647635718
 21
6.373068555613475
 31
0.0
  0
LINE
  5
31D
330
1F
100
AcDbEntity
  8
4
100
AcDbLine
 10
14.49581647635718
 20
6.657068555613474
 30
0.0
 11
14.49581647635717
 21
6.373068555613475
 31
0.0
  0
LINE
  5
31E
330
1F
100
AcDbEntity
  8
4
100
AcDbLine
 10
15.71481647635718
 20
6.025068555613475
 30
0.0
 11
15.77681647635718
 21
6.025068555613475
 31
0.0
  0
LINE
  5
31F
330
1F
100
AcDbEntity
  8
4
100
AcDbLine
 10
15.71481647635718
 20
6.057068555613475
 30
0.0
 11
15.77681647635718
 21
6.057068555613475
 31
0.0
  0
LINE
  5
320
330
1F
100
AcDbEntity
  8
4
100
AcDbLine
 10
14.49581647635717
 20
6.025068555613475
 30
0.0
 11
14.55781647635718
 21
6.025068555613475
 31
0.0
  0
LINE
  5
321
330
1F
100
AcDbEntity
  8
4
100
AcDbLine
 10
14.49581647635717
 20
6.057068555613475
 30
0.0
 11
14.55781647635718
 21
6.057068555613475
 31
0.0
  0
LINE
  5
322
330
1F
100
AcDbEntity
  8
4
100
AcDbLine
 10
13.79081647635718
 20
6.011068555613475
 30
0.0
 11
13.79081647635718
 21
6.073068555613475
 31
0.0
  0
LINE
  5
323
330
1F
100
AcDbEntity
  8
4
100
AcDbLine
 10
14.55781647635718
 20
6.011068555613475
 30
0.0
 11
14.58881647635718
 21
6.042068555613474
 31
0.0
  0
LINE
  5
324
330
1F
100
AcDbEntity
  8
4
100
AcDbLine
 10
14.55781647635718
 20
6.073068555613475
 30
0.0
 11
14.55781647635718
 21
6.011068555613475
 31
0.0
  0
LINE
  5
325
330
1F
100
AcDbEntity
  8
4
100
AcDbLine
 10
15.10081647635718
 20
6.073068555613475
 30
0.0
 11
14.55781647635718
 21
6.073068555613475
 31
0.0
  0
LINE
  5
326
330
1F
100
AcDbEntity
  8
4
100
AcDbLine
 10
15.10081647635718
 20
6.011068555613475
 30
0.0
 11
15.10081647635718
 21
6.073068555613475
 31
0.0
  0
LINE
  5
327
330
1F
100
AcDbEntity
  8
4
100
AcDbLine
 10
15.17181647635718
 20
6.011068555613475
 30
0.0
 11
15.17181647635718
 21
6.073068555613475
 31
0.0
  0
LINE
  5
328
330
1F
100
AcDbEntity
  8
4
100
AcDbLine
 10
15.17181647635718
 20
6.073068555613475
 30
0.0
 11
15.71481647635718
 21
6.073068555613475
 31
0.0
  0
LINE
  5
329
330
1F
100
AcDbEntity
  8
4
100
AcDbLine
 10
15.71481647635718
 20
6.073068555613475
 30
0.0
 11
15.71481647635718
 21
6.011068555613475
 31
0.0
  0
LINE
  5
32A
330
1F
100
AcDbEntity
  8
4
100
AcDbLine
 10
15.71481647635718
 20
6.011068555613475
 30
0.0
 11
15.68381647635718
 21
6.042068555613474
 31
0.0
  0
LINE
  5
32B
330
1F
100
AcDbEntity
  8
4
100
AcDbLine
 10
15.77681647635718
 20
6.341068555613474
 30
0.0
 11
15.77681647635718
 21
6.057068555613475
 31
0.0
  0
LINE
  5
32C
330
1F
100
AcDbEntity
  8
4
100
AcDbLine
 10
14.49581647635718
 20
6.341068555613474
 30
0.0
 11
14.49581647635717
 21
6.057068555613475
 31
0.0
  0
LINE
  5
32D
330
1F
100
AcDbEntity
  8
4
100
AcDbLine
 10
15.71481647635718
 20
5.709068555613475
 30
0.0
 11
15.77681647635718
 21
5.709068555613475
 31
0.0
  0
LINE
  5
32E
330
1F
100
AcDbEntity
  8
4
100
AcDbLine
 10
15.71481647635718
 20
5.741068555613475
 30
0.0
 11
15.77681647635718
 21
5.741068555613475
 31
0.0
  0
LINE
  5
32F
330
1F
100
AcDbEntity
  8
4
100
AcDbLine
 10
14.49581647635717
 20
5.709068555613475
 30
0.0
 11
14.55781647635718
 21
5.709068555613475
 31
0.0
  0
LINE
  5
330
330
1F
100
AcDbEntity
  8
4
100
AcDbLine
 10
14.49581647635717
 20
5.741068555613475
 30
0.0
 11
14.55781647635718
 21
5.741068555613475
 31
0.0
  0
LINE
  5
331
330
1F
100
AcDbEntity
  8
4
100
AcDbLine
 10
13.79081647635718
 20
5.695068555613476
 30
0.0
 11
13.79081647635718
 21
5.757068555613475
 31
0.0
  0
LINE
  5
332
330
1F
100
AcDbEntity
  8
4
100
AcDbLine
 10
14.55781647635718
 20
5.695068555613476
 30
0.0
 11
14.58881647635718
 21
5.726068555613474
 31
0.0
  0
LINE
  5
333
330
1F
100
AcDbEntity
  8
4
100
AcDbLine
 10
14.55781647635718
 20
5.757068555613475
 30
0.0
 11
14.55781647635718
 21
5.695068555613476
 31
0.0
  0
LINE
  5
334
330
1F
100
AcDbEntity
  8
4
100
AcDbLine
 10
15.10081647635718
 20
5.757068555613475
 30
0.0
 11
14.55781647635718
 21
5.757068555613475
 31
0.0
  0
LINE
  5
335
330
1F
100
AcDbEntity
  8
4
100
AcDbLine
 10
15.10081647635718
 20
5.695068555613476
 30
0.0
 11
15.10081647635718
 21
5.757068555613475
 31
0.0
  0
LINE
  5
336
330
1F
100
AcDbEntity
  8
4
100
AcDbLine
 10
15.17181647635718
 20
5.695068555613476
 30
0.0
 11
15.17181647635718
 21
5.757068555613475
 31
0.0
  0
LINE
  5
337
330
1F
100
AcDbEntity
  8
4
100
AcDbLine
 10
15.17181647635718
 20
5.757068555613475
 30
0.0
 11
15.71481647635718
 21
5.757068555613475
 31
0.0
  0
LINE
  5
338
330
1F
100
AcDbEntity
  8
4
100
AcDbLine
 10
15.71481647635718
 20
5.757068555613475
 30
0.0
 11
15.71481647635718
 21
5.695068555613476
 31
0.0
  0
LINE
  5
339
330
1F
100
AcDbEntity
  8
4
100
AcDbLine
 10
15.71481647635718
 20
5.695068555613476
 30
0.0
 11
15.68381647635718
 21
5.726068555613474
 31
0.0
  0
LINE
  5
33A
330
1F
100
AcDbEntity
  8
4
100
AcDbLine
 10
15.77681647635718
 20
6.025068555613474
 30
0.0
 11
15.77681647635718
 21
5.741068555613475
 31
0.0
  0
LINE
  5
33B
330
1F
100
AcDbEntity
  8
4
100
AcDbLine
 10
14.49581647635718
 20
6.025068555613474
 30
0.0
 11
14.49581647635717
 21
5.741068555613475
 31
0.0
  0
LINE
  5
33C
330
1F
100
AcDbEntity
  8
4
100
AcDbLine
 10
13.79081647635718
 20
7.969068555613475
 30
0.0
 11
13.24781647635718
 21
7.969068555613475
 31
0.0
  0
LINE
  5
33D
330
1F
100
AcDbEntity
  8
4
100
AcDbLine
 10
13.79081647635718
 20
7.653068555613475
 30
0.0
 11
13.24781647635718
 21
7.653068555613475
 31
0.0
  0
LINE
  5
33E
330
1F
100
AcDbEntity
  8
4
100
AcDbLine
 10
13.79081647635718
 20
7.337068555613475
 30
0.0
 11
13.24781647635718
 21
7.337068555613475
 31
0.0
  0
LINE
  5
33F
330
1F
100
AcDbEntity
  8
4
100
AcDbLine
 10
13.79081647635718
 20
7.021068555613474
 30
0.0
 11
13.24781647635718
 21
7.021068555613474
 31
0.0
  0
LINE
  5
340
330
1F
100
AcDbEntity
  8
4
100
AcDbLine
 10
13.79081647635718
 20
6.705068555613475
 30
0.0
 11
13.24781647635718
 21
6.705068555613475
 31
0.0
  0
LINE
  5
341
330
1F
100
AcDbEntity
  8
4
100
AcDbLine
 10
13.79081647635718
 20
6.389068555613475
 30
0.0
 11
13.24781647635718
 21
6.389068555613475
 31
0.0
  0
LINE
  5
342
330
1F
100
AcDbEntity
  8
4
100
AcDbLine
 10
13.79081647635718
 20
6.073068555613475
 30
0.0
 11
13.24781647635718
 21
6.073068555613475
 31
0.0
  0
LINE
  5
343
330
1F
100
AcDbEntity
  8
4
100
AcDbLine
 10
13.79081647635718
 20
5.757068555613475
 30
0.0
 11
13.24781647635718
 21
5.757068555613475
 31
0.0
  0
LINE
  5
344
330
1F
100
AcDbEntity
  8
4
100
AcDbLine
 10
13.24781647635718
 20
7.907068555613475
 30
0.0
 11
13.27881647635718
 21
7.938068555613474
 31
0.0
  0
LINE
  5
345
330
1F
100
AcDbEntity
  8
4
100
AcDbLine
 10
13.24781647635718
 20
7.969068555613475
 30
0.0
 11
13.24781647635718
 21
7.907068555613475
 31
0.0
  0
LINE
  5
346
330
1F
100
AcDbEntity
  8
4
100
AcDbLine
 10
13.18581647635718
 20
7.921068555613475
 30
0.0
 11
13.24781647635718
 21
7.921068555613475
 31
0.0
  0
LINE
  5
347
330
1F
100
AcDbEntity
  8
4
100
AcDbLine
 10
13.18581647635718
 20
7.953068555613475
 30
0.0
 11
13.24781647635718
 21
7.953068555613475
 31
0.0
  0
LINE
  5
348
330
1F
100
AcDbEntity
  8
4
100
AcDbLine
 10
13.18581647635718
 20
5.425068555613474
 30
0.0
 11
13.24781647635718
 21
5.425068555613474
 31
0.0
  0
LINE
  5
349
330
1F
100
AcDbEntity
  8
4
100
AcDbLine
 10
13.18581647635718
 20
8.237068555613474
 30
0.0
 11
13.18581647635718
 21
7.953068555613475
 31
0.0
  0
LINE
  5
34A
330
1F
100
AcDbEntity
  8
4
100
AcDbLine
 10
13.18581647635718
 20
8.237068555613474
 30
0.0
 11
13.24781647635718
 21
8.237068555613474
 31
0.0
  0
LINE
  5
34B
330
1F
100
AcDbEntity
  8
4
100
AcDbLine
 10
13.18581647635718
 20
7.637068555613475
 30
0.0
 11
13.24781647635718
 21
7.637068555613475
 31
0.0
  0
LINE
  5
34C
330
1F
100
AcDbEntity
  8
4
100
AcDbLine
 10
13.18581647635718
 20
7.605068555613475
 30
0.0
 11
13.24781647635718
 21
7.605068555613475
 31
0.0
  0
LINE
  5
34D
330
1F
100
AcDbEntity
  8
4
100
AcDbLine
 10
13.24781647635718
 20
7.653068555613475
 30
0.0
 11
13.24781647635718
 21
7.591068555613476
 31
0.0
  0
LINE
  5
34E
330
1F
100
AcDbEntity
  8
4
100
AcDbLine
 10
13.24781647635718
 20
7.591068555613476
 30
0.0
 11
13.27881647635718
 21
7.622068555613474
 31
0.0
  0
LINE
  5
34F
330
1F
100
AcDbEntity
  8
4
100
AcDbLine
 10
13.18581647635718
 20
7.921068555613474
 30
0.0
 11
13.18581647635718
 21
7.637068555613475
 31
0.0
  0
LINE
  5
350
330
1F
100
AcDbEntity
  8
4
100
AcDbLine
 10
13.18581647635718
 20
7.321068555613475
 30
0.0
 11
13.24781647635718
 21
7.321068555613475
 31
0.0
  0
LINE
  5
351
330
1F
100
AcDbEntity
  8
4
100
AcDbLine
 10
13.18581647635718
 20
7.289068555613475
 30
0.0
 11
13.24781647635718
 21
7.289068555613475
 31
0.0
  0
LINE
  5
352
330
1F
100
AcDbEntity
  8
4
100
AcDbLine
 10
13.24781647635718
 20
7.337068555613475
 30
0.0
 11
13.24781647635718
 21
7.275068555613476
 31
0.0
  0
LINE
  5
353
330
1F
100
AcDbEntity
  8
4
100
AcDbLine
 10
13.24781647635718
 20
7.275068555613476
 30
0.0
 11
13.27881647635718
 21
7.306068555613475
 31
0.0
  0
LINE
  5
354
330
1F
100
AcDbEntity
  8
4
100
AcDbLine
 10
13.18581647635718
 20
7.605068555613474
 30
0.0
 11
13.18581647635718
 21
7.321068555613475
 31
0.0
  0
LINE
  5
355
330
1F
100
AcDbEntity
  8
4
100
AcDbLine
 10
13.18581647635718
 20
7.005068555613474
 30
0.0
 11
13.24781647635718
 21
7.005068555613474
 31
0.0
  0
LINE
  5
356
330
1F
100
AcDbEntity
  8
4
100
AcDbLine
 10
13.18581647635718
 20
6.973068555613474
 30
0.0
 11
13.24781647635718
 21
6.973068555613474
 31
0.0
  0
LINE
  5
357
330
1F
100
AcDbEntity
  8
4
100
AcDbLine
 10
13.24781647635718
 20
7.021068555613474
 30
0.0
 11
13.24781647635718
 21
6.959068555613475
 31
0.0
  0
LINE
  5
358
330
1F
100
AcDbEntity
  8
4
100
AcDbLine
 10
13.24781647635718
 20
6.959068555613475
 30
0.0
 11
13.27881647635718
 21
6.990068555613474
 31
0.0
  0
LINE
  5
359
330
1F
100
AcDbEntity
  8
4
100
AcDbLine
 10
13.18581647635718
 20
7.289068555613473
 30
0.0
 11
13.18581647635718
 21
7.005068555613474
 31
0.0
  0
LINE
  5
35A
330
1F
100
AcDbEntity
  8
4
100
AcDbLine
 10
13.18581647635718
 20
6.689068555613475
 30
0.0
 11
13.24781647635718
 21
6.689068555613475
 31
0.0
  0
LINE
  5
35B
330
1F
100
AcDbEntity
  8
4
100
AcDbLine
 10
13.18581647635718
 20
6.657068555613474
 30
0.0
 11
13.24781647635718
 21
6.657068555613474
 31
0.0
  0
LINE
  5
35C
330
1F
100
AcDbEntity
  8
4
100
AcDbLine
 10
13.24781647635718
 20
6.705068555613475
 30
0.0
 11
13.24781647635718
 21
6.643068555613475
 31
0.0
  0
LINE
  5
35D
330
1F
100
AcDbEntity
  8
4
100
AcDbLine
 10
13.24781647635718
 20
6.643068555613475
 30
0.0
 11
13.27881647635718
 21
6.674068555613474
 31
0.0
  0
LINE
  5
35E
330
1F
100
AcDbEntity
  8
4
100
AcDbLine
 10
13.18581647635718
 20
6.973068555613473
 30
0.0
 11
13.18581647635718
 21
6.689068555613475
 31
0.0
  0
LINE
  5
35F
330
1F
100
AcDbEntity
  8
4
100
AcDbLine
 10
13.18581647635718
 20
6.373068555613475
 30
0.0
 11
13.24781647635718
 21
6.373068555613475
 31
0.0
  0
LINE
  5
360
330
1F
100
AcDbEntity
  8
4
100
AcDbLine
 10
13.18581647635718
 20
6.341068555613475
 30
0.0
 11
13.24781647635718
 21
6.341068555613475
 31
0.0
  0
LINE
  5
361
330
1F
100
AcDbEntity
  8
4
100
AcDbLine
 10
13.24781647635718
 20
6.389068555613475
 30
0.0
 11
13.24781647635718
 21
6.327068555613475
 31
0.0
  0
LINE
  5
362
330
1F
100
AcDbEntity
  8
4
100
AcDbLine
 10
13.24781647635718
 20
6.327068555613475
 30
0.0
 11
13.27881647635718
 21
6.358068555613474
 31
0.0
  0
LINE
  5
363
330
1F
100
AcDbEntity
  8
4
100
AcDbLine
 10
13.18581647635718
 20
6.657068555613474
 30
0.0
 11
13.18581647635718
 21
6.373068555613475
 31
0.0
  0
LINE
  5
364
330
1F
100
AcDbEntity
  8
4
100
AcDbLine
 10
13.18581647635718
 20
6.057068555613475
 30
0.0
 11
13.24781647635718
 21
6.057068555613475
 31
0.0
  0
LINE
  5
365
330
1F
100
AcDbEntity
  8
4
100
AcDbLine
 10
13.18581647635718
 20
6.025068555613475
 30
0.0
 11
13.24781647635718
 21
6.025068555613475
 31
0.0
  0
LINE
  5
366
330
1F
100
AcDbEntity
  8
4
100
AcDbLine
 10
13.24781647635718
 20
6.073068555613475
 30
0.0
 11
13.24781647635718
 21
6.011068555613475
 31
0.0
  0
LINE
  5
367
330
1F
100
AcDbEntity
  8
4
100
AcDbLine
 10
13.24781647635718
 20
6.011068555613475
 30
0.0
 11
13.27881647635718
 21
6.042068555613474
 31
0.0
  0
LINE
  5
368
330
1F
100
AcDbEntity
  8
4
100
AcDbLine
 10
13.18581647635718
 20
6.341068555613474
 30
0.0
 11
13.18581647635718
 21
6.057068555613475
 31
0.0
  0
LINE
  5
369
330
1F
100
AcDbEntity
  8
4
100
AcDbLine
 10
13.18581647635718
 20
5.741068555613475
 30
0.0
 11
13.24781647635718
 21
5.741068555613475
 31
0.0
  0
LINE
  5
36A
330
1F
100
AcDbEntity
  8
4
100
AcDbLine
 10
13.18581647635718
 20
5.709068555613475
 30
0.0
 11
13.24781647635718
 21
5.709068555613475
 31
0.0
  0
LINE
  5
36B
330
1F
100
AcDbEntity
  8
4
100
AcDbLine
 10
13.24781647635718
 20
5.757068555613475
 30
0.0
 11
13.24781647635718
 21
5.695068555613476
 31
0.0
  0
LINE
  5
36C
330
1F
100
AcDbEntity
  8
4
100
AcDbLine
 10
13.24781647635718
 20
5.695068555613476
 30
0.0
 11
13.27881647635718
 21
5.726068555613474
 31
0.0
  0
LINE
  5
36D
330
1F
100
AcDbEntity
  8
4
100
AcDbLine
 10
13.18581647635718
 20
6.025068555613474
 30
0.0
 11
13.18581647635718
 21
5.741068555613475
 31
0.0
  0
LINE
  5
36E
330
1F
100
AcDbEntity
  8
4
100
AcDbLine
 10
13.18581647635718
 20
5.709068555613475
 30
0.0
 11
13.18581647635718
 21
5.425068555613474
 31
0.0
  0
INSERT
  5
36F
330
1F
100
AcDbEntity
  8
8
100
AcDbBlockReference
  2
TEMP1
 10
9.214316476357183
 20
8.237068555613474
 30
0.0
  0
INSERT
  5
370
330
1F
100
AcDbEntity
  8
8
100
AcDbBlockReference
  2
TEMP1
 10
9.214316476357183
 20
7.921068555613474
 30
0.0
  0
INSERT
  5
371
330
1F
100
AcDbEntity
  8
8
100
AcDbBlockReference
  2
TEMP1
 10
9.214316476357183
 20
7.605068555613474
 30
0.0
  0
INSERT
  5
372
330
1F
100
AcDbEntity
  8
8
100
AcDbBlockReference
  2
TEMP1
 10
9.214316476357183
 20
7.289068555613473
 30
0.0
  0
INSERT
  5
373
330
1F
100
AcDbEntity
  8
8
100
AcDbBlockReference
  2
TEMP1
 10
9.214316476357183
 20
6.973068555613473
 30
0.0
  0
INSERT
  5
374
330
1F
100
AcDbEntity
  8
8
100
AcDbBlockReference
  2
TEMP1
 10
9.214316476357183
 20
6.657068555613474
 30
0.0
  0
INSERT
  5
375
330
1F
100
AcDbEntity
  8
8
100
AcDbBlockReference
  2
TEMP1
 10
9.214316476357183
 20
6.341068555613474
 30
0.0
  0
INSERT
  5
376
330
1F
100
AcDbEntity
  8
8
100
AcDbBlockReference
  2
TEMP1
 10
9.214316476357183
 20
6.025068555613474
 30
0.0
  0
INSERT
  5
377
330
1F
100
AcDbEntity
  8
8
100
AcDbBlockReference
  2
TEMP1
 10
9.214316476357183
 20
5.709068555613473
 30
0.0
  0
INSERT
  5
378
330
1F
100
AcDbEntity
  8
8
100
AcDbBlockReference
  2
TEMP2
 10
9.214316476357183
 20
8.237068555613474
 30
0.0
  0
INSERT
  5
379
330
1F
100
AcDbEntity
  8
8
100
AcDbBlockReference
  2
TEMP2
 10
9.214316476357183
 20
7.921068555613474
 30
0.0
  0
INSERT
  5
37A
330
1F
100
AcDbEntity
  8
8
100
AcDbBlockReference
  2
TEMP2
 10
9.214316476357183
 20
7.605068555613474
 30
0.0
  0
INSERT
  5
37B
330
1F
100
AcDbEntity
  8
8
100
AcDbBlockReference
  2
TEMP2
 10
9.214316476357183
 20
7.289068555613473
 30
0.0
  0
INSERT
  5
37C
330
1F
100
AcDbEntity
  8
8
100
AcDbBlockReference
  2
TEMP2
 10
9.214316476357183
 20
6.973068555613473
 30
0.0
  0
INSERT
  5
37D
330
1F
100
AcDbEntity
  8
8
100
AcDbBlockReference
  2
TEMP2
 10
9.214316476357183
 20
6.657068555613474
 30
0.0
  0
INSERT
  5
37E
330
1F
100
AcDbEntity
  8
8
100
AcDbBlockReference
  2
TEMP2
 10
9.214316476357183
 20
6.341068555613474
 30
0.0
  0
INSERT
  5
37F
330
1F
100
AcDbEntity
  8
8
100
AcDbBlockReference
  2
TEMP2
 10
9.214316476357183
 20
6.025068555613474
 30
0.0
  0
LINE
  5
391
330
1F
100
AcDbEntity
  8
2
100
AcDbLine
 10
13.42850197952805
 20
5.466542520444695
 30
0.0
 11
13.67850197952805
 21
5.466542520444695
 31
0.0
  0
LINE
  5
395
330
1F
100
AcDbEntity
  8
2
100
AcDbLine
 10
13.40350197952805
 20
8.248150341852303
 30
0.0
 11
13.65350197952805
 21
8.248150341852303
 31
0.0
  0
INSERT
  5
397
330
1F
100
AcDbEntity
  8
8
100
AcDbBlockReference
  2
G3
 10
13.40350197952805
 20
8.248150341852303
 30
0.0
  0
INSERT
  5
39E
330
1F
100
AcDbEntity
  8
8
100
AcDbBlockReference
  2
G3
 10
13.67850197952805
 20
5.466542520444695
 30
0.0
 50
180.0
  0
LINE
  5
3B6
330
1F
100
AcDbEntity
  8
2
100
AcDbLine
 10
13.38475197952805
 20
8.210650341852304
 30
0.0
 11
13.38475197952805
 21
5.562042520444695
 31
0.0
  0
LINE
  5
3CA
330
1F
100
AcDbEntity
  8
2
100
AcDbLine
 10
13.69725197952805
 20
8.152650341852304
 30
0.0
 11
13.69725197952805
 21
5.504042520444695
 31
0.0
  0
LINE
  5
3D9
330
1F
100
AcDbEntity
  8
2
100
AcDbLine
 10
14.73850197952805
 20
5.466542520444695
 30
0.0
 11
14.98850197952805
 21
5.466542520444695
 31
0.0
  0
LINE
  5
3DD
330
1F
100
AcDbEntity
  8
2
100
AcDbLine
 10
14.71350197952805
 20
8.248150341852303
 30
0.0
 11
14.96350197952805
 21
8.248150341852303
 31
0.0
  0
INSERT
  5
3DF
330
1F
100
AcDbEntity
  8
8
100
AcDbBlockReference
  2
G3
 10
14.71350197952805
 20
8.248150341852303
 30
0.0
  0
INSERT
  5
3E6
330
1F
100
AcDbEntity
  8
8
100
AcDbBlockReference
  2
G3
 10
14.98850197952805
 20
5.466542520444695
 30
0.0
 50
180.0
  0
LINE
  5
3EC
330
1F
100
AcDbEntity
  8
2
100
AcDbLine
 10
14.69475197952805
 20
5.682650341852305
 30
0.0
 11
14.69475197952805
 21
5.562042520444695
 31
0.0
  0
LINE
  5
3FE
330
1F
100
AcDbEntity
  8
2
100
AcDbLine
 10
14.69475197952805
 20
8.210650341852304
 30
0.0
 11
14.69475197952805
 21
5.562042520444695
 31
0.0
  0
LINE
  5
3FF
330
1F
100
AcDbEntity
  8
2
100
AcDbLine
 10
15.00725197952805
 20
5.624650341852305
 30
0.0
 11
15.00725197952805
 21
5.504042520444695
 31
0.0
  0
LINE
  5
412
330
1F
100
AcDbEntity
  8
2
100
AcDbLine
 10
15.00725197952805
 20
8.152650341852304
 30
0.0
 11
15.00725197952805
 21
5.504042520444695
 31
0.0
  0
LINE
  5
421
330
1F
100
AcDbEntity
  8
2
100
AcDbLine
 10
15.30950197952805
 20
5.466542520444695
 30
0.0
 11
15.55950197952805
 21
5.466542520444695
 31
0.0
  0
LINE
  5
425
330
1F
100
AcDbEntity
  8
2
100
AcDbLine
 10
15.28450197952805
 20
8.248150341852303
 30
0.0
 11
15.53450197952805
 21
8.248150341852303
 31
0.0
  0
INSERT
  5
427
330
1F
100
AcDbEntity
  8
8
100
AcDbBlockReference
  2
G3
 10
15.28450197952805
 20
8.248150341852303
 30
0.0
  0
INSERT
  5
42E
330
1F
100
AcDbEntity
  8
8
100
AcDbBlockReference
  2
G3
 10
15.55950197952805
 20
5.466542520444695
 30
0.0
 50
180.0
  0
LINE
  5
446
330
1F
100
AcDbEntity
  8
2
100
AcDbLine
 10
15.26575197952805
 20
8.210650341852304
 30
0.0
 11
15.26575197952805
 21
5.562042520444695
 31
0.0
  0
LINE
  5
45A
330
1F
100
AcDbEntity
  8
2
100
AcDbLine
 10
15.57825197952805
 20
8.152650341852304
 30
0.0
 11
15.57825197952805
 21
5.504042520444695
 31
0.0
  0
TEXT
  5
46B
330
1F
100
AcDbEntity
  8
8
100
AcDbText
 10
13.33281647635718
 20
4.734916793559158
 30
0.0
 40
0.07
  1
DEPTH
  7
ROMANS
 72
     1
 11
13.49781647635718
 21
4.734916793559158
 31
0.0
100
AcDbText
  0
TEXT
  5
46C
330
1F
100
AcDbEntity
  8
8
100
AcDbText
 10
14.95531647635718
 20
4.734916793559158
 30
0.0
 40
0.07
  1
DEPTH
  7
ROMANS
 72
     1
 11
15.12031647635718
 21
4.734916793559158
 31
0.0
100
AcDbText
  0
TEXT
  5
46D
330
1F
100
AcDbEntity
  8
8
100
AcDbText
 10
14.39815496343072
 20
4.577669562438783
 30
0.0
 40
0.1
  1
SR BACK TO BACK
  7
ROMANS
 72
     1
 11
15.12196448724025
 21
4.577669562438783
 31
0.0
100
AcDbText
  0
TEXT
  5
46E
330
1F
100
AcDbEntity
  8
8
100
AcDbText
 10
13.91470580091556
 20
4.393068555613473
 30
0.0
 40
0.1
  1
SECTIONS
  7
ROMANS
 72
     1
 11
14.26708675329651
 21
4.393068555613473
 31
0.0
100
AcDbText
  0
TEXT
  5
46F
330
1F
100
AcDbEntity
  8
8
100
AcDbText
 10
13.42236963948414
 20
4.577669562438783
 30
0.0
 40
0.1
  1
SR
  7
ROMANS
 72
     1
 11
13.51998868710319
 21
4.577669562438783
 31
0.0
100
AcDbText
  0
LINE
  5
470
330
1F
100
AcDbEntity
  8
4
100
AcDbLine
 10
13.74831647635718
 20
8.081068555613473
 30
0.0
 11
14.01204807902258
 21
8.081068555613473
 31
0.0
  0
LINE
  5
471
330
1F
100
AcDbEntity
  8
4
100
AcDbLine
 10
14.05247528869501
 20
8.081068555613473
 30
0.0
 11
14.23293908551895
 21
8.081068555613473
 31
0.0
  0
INSERT
  5
472
330
1F
100
AcDbEntity
  8
4
100
AcDbBlockReference
  2
ARRO
 10
14.05247528869501
 20
8.081068555613473
 30
0.0
  0
LINE
  5
473
330
1F
100
AcDbEntity
  8
4
100
AcDbLine
 10
14.23293908551895
 20
8.081068555613473
 30
0.0
 11
14.23293908551895
 21
7.878080885822961
 31
0.0
  0
TEXT
  5
474
330
1F
100
AcDbEntity
  8
8
100
AcDbText
 10
14.26793908551895
 20
6.502747552489627
 30
0.0
 40
0.07
  1
ANCHORING BY ERECTOR
 50
90.0
  7
ROMANS
 72
     2
 11
14.26793908551895
 21
7.816080885822961
 31
0.0
100
AcDbText
  0
TEXT
  5
475
330
1F
100
AcDbEntity
  8
8
100
AcDbText
 10
12.62081647635718
 20
6.409401888946806
 30
0.0
 40
0.07
  1
LOCKER HEIGHT
 50
90.0
  7
ROMANS
 72
     1
 11
12.62081647635718
 21
6.831068555613473
 31
0.0
100
AcDbText
  0
TEXT
  5
476
330
1F
100
AcDbEntity
  8
8
100
AcDbText
 10
9.46531647635718
 20
4.893068555613473
 30
0.0
 40
0.07
  1
LOCKER WIDTH - SEE SCHEDULE
  7
ROMANS
 72
     1
 11
10.37031647635718
 21
4.893068555613473
 31
0.0
100
AcDbText
  0
TEXT
  5
477
330
1F
100
AcDbEntity
  8
8
100
AcDbText
 10
9.706030762071467
 20
4.393068555613473
 30
0.0
 40
0.1
  1
FRONT ELEVATION
  7
ROMANS
 72
     1
 11
10.37031647635718
 21
4.393068555613473
 31
0.0
100
AcDbText
  0
LINE
  5
478
330
1F
100
AcDbEntity
  8
1
100
AcDbLine
 10
8.120316476357182
 20
3.831068555613473
 30
0.0
 11
16.37031647635718
 21
3.831068555613473
 31
0.0
  0
LINE
  5
479
330
1F
100
AcDbEntity
  8
1
100
AcDbLine
 10
16.37031647635718
 20
3.831068555613473
 30
0.0
 11
16.37031647635718
 21
9.081068555613473
 31
0.0
  0
LINE
  5
47A
330
1F
100
AcDbEntity
  8
1
100
AcDbLine
 10
16.37031647635718
 20
9.081068555613473
 30
0.0
 11
8.120316476357182
 21
9.081068555613473
 31
0.0
  0
LINE
  5
47B
330
1F
100
AcDbEntity
  8
1
100
AcDbLine
 10
8.120316476357182
 20
9.081068555613473
 30
0.0
 11
8.120316476357182
 21
3.831068555613473
 31
0.0
  0
LINE
  5
47C
330
1F
100
AcDbEntity
  8
1
100
AcDbLine
 10
9.120316476357182
 20
5.331068555613473
 30
0.0
 11
10.62031647635718
 21
5.331068555613473
 31
0.0
  0
LINE
  5
47D
330
1F
100
AcDbEntity
  8
1
100
AcDbLine
 10
9.120316476357182
 20
5.331068555613473
 30
0.0
 11
9.120316476357182
 21
8.331068555613473
 31
0.0
  0
LINE
  5
47E
330
1F
100
AcDbEntity
  8
1
100
AcDbLine
 10
9.120316476357182
 20
8.331068555613473
 30
0.0
 11
10.62031647635718
 21
8.331068555613473
 31
0.0
  0
LINE
  5
47F
330
1F
100
AcDbEntity
  8
1
100
AcDbLine
 10
10.74531647635718
 20
8.331068555613473
 30
0.0
 11
11.62031647635718
 21
8.331068555613473
 31
0.0
  0
LINE
  5
480
330
1F
100
AcDbEntity
  8
1
100
AcDbLine
 10
11.62031647635718
 20
8.331068555613473
 30
0.0
 11
11.62031647635718
 21
5.331068555613473
 31
0.0
  0
LINE
  5
481
330
1F
100
AcDbEntity
  8
1
100
AcDbLine
 10
11.62031647635718
 20
5.331068555613473
 30
0.0
 11
10.74531647635718
 21
5.331068555613473
 31
0.0
  0
LINE
  5
482
330
1F
100
AcDbEntity
  8
1
100
AcDbLine
 10
15.12031647635718
 20
5.331068555613473
 30
0.0
 11
15.12031647635718
 21
8.331068555613473
 31
0.0
  0
LINE
  5
483
330
1F
100
AcDbEntity
  8
1
100
AcDbLine
 10
13.87031647635718
 20
5.331068555613473
 30
0.0
 11
13.87031647635718
 21
8.706068555613473
 31
0.0
  0
CIRCLE
  5
484
330
1F
100
AcDbEntity
  8
1
100
AcDbCircle
 10
12.24531647635718
 20
4.331068555613473
 30
0.0
 40
0.1875
  0
LINE
  5
485
330
1F
100
AcDbEntity
  8
1
100
AcDbLine
 10
10.74531647635718
 20
8.456068555613473
 30
0.0
 11
10.74531647635718
 21
7.541042734925053
 31
0.0
  0
LINE
  5
486
330
1F
100
AcDbEntity
  8
1
100
AcDbLine
 10
10.62031647635718
 20
8.456068555613473
 30
0.0
 11
10.62031647635718
 21
8.176042734925053
 31
0.0
  0
LINE
  5
487
330
1F
100
AcDbEntity
  8
1
100
AcDbLine
 10
10.57531647635718
 20
8.221042734925052
 30
0.0
 11
10.66531647635718
 21
8.131042734925053
 31
0.0
  0
LINE
  5
488
330
1F
100
AcDbEntity
  8
1
100
AcDbLine
 10
10.66531647635718
 20
8.131042734925053
 30
0.0
 11
10.57531647635718
 21
8.131042734925053
 31
0.0
  0
LINE
  5
489
330
1F
100
AcDbEntity
  8
1
100
AcDbLine
 10
10.57531647635718
 20
8.131042734925053
 30
0.0
 11
10.66531647635718
 21
8.041042734925053
 31
0.0
  0
LINE
  5
48A
330
1F
100
AcDbEntity
  8
1
100
AcDbLine
 10
10.63251250718416
 20
8.07384670409807
 30
0.0
 11
10.63251250718416
 21
6.906747084761143
 31
0.0
  0
LINE
  5
48B
330
1F
100
AcDbEntity
  8
1
100
AcDbLine
 10
10.57531647635718
 20
6.881042734925053
 30
0.0
 11
10.66531647635718
 21
6.791042734925053
 31
0.0
  0
LINE
  5
48C
330
1F
100
AcDbEntity
  8
1
100
AcDbLine
 10
10.66531647635718
 20
6.881042734925053
 30
0.0
 11
10.57531647635718
 21
6.881042734925053
 31
0.0
  0
LINE
  5
48D
330
1F
100
AcDbEntity
  8
1
100
AcDbLine
 10
10.57531647635718
 20
6.971042734925052
 30
0.0
 11
10.66531647635718
 21
6.881042734925053
 31
0.0
  0
LINE
  5
48E
330
1F
100
AcDbEntity
  8
1
100
AcDbLine
 10
10.57531647635718
 20
5.631042734925053
 30
0.0
 11
10.66531647635718
 21
5.541042734925053
 31
0.0
  0
LINE
  5
48F
330
1F
100
AcDbEntity
  8
1
100
AcDbLine
 10
10.66531647635718
 20
5.631042734925053
 30
0.0
 11
10.57531647635718
 21
5.631042734925053
 31
0.0
  0
LINE
  5
490
330
1F
100
AcDbEntity
  8
1
100
AcDbLine
 10
10.57531647635718
 20
5.721042734925052
 30
0.0
 11
10.66531647635718
 21
5.631042734925053
 31
0.0
  0
LINE
  5
491
330
1F
100
AcDbEntity
  8
1
100
AcDbLine
 10
10.62031647635718
 20
6.836042734925053
 30
0.0
 11
10.62031647635718
 21
6.301042734925053
 31
0.0
  0
LINE
  5
492
330
1F
100
AcDbEntity
  8
1
100
AcDbLine
 10
10.62031647635718
 20
6.301042734925053
 30
0.0
 11
10.62031647635718
 21
5.676042734925053
 31
0.0
  0
LINE
  5
493
330
1F
100
AcDbEntity
  8
1
100
AcDbLine
 10
10.62031647635718
 20
5.586042734925053
 30
0.0
 11
10.62031647635718
 21
5.206068555613473
 31
0.0
  0
LINE
  5
494
330
1F
100
AcDbEntity
  8
1
100
AcDbLine
 10
10.70031647635718
 20
6.346042734925052
 30
0.0
 11
10.79031647635718
 21
6.256042734925053
 31
0.0
  0
LINE
  5
495
330
1F
100
AcDbEntity
  8
1
100
AcDbLine
 10
10.79031647635718
 20
6.256042734925053
 30
0.0
 11
10.70031647635718
 21
6.256042734925053
 31
0.0
  0
LINE
  5
496
330
1F
100
AcDbEntity
  8
1
100
AcDbLine
 10
10.70031647635718
 20
6.256042734925053
 30
0.0
 11
10.79031647635718
 21
6.166042734925053
 31
0.0
  0
LINE
  5
497
330
1F
100
AcDbEntity
  8
1
100
AcDbLine
 10
10.70031647635718
 20
7.586042734925053
 30
0.0
 11
10.79031647635718
 21
7.496042734925053
 31
0.0
  0
LINE
  5
498
330
1F
100
AcDbEntity
  8
1
100
AcDbLine
 10
10.79031647635718
 20
7.496042734925053
 30
0.0
 11
10.70031647635718
 21
7.496042734925053
 31
0.0
  0
LINE
  5
499
330
1F
100
AcDbEntity
  8
1
100
AcDbLine
 10
10.70031647635718
 20
7.496042734925053
 30
0.0
 11
10.79031647635718
 21
7.406042734925053
 31
0.0
  0
LINE
  5
49A
330
1F
100
AcDbEntity
  8
1
100
AcDbLine
 10
10.74531647635718
 20
7.457036259765339
 30
0.0
 11
10.74531647635718
 21
6.613542734925053
 31
0.0
  0
LINE
  5
49B
330
1F
100
AcDbEntity
  8
1
100
AcDbLine
 10
10.74531647635718
 20
6.613542734925053
 30
0.0
 11
10.74531647635718
 21
6.301042734925053
 31
0.0
  0
LINE
  5
49C
330
1F
100
AcDbEntity
  8
1
100
AcDbLine
 10
10.74531647635718
 20
6.211042734925053
 30
0.0
 11
10.74531647635718
 21
5.206068555613473
 31
0.0
  0
LINE
  5
49D
330
1F
100
AcDbEntity
  8
1
100
AcDbLine
 10
13.87031647635718
 20
5.331068555613473
 30
0.0
 11
14.05831647635718
 21
5.519068555613473
 31
0.0
  0
LINE
  5
49E
330
1F
100
AcDbEntity
  8
1
100
AcDbLine
 10
13.87031647635718
 20
5.456068555613473
 30
0.0
 11
14.05831647635718
 21
5.644068555613473
 31
0.0
  0
LINE
  5
49F
330
1F
100
AcDbEntity
  8
1
100
AcDbLine
 10
13.87031647635718
 20
5.831068555613473
 30
0.0
 11
14.05831647635718
 21
6.019068555613473
 31
0.0
  0
LINE
  5
4A0
330
1F
100
AcDbEntity
  8
1
100
AcDbLine
 10
13.87031647635718
 20
5.956068555613473
 30
0.0
 11
14.05831647635718
 21
6.144068555613473
 31
0.0
  0
LINE
  5
4A1
330
1F
100
AcDbEntity
  8
1
100
AcDbLine
 10
13.87031647635718
 20
6.081068555613473
 30
0.0
 11
14.05831647635718
 21
6.269068555613473
 31
0.0
  0
LINE
  5
4A2
330
1F
100
AcDbEntity
  8
1
100
AcDbLine
 10
13.87031647635718
 20
6.206068555613473
 30
0.0
 11
14.05831647635718
 21
6.394068555613473
 31
0.0
  0
LINE
  5
4A3
330
1F
100
AcDbEntity
  8
1
100
AcDbLine
 10
13.87031647635718
 20
6.331068555613473
 30
0.0
 11
14.05831647635718
 21
6.519068555613473
 31
0.0
  0
LINE
  5
4A4
330
1F
100
AcDbEntity
  8
1
100
AcDbLine
 10
13.87031647635718
 20
6.456068555613473
 30
0.0
 11
14.05831647635718
 21
6.644068555613473
 31
0.0
  0
LINE
  5
4A5
330
1F
100
AcDbEntity
  8
1
100
AcDbLine
 10
13.87031647635718
 20
6.581068555613473
 30
0.0
 11
14.05831647635718
 21
6.769068555613473
 31
0.0
  0
LINE
  5
4A6
330
1F
100
AcDbEntity
  8
1
100
AcDbLine
 10
13.87031647635718
 20
6.706068555613473
 30
0.0
 11
14.05831647635718
 21
6.894068555613473
 31
0.0
  0
LINE
  5
4A7
330
1F
100
AcDbEntity
  8
1
100
AcDbLine
 10
13.87031647635718
 20
6.831068555613473
 30
0.0
 11
14.05831647635718
 21
7.019068555613473
 31
0.0
  0
LINE
  5
4A8
330
1F
100
AcDbEntity
  8
1
100
AcDbLine
 10
13.87031647635718
 20
6.956068555613473
 30
0.0
 11
14.05831647635718
 21
7.144068555613473
 31
0.0
  0
LINE
  5
4A9
330
1F
100
AcDbEntity
  8
1
100
AcDbLine
 10
13.87031647635718
 20
7.081068555613473
 30
0.0
 11
14.05831647635718
 21
7.269068555613473
 31
0.0
  0
LINE
  5
4AA
330
1F
100
AcDbEntity
  8
1
100
AcDbLine
 10
13.87031647635718
 20
7.206068555613473
 30
0.0
 11
14.05831647635718
 21
7.394068555613473
 31
0.0
  0
LINE
  5
4AB
330
1F
100
AcDbEntity
  8
1
100
AcDbLine
 10
13.87031647635718
 20
7.331068555613473
 30
0.0
 11
14.05831647635718
 21
7.519068555613473
 31
0.0
  0
LINE
  5
4AC
330
1F
100
AcDbEntity
  8
1
100
AcDbLine
 10
13.87031647635718
 20
7.456068555613473
 30
0.0
 11
14.05831647635718
 21
7.644068555613473
 31
0.0
  0
LINE
  5
4AD
330
1F
100
AcDbEntity
  8
1
100
AcDbLine
 10
13.87031647635718
 20
7.581068555613473
 30
0.0
 11
14.05831647635718
 21
7.769068555613473
 31
0.0
  0
LINE
  5
4AE
330
1F
100
AcDbEntity
  8
1
100
AcDbLine
 10
13.87031647635718
 20
7.706068555613473
 30
0.0
 11
14.05831647635718
 21
7.894068555613473
 31
0.0
  0
LINE
  5
4AF
330
1F
100
AcDbEntity
  8
1
100
AcDbLine
 10
13.87031647635718
 20
7.831068555613473
 30
0.0
 11
14.05831647635718
 21
8.019068555613472
 31
0.0
  0
LINE
  5
4B0
330
1F
100
AcDbEntity
  8
1
100
AcDbLine
 10
13.87031647635718
 20
7.956068555613473
 30
0.0
 11
14.05831647635718
 21
8.144068555613472
 31
0.0
  0
LINE
  5
4B1
330
1F
100
AcDbEntity
  8
1
100
AcDbLine
 10
13.87031647635718
 20
8.081068555613473
 30
0.0
 11
14.05831647635718
 21
8.269068555613472
 31
0.0
  0
LINE
  5
4B2
330
1F
100
AcDbEntity
  8
1
100
AcDbLine
 10
13.87031647635718
 20
8.206068555613473
 30
0.0
 11
14.05831647635718
 21
8.394068555613472
 31
0.0
  0
LINE
  5
4B3
330
1F
100
AcDbEntity
  8
1
100
AcDbLine
 10
13.87031647635718
 20
8.331068555613473
 30
0.0
 11
14.05831647635718
 21
8.519068555613472
 31
0.0
  0
LINE
  5
4B4
330
1F
100
AcDbEntity
  8
1
100
AcDbLine
 10
13.87031647635718
 20
8.456068555613473
 30
0.0
 11
14.05831647635718
 21
8.644068555613472
 31
0.0
  0
LINE
  5
4B5
330
1F
100
AcDbEntity
  8
1
100
AcDbLine
 10
13.87031647635718
 20
8.581068555613473
 30
0.0
 11
13.99531647635718
 21
8.706068555613473
 31
0.0
  0
LINE
  5
4B6
330
1F
100
AcDbEntity
  8
1
100
AcDbLine
 10
13.81031647635718
 20
5.331068555613473
 30
0.0
 11
13.81031647635718
 21
8.331068555613473
 31
0.0
  0
LINE
  5
4B7
330
1F
100
AcDbEntity
  8
4
100
AcDbLine
 10
9.120316476357182
 20
5.269068555613473
 30
0.0
 11
9.120316476357182
 21
4.769068555613473
 31
0.0
  0
LINE
  5
4B8
330
1F
100
AcDbEntity
  8
4
100
AcDbLine
 10
11.62031647635718
 20
5.269068555613473
 30
0.0
 11
11.62031647635718
 21
4.769068555613473
 31
0.0
  0
LINE
  5
4B9
330
1F
100
AcDbEntity
  8
4
100
AcDbLine
 10
11.62031647635718
 20
4.831068555613473
 30
0.0
 11
9.120316476357182
 21
4.831068555613473
 31
0.0
  0
INSERT
  5
4BA
330
1F
100
AcDbEntity
  8
4
100
AcDbBlockReference
  2
ARRO
 10
9.120316476357182
 20
4.831068555613473
 30
0.0
  0
INSERT
  5
4BB
330
1F
100
AcDbEntity
  8
4
100
AcDbBlockReference
  2
ARRO
 10
11.62031647635718
 20
4.831068555613473
 30
0.0
 50
180.0
  0
LINE
  5
4BC
330
1F
100
AcDbEntity
  8
4
100
AcDbLine
 10
13.12281647635718
 20
5.331068555613473
 30
0.0
 11
12.62281647635718
 21
5.331068555613473
 31
0.0
  0
LINE
  5
4BD
330
1F
100
AcDbEntity
  8
4
100
AcDbLine
 10
12.68281647635718
 20
5.331068555613473
 30
0.0
 11
12.68281647635718
 21
8.331068555613473
 31
0.0
  0
LINE
  5
4BE
330
1F
100
AcDbEntity
  8
4
100
AcDbLine
 10
13.12281647635718
 20
8.331068555613473
 30
0.0
 11
12.62281647635718
 21
8.331068555613473
 31
0.0
  0
INSERT
  5
4BF
330
1F
100
AcDbEntity
  8
4
100
AcDbBlockReference
  2
ARRO
 10
12.68281647635718
 20
8.331068555613473
 30
0.0
 50
270.0
  0
INSERT
  5
4C0
330
1F
100
AcDbEntity
  8
4
100
AcDbBlockReference
  2
ARRO
 10
12.68281647635718
 20
5.331068555613473
 30
0.0
 50
90.0
  0
LINE
  5
4C1
330
1F
100
AcDbEntity
  8
4
100
AcDbLine
 10
13.81031647635718
 20
4.831068555613473
 30
0.0
 11
13.18531647635718
 21
4.831068555613473
 31
0.0
  0
LINE
  5
4C2
330
1F
100
AcDbEntity
  8
4
100
AcDbLine
 10
13.87031647635718
 20
4.831068555613473
 30
0.0
 11
14.12031647635718
 21
4.831068555613473
 31
0.0
  0
LINE
  5
4C3
330
1F
100
AcDbEntity
  8
4
100
AcDbLine
 10
14.49531647635718
 20
4.831068555613473
 30
0.0
 11
15.77631267840405
 21
4.831068555613473
 31
0.0
  0
INSERT
  5
4C4
330
1F
100
AcDbEntity
  8
4
100
AcDbBlockReference
  2
ARRO
 10
13.18531647635718
 20
4.831068555613473
 30
0.0
  0
INSERT
  5
4C5
330
1F
100
AcDbEntity
  8
4
100
AcDbBlockReference
  2
ARRO
 10
13.81031647635718
 20
4.831068555613473
 30
0.0
 50
180.0
  0
INSERT
  5
4C6
330
1F
100
AcDbEntity
  8
4
100
AcDbBlockReference
  2
ARRO
 10
13.87031647635718
 20
4.831068555613473
 30
0.0
  0
INSERT
  5
4C7
330
1F
100
AcDbEntity
  8
4
100
AcDbBlockReference
  2
ARRO
 10
14.49531647635718
 20
4.831068555613473
 30
0.0
  0
INSERT
  5
4C8
330
1F
100
AcDbEntity
  8
4
100
AcDbBlockReference
  2
ARRO
 10
15.77631267840405
 20
4.831068555613473
 30
0.0
 50
180.0
  0
LINE
  5
4C9
330
1F
100
AcDbEntity
  8
1
100
AcDbLine
 10
9.182316476357181
 20
5.393068555613473
 30
0.0
 11
9.182316476357183
 21
8.269068555613474
 31
0.0
  0
LINE
  5
4CA
330
1F
100
AcDbEntity
  8
1
100
AcDbLine
 10
9.182316476357183
 20
8.269068555613474
 30
0.0
 11
9.683316476357182
 21
8.269068555613474
 31
0.0
  0
LINE
  5
4CB
330
1F
100
AcDbEntity
  8
1
100
AcDbLine
 10
9.683316476357182
 20
8.269068555613474
 30
0.0
 11
9.68331647635718
 21
5.393068555613473
 31
0.0
  0
LINE
  5
4CC
330
1F
100
AcDbEntity
  8
1
100
AcDbLine
 10
9.807316476357181
 20
5.393068555613473
 30
0.0
 11
9.807316476357183
 21
8.269068555613474
 31
0.0
  0
LINE
  5
4CD
330
1F
100
AcDbEntity
  8
1
100
AcDbLine
 10
9.807316476357183
 20
8.269068555613474
 30
0.0
 11
10.30831647635718
 21
8.269068555613474
 31
0.0
  0
LINE
  5
4CE
330
1F
100
AcDbEntity
  8
1
100
AcDbLine
 10
10.30831647635718
 20
8.269068555613474
 30
0.0
 11
10.30831647635718
 21
5.393068555613473
 31
0.0
  0
LINE
  5
4CF
330
1F
100
AcDbEntity
  8
1
100
AcDbLine
 10
10.30831647635718
 20
5.393068555613473
 30
0.0
 11
9.807316476357181
 21
5.393068555613473
 31
0.0
  0
LINE
  5
4D0
330
1F
100
AcDbEntity
  8
1
100
AcDbLine
 10
10.43231647635718
 20
5.393068555613473
 30
0.0
 11
10.43231647635718
 21
8.269068555613474
 31
0.0
  0
LINE
  5
4D1
330
1F
100
AcDbEntity
  8
1
100
AcDbLine
 10
10.43231647635718
 20
8.269068555613474
 30
0.0
 11
10.62031647635718
 21
8.269068555613474
 31
0.0
  0
LINE
  5
4D2
330
1F
100
AcDbEntity
  8
1
100
AcDbLine
 10
10.93331647635718
 20
8.269068555613474
 30
0.0
 11
10.93331647635718
 21
5.393068555613473
 31
0.0
  0
LINE
  5
4D3
330
1F
100
AcDbEntity
  8
1
100
AcDbLine
 10
10.93331647635718
 20
5.393068555613473
 30
0.0
 11
10.74531647635718
 21
5.393068555613473
 31
0.0
  0
LINE
  5
4D4
330
1F
100
AcDbEntity
  8
1
100
AcDbLine
 10
11.05731647635718
 20
5.393068555613473
 30
0.0
 11
11.05731647635718
 21
8.269068555613474
 31
0.0
  0
LINE
  5
4D5
330
1F
100
AcDbEntity
  8
1
100
AcDbLine
 10
11.05731647635718
 20
8.269068555613474
 30
0.0
 11
11.55831647635718
 21
8.269068555613474
 31
0.0
  0
LINE
  5
4D6
330
1F
100
AcDbEntity
  8
1
100
AcDbLine
 10
11.55831647635718
 20
8.269068555613474
 30
0.0
 11
11.55831647635718
 21
5.393068555613473
 31
0.0
  0
LINE
  5
4D7
330
1F
100
AcDbEntity
  8
1
100
AcDbLine
 10
11.55831647635718
 20
5.393068555613473
 30
0.0
 11
11.05731647635718
 21
5.393068555613473
 31
0.0
  0
LINE
  5
4D8
330
1F
100
AcDbEntity
  8
1
100
AcDbLine
 10
9.745316476357182
 20
5.331068555613473
 30
0.0
 11
9.745316476357182
 21
8.331068555613473
 31
0.0
  0
LINE
  5
4D9
330
1F
100
AcDbEntity
  8
1
100
AcDbLine
 10
10.37031647635718
 20
5.331068555613473
 30
0.0
 11
10.37031647635718
 21
8.331068555613473
 31
0.0
  0
LINE
  5
4DA
330
1F
100
AcDbEntity
  8
1
100
AcDbLine
 10
10.99531647635718
 20
5.331068555613473
 30
0.0
 11
10.99531647635718
 21
8.331068555613473
 31
0.0
  0
LINE
  5
4DB
330
1F
100
AcDbEntity
  8
1
100
AcDbLine
 10
10.74531647635718
 20
8.269068555613474
 30
0.0
 11
10.93331647635718
 21
8.269068555613474
 31
0.0
  0
LINE
  5
4DC
330
1F
100
AcDbEntity
  8
1
100
AcDbLine
 10
10.62031647635718
 20
5.393068555613473
 30
0.0
 11
10.43231647635718
 21
5.393068555613473
 31
0.0
  0
LINE
  5
4DD
330
1F
100
AcDbEntity
  8
4
100
AcDbLine
 10
10.05781647635718
 20
8.237068555613474
 30
0.0
 11
10.05781647635718
 21
8.362068555613474
 31
0.0
  0
CIRCLE
  5
4DE
330
1F
100
AcDbEntity
  8
4
100
AcDbCircle
 10
10.05781647635718
 20
8.143068555613474
 30
0.0
 40
0.094
  0
CIRCLE
  5
4DF
330
1F
100
AcDbEntity
  8
4
100
AcDbCircle
 10
9.899183186665196
 20
5.205068555613473
 30
0.0
 40
0.094
  0
LINE
  5
4E0
330
1F
100
AcDbEntity
  8
4
100
AcDbLine
 10
9.899183186665196
 20
5.299068555613473
 30
0.0
 11
9.899183186665196
 21
5.424068555613473
 31
0.0
  0
CIRCLE
  5
4E1
330
1F
100
AcDbEntity
  8
4
100
AcDbCircle
 10
10.14918318666519
 20
5.205068555613473
 30
0.0
 40
0.094
  0
LINE
  5
4E2
330
1F
100
AcDbEntity
  8
4
100
AcDbLine
 10
9.993183186665195
 20
5.205068555613473
 30
0.0
 11
10.05518318666519
 21
5.205068555613473
 31
0.0
  0
LINE
  5
4E3
330
1F
100
AcDbEntity
  8
1
100
AcDbLine
 10
9.182316476357181
 20
5.393068555613473
 30
0.0
 11
9.68331647635718
 21
5.393068555613473
 31
0.0
  0
LINE
  5
4E4
330
1F
100
AcDbEntity
  8
1
100
AcDbLine
 10
13.32381647635718
 20
8.331068555613473
 30
0.0
 11
13.30881647635718
 21
8.316068555613473
 31
0.0
  0
LINE
  5
4E5
330
1F
100
AcDbEntity
  8
1
100
AcDbLine
 10
13.30881647635718
 20
8.316068555613473
 30
0.0
 11
13.21081647635718
 21
8.316068555613473
 31
0.0
  0
LINE
  5
4E6
330
1F
100
AcDbEntity
  8
1
100
AcDbLine
 10
13.21081647635718
 20
8.316068555613473
 30
0.0
 11
13.21081647635718
 21
8.287822413175913
 31
0.0
  0
LINE
  5
4E7
330
1F
100
AcDbEntity
  8
1
100
AcDbLine
 10
13.38581647635718
 20
8.269068555613472
 30
0.0
 11
13.32381647635718
 21
8.331068555613473
 31
0.0
  0
LINE
  5
4E8
330
1F
100
AcDbEntity
  8
1
100
AcDbLine
 10
13.75081647635718
 20
8.269068555613472
 30
0.0
 11
13.38581647635718
 21
8.269068555613472
 31
0.0
  0
LINE
  5
4E9
330
1F
100
AcDbEntity
  8
1
100
AcDbLine
 10
13.75081647635718
 20
8.331068555613473
 30
0.0
 11
13.75081647635718
 21
8.269068555613472
 31
0.0
  0
LINE
  5
4EA
330
1F
100
AcDbEntity
  8
1
100
AcDbLine
 10
13.79081647635718
 20
8.331068555613473
 30
0.0
 11
13.79081647635718
 21
8.269068555613472
 31
0.0
  0
LINE
  5
4EB
330
1F
100
AcDbEntity
  8
1
100
AcDbLine
 10
13.18581647635718
 20
8.331068555613473
 30
0.0
 11
13.29381647635718
 21
8.331068555613473
 31
0.0
  0
LINE
  5
4EC
330
1F
100
AcDbEntity
  8
1
100
AcDbLine
 10
13.18581647635718
 20
8.269068555613472
 30
0.0
 11
13.18581647635718
 21
8.331068555613473
 31
0.0
  0
LINE
  5
4ED
330
1F
100
AcDbEntity
  8
1
100
AcDbLine
 10
13.24781647635718
 20
8.269068555613472
 30
0.0
 11
13.18581647635718
 21
8.269068555613472
 31
0.0
  0
LINE
  5
4EE
330
1F
100
AcDbEntity
  8
1
100
AcDbLine
 10
13.32381647635718
 20
8.331068555613473
 30
0.0
 11
13.79081647635718
 21
8.331068555613473
 31
0.0
  0
LINE
  5
4EF
330
1F
100
AcDbEntity
  8
1
100
AcDbLine
 10
14.63381647635718
 20
8.331068555613473
 30
0.0
 11
15.10081647635718
 21
8.331068555613473
 31
0.0
  0
LINE
  5
4F0
330
1F
100
AcDbEntity
  8
1
100
AcDbLine
 10
14.55781647635718
 20
8.269068555613472
 30
0.0
 11
14.49581647635718
 21
8.269068555613472
 31
0.0
  0
LINE
  5
4F1
330
1F
100
AcDbEntity
  8
1
100
AcDbLine
 10
14.49581647635718
 20
8.269068555613472
 30
0.0
 11
14.49581647635718
 21
8.331068555613473
 31
0.0
  0
LINE
  5
4F2
330
1F
100
AcDbEntity
  8
1
100
AcDbLine
 10
14.49581647635718
 20
8.331068555613473
 30
0.0
 11
14.60381647635718
 21
8.331068555613473
 31
0.0
  0
LINE
  5
4F3
330
1F
100
AcDbEntity
  8
1
100
AcDbLine
 10
15.10081647635718
 20
8.331068555613473
 30
0.0
 11
15.10081647635718
 21
8.269068555613472
 31
0.0
  0
LINE
  5
4F4
330
1F
100
AcDbEntity
  8
1
100
AcDbLine
 10
15.06081647635718
 20
8.331068555613473
 30
0.0
 11
15.06081647635718
 21
8.269068555613472
 31
0.0
  0
LINE
  5
4F5
330
1F
100
AcDbEntity
  8
1
100
AcDbLine
 10
15.06081647635718
 20
8.269068555613472
 30
0.0
 11
14.69581647635718
 21
8.269068555613472
 31
0.0
  0
LINE
  5
4F6
330
1F
100
AcDbEntity
  8
1
100
AcDbLine
 10
14.69581647635718
 20
8.269068555613472
 30
0.0
 11
14.63381647635718
 21
8.331068555613473
 31
0.0
  0
LINE
  5
4F7
330
1F
100
AcDbEntity
  8
1
100
AcDbLine
 10
14.52081647635718
 20
8.316068555613473
 30
0.0
 11
14.52081647635718
 21
8.287822413175913
 31
0.0
  0
LINE
  5
4F8
330
1F
100
AcDbEntity
  8
1
100
AcDbLine
 10
14.61881647635718
 20
8.316068555613473
 30
0.0
 11
14.52081647635718
 21
8.316068555613473
 31
0.0
  0
LINE
  5
4F9
330
1F
100
AcDbEntity
  8
1
100
AcDbLine
 10
14.63381647635718
 20
8.331068555613473
 30
0.0
 11
14.61881647635718
 21
8.316068555613473
 31
0.0
  0
LINE
  5
4FA
330
1F
100
AcDbEntity
  8
1
100
AcDbLine
 10
15.63881647635718
 20
8.331068555613473
 30
0.0
 11
15.65381647635718
 21
8.316068555613473
 31
0.0
  0
LINE
  5
4FB
330
1F
100
AcDbEntity
  8
1
100
AcDbLine
 10
15.65381647635718
 20
8.316068555613473
 30
0.0
 11
15.75181647635718
 21
8.316068555613473
 31
0.0
  0
LINE
  5
4FC
330
1F
100
AcDbEntity
  8
1
100
AcDbLine
 10
15.75181647635718
 20
8.316068555613473
 30
0.0
 11
15.75181647635718
 21
8.287822413175913
 31
0.0
  0
LINE
  5
4FD
330
1F
100
AcDbEntity
  8
1
100
AcDbLine
 10
15.57681647635718
 20
8.269068555613472
 30
0.0
 11
15.63881647635718
 21
8.331068555613473
 31
0.0
  0
LINE
  5
4FE
330
1F
100
AcDbEntity
  8
1
100
AcDbLine
 10
15.21181647635718
 20
8.269068555613472
 30
0.0
 11
15.57681647635718
 21
8.269068555613472
 31
0.0
  0
LINE
  5
4FF
330
1F
100
AcDbEntity
  8
1
100
AcDbLine
 10
15.21181647635718
 20
8.331068555613473
 30
0.0
 11
15.21181647635718
 21
8.269068555613472
 31
0.0
  0
LINE
  5
500
330
1F
100
AcDbEntity
  8
1
100
AcDbLine
 10
15.17181647635718
 20
8.331068555613473
 30
0.0
 11
15.17181647635718
 21
8.269068555613472
 31
0.0
  0
LINE
  5
501
330
1F
100
AcDbEntity
  8
1
100
AcDbLine
 10
15.77681647635718
 20
8.331068555613473
 30
0.0
 11
15.66881647635718
 21
8.331068555613473
 31
0.0
  0
LINE
  5
502
330
1F
100
AcDbEntity
  8
1
100
AcDbLine
 10
15.77681647635718
 20
8.269068555613472
 30
0.0
 11
15.77681647635718
 21
8.331068555613473
 31
0.0
  0
LINE
  5
503
330
1F
100
AcDbEntity
  8
1
100
AcDbLine
 10
15.71481647635718
 20
8.269068555613472
 30
0.0
 11
15.77681647635718
 21
8.269068555613472
 31
0.0
  0
LINE
  5
504
330
1F
100
AcDbEntity
  8
1
100
AcDbLine
 10
15.63881647635718
 20
8.331068555613473
 30
0.0
 11
15.17181647635718
 21
8.331068555613473
 31
0.0
  0
LINE
  5
505
330
1F
100
AcDbEntity
  8
1
100
AcDbLine
 10
15.63892204070857
 20
5.393568555613473
 30
0.0
 11
15.17192204070857
 21
5.393568555613473
 31
0.0
  0
LINE
  5
506
330
1F
100
AcDbEntity
  8
1
100
AcDbLine
 10
15.71492204070857
 20
5.331568555613473
 30
0.0
 11
15.77692204070857
 21
5.331568555613473
 31
0.0
  0
LINE
  5
507
330
1F
100
AcDbEntity
  8
1
100
AcDbLine
 10
15.77692204070857
 20
5.331568555613473
 30
0.0
 11
15.77692204070857
 21
5.393568555613473
 31
0.0
  0
LINE
  5
508
330
1F
100
AcDbEntity
  8
1
100
AcDbLine
 10
15.77692204070857
 20
5.393568555613473
 30
0.0
 11
15.66892204070857
 21
5.393568555613473
 31
0.0
  0
LINE
  5
509
330
1F
100
AcDbEntity
  8
1
100
AcDbLine
 10
15.17192204070857
 20
5.393568555613473
 30
0.0
 11
15.17192204070857
 21
5.331568555613473
 31
0.0
  0
LINE
  5
50A
330
1F
100
AcDbEntity
  8
1
100
AcDbLine
 10
15.21192204070857
 20
5.393568555613473
 30
0.0
 11
15.21192204070857
 21
5.331568555613473
 31
0.0
  0
LINE
  5
50B
330
1F
100
AcDbEntity
  8
1
100
AcDbLine
 10
15.21192204070857
 20
5.331568555613473
 30
0.0
 11
15.57692204070857
 21
5.331568555613473
 31
0.0
  0
LINE
  5
50C
330
1F
100
AcDbEntity
  8
1
100
AcDbLine
 10
15.57692204070857
 20
5.331568555613473
 30
0.0
 11
15.63892204070857
 21
5.393568555613473
 31
0.0
  0
LINE
  5
50D
330
1F
100
AcDbEntity
  8
1
100
AcDbLine
 10
15.75192204070857
 20
5.378568555613473
 30
0.0
 11
15.75192204070857
 21
5.350322413175913
 31
0.0
  0
LINE
  5
50E
330
1F
100
AcDbEntity
  8
1
100
AcDbLine
 10
15.65392204070857
 20
5.378568555613473
 30
0.0
 11
15.75192204070857
 21
5.378568555613473
 31
0.0
  0
LINE
  5
50F
330
1F
100
AcDbEntity
  8
1
100
AcDbLine
 10
15.63892204070857
 20
5.393568555613473
 30
0.0
 11
15.65392204070857
 21
5.378568555613473
 31
0.0
  0
LINE
  5
510
330
1F
100
AcDbEntity
  8
1
100
AcDbLine
 10
14.63381647635718
 20
5.393568555613473
 30
0.0
 11
14.61881647635718
 21
5.378568555613473
 31
0.0
  0
LINE
  5
511
330
1F
100
AcDbEntity
  8
1
100
AcDbLine
 10
14.61881647635718
 20
5.378568555613473
 30
0.0
 11
14.52081647635718
 21
5.378568555613473
 31
0.0
  0
LINE
  5
512
330
1F
100
AcDbEntity
  8
1
100
AcDbLine
 10
14.52081647635718
 20
5.378568555613473
 30
0.0
 11
14.52081647635718
 21
5.350322413175913
 31
0.0
  0
LINE
  5
513
330
1F
100
AcDbEntity
  8
1
100
AcDbLine
 10
14.69581647635718
 20
5.331568555613473
 30
0.0
 11
14.63381647635718
 21
5.393568555613473
 31
0.0
  0
LINE
  5
514
330
1F
100
AcDbEntity
  8
1
100
AcDbLine
 10
15.06081647635718
 20
5.331568555613473
 30
0.0
 11
14.69581647635718
 21
5.331568555613473
 31
0.0
  0
LINE
  5
515
330
1F
100
AcDbEntity
  8
1
100
AcDbLine
 10
15.06081647635718
 20
5.393568555613473
 30
0.0
 11
15.06081647635718
 21
5.331568555613473
 31
0.0
  0
LINE
  5
516
330
1F
100
AcDbEntity
  8
1
100
AcDbLine
 10
15.10081647635718
 20
5.393568555613473
 30
0.0
 11
15.10081647635718
 21
5.331568555613473
 31
0.0
  0
LINE
  5
517
330
1F
100
AcDbEntity
  8
1
100
AcDbLine
 10
14.49581647635718
 20
5.393568555613473
 30
0.0
 11
14.60381647635718
 21
5.393568555613473
 31
0.0
  0
LINE
  5
518
330
1F
100
AcDbEntity
  8
1
100
AcDbLine
 10
14.49581647635718
 20
5.331568555613473
 30
0.0
 11
14.49581647635718
 21
5.393568555613473
 31
0.0
  0
LINE
  5
519
330
1F
100
AcDbEntity
  8
1
100
AcDbLine
 10
14.55781647635718
 20
5.331568555613473
 30
0.0
 11
14.49581647635718
 21
5.331568555613473
 31
0.0
  0
LINE
  5
51A
330
1F
100
AcDbEntity
  8
1
100
AcDbLine
 10
14.63381647635718
 20
5.393568555613473
 30
0.0
 11
15.10081647635718
 21
5.393568555613473
 31
0.0
  0
LINE
  5
51B
330
1F
100
AcDbEntity
  8
1
100
AcDbLine
 10
13.32381647635718
 20
5.393568555613473
 30
0.0
 11
13.79081647635718
 21
5.393568555613473
 31
0.0
  0
LINE
  5
51C
330
1F
100
AcDbEntity
  8
1
100
AcDbLine
 10
13.24781647635718
 20
5.331568555613473
 30
0.0
 11
13.18581647635718
 21
5.331568555613473
 31
0.0
  0
LINE
  5
51D
330
1F
100
AcDbEntity
  8
1
100
AcDbLine
 10
13.18581647635718
 20
5.331568555613473
 30
0.0
 11
13.18581647635718
 21
5.393568555613473
 31
0.0
  0
LINE
  5
51E
330
1F
100
AcDbEntity
  8
1
100
AcDbLine
 10
13.18581647635718
 20
5.393568555613473
 30
0.0
 11
13.29381647635718
 21
5.393568555613473
 31
0.0
  0
LINE
  5
51F
330
1F
100
AcDbEntity
  8
1
100
AcDbLine
 10
13.79081647635718
 20
5.393568555613473
 30
0.0
 11
13.79081647635718
 21
5.331568555613473
 31
0.0
  0
LINE
  5
520
330
1F
100
AcDbEntity
  8
1
100
AcDbLine
 10
13.75081647635718
 20
5.393568555613473
 30
0.0
 11
13.75081647635718
 21
5.331568555613473
 31
0.0
  0
LINE
  5
521
330
1F
100
AcDbEntity
  8
1
100
AcDbLine
 10
13.75081647635718
 20
5.331568555613473
 30
0.0
 11
13.38581647635718
 21
5.331568555613473
 31
0.0
  0
LINE
  5
522
330
1F
100
AcDbEntity
  8
1
100
AcDbLine
 10
13.38581647635718
 20
5.331568555613473
 30
0.0
 11
13.32381647635718
 21
5.393568555613473
 31
0.0
  0
LINE
  5
523
330
1F
100
AcDbEntity
  8
1
100
AcDbLine
 10
13.21081647635718
 20
5.378568555613473
 30
0.0
 11
13.21081647635718
 21
5.350322413175913
 31
0.0
  0
LINE
  5
524
330
1F
100
AcDbEntity
  8
1
100
AcDbLine
 10
13.30881647635718
 20
5.378568555613473
 30
0.0
 11
13.21081647635718
 21
5.378568555613473
 31
0.0
  0
LINE
  5
525
330
1F
100
AcDbEntity
  8
1
100
AcDbLine
 10
13.32381647635718
 20
5.393568555613473
 30
0.0
 11
13.30881647635718
 21
5.378568555613473
 31
0.0
  0
LINE
  5
526
330
1F
100
AcDbEntity
  8
1
100
AcDbLine
 10
13.87031647635718
 20
5.706068555613473
 30
0.0
 11
14.05831647635718
 21
5.894068555613473
 31
0.0
  0
LINE
  5
527
330
1F
100
AcDbEntity
  8
1
100
AcDbLine
 10
13.87031647635718
 20
5.581068555613473
 30
0.0
 11
14.05831647635718
 21
5.769068555613473
 31
0.0
  0
LINE
  5
528
330
1F
100
AcDbEntity
  8
4
100
AcDbLine
 10
13.18531647635718
 20
4.769068555613473
 30
0.0
 11
13.18531647635718
 21
4.957068555613473
 31
0.0
  0
LINE
  5
529
330
1F
100
AcDbEntity
  8
4
100
AcDbLine
 10
13.81031647635718
 20
4.769068555613473
 30
0.0
 11
13.81031647635718
 21
4.957068555613473
 31
0.0
  0
LINE
  5
52A
330
1F
100
AcDbEntity
  8
4
100
AcDbLine
 10
13.87031647635718
 20
4.769068555613473
 30
0.0
 11
13.87031647635718
 21
4.957068555613473
 31
0.0
  0
LINE
  5
52B
330
1F
100
AcDbEntity
  8
4
100
AcDbLine
 10
14.49531647635718
 20
4.769068555613473
 30
0.0
 11
14.49531647635718
 21
4.957068555613473
 31
0.0
  0
LINE
  5
52C
330
1F
100
AcDbEntity
  8
4
100
AcDbLine
 10
15.77631267840405
 20
4.769068555613473
 30
0.0
 11
15.77631267840405
 21
4.957068555613473
 31
0.0
  0
LINE
  5
530
330
1F
100
AcDbEntity
  8
1
100
AcDbLine
 10
15.15231647635718
 20
5.331068555613473
 30
0.0
 11
15.15231647635718
 21
8.331068555613473
 31
0.0
  0
VIEWPORT
  5
4C
102
{ACAD_XDICTIONARY
360
5F3
102
}
330
1B
100
AcDbEntity
 67
     1
  8
0
100
AcDbViewport
 10
5.249999639556166
 20
4.001999823700254
 30
0.0
 40
16.81197165989394
 41
8.613207345583392
 68
     1
 69
     1
 12
5.249999639556166
 22
4.001999823700254
 13
0.0
 23
0.0
 14
0.5
 24
0.5
 15
0.5
 25
0.5
 16
0.0
 26
0.0
 36
1.0
 17
0.0
 27
0.0
 37
0.0
 42
50.0
 43
0.0
 44
0.0
 45
8.613207345583392
 50
0.0
 51
0.0
 72
   100
 90
    32800
  1

281
     0
 71
     1
 74
     0
110
0.0
120
0.0
130
0.0
111
1.0
121
0.0
131
0.0
112
0.0
122
1.0
132
0.0
 79
     0
146
0.0
  0
ENDSEC
  0
SECTION
  2
OBJECTS
  0
DICTIONARY
  5
C
330
0
100
AcDbDictionary
281
     1
  3
ACAD_COLOR
350
2B4
  3
ACAD_GROUP
350
D
  3
ACAD_LAYOUT
350
1A
  3
ACAD_MATERIAL
350
2B3
  3
ACAD_MLINESTYLE
350
17
  3
ACAD_PLOTSETTINGS
350
19
  3
ACAD_PLOTSTYLENAME
350
E
  3
ACAD_TABLESTYLE
350
5A9
  3
ACAD_VISUALSTYLE
350
598
  3
ACDBHEADERROUNDTRIPXREC
350
60F
  3
AcDbVariableDictionary
350
565
  3
DWGPROPS
350
60E
  0
DICTIONARY
  5
5EF
330
8
100
AcDbDictionary
280
     1
281
     1
  3
ACAD_XREC_ROUNDTRIP
360
5F0
  0
DICTIONARY
  5
5F1
330
10
100
AcDbDictionary
280
     1
281
     1
  3
ACAD_XREC_ROUNDTRIP
360
5F2
  0
DICTIONARY
  5
5F5
330
65
100
AcDbDictionary
280
     1
281
     1
  3
ACAD_XREC_ROUNDTRIP
360
5F6
  0
DICTIONARY
  5
5F7
330
66
100
AcDbDictionary
280
     1
281
     1
  3
ACAD_XREC_ROUNDTRIP
360
5F8
  0
DICTIONARY
  5
5F9
330
67
100
AcDbDictionary
280
     1
281
     1
  3
ACAD_XREC_ROUNDTRIP
360
5FA
  0
DICTIONARY
  5
5FB
330
1E0
100
AcDbDictionary
280
     1
281
     1
  3
ACAD_XREC_ROUNDTRIP
360
5FC
  0
DICTIONARY
  5
5F3
330
4C
100
AcDbDictionary
280
     1
281
     1
  3
ACAD_XREC_ROUNDTRIP
360
5F4
  0
DICTIONARY
  5
2B4
102
{ACAD_REACTORS
330
C
102
}
330
C
100
AcDbDictionary
281
     1
  0
DICTIONARY
  5
D
102
{ACAD_REACTORS
330
C
102
}
330
C
100
AcDbDictionary
281
     1
  0
DICTIONARY
  5
1A
102
{ACAD_REACTORS
330
C
102
}
330
C
100
AcDbDictionary
281
     1
  3
Layout1
350
1E
  3
Model
350
22
  0
DICTIONARY
  5
2B3
102
{ACAD_REACTORS
330
C
102
}
330
C
100
AcDbDictionary
281
     1
  3
ByBlock
350
596
  3
ByLayer
350
595
  3
Global
350
597
  0
DICTIONARY
  5
17
102
{ACAD_REACTORS
330
C
102
}
330
C
100
AcDbDictionary
281
     1
  3
Standard
350
18
  0
DICTIONARY
  5
19
102
{ACAD_REACTORS
330
C
102
}
330
C
100
AcDbDictionary
281
     1
  0
ACDBDICTIONARYWDFLT
  5
E
102
{ACAD_REACTORS
330
C
102
}
330
C
100
AcDbDictionary
281
     1
  3
Normal
350
F
100
AcDbDictionaryWithDefault
340
F
  0
DICTIONARY
  5
5A9
102
{ACAD_REACTORS
330
C
102
}
330
C
100
AcDbDictionary
281
     1
  3
Standard
350
5AA
  0
DICTIONARY
  5
598
102
{ACAD_REACTORS
330
C
102
}
330
C
100
AcDbDictionary
281
     1
  3
2dWireframe
350
59E
  3
3D Hidden
350
5A0
  3
3dWireframe
350
59F
  3
Basic
350
59D
  3
Brighten
350
5A4
  3
ColorChange
350
5A8
  3
Conceptual
350
5A1
  3
Dim
350
5A3
  3
Facepattern
350
5A7
  3
Flat
350
599
  3
FlatWithEdges
350
59A
  3
Gouraud
350
59B
  3
GouraudWithEdges
350
59C
  3
Linepattern
350
5A6
  3
Realistic
350
5A2
  3
Thicken
350
5A5
  0
DICTIONARY
  5
60F
102
{ACAD_REACTORS
330
C
102
}
330
C
100
AcDbDictionary
281
     1
  3
COLORDICT
350
611
  3
MATERIALDICT
350
610
  0
DICTIONARY
  5
565
102
{ACAD_REACTORS
330
C
102
}
330
C
100
AcDbDictionary
281
     1
  3
CTABLESTYLE
350
605
  3
DIMASSOC
350
566
  3
PROJECTNAME
350
567
  0
XRECORD
  5
60E
102
{ACAD_REACTORS
330
C
102
}
330
C
100
AcDbXrecord
280
     1
  1
DWGPROPS COOKIE
  2

  3

  4

  6

  7

  8
tjoseph
  9

300
=
301
=
302
=
303
=
304
=
305
=
306
=
307
=
308
=
309
=
 40
0.2906501273148148
 41
2452996.337606875
 42
2454728.601259757
  1

 90
        0
  0
XRECORD
  5
5F0
102
{ACAD_REACTORS
330
5EF
102
}
330
5EF
100
AcDbXrecord
280
     1
102
VTR_0.000_0.000_1.000_1.000_VISUALSTYLE
340
59E
102
VTR_0.000_0.000_1.000_1.000_GRIDDISPLAY
 70
     3
102
VTR_0.000_0.000_1.000_1.000_GRIDMAJOR
 70
     5
102
VTR_0.000_0.000_1.000_1.000_DEFAULTLIGHTING
280
     1
102
VTR_0.000_0.000_1.000_1.000_DEFAULTLIGHTINGTYPE
 70
     1
102
VTR_0.000_0.000_1.000_1.000_BRIGHTNESS
141
0.0
102
VTR_0.000_0.000_1.000_1.000_CONTRAST
142
0.0
  0
XRECORD
  5
5F2
102
{ACAD_REACTORS
330
5F1
102
}
330
5F1
100
AcDbXrecord
280
     1
102
MATERIAL
340
597
  0
XRECORD
  5
5F6
102
{ACAD_REACTORS
330
5F5
102
}
330
5F5
100
AcDbXrecord
280
     1
102
MATERIAL
340
597
  0
XRECORD
  5
5F8
102
{ACAD_REACTORS
330
5F7
102
}
330
5F7
100
AcDbXrecord
280
     1
102
MATERIAL
340
597
  0
XRECORD
  5
5FA
102
{ACAD_REACTORS
330
5F9
102
}
330
5F9
100
AcDbXrecord
280
     1
102
MATERIAL
340
597
  0
XRECORD
  5
5FC
102
{ACAD_REACTORS
330
5FB
102
}
330
5FB
100
AcDbXrecord
280
     1
102
MATERIAL
340
597
  0
XRECORD
  5
5F4
102
{ACAD_REACTORS
330
5F3
102
}
330
5F3
100
AcDbXrecord
280
     1
102
VISUALSTYLE
340
59E
102
GRIDDISPLAY
 70
     0
102
GRIDMAJOR
 70
     5
102
DEFAULTLIGHTING
280
     1
102
DEFAULTLIGHTINGTYPE
 70
     1
102
BRIGHTNESS
141
0.0
102
CONTRAST
142
0.0
102
SHADEPLOT
 70
     0
  0
LAYOUT
  5
1E
102
{ACAD_XDICTIONARY
360
612
102
}
102
{ACAD_REACTORS
330
1A
102
}
330
1A
100
AcDbPlotSettings
  1

  2
none_device
  4
Letter_(8.50_x_11.00_Inches)
  6

 40
6.349999904632568
 41
6.349999904632568
 42
6.350006103515625
 43
6.350006103515625
 44
215.8999938964844
 45
279.3999938964844
 46
0.0
 47
0.0
 48
0.0
 49
0.0
140
0.0
141
0.0
142
1.0
143
1.0
 70
   656
 72
     0
 73
     1
 74
     5
  7
monochrome.ctb
 75
    16
147
1.0
148
0.0
149
0.0
100
AcDbLayout
  1
Layout1
 70
     1
 71
     1
 10
-0.2500002402958907
 20
-0.2499999962453767
 11
10.74999951940821
 21
8.249999763458731
 12
0.0
 22
0.0
 32
0.0
 14
1.000000000000000E+20
 24
1.000000000000000E+20
 34
1.000000000000000E+20
 15
-1.000000000000000E+20
 25
-1.000000000000000E+20
 35
-1.000000000000000E+20
146
0.0
 13
0.0
 23
0.0
 33
0.0
 16
1.0
 26
0.0
 36
0.0
 17
0.0
 27
1.0
 37
0.0
 76
     0
330
1B
331
4C
  0
LAYOUT
  5
22
102
{ACAD_XDICTIONARY
360
614
102
}
102
{ACAD_REACTORS
330
1A
102
}
330
1A
100
AcDbPlotSettings
  1

  2
\\REPUBLIC01\LJ5000 CAD
  4
Letter
  6

 40
7.143749713897705
 41
6.720394611358642
 42
7.14373779296875
 43
3.757080078125
 44
215.8999938964844
 45
279.3999938964844
 46
15.24185780478638
 47
0.0
 48
0.0
 49
0.0
140
0.0
141
0.0
142
1.0
143
0.7793252947690746
 70
 11956
 72
     0
 73
     1
 74
     1
  7
monochrome.ctb
 75
     0
147
1.28316122511629
148
-206.2342637749588
149
-97.29766675514078
100
AcDbLayout
  1
Model
 70
     1
 71
     0
 10
0.0
 20
0.0
 11
12.0
 21
9.0
 12
0.0
 22
0.0
 32
0.0
 14
0.0
 24
0.0
 34
0.0
 15
0.0
 25
0.0
 35
0.0
146
0.0
 13
0.0
 23
0.0
 33
0.0
 16
1.0
 26
0.0
 36
0.0
 17
0.0
 27
1.0
 37
0.0
 76
     0
330
1F
331
58A
1001
ACAD_PSEXT
1000
\\REPUBLIC01\LJ5000 CAD
1000
HP LaserJet 5000 Series PCL6
1000
Cad room
1000

1070
     0
  0
MATERIAL
  5
596
102
{ACAD_XDICTIONARY
360
5FF
102
}
102
{ACAD_REACTORS
330
2B3
102
}
330
2B3
100
AcDbMaterial
  1
ByBlock
  0
MATERIAL
  5
595
102
{ACAD_XDICTIONARY
360
5FD
102
}
102
{ACAD_REACTORS
330
2B3
102
}
330
2B3
100
AcDbMaterial
  1
ByLayer
  0
MATERIAL
  5
597
102
{ACAD_XDICTIONARY
360
601
102
}
102
{ACAD_REACTORS
330
2B3
102
}
330
2B3
100
AcDbMaterial
  1
Global
  0
MLINESTYLE
  5
18
102
{ACAD_REACTORS
330
17
102
}
330
17
100
AcDbMlineStyle
  2
STANDARD
 70
     0
  3

 62
   256
 51
90.0
 52
90.0
 71
     2
 49
0.5
 62
   256
  6
BYLAYER
 49
-0.5
 62
   256
  6
BYLAYER
  0
ACDBPLACEHOLDER
  5
F
102
{ACAD_REACTORS
330
E
102
}
330
E
  0
ACAD_PROXY_OBJECT
  5
5AA
102
{ACAD_XDICTIONARY
360
603
102
}
102
{ACAD_REACTORS
330
5A9
102
}
330
5A9
100
AcDbProxyObject
 90
      499
 91
      506
 95
  6815769
 70
     0
 93
     1849
310
4254DD185B99185C990028B81E85EB51B8AE3F2E07A17AD46E2B8FC02B5E8DC0F42B1CFD028000000C1008070000C3001FDFF8000000C1003FBFF000000182007F7FE00000030400FEFFC00000060801FDFF8000000C1003FBFF00000018200000000000000681FA0B0000001820100E000186003FBFF000000182007F7FE0
310
0000030400FEFFC00000060801FDFF8000000C1003FBFF000000182007F7FE000000304000AD7A3703D0AC73F4160000003040201C00030C007F7FE00000030400FEFFC00000060801FDFF8000000C1003FBFF000000182007F7FE00000030400FEFFC000000608000
340
11
340
11
340
11
 94
        0
1001
ACAD
1000
AcRTDxfName
1000
TABLESTYLE
  0
ACAD_PROXY_OBJECT
  5
59E
102
{ACAD_REACTORS
330
598
102
}
330
598
100
AcDbProxyObject
 90
      499
 91
      505
 95
  6815769
 70
     0
 93
      598
310
430C9915DA5C99599C985B59401049028333333333333E3BF0000000000000FB023FFFFFF0802405048070000C3008000000C800405A000000320014050640A01C00030C010500920280D3
 94
        0
1001
ACAD
1000
AcDbSavedByObjectVersion
1070
     0
1000
AcRTDxfName
1000
VISUALSTYLE
  0
ACAD_PROXY_OBJECT
  5
5A0
102
{ACAD_REACTORS
330
598
102
}
330
598
100
AcDbProxyObject
 90
      499
 91
      505
 95
  6815769
 70
     0
 93
      662
310
428CD108121A5919195B8010640502408333333333333E3BF0000000000000FB023FFFFFF0802409028070000C3008000000C8004080000000000004440A000000320014050640A01C00030C010300920280D0
 94
        0
1001
ACAD
1000
AcDbSavedByObjectVersion
1070
     0
1000
AcRTDxfName
1000
VISUALSTYLE
  0
ACAD_PROXY_OBJECT
  5
59F
102
{ACAD_REACTORS
330
598
102
}
330
598
100
AcDbProxyObject
 90
      499
 91
      505
 95
  6815769
 70
     0
 93
      598
310
430CD915DA5C99599C985B59401059028333333333333E3BF0000000000000FB023FFFFFF0802405048070000C3008000000C800405A000000320014050640A01C00030C010500920280D0
 94
        0
1001
ACAD
1000
AcDbSavedByObjectVersion
1070
     0
1000
AcRTDxfName
1000
VISUALSTYLE
  0
ACAD_PROXY_OBJECT
  5
59D
102
{ACAD_REACTORS
330
598
102
}
330
598
100
AcDbProxyObject
 90
      499
 91
      505
 95
  6815769
 70
     0
 93
      558
310
4190985CDA58C0107406404333333333333E3BF0000000000000FB023FFFFFF08029048070000C3008000000C80040542201C00030C014050640A01C00030C010500920280D6
 94
        0
1001
ACAD
1000
AcDbSavedByObjectVersion
1070
     0
1000
AcRTDxfName
1000
VISUALSTYLE
  0
ACAD_PROXY_OBJECT
  5
5A4
102
{ACAD_REACTORS
330
598
102
}
330
598
100
AcDbProxyObject
 90
      499
 91
      505
 95
  6815769
 70
     0
 93
      598
310
42509C9A59DA1D195B8010C409028333333333333E3BF0000000000000FB023FFFFFF0802405048070000C3008000000C80040542201C00030C014050640A01C00030C010500920280A657
 94
        0
1001
ACAD
1000
AcDbSavedByObjectVersion
1070
     0
1000
AcRTDxfName
1000
VISUALSTYLE
  0
ACAD_PROXY_OBJECT
  5
5A8
102
{ACAD_REACTORS
330
598
102
}
330
598
100
AcDbProxyObject
 90
      499
 91
      505
 95
  6815769
 70
     0
 93
      622
310
4310DBDB1BDC90DA185B99D9401104090240C333333333333E3BF0000000000000FB0220202030802405048070000C3008000000C800405422202020308014050640A01C00030C010500920280D7
 94
        0
1001
ACAD
1000
AcDbSavedByObjectVersion
1070
     0
1000
AcRTDxfName
1000
VISUALSTYLE
  0
ACAD_PROXY_OBJECT
  5
5A1
102
{ACAD_REACTORS
330
598
102
}
330
598
100
AcDbProxyObject
 90
      499
 91
      505
 95
  6815769
 70
     0
 93
      670
310
42D0DBDB98D95C1D1D585B0010940D028333333333333E3BF0000000000000FB023FFFFFF0802409028070000C3008000000C800404000000000000444042201C00030C014050640A01C00030C010300920280D0
 94
        0
1001
ACAD
1000
AcDbSavedByObjectVersion
1070
     0
1000
AcRTDxfName
1000
VISUALSTYLE
  0
ACAD_PROXY_OBJECT
  5
5A3
102
{ACAD_REACTORS
330
598
102
}
330
598
100
AcDbProxyObject
 90
      499
 91
      505
 95
  6815769
 70
     0
 93
      582
310
41111A5B4010B409028333333333333E3BF0000000000000FB023FFFFFF0802405048070000C3008000000C80040542201C00030C014050640A01C00030C01050092028099DFFFFFF4
 94
        0
1001
ACAD
1000
AcDbSavedByObjectVersion
1070
     0
1000
AcRTDxfName
1000
VISUALSTYLE
  0
ACAD_PROXY_OBJECT
  5
5A7
102
{ACAD_REACTORS
330
598
102
}
330
598
100
AcDbProxyObject
 90
      499
 91
      505
 95
  6815769
 70
     0
 93
      614
310
43119858D95C185D1D195C9B8010F409028333333333333E3BF0000000000000FB023FFFFFF0802405048070000C3008000000C80040542201C00030C014050640A01C00030C010500920280D4
 94
        0
1001
ACAD
1000
AcDbSavedByObjectVersion
1070
     0
1000
AcRTDxfName
1000
VISUALSTYLE
  0
ACAD_PROXY_OBJECT
  5
599
102
{ACAD_REACTORS
330
598
102
}
330
598
100
AcDbProxyObject
 90
      499
 91
      505
 95
  6815769
 70
     0
 93
      558
310
41519B185D00240901404333333333333E3BF0000000000000F9023FFFFFF0801029048070000C3008000000C80040542201C00030C014050640A01C00030C010500920286D4
 94
        0
1001
ACAD
1000
AcDbSavedByObjectVersion
1070
     0
1000
AcRTDxfName
1000
VISUALSTYLE
  0
ACAD_PROXY_OBJECT
  5
59A
102
{ACAD_REACTORS
330
598
102
}
330
598
100
AcDbProxyObject
 90
      499
 91
      505
 95
  6815769
 70
     0
 93
      638
310
43919B185D15DA5D1A115919D95CC010140901404333333333333E3BF0000000000000F9023FFFFFF080102405048070000C3008000000C800405A000000320014050640A01C00030C010500920286D4
 94
        0
1001
ACAD
1000
AcDbSavedByObjectVersion
1070
     0
1000
AcRTDxfName
1000
VISUALSTYLE
  0
ACAD_PROXY_OBJECT
  5
59B
102
{ACAD_REACTORS
330
598
102
}
330
598
100
AcDbProxyObject
 90
      499
 91
      505
 95
  6815769
 70
     0
 93
      582
310
4211DBDD5C985D590010240902404333333333333E3BF0000000000000F9023FFFFFF0801029048070000C3008000000C800405A01C00030C014050640A01C00030C010500920286D4
 94
        0
1001
ACAD
1000
AcDbSavedByObjectVersion
1070
     0
1000
AcRTDxfName
1000
VISUALSTYLE
  0
ACAD_PROXY_OBJECT
  5
59C
102
{ACAD_REACTORS
330
598
102
}
330
598
100
AcDbProxyObject
 90
      499
 91
      505
 95
  6815769
 70
     0
 93
      662
310
4451DBDD5C985D5915DA5D1A115919D95CC010340902404333333333333E3BF0000000000000F9023FFFFFF080102405048070000C3008000000C800405A000000320014050640A01C00030C010500920286D4
 94
        0
1001
ACAD
1000
AcDbSavedByObjectVersion
1070
     0
1000
AcRTDxfName
1000
VISUALSTYLE
  0
ACAD_PROXY_OBJECT
  5
5A6
102
{ACAD_REACTORS
330
598
102
}
330
598
100
AcDbProxyObject
 90
      499
 91
      505
 95
  6815769
 70
     0
 93
      614
310
43131A5B995C185D1D195C9B8010E409028333333333333E3BF0000000000000FB023FFFFFF0802405048070000C3008000000C80041D42201C00030C014050640A01C00030C010500920E80D5
 94
        0
1001
ACAD
1000
AcDbSavedByObjectVersion
1070
     0
1000
AcRTDxfName
1000
VISUALSTYLE
  0
ACAD_PROXY_OBJECT
  5
5A2
102
{ACAD_REACTORS
330
598
102
}
330
598
100
AcDbProxyObject
 90
      499
 91
      505
 95
  6815769
 70
     0
 93
      590
310
429499585B1A5CDD1A58C0108409028333333333333E3BF0000000000000FB023FFFFFF08024068070000C3008000000C8004054221E1E1E308014050640A01C00030C010500920286D0
 94
        0
1001
ACAD
1000
AcDbSavedByObjectVersion
1070
     0
1000
AcRTDxfName
1000
VISUALSTYLE
  0
ACAD_PROXY_OBJECT
  5
5A5
102
{ACAD_REACTORS
330
598
102
}
330
598
100
AcDbProxyObject
 90
      499
 91
      505
 95
  6815769
 70
     0
 93
      582
310
42151A1A58DAD95B8010D409028333333333333E3BF0000000000000FB023FFFFFF0802405048070000C3008000000C80040543201C00030C014050640A01C00030C010500920280D4
 94
        0
1001
ACAD
1000
AcDbSavedByObjectVersion
1070
     0
1000
AcRTDxfName
1000
VISUALSTYLE
  0
XRECORD
  5
611
102
{ACAD_REACTORS
330
60F
102
}
330
60F
100
AcDbXrecord
280
     1
340
2B4
  0
XRECORD
  5
610
102
{ACAD_REACTORS
330
60F
102
}
330
60F
100
AcDbXrecord
280
     1
340
2B3
  0
DICTIONARYVAR
  5
605
102
{ACAD_REACTORS
330
565
102
}
330
565
100
DictionaryVariables
280
     0
  1
STANDARD
  0
DICTIONARYVAR
  5
566
102
{ACAD_REACTORS
330
565
102
}
330
565
100
DictionaryVariables
280
     0
  1
1
  0
DICTIONARYVAR
  5
567
102
{ACAD_REACTORS
330
565
102
}
330
565
100
DictionaryVariables
280
     0
  1

  0
DICTIONARY
  5
612
330
1E
100
AcDbDictionary
280
     1
281
     1
  3
ACAD_XREC_ROUNDTRIP
360
613
  0
DICTIONARY
  5
614
330
22
100
AcDbDictionary
280
     1
281
     1
  3
ACAD_XREC_ROUNDTRIP
360
615
  0
DICTIONARY
  5
5FF
330
596
100
AcDbDictionary
280
     1
281
     1
  3
ACAD_XREC_ROUNDTRIP
360
600
  0
DICTIONARY
  5
5FD
330
595
100
AcDbDictionary
280
     1
281
     1
  3
ACAD_XREC_ROUNDTRIP
360
5FE
  0
DICTIONARY
  5
601
330
597
100
AcDbDictionary
280
     1
281
     1
  3
ACAD_XREC_ROUNDTRIP
360
602
  0
DICTIONARY
  5
603
330
5AA
100
AcDbDictionary
280
     1
281
     1
  3
ACAD_XREC_ROUNDTRIP
360
604
  0
XRECORD
  5
613
102
{ACAD_REACTORS
330
612
102
}
330
612
100
AcDbXrecord
280
     1
102
SHADEPLOT
 70
     0
102
SHADEPLOTRESLEVEL
 70
     2
102
SHADEPLOTCUSTOMDPI
 70
   300
  0
XRECORD
  5
615
102
{ACAD_REACTORS
330
614
102
}
330
614
100
AcDbXrecord
280
     1
102
SHADEPLOT
 70
     0
102
SHADEPLOTRESLEVEL
 70
     2
102
SHADEPLOTCUSTOMDPI
 70
   300
  0
XRECORD
  5
600
102
{ACAD_REACTORS
330
5FF
102
}
330
5FF
100
AcDbXrecord
280
     1
102
MATERIAL
148
0.0
149
0.0
149
0.0
 93
        0
 94
       63
282
     0
 72
     1
 77
     1
171
     1
175
     1
179
     1
273
     0
  0
XRECORD
  5
5FE
102
{ACAD_REACTORS
330
5FD
102
}
330
5FD
100
AcDbXrecord
280
     1
102
MATERIAL
148
0.0
149
0.0
149
0.0
 93
        0
 94
       63
282
     0
 72
     1
 77
     1
171
     1
175
     1
179
     1
273
     0
  0
XRECORD
  5
602
102
{ACAD_REACTORS
330
601
102
}
330
601
100
AcDbXrecord
280
     1
102
MATERIAL
148
0.0
149
0.0
149
0.0
 93
        0
 94
       63
282
     0
 72
     1
 77
     1
171
     1
175
     1
179
     1
273
     0
  0
XRECORD
  5
604
102
{ACAD_REACTORS
330
603
102
}
330
603
100
AcDbXrecord
280
     1
102
ACAD_ROUNDTRIP_PRE2007_TABLESTYLE
 90
      512
 91
        0
  1

 92
      512
 93
        0
  2

 94
      512
 95
        0
  3

  0
ENDSEC
  0
EOF
