  0
SECTION
  2
HEADER
  9
$ACADVER
  1
AC1018
  9
$ACADMAINTVER
 70
   104
  9
$DWGCODEPAGE
  3
ANSI_1252
  9
$LASTSAVEDBY
  1
TFassnacht
  9
$INSBASE
 10
0.0
 20
0.0
 30
0.0
  9
$EXTMIN
 10
1.744628936220692
 20
1.691619895970937
 30
-0.000000000000013
  9
$EXTMAX
 10
9.99536135373097
 20
6.942398089848456
 30
0.0000000000000023
  9
$LIMMIN
 10
0.0
 20
0.0
  9
$LIMMAX
 10
12.0
 20
9.0
  9
$ORTHOMODE
 70
     1
  9
$REGENMODE
 70
     1
  9
$FILLMODE
 70
     1
  9
$QTEXTMODE
 70
     0
  9
$MIRRTEXT
 70
     1
  9
$LTSCALE
 40
1.0
  9
$ATTMODE
 70
     1
  9
$TEXTSIZE
 40
0.2
  9
$TRACEWID
 40
0.05
  9
$TEXTSTYLE
  7
Standard
  9
$CLAYER
  8
0
  9
$CELTYPE
  6
ByLayer
  9
$CECOLOR
 62
   256
  9
$CELTSCALE
 40
1.0
  9
$DISPSILH
 70
     0
  9
$DIMSCALE
 40
1.0
  9
$DIMASZ
 40
0.18
  9
$DIMEXO
 40
0.0625
  9
$DIMDLI
 40
0.38
  9
$DIMRND
 40
0.0
  9
$DIMDLE
 40
0.0
  9
$DIMEXE
 40
0.18
  9
$DIMTP
 40
0.0
  9
$DIMTM
 40
0.0
  9
$DIMTXT
 40
0.18
  9
$DIMCEN
 40
0.09
  9
$DIMTSZ
 40
0.0
  9
$DIMTOL
 70
     0
  9
$DIMLIM
 70
     0
  9
$DIMTIH
 70
     1
  9
$DIMTOH
 70
     1
  9
$DIMSE1
 70
     0
  9
$DIMSE2
 70
     0
  9
$DIMTAD
 70
     0
  9
$DIMZIN
 70
     0
  9
$DIMBLK
  1

  9
$DIMASO
 70
     1
  9
$DIMSHO
 70
     1
  9
$DIMPOST
  1

  9
$DIMAPOST
  1

  9
$DIMALT
 70
     0
  9
$DIMALTD
 70
     2
  9
$DIMALTF
 40
25.4
  9
$DIMLFAC
 40
1.0
  9
$DIMTOFL
 70
     0
  9
$DIMTVP
 40
0.0
  9
$DIMTIX
 70
     0
  9
$DIMSOXD
 70
     0
  9
$DIMSAH
 70
     0
  9
$DIMBLK1
  1

  9
$DIMBLK2
  1

  9
$DIMSTYLE
  2
Standard
  9
$DIMCLRD
 70
     0
  9
$DIMCLRE
 70
     0
  9
$DIMCLRT
 70
     0
  9
$DIMTFAC
 40
1.0
  9
$DIMGAP
 40
0.09
  9
$DIMJUST
 70
     0
  9
$DIMSD1
 70
     0
  9
$DIMSD2
 70
     0
  9
$DIMTOLJ
 70
     1
  9
$DIMTZIN
 70
     0
  9
$DIMALTZ
 70
     0
  9
$DIMALTTZ
 70
     0
  9
$DIMUPT
 70
     0
  9
$DIMDEC
 70
     4
  9
$DIMTDEC
 70
     4
  9
$DIMALTU
 70
     2
  9
$DIMALTTD
 70
     2
  9
$DIMTXSTY
  7
Standard
  9
$DIMAUNIT
 70
     0
  9
$DIMADEC
 70
     0
  9
$DIMALTRND
 40
0.0
  9
$DIMAZIN
 70
     0
  9
$DIMDSEP
 70
    46
  9
$DIMATFIT
 70
     3
  9
$DIMFRAC
 70
     0
  9
$DIMLDRBLK
  1

  9
$DIMLUNIT
 70
     2
  9
$DIMLWD
 70
    -2
  9
$DIMLWE
 70
    -2
  9
$DIMTMOVE
 70
     0
  9
$LUNITS
 70
     2
  9
$LUPREC
 70
     4
  9
$SKETCHINC
 40
0.1
  9
$FILLETRAD
 40
0.5
  9
$AUNITS
 70
     0
  9
$AUPREC
 70
     0
  9
$MENU
  1
.
  9
$ELEVATION
 40
0.0
  9
$PELEVATION
 40
0.0
  9
$THICKNESS
 40
0.0
  9
$LIMCHECK
 70
     0
  9
$CHAMFERA
 40
0.5
  9
$CHAMFERB
 40
0.5
  9
$CHAMFERC
 40
1.0
  9
$CHAMFERD
 40
0.0
  9
$SKPOLY
 70
     0
  9
$TDCREATE
 40
2452632.731050579
  9
$TDUCREATE
 40
2452632.939383912
  9
$TDUPDATE
 40
2456645.432312813
  9
$TDUUPDATE
 40
2456645.640646146
  9
$TDINDWG
 40
0.0168568287
  9
$TDUSRTIMER
 40
0.0168568287
  9
$USRTIMER
 70
     1
  9
$ANGBASE
 50
0.0
  9
$ANGDIR
 70
     0
  9
$PDMODE
 70
     0
  9
$PDSIZE
 40
0.0
  9
$PLINEWID
 40
0.0
  9
$SPLFRAME
 70
     0
  9
$SPLINETYPE
 70
     6
  9
$SPLINESEGS
 70
     8
  9
$HANDSEED
  5
1671
  9
$SURFTAB1
 70
     6
  9
$SURFTAB2
 70
     6
  9
$SURFTYPE
 70
     6
  9
$SURFU
 70
     6
  9
$SURFV
 70
     6
  9
$UCSBASE
  2

  9
$UCSNAME
  2

  9
$UCSORG
 10
0.0
 20
0.0
 30
0.0
  9
$UCSXDIR
 10
1.0
 20
0.0
 30
0.0
  9
$UCSYDIR
 10
0.0
 20
1.0
 30
0.0
  9
$UCSORTHOREF
  2

  9
$UCSORTHOVIEW
 70
     0
  9
$UCSORGTOP
 10
0.0
 20
0.0
 30
0.0
  9
$UCSORGBOTTOM
 10
0.0
 20
0.0
 30
0.0
  9
$UCSORGLEFT
 10
0.0
 20
0.0
 30
0.0
  9
$UCSORGRIGHT
 10
0.0
 20
0.0
 30
0.0
  9
$UCSORGFRONT
 10
0.0
 20
0.0
 30
0.0
  9
$UCSORGBACK
 10
0.0
 20
0.0
 30
0.0
  9
$PUCSBASE
  2

  9
$PUCSNAME
  2

  9
$PUCSORG
 10
0.0
 20
0.0
 30
0.0
  9
$PUCSXDIR
 10
1.0
 20
0.0
 30
0.0
  9
$PUCSYDIR
 10
0.0
 20
1.0
 30
0.0
  9
$PUCSORTHOREF
  2

  9
$PUCSORTHOVIEW
 70
     0
  9
$PUCSORGTOP
 10
0.0
 20
0.0
 30
0.0
  9
$PUCSORGBOTTOM
 10
0.0
 20
0.0
 30
0.0
  9
$PUCSORGLEFT
 10
0.0
 20
0.0
 30
0.0
  9
$PUCSORGRIGHT
 10
0.0
 20
0.0
 30
0.0
  9
$PUCSORGFRONT
 10
0.0
 20
0.0
 30
0.0
  9
$PUCSORGBACK
 10
0.0
 20
0.0
 30
0.0
  9
$USERI1
 70
     0
  9
$USERI2
 70
     0
  9
$USERI3
 70
     0
  9
$USERI4
 70
     0
  9
$USERI5
 70
     0
  9
$USERR1
 40
0.0
  9
$USERR2
 40
0.0
  9
$USERR3
 40
0.0
  9
$USERR4
 40
0.0
  9
$USERR5
 40
0.0
  9
$WORLDVIEW
 70
     1
  9
$SHADEDGE
 70
     3
  9
$SHADEDIF
 70
    70
  9
$TILEMODE
 70
     1
  9
$MAXACTVP
 70
    64
  9
$PINSBASE
 10
0.0
 20
0.0
 30
0.0
  9
$PLIMCHECK
 70
     0
  9
$PEXTMIN
 10
0.3173218056528384
 20
0.1892395231281867
 30
-0.0015258207003583
  9
$PEXTMAX
 10
10.32678225255429
 20
7.646896381684225
 30
0.0000000349246037
  9
$PLIMMIN
 10
-0.2500002402958907
 20
-0.2499999962453767
  9
$PLIMMAX
 10
10.74999951940821
 20
8.249999763458731
  9
$UNITMODE
 70
     0
  9
$VISRETAIN
 70
     1
  9
$PLINEGEN
 70
     0
  9
$PSLTSCALE
 70
     1
  9
$TREEDEPTH
 70
  3020
  9
$CMLSTYLE
  2
Standard
  9
$CMLJUST
 70
     0
  9
$CMLSCALE
 40
1.0
  9
$PROXYGRAPHICS
 70
     1
  9
$MEASUREMENT
 70
     0
  9
$CELWEIGHT
370
    -1
  9
$ENDCAPS
280
     0
  9
$JOINSTYLE
280
     0
  9
$LWDISPLAY
290
     0
  9
$INSUNITS
 70
     1
  9
$HYPERLINKBASE
  1

  9
$STYLESHEET
  1

  9
$XEDIT
290
     1
  9
$CEPSNTYPE
380
     0
  9
$PSTYLEMODE
290
     1
  9
$FINGERPRINTGUID
  2
{CC7F7A22-169A-11D7-8CE2-CBADEC528623}
  9
$VERSIONGUID
  2
{C9C8851A-F587-4B6F-BAF6-D7B886E74F77}
  9
$EXTNAMES
290
     1
  9
$PSVPSCALE
 40
1.0
  9
$OLESTARTUP
290
     0
  9
$SORTENTS
280
   127
  9
$INDEXCTL
280
     0
  9
$HIDETEXT
280
     0
  9
$XCLIPFRAME
290
     0
  9
$HALOGAP
280
     0
  9
$OBSCOLOR
 70
   257
  9
$OBSLTYPE
280
     0
  9
$INTERSECTIONDISPLAY
280
     0
  9
$INTERSECTIONCOLOR
 70
   257
  9
$DIMASSOC
280
     1
  9
$PROJECTNAME
  1

  0
ENDSEC
  0
SECTION
  2
CLASSES
  0
CLASS
  1
ACDBDICTIONARYWDFLT
  2
AcDbDictionaryWithDefault
  3
ObjectDBX Classes
 90
        0
 91
        1
280
     0
281
     0
  0
CLASS
  1
MATERIAL
  2
AcDbMaterial
  3
ObjectDBX Classes
 90
     1153
 91
        3
280
     0
281
     0
  0
CLASS
  1
VISUALSTYLE
  2
AcDbVisualStyle
  3
ObjectDBX Classes
 90
     4095
 91
       26
280
     0
281
     0
  0
CLASS
  1
TABLESTYLE
  2
AcDbTableStyle
  3
ObjectDBX Classes
 90
     4095
 91
        1
280
     0
281
     0
  0
CLASS
  1
SORTENTSTABLE
  2
AcDbSortentsTable
  3
ObjectDBX Classes
 90
        0
 91
        3
280
     0
281
     0
  0
CLASS
  1
DICTIONARYVAR
  2
AcDbDictionaryVar
  3
ObjectDBX Classes
 90
        0
 91
       17
280
     0
281
     0
  0
CLASS
  1
SCALE
  2
AcDbScale
  3
ObjectDBX Classes
 90
     1153
 91
       17
280
     0
281
     0
  0
CLASS
  1
MLEADERSTYLE
  2
AcDbMLeaderStyle
  3
ACDB_MLEADERSTYLE_CLASS
 90
     4095
 91
        1
280
     0
281
     0
  0
CLASS
  1
ACDBSECTIONVIEWSTYLE
  2
AcDbSectionViewStyle
  3
ObjectDBX Classes
 90
     1025
 91
        1
280
     0
281
     0
  0
CLASS
  1
ACDBDETAILVIEWSTYLE
  2
AcDbDetailViewStyle
  3
ObjectDBX Classes
 90
     1025
 91
        1
280
     0
281
     0
  0
CLASS
  1
CELLSTYLEMAP
  2
AcDbCellStyleMap
  3
ObjectDBX Classes
 90
     1152
 91
        4
280
     0
281
     0
  0
ENDSEC
  0
SECTION
  2
TABLES
  0
TABLE
  2
VPORT
  5
8
102
{ACAD_XDICTIONARY
360
D2B
102
}
330
0
100
AcDbSymbolTable
 70
     1
  0
VPORT
  5
69F
330
8
100
AcDbSymbolTableRecord
100
AcDbViewportTableRecord
  2
*Active
 70
     0
 10
0.0
 20
0.0
 11
1.0
 21
1.0
 12
5.869995144975831
 22
4.317008992909697
 13
0.0
 23
0.0
 14
0.5
 24
0.5
 15
0.5
 25
0.5
 16
0.0
 26
0.0
 36
1.0
 17
0.0
 27
0.0
 37
0.0
 40
5.291960767947147
 41
2.506544502617801
 42
50.0
 43
0.0
 44
0.0
 50
0.0
 51
0.0
 71
     0
 72
   100
 73
     1
 74
     3
 75
     0
 76
     0
 77
     0
 78
     0
281
     0
 65
     1
110
0.0
120
0.0
130
0.0
111
1.0
121
0.0
131
0.0
112
0.0
122
1.0
132
0.0
 79
     0
146
0.0
1001
ACAD_NAV_VCDISPLAY
1070
     3
  0
ENDTAB
  0
TABLE
  2
LTYPE
  5
5
330
0
100
AcDbSymbolTable
 70
     4
  0
LTYPE
  5
14
330
5
100
AcDbSymbolTableRecord
100
AcDbLinetypeTableRecord
  2
ByBlock
 70
     0
  3

 72
    65
 73
     0
 40
0.0
  0
LTYPE
  5
15
330
5
100
AcDbSymbolTableRecord
100
AcDbLinetypeTableRecord
  2
ByLayer
 70
     0
  3

 72
    65
 73
     0
 40
0.0
  0
LTYPE
  5
16
330
5
100
AcDbSymbolTableRecord
100
AcDbLinetypeTableRecord
  2
Continuous
 70
     0
  3
Solid line
 72
    65
 73
     0
 40
0.0
  0
LTYPE
  5
690
330
5
100
AcDbSymbolTableRecord
100
AcDbLinetypeTableRecord
  2
HIDDEN
 70
     0
  3
_ _ _ _ _ _ _ _ _ _ _ _ _ _ _ _ _ _ _ _ _ _ _
 72
    65
 73
     2
 40
0.375
 49
0.25
 74
     0
 49
-0.125
 74
     0
  0
LTYPE
  5
1488
330
5
100
AcDbSymbolTableRecord
100
AcDbLinetypeTableRecord
  2
PHANTOM2
 70
     0
  3
Phantom (.5x) ___ _ _ ___ _ _ ___ _ _ ___ _ _
 72
    65
 73
     6
 40
1.25
 49
0.625
 74
     0
 49
-0.125
 74
     0
 49
0.125
 74
     0
 49
-0.125
 74
     0
 49
0.125
 74
     0
 49
-0.125
 74
     0
  0
ENDTAB
  0
TABLE
  2
LAYER
  5
2
102
{ACAD_XDICTIONARY
360
6D3
102
}
330
0
100
AcDbSymbolTable
 70
     6
  0
LAYER
  5
10
102
{ACAD_XDICTIONARY
360
1494
102
}
330
2
100
AcDbSymbolTableRecord
100
AcDbLayerTableRecord
  2
0
 70
     0
 62
     7
  6
Continuous
370
    -3
390
F
  0
LAYER
  5
33
102
{ACAD_XDICTIONARY
360
1496
102
}
330
2
100
AcDbSymbolTableRecord
100
AcDbLayerTableRecord
  2
1
 70
     0
 62
     1
  6
Continuous
370
    -3
390
F
  0
LAYER
  5
34
102
{ACAD_XDICTIONARY
360
1498
102
}
330
2
100
AcDbSymbolTableRecord
100
AcDbLayerTableRecord
  2
4
 70
     0
 62
     4
  6
Continuous
370
    -3
390
F
  0
LAYER
  5
35
102
{ACAD_XDICTIONARY
360
149A
102
}
330
2
100
AcDbSymbolTableRecord
100
AcDbLayerTableRecord
  2
8
 70
     0
 62
     2
  6
Continuous
370
    -3
390
F
  0
LAYER
  5
691
102
{ACAD_XDICTIONARY
360
149C
102
}
330
2
100
AcDbSymbolTableRecord
100
AcDbLayerTableRecord
  2
2
 70
     0
 62
     2
  6
HIDDEN
370
    -3
390
F
  0
LAYER
  5
69E
102
{ACAD_XDICTIONARY
360
149E
102
}
330
2
100
AcDbSymbolTableRecord
100
AcDbLayerTableRecord
  2
VP-1
 70
     0
 62
    -5
  6
Continuous
370
    -3
390
F
  0
ENDTAB
  0
TABLE
  2
STYLE
  5
3
330
0
100
AcDbSymbolTable
 70
     3
  0
STYLE
  5
11
330
3
100
AcDbSymbolTableRecord
100
AcDbTextStyleTableRecord
  2
Standard
 70
     0
 40
0.0
 41
1.0
 50
0.0
 71
     0
 42
0.2
  3
txt
  4

  0
STYLE
  5
36
330
3
100
AcDbSymbolTableRecord
100
AcDbTextStyleTableRecord
  2
ROMANS
 70
     0
 40
0.0
 41
1.0
 50
0.0
 71
     0
 42
0.07
  3
ROMANS
  4

  0
ENDTAB
  0
TABLE
  2
VIEW
  5
6
330
0
100
AcDbSymbolTable
 70
     1
  0
ENDTAB
  0
TABLE
  2
UCS
  5
7
330
0
100
AcDbSymbolTable
 70
     0
  0
ENDTAB
  0
TABLE
  2
APPID
  5
9
330
0
100
AcDbSymbolTable
 70
     5
  0
APPID
  5
12
330
9
100
AcDbSymbolTableRecord
100
AcDbRegAppTableRecord
  2
ACAD
 70
     0
  0
APPID
  5
D08
330
9
100
AcDbSymbolTableRecord
100
AcDbRegAppTableRecord
  2
ACAD_EXEMPT_FROM_CAD_STANDARDS
 70
     0
  0
APPID
  5
14A0
330
9
100
AcDbSymbolTableRecord
100
AcDbRegAppTableRecord
  2
ACAD_NAV_VCDISPLAY
 70
     0
  0
APPID
  5
14ED
330
9
100
AcDbSymbolTableRecord
100
AcDbRegAppTableRecord
  2
ACAD_PSEXT
 70
     0
  0
APPID
  5
166E
330
9
100
AcDbSymbolTableRecord
100
AcDbRegAppTableRecord
  2
ACAD_MLEADERVER
 70
     0
  0
ENDTAB
  0
TABLE
  2
DIMSTYLE
  5
A
330
0
100
AcDbSymbolTable
 70
     3
100
AcDbDimStyleTable
 71
     1
340
27
  0
DIMSTYLE
105
27
330
A
100
AcDbSymbolTableRecord
100
AcDbDimStyleTableRecord
  2
Standard
 70
     0
340
11
  0
DIMSTYLE
105
14EC
330
A
100
AcDbSymbolTableRecord
100
AcDbDimStyleTableRecord
  2
Q_SCALE_FULLDIM
 70
     0
 41
0.1328125
 42
0.0859375
 43
0.171875
 44
0.0234375
 73
     0
 74
     0
 77
     1
140
0.109375
141
0.04296875
144
48.0000768
147
0.04296875
176
     4
177
     4
178
     4
277
     4
340
11
  0
ENDTAB
  0
TABLE
  2
BLOCK_RECORD
  5
1
330
0
100
AcDbSymbolTable
 70
    10
  0
BLOCK_RECORD
  5
1F
330
1
100
AcDbSymbolTableRecord
100
AcDbBlockTableRecord
  2
*Model_Space
340
22
  0
BLOCK_RECORD
  5
1B
330
1
100
AcDbSymbolTableRecord
100
AcDbBlockTableRecord
  2
*Paper_Space
340
1E
  0
BLOCK_RECORD
  5
23
330
1
100
AcDbSymbolTableRecord
100
AcDbBlockTableRecord
  2
*Paper_Space0
340
26
  0
BLOCK_RECORD
  5
2B
330
1
100
AcDbSymbolTableRecord
100
AcDbBlockTableRecord
  2
ARRO
340
0
102
{BLKREFS
331
108B
331
108C
331
1097
331
1099
331
10A1
102
}
  0
BLOCK_RECORD
  5
3D1
330
1
100
AcDbSymbolTableRecord
100
AcDbBlockTableRecord
  2
TEMP3
340
0
102
{BLKREFS
331
107F
102
}
  0
BLOCK_RECORD
  5
3D6
330
1
100
AcDbSymbolTableRecord
100
AcDbBlockTableRecord
  2
ARRO2
340
0
102
{BLKREFS
331
109D
102
}
  0
BLOCK_RECORD
  5
6BC
330
1
100
AcDbSymbolTableRecord
100
AcDbBlockTableRecord
  2
LE029
340
0
102
{BLKREFS
331
6D1
331
1527
331
1528
331
1529
331
152A
331
1561
331
1562
331
1563
331
1564
102
}
  0
BLOCK_RECORD
  5
6CF
330
1
100
AcDbSymbolTableRecord
100
AcDbBlockTableRecord
  2
A1
340
0
102
{BLKREFS
331
140E
331
1410
331
1412
331
1414
331
1416
331
1419
102
}
  0
ENDTAB
  0
ENDSEC
  0
SECTION
  2
BLOCKS
  0
BLOCK
  5
20
330
1F
100
AcDbEntity
  8
0
100
AcDbBlockBegin
  2
*Model_Space
 70
     0
 10
0.0
 20
0.0
 30
0.0
  3
*Model_Space
  1

  0
ENDBLK
  5
21
330
1F
100
AcDbEntity
  8
0
100
AcDbBlockEnd
  0
BLOCK
  5
1C
330
1B
100
AcDbEntity
 67
     1
  8
0
100
AcDbBlockBegin
  2
*Paper_Space
 70
     0
 10
0.0
 20
0.0
 30
0.0
  3
*Paper_Space
  1

  0
ENDBLK
  5
1D
330
1B
100
AcDbEntity
 67
     1
  8
0
100
AcDbBlockEnd
  0
BLOCK
  5
24
330
23
100
AcDbEntity
 67
     1
  8
0
100
AcDbBlockBegin
  2
*Paper_Space0
 70
     0
 10
0.0
 20
0.0
 30
0.0
  3
*Paper_Space0
  1

  0
ENDBLK
  5
25
330
23
100
AcDbEntity
 67
     1
  8
0
100
AcDbBlockEnd
  0
BLOCK
  5
31
330
2B
100
AcDbEntity
  8
8
100
AcDbBlockBegin
  2
ARRO
 70
     0
 10
0.0
 20
0.0
 30
0.0
  3
ARRO
  1

  0
LINE
  5
2C
330
2B
100
AcDbEntity
  8
4
100
AcDbLine
 10
0.1250000000000018
 20
0.0199999999999996
 30
0.0
 11
0.1250000000000018
 21
-0.0200000000000005
 31
0.0
  0
LINE
  5
2D
330
2B
100
AcDbEntity
  8
4
100
AcDbLine
 10
0.1250000000000018
 20
-0.0100000000000007
 30
0.0
 11
0.0000000000000009
 21
0.0
 31
0.0
  0
LINE
  5
2E
330
2B
100
AcDbEntity
  8
4
100
AcDbLine
 10
0.1250000000000018
 20
0.0099999999999989
 30
0.0
 11
0.0000000000000018
 21
0.0
 31
0.0
  0
LINE
  5
2F
330
2B
100
AcDbEntity
  8
4
100
AcDbLine
 10
0.0000000000000018
 20
0.0
 30
0.0
 11
0.1250000000000018
 21
-0.0200000000000005
 31
0.0
  0
LINE
  5
30
330
2B
100
AcDbEntity
  8
4
100
AcDbLine
 10
0.1250000000000018
 20
0.0199999999999996
 30
0.0
 11
0.0000000000000018
 21
0.0
 31
0.0
  0
ENDBLK
  5
32
330
2B
100
AcDbEntity
  8
8
100
AcDbBlockEnd
  0
BLOCK
  5
3D4
330
3D1
100
AcDbEntity
  8
8
100
AcDbBlockBegin
  2
TEMP3
 70
     0
 10
0.0
 20
0.0
 30
0.0
  3
TEMP3
  1

  0
TEXT
  5
3D2
330
3D1
100
AcDbEntity
  8
8
100
AcDbText
 10
0.03
 20
0.0619999999999998
 30
0.0
 40
0.07
  1
HANDLE & P/A
 50
90.0
  7
ROMANS
100
AcDbText
  0
TEXT
  5
3D3
330
3D1
100
AcDbEntity
  8
8
100
AcDbText
 10
0.03
 20
-1.33310960351371
 30
0.0
 40
0.07
  1
LOCK ESCUTCHEON
 50
90.0
  7
ROMANS
 72
     2
 11
0.03
 21
-0.3264429368470441
 31
0.0
100
AcDbText
  0
ENDBLK
  5
3D5
330
3D1
100
AcDbEntity
  8
8
100
AcDbBlockEnd
  0
BLOCK
  5
3E1
330
3D6
100
AcDbEntity
  8
4
100
AcDbBlockBegin
  2
ARRO2
 70
     0
 10
0.0
 20
0.0
 30
0.0
  3
ARRO2
  1

  0
LINE
  5
3D7
330
3D6
100
AcDbEntity
  8
4
100
AcDbLine
 10
-0.124999999999992
 20
-0.0200000000000005
 30
0.0
 11
0.000000000000008
 21
-0.0000000000000009
 31
0.0
  0
LINE
  5
3D8
330
3D6
100
AcDbEntity
  8
4
100
AcDbLine
 10
0.000000000000008
 20
-0.0000000000000009
 30
0.0
 11
-0.124999999999992
 21
0.0199999999999996
 31
0.0
  0
LINE
  5
3D9
330
3D6
100
AcDbEntity
  8
4
100
AcDbLine
 10
-0.124999999999992
 20
-0.0099999999999998
 30
0.0
 11
0.000000000000008
 21
-0.0000000000000009
 31
0.0
  0
LINE
  5
3DA
330
3D6
100
AcDbEntity
  8
4
100
AcDbLine
 10
-0.124999999999992
 20
0.0099999999999998
 30
0.0
 11
0.0000000000000089
 21
-0.0000000000000009
 31
0.0
  0
LINE
  5
3DB
330
3D6
100
AcDbEntity
  8
4
100
AcDbLine
 10
-0.124999999999992
 20
-0.0200000000000005
 30
0.0
 11
-0.124999999999992
 21
0.0199999999999996
 31
0.0
  0
LINE
  5
3DC
330
3D6
100
AcDbEntity
  8
4
100
AcDbLine
 10
0.1250000000000124
 20
0.0199999999999987
 30
0.0
 11
0.1250000000000124
 21
-0.0200000000000014
 31
0.0
  0
LINE
  5
3DD
330
3D6
100
AcDbEntity
  8
4
100
AcDbLine
 10
0.1250000000000124
 20
-0.0100000000000016
 30
0.0
 11
0.0000000000000115
 21
-0.0000000000000009
 31
0.0
  0
LINE
  5
3DE
330
3D6
100
AcDbEntity
  8
4
100
AcDbLine
 10
0.1250000000000124
 20
0.009999999999998
 30
0.0
 11
0.0000000000000124
 21
-0.0000000000000009
 31
0.0
  0
LINE
  5
3DF
330
3D6
100
AcDbEntity
  8
4
100
AcDbLine
 10
0.0000000000000124
 20
-0.0000000000000009
 30
0.0
 11
0.1250000000000124
 21
-0.0200000000000014
 31
0.0
  0
LINE
  5
3E0
330
3D6
100
AcDbEntity
  8
4
100
AcDbLine
 10
0.1250000000000124
 20
0.0199999999999987
 30
0.0
 11
0.0000000000000124
 21
-0.0000000000000009
 31
0.0
  0
ENDBLK
  5
3E2
330
3D6
100
AcDbEntity
  8
4
100
AcDbBlockEnd
  0
BLOCK
  5
6BD
330
6BC
100
AcDbEntity
  8
2
100
AcDbBlockBegin
  2
LE029
 70
     0
 10
0.0
 20
0.0
 30
0.0
  3
LE029
  1

  0
LINE
  5
6BE
330
6BC
100
AcDbEntity
  8
4
100
AcDbLine
 10
0.0000000000000002
 20
0.0
 30
0.0
 11
0.0187500000000003
 21
0.0374999999999997
 31
0.0
  0
LINE
  5
6BF
330
6BC
100
AcDbEntity
  8
4
100
AcDbLine
 10
0.0187500000000003
 20
0.0374999999999997
 30
0.0
 11
0.0375000000000003
 21
0.0
 31
0.0
  0
LINE
  5
6C0
330
6BC
100
AcDbEntity
  8
4
100
AcDbLine
 10
0.0000000000000002
 20
0.0
 30
0.0
 11
0.0187500000000003
 21
-0.0374999999999997
 31
0.0
  0
LINE
  5
6C1
330
6BC
100
AcDbEntity
  8
4
100
AcDbLine
 10
0.0187500000000003
 20
-0.0374999999999997
 30
0.0
 11
0.0375000000000003
 21
0.0
 31
0.0
  0
LINE
  5
6C2
330
6BC
100
AcDbEntity
  8
4
100
AcDbLine
 10
0.0437500000000002
 20
-0.0954999999999995
 30
0.0
 11
0.0625000000000002
 21
-0.0579999999999998
 31
0.0
  0
LINE
  5
6C3
330
6BC
100
AcDbEntity
  8
4
100
AcDbLine
 10
0.0250000000000001
 20
-0.0579999999999998
 30
0.0
 11
0.0437500000000002
 21
-0.0954999999999995
 31
0.0
  0
LINE
  5
6C4
330
6BC
100
AcDbEntity
  8
4
100
AcDbLine
 10
0.0437500000000002
 20
-0.0205000000000002
 30
0.0
 11
0.0625000000000002
 21
-0.0579999999999998
 31
0.0
  0
LINE
  5
6C5
330
6BC
100
AcDbEntity
  8
4
100
AcDbLine
 10
0.0250000000000001
 20
-0.0579999999999998
 30
0.0
 11
0.0437500000000002
 21
-0.0205000000000002
 31
0.0
  0
LINE
  5
6C6
330
6BC
100
AcDbEntity
  8
4
100
AcDbLine
 10
0.2749999999999999
 20
-0.0579999999999998
 30
0.0
 11
0.29375
 21
-0.0205000000000002
 31
0.0
  0
LINE
  5
6C7
330
6BC
100
AcDbEntity
  8
4
100
AcDbLine
 10
0.29375
 20
-0.0205000000000002
 30
0.0
 11
0.3125
 21
-0.0579999999999998
 31
0.0
  0
LINE
  5
6C8
330
6BC
100
AcDbEntity
  8
4
100
AcDbLine
 10
0.2749999999999999
 20
-0.0579999999999998
 30
0.0
 11
0.29375
 21
-0.0954999999999995
 31
0.0
  0
LINE
  5
6C9
330
6BC
100
AcDbEntity
  8
4
100
AcDbLine
 10
0.29375
 20
-0.0954999999999995
 30
0.0
 11
0.3125
 21
-0.0579999999999998
 31
0.0
  0
LINE
  5
6CA
330
6BC
100
AcDbEntity
  8
4
100
AcDbLine
 10
0.26875
 20
-0.0374999999999997
 30
0.0
 11
0.2875000000000001
 21
0.0
 31
0.0
  0
LINE
  5
6CB
330
6BC
100
AcDbEntity
  8
4
100
AcDbLine
 10
0.25
 20
0.0
 30
0.0
 11
0.26875
 21
-0.0374999999999997
 31
0.0
  0
LINE
  5
6CC
330
6BC
100
AcDbEntity
  8
4
100
AcDbLine
 10
0.26875
 20
0.0374999999999997
 30
0.0
 11
0.2875000000000001
 21
0.0
 31
0.0
  0
LINE
  5
6CD
330
6BC
100
AcDbEntity
  8
4
100
AcDbLine
 10
0.25
 20
0.0
 30
0.0
 11
0.26875
 21
0.0374999999999997
 31
0.0
  0
ENDBLK
  5
6CE
330
6BC
100
AcDbEntity
  8
2
100
AcDbBlockEnd
  0
BLOCK
  5
6D0
330
6CF
100
AcDbEntity
  8
4
100
AcDbBlockBegin
  2
A1
 70
     0
 10
0.0
 20
0.0
 30
0.0
  3
A1
  1

  0
INSERT
  5
6D1
330
6CF
100
AcDbEntity
  8
2
100
AcDbBlockReference
  2
LE029
 10
-0.0187499999999998
 20
-0.0374999999999997
 30
0.0
  0
ENDBLK
  5
6D2
330
6CF
100
AcDbEntity
  8
4
100
AcDbBlockEnd
  0
ENDSEC
  0
SECTION
  2
ENTITIES
  0
POINT
  5
1035
330
1F
100
AcDbEntity
  8
4
100
AcDbPoint
 10
1.744791806336735
 20
1.691798251485359
 30
0.0
  0
POINT
  5
1036
330
1F
100
AcDbEntity
  8
4
100
AcDbPoint
 10
1.744791806336735
 20
1.69179388921874
 30
0.0
  0
POINT
  5
1037
330
1F
100
AcDbEntity
  8
4
100
AcDbPoint
 10
1.744791806336735
 20
1.691798251485359
 30
0.0
  0
LINE
  5
1038
330
1F
100
AcDbEntity
  8
4
100
AcDbLine
 10
7.372791806336735
 20
5.94179388921874
 30
0.0
 11
7.636523409002139
 21
5.94179388921874
 31
0.0
  0
LINE
  5
1039
330
1F
100
AcDbEntity
  8
4
100
AcDbLine
 10
7.676950618674565
 20
5.94179388921874
 30
0.0
 11
7.857414415498508
 21
5.94179388921874
 31
0.0
  0
LINE
  5
103A
330
1F
100
AcDbEntity
  8
4
100
AcDbLine
 10
7.801950618674567
 20
5.961793889218739
 30
0.0
 11
7.801950618674567
 21
5.92179388921874
 31
0.0
  0
LINE
  5
103B
330
1F
100
AcDbEntity
  8
4
100
AcDbLine
 10
7.801950618674567
 20
5.931793889218738
 30
0.0
 11
7.676950618674567
 21
5.94179388921874
 31
0.0
  0
LINE
  5
103C
330
1F
100
AcDbEntity
  8
4
100
AcDbLine
 10
7.801950618674567
 20
5.951793889218738
 30
0.0
 11
7.676950618674567
 21
5.94179388921874
 31
0.0
  0
LINE
  5
103D
330
1F
100
AcDbEntity
  8
4
100
AcDbLine
 10
7.676950618674567
 20
5.94179388921874
 30
0.0
 11
7.801950618674567
 21
5.92179388921874
 31
0.0
  0
LINE
  5
103E
330
1F
100
AcDbEntity
  8
4
100
AcDbLine
 10
7.801950618674567
 20
5.961793889218739
 30
0.0
 11
7.676950618674567
 21
5.94179388921874
 31
0.0
  0
LINE
  5
103F
330
1F
100
AcDbEntity
  8
4
100
AcDbLine
 10
7.857414415498508
 20
5.94179388921874
 30
0.0
 11
7.857414415498508
 21
5.738806219428226
 31
0.0
  0
TEXT
  5
1040
330
1F
100
AcDbEntity
  8
8
100
AcDbText
 10
7.892414415498508
 20
4.363472886094894
 30
0.0
 40
0.07
  1
ANCHORING BY ERECTOR
 50
90.0
  7
ROMANS
 72
     2
 11
7.892414415498508
 21
5.676806219428227
 31
0.0
100
AcDbText
  0
TEXT
  5
1041
330
1F
100
AcDbEntity
  8
8
100
AcDbText
 10
6.245291806336735
 20
4.270127222552073
 30
0.0
 40
0.07
  1
LOCKER HEIGHT
 50
90.0
  7
ROMANS
 72
     1
 11
6.245291806336735
 21
4.69179388921874
 31
0.0
100
AcDbText
  0
TEXT
  5
1042
330
1F
100
AcDbEntity
  8
8
100
AcDbText
 10
3.330506092051021
 20
2.253793889218741
 30
0.0
 40
0.1
  1
FRONT ELEVATION
  7
ROMANS
 72
     1
 11
3.994791806336735
 21
2.253793889218741
 31
0.0
100
AcDbText
  0
LINE
  5
1043
330
1F
100
AcDbEntity
  8
1
100
AcDbLine
 10
7.494791806336735
 20
3.44179388921874
 30
0.0
 11
7.682791806336734
 21
3.629793889218738
 31
0.0
  0
LINE
  5
1044
330
1F
100
AcDbEntity
  8
1
100
AcDbLine
 10
7.494791806336735
 20
3.56679388921874
 30
0.0
 11
7.682791806336734
 21
3.754793889218738
 31
0.0
  0
CIRCLE
  5
1045
330
1F
100
AcDbEntity
  8
4
100
AcDbCircle
 10
3.682291806336735
 20
6.003793889218741
 30
0.0
 40
0.094
  0
LINE
  5
1046
330
1F
100
AcDbEntity
  8
4
100
AcDbLine
 10
3.682291806336735
 20
6.09779388921874
 30
0.0
 11
3.682291806336735
 21
6.22279388921874
 31
0.0
  0
LINE
  5
1047
330
1F
100
AcDbEntity
  8
1
100
AcDbLine
 10
4.619791806336735
 20
3.19179388921874
 30
0.0
 11
4.619791806336735
 21
6.19179388921874
 31
0.0
  0
LINE
  5
1048
330
1F
100
AcDbEntity
  8
1
100
AcDbLine
 10
3.994791806336735
 20
3.19179388921874
 30
0.0
 11
3.994791806336735
 21
6.19179388921874
 31
0.0
  0
LINE
  5
1049
330
1F
100
AcDbEntity
  8
1
100
AcDbLine
 10
3.369791806336735
 20
3.19179388921874
 30
0.0
 11
3.369791806336735
 21
6.19179388921874
 31
0.0
  0
LINE
  5
104A
330
1F
100
AcDbEntity
  8
4
100
AcDbLine
 10
6.287291806336735
 20
3.316793889218741
 30
0.0
 11
6.327291806336735
 21
3.316793889218741
 31
0.0
  0
LINE
  5
104B
330
1F
100
AcDbEntity
  8
4
100
AcDbLine
 10
6.317291806336736
 20
3.316793889218741
 30
0.0
 11
6.307291806336735
 21
3.19179388921874
 31
0.0
  0
LINE
  5
104C
330
1F
100
AcDbEntity
  8
4
100
AcDbLine
 10
6.297291806336736
 20
3.316793889218741
 30
0.0
 11
6.307291806336735
 21
3.191793889218741
 31
0.0
  0
LINE
  5
104D
330
1F
100
AcDbEntity
  8
4
100
AcDbLine
 10
6.307291806336735
 20
3.191793889218741
 30
0.0
 11
6.327291806336735
 21
3.316793889218741
 31
0.0
  0
LINE
  5
104E
330
1F
100
AcDbEntity
  8
4
100
AcDbLine
 10
6.287291806336735
 20
3.316793889218741
 30
0.0
 11
6.307291806336735
 21
3.191793889218741
 31
0.0
  0
LINE
  5
104F
330
1F
100
AcDbEntity
  8
4
100
AcDbLine
 10
6.327291806336734
 20
6.066793889218738
 30
0.0
 11
6.287291806336734
 21
6.066793889218738
 31
0.0
  0
LINE
  5
1050
330
1F
100
AcDbEntity
  8
4
100
AcDbLine
 10
6.297291806336734
 20
6.066793889218738
 30
0.0
 11
6.307291806336735
 21
6.19179388921874
 31
0.0
  0
LINE
  5
1051
330
1F
100
AcDbEntity
  8
4
100
AcDbLine
 10
6.317291806336734
 20
6.066793889218738
 30
0.0
 11
6.307291806336735
 21
6.191793889218738
 31
0.0
  0
LINE
  5
1052
330
1F
100
AcDbEntity
  8
4
100
AcDbLine
 10
6.307291806336735
 20
6.191793889218738
 30
0.0
 11
6.287291806336734
 21
6.066793889218738
 31
0.0
  0
LINE
  5
1053
330
1F
100
AcDbEntity
  8
4
100
AcDbLine
 10
6.327291806336734
 20
6.066793889218738
 30
0.0
 11
6.307291806336735
 21
6.191793889218738
 31
0.0
  0
LINE
  5
1054
330
1F
100
AcDbEntity
  8
4
100
AcDbLine
 10
6.747291806336735
 20
6.19179388921874
 30
0.0
 11
6.247291806336735
 21
6.19179388921874
 31
0.0
  0
LINE
  5
1055
330
1F
100
AcDbEntity
  8
4
100
AcDbLine
 10
6.307291806336735
 20
3.19179388921874
 30
0.0
 11
6.307291806336735
 21
6.19179388921874
 31
0.0
  0
LINE
  5
1056
330
1F
100
AcDbEntity
  8
4
100
AcDbLine
 10
6.747291806336735
 20
3.19179388921874
 30
0.0
 11
6.247291806336735
 21
3.19179388921874
 31
0.0
  0
LINE
  5
1057
330
1F
100
AcDbEntity
  8
1
100
AcDbLine
 10
7.434791806336735
 20
3.19179388921874
 30
0.0
 11
7.434791806336735
 21
6.19179388921874
 31
0.0
  0
LINE
  5
1058
330
1F
100
AcDbEntity
  8
1
100
AcDbLine
 10
7.494791806336735
 20
6.44179388921874
 30
0.0
 11
7.619791806336735
 21
6.56679388921874
 31
0.0
  0
LINE
  5
1059
330
1F
100
AcDbEntity
  8
1
100
AcDbLine
 10
7.494791806336735
 20
6.31679388921874
 30
0.0
 11
7.682791806336734
 21
6.504793889218738
 31
0.0
  0
LINE
  5
105A
330
1F
100
AcDbEntity
  8
1
100
AcDbLine
 10
7.494791806336735
 20
6.19179388921874
 30
0.0
 11
7.682791806336734
 21
6.379793889218738
 31
0.0
  0
LINE
  5
105B
330
1F
100
AcDbEntity
  8
1
100
AcDbLine
 10
7.494791806336735
 20
6.06679388921874
 30
0.0
 11
7.682791806336734
 21
6.254793889218738
 31
0.0
  0
LINE
  5
105C
330
1F
100
AcDbEntity
  8
1
100
AcDbLine
 10
7.494791806336735
 20
5.94179388921874
 30
0.0
 11
7.682791806336734
 21
6.129793889218738
 31
0.0
  0
LINE
  5
105D
330
1F
100
AcDbEntity
  8
1
100
AcDbLine
 10
7.494791806336735
 20
5.81679388921874
 30
0.0
 11
7.682791806336734
 21
6.004793889218738
 31
0.0
  0
LINE
  5
105E
330
1F
100
AcDbEntity
  8
1
100
AcDbLine
 10
7.494791806336735
 20
5.69179388921874
 30
0.0
 11
7.682791806336734
 21
5.879793889218738
 31
0.0
  0
LINE
  5
105F
330
1F
100
AcDbEntity
  8
1
100
AcDbLine
 10
7.494791806336735
 20
5.56679388921874
 30
0.0
 11
7.682791806336734
 21
5.754793889218738
 31
0.0
  0
LINE
  5
1060
330
1F
100
AcDbEntity
  8
1
100
AcDbLine
 10
7.494791806336735
 20
5.44179388921874
 30
0.0
 11
7.682791806336734
 21
5.629793889218738
 31
0.0
  0
LINE
  5
1061
330
1F
100
AcDbEntity
  8
1
100
AcDbLine
 10
7.494791806336735
 20
5.31679388921874
 30
0.0
 11
7.682791806336734
 21
5.504793889218738
 31
0.0
  0
LINE
  5
1062
330
1F
100
AcDbEntity
  8
1
100
AcDbLine
 10
7.494791806336735
 20
5.19179388921874
 30
0.0
 11
7.682791806336734
 21
5.379793889218738
 31
0.0
  0
LINE
  5
1063
330
1F
100
AcDbEntity
  8
1
100
AcDbLine
 10
7.494791806336735
 20
5.06679388921874
 30
0.0
 11
7.682791806336734
 21
5.254793889218738
 31
0.0
  0
LINE
  5
1064
330
1F
100
AcDbEntity
  8
1
100
AcDbLine
 10
7.494791806336735
 20
4.94179388921874
 30
0.0
 11
7.682791806336734
 21
5.129793889218738
 31
0.0
  0
LINE
  5
1065
330
1F
100
AcDbEntity
  8
1
100
AcDbLine
 10
7.494791806336735
 20
4.81679388921874
 30
0.0
 11
7.682791806336734
 21
5.004793889218738
 31
0.0
  0
LINE
  5
1066
330
1F
100
AcDbEntity
  8
1
100
AcDbLine
 10
7.494791806336735
 20
4.69179388921874
 30
0.0
 11
7.682791806336734
 21
4.879793889218738
 31
0.0
  0
LINE
  5
1067
330
1F
100
AcDbEntity
  8
1
100
AcDbLine
 10
7.494791806336735
 20
4.56679388921874
 30
0.0
 11
7.682791806336734
 21
4.754793889218738
 31
0.0
  0
LINE
  5
1068
330
1F
100
AcDbEntity
  8
1
100
AcDbLine
 10
7.494791806336735
 20
4.44179388921874
 30
0.0
 11
7.682791806336734
 21
4.629793889218738
 31
0.0
  0
LINE
  5
1069
330
1F
100
AcDbEntity
  8
1
100
AcDbLine
 10
7.494791806336735
 20
4.31679388921874
 30
0.0
 11
7.682791806336734
 21
4.504793889218738
 31
0.0
  0
LINE
  5
106A
330
1F
100
AcDbEntity
  8
1
100
AcDbLine
 10
7.494791806336735
 20
4.19179388921874
 30
0.0
 11
7.682791806336734
 21
4.379793889218738
 31
0.0
  0
LINE
  5
106B
330
1F
100
AcDbEntity
  8
1
100
AcDbLine
 10
7.494791806336735
 20
4.06679388921874
 30
0.0
 11
7.682791806336734
 21
4.254793889218738
 31
0.0
  0
LINE
  5
106C
330
1F
100
AcDbEntity
  8
1
100
AcDbLine
 10
7.494791806336735
 20
3.94179388921874
 30
0.0
 11
7.682791806336734
 21
4.129793889218738
 31
0.0
  0
LINE
  5
106D
330
1F
100
AcDbEntity
  8
1
100
AcDbLine
 10
7.494791806336735
 20
3.81679388921874
 30
0.0
 11
7.682791806336734
 21
4.004793889218738
 31
0.0
  0
LINE
  5
106E
330
1F
100
AcDbEntity
  8
1
100
AcDbLine
 10
7.494791806336735
 20
3.69179388921874
 30
0.0
 11
7.682791806336734
 21
3.879793889218738
 31
0.0
  0
LINE
  5
106F
330
1F
100
AcDbEntity
  8
1
100
AcDbLine
 10
7.494791806336735
 20
3.31679388921874
 30
0.0
 11
7.682791806336734
 21
3.50479388921874
 31
0.0
  0
LINE
  5
1070
330
1F
100
AcDbEntity
  8
1
100
AcDbLine
 10
7.494791806336735
 20
3.19179388921874
 30
0.0
 11
7.682791806336734
 21
3.37979388921874
 31
0.0
  0
LINE
  5
1072
330
1F
100
AcDbEntity
  8
1
100
AcDbLine
 10
7.494791806336735
 20
3.19179388921874
 30
0.0
 11
7.494791806336735
 21
6.56679388921874
 31
0.0
  0
LINE
  5
1073
330
1F
100
AcDbEntity
  8
1
100
AcDbLine
 10
8.744791806336735
 20
3.192293889218738
 30
0.0
 11
8.744791806336735
 21
6.19179388921874
 31
0.0
  0
LINE
  5
1074
330
1F
100
AcDbEntity
  8
1
100
AcDbLine
 10
5.244791806336735
 20
3.19179388921874
 30
0.0
 11
4.369791806336735
 21
3.19179388921874
 31
0.0
  0
LINE
  5
1075
330
1F
100
AcDbEntity
  8
1
100
AcDbLine
 10
5.244791806336735
 20
6.19179388921874
 30
0.0
 11
5.244791806336735
 21
3.19179388921874
 31
0.0
  0
LINE
  5
1076
330
1F
100
AcDbEntity
  8
1
100
AcDbLine
 10
4.369791806336735
 20
6.19179388921874
 30
0.0
 11
5.244791806336735
 21
6.19179388921874
 31
0.0
  0
LINE
  5
1077
330
1F
100
AcDbEntity
  8
1
100
AcDbLine
 10
2.744791806336735
 20
6.19179388921874
 30
0.0
 11
4.244791806336735
 21
6.19179388921874
 31
0.0
  0
LINE
  5
1078
330
1F
100
AcDbEntity
  8
1
100
AcDbLine
 10
2.744791806336735
 20
3.19179388921874
 30
0.0
 11
2.744791806336735
 21
6.19179388921874
 31
0.0
  0
LINE
  5
1079
330
1F
100
AcDbEntity
  8
1
100
AcDbLine
 10
2.744791806336735
 20
3.19179388921874
 30
0.0
 11
4.244791806336735
 21
3.19179388921874
 31
0.0
  0
LINE
  5
107A
330
1F
100
AcDbEntity
  8
1
100
AcDbLine
 10
1.744791806336735
 20
6.94179388921874
 30
0.0
 11
1.744791806336735
 21
1.69179388921874
 31
0.0
  0
LINE
  5
107B
330
1F
100
AcDbEntity
  8
1
100
AcDbLine
 10
9.994791806336735
 20
6.94179388921874
 30
0.0
 11
1.744791806336735
 21
6.94179388921874
 31
0.0
  0
LINE
  5
107C
330
1F
100
AcDbEntity
  8
1
100
AcDbLine
 10
9.994791806336735
 20
1.69179388921874
 30
0.0
 11
9.994791806336735
 21
6.94179388921874
 31
0.0
  0
LINE
  5
107D
330
1F
100
AcDbEntity
  8
1
100
AcDbLine
 10
1.744791806336735
 20
1.69179388921874
 30
0.0
 11
9.994791806336735
 21
1.69179388921874
 31
0.0
  0
INSERT
  5
107F
330
1F
100
AcDbEntity
  8
8
100
AcDbBlockReference
  2
TEMP3
 10
2.330703688860052
 20
5.628660229867355
 30
0.0
  0
POINT
  5
1080
330
1F
100
AcDbEntity
  8
4
100
AcDbPoint
 10
1.744791806336735
 20
1.69179388921874
 30
0.0
  0
LINE
  5
1081
330
1F
100
AcDbEntity
  8
4
100
AcDbLine
 10
3.296129406336739
 20
4.733006843109386
 30
0.0
 11
3.296129406336739
 21
6.129815208018804
 31
0.0
  0
LINE
  5
1082
330
1F
100
AcDbEntity
  8
4
100
AcDbLine
 10
2.818454206336725
 20
6.129793889218738
 30
0.0
 11
2.818454206336725
 21
4.733006843109386
 31
0.0
  0
LINE
  5
1083
330
1F
100
AcDbEntity
  8
4
100
AcDbLine
 10
2.705703688860052
 20
5.566660229867355
 30
0.0
 11
2.330703688860052
 21
5.566660229867355
 31
0.0
  0
LINE
  5
1084
330
1F
100
AcDbEntity
  8
4
100
AcDbLine
 10
2.705703688860052
 20
5.426315966164063
 30
0.0
 11
2.330703688860052
 21
5.426315966164063
 31
0.0
  0
LINE
  5
1085
330
1F
100
AcDbEntity
  8
4
100
AcDbLine
 10
2.330703688860052
 20
5.566660229867355
 30
0.0
 11
2.330703688860052
 21
5.628660229867355
 31
0.0
  0
LINE
  5
1086
330
1F
100
AcDbEntity
  8
4
100
AcDbLine
 10
2.330703688860052
 20
5.426315966164063
 30
0.0
 11
2.330703688860052
 21
5.364315966164063
 31
0.0
  0
LINE
  5
1087
330
1F
100
AcDbEntity
  8
4
100
AcDbLine
 10
3.309982025979688
 20
5.002504741957029
 30
0.0
 11
3.279608271841356
 21
5.002504741957029
 31
0.0
  0
LINE
  5
1088
330
1F
100
AcDbEntity
  8
4
100
AcDbLine
 10
3.289398824059469
 20
4.964565795776525
 30
0.0
 11
3.296129406336739
 21
4.964565795776525
 31
0.0
  0
LINE
  5
1089
330
1F
100
AcDbEntity
  8
4
100
AcDbLine
 10
3.296129406336739
 20
5.043497169755397
 30
0.0
 11
3.289398824059469
 21
5.043497169755397
 31
0.0
  0
LINE
  5
108A
330
1F
100
AcDbEntity
  8
4
100
AcDbLine
 10
3.289398824059469
 20
5.043497169755397
 30
0.0
 11
3.289398824059469
 21
4.964565795776525
 31
0.0
  0
INSERT
  5
108B
330
1F
100
AcDbEntity
  8
4
100
AcDbBlockReference
  2
ARRO
 10
2.705703688860052
 20
5.566660229867355
 30
0.0
 50
180.0
  0
INSERT
  5
108C
330
1F
100
AcDbEntity
  8
4
100
AcDbBlockReference
  2
ARRO
 10
2.705703688860052
 20
5.426315966164063
 30
0.0
 50
180.0
  0
LINE
  5
108D
330
1F
100
AcDbEntity
  8
4
100
AcDbLine
 10
3.289398824059473
 20
5.900014590629622
 30
0.0
 11
3.289398824059469
 21
5.82108321665075
 31
0.0
  0
LINE
  5
108E
330
1F
100
AcDbEntity
  8
4
100
AcDbLine
 10
3.289398824059469
 20
5.82108321665075
 30
0.0
 11
3.296129406336739
 21
5.82108321665075
 31
0.0
  0
LINE
  5
108F
330
1F
100
AcDbEntity
  8
4
100
AcDbLine
 10
3.296129406336739
 20
5.900014590629622
 30
0.0
 11
3.289398824059473
 21
5.900014590629622
 31
0.0
  0
LINE
  5
1090
330
1F
100
AcDbEntity
  8
4
100
AcDbLine
 10
3.301763201038982
 20
5.859022162831251
 30
0.0
 11
3.281216327426136
 21
5.859022162831251
 31
0.0
  0
LINE
  5
1091
330
1F
100
AcDbEntity
  8
4
100
AcDbLine
 10
3.296129406336739
 20
6.129815208018804
 30
0.0
 11
2.818454206336725
 21
6.129793889218738
 31
0.0
  0
LINE
  5
1092
330
1F
100
AcDbEntity
  8
4
100
AcDbLine
 10
9.388791806336737
 20
4.650602254128155
 30
0.0
 11
9.388791806336737
 21
3.253793889218737
 31
0.0
  0
LINE
  5
1093
330
1F
100
AcDbEntity
  8
4
100
AcDbLine
 10
8.120291806336734
 20
4.650602254128155
 30
0.0
 11
8.120291806336734
 21
3.253793889218737
 31
0.0
  0
LINE
  5
1094
330
1F
100
AcDbEntity
  8
4
100
AcDbLine
 10
6.810291806336735
 20
4.650602254128155
 30
0.0
 11
6.810291806336734
 21
3.253793889218737
 31
0.0
  0
LINE
  5
1095
330
1F
100
AcDbEntity
  8
4
100
AcDbLine
 10
6.557291806336735
 20
6.191832164552254
 30
0.0
 11
6.557291806336735
 21
3.233956289218731
 31
0.0
  0
LINE
  5
1096
330
1F
100
AcDbEntity
  8
4
100
AcDbLine
 10
6.557291806336735
 20
3.191832164552254
 30
0.0
 11
6.557291806336735
 21
3.066832164552254
 31
0.0
  0
INSERT
  5
1097
330
1F
100
AcDbEntity
  8
4
100
AcDbBlockReference
  2
ARRO
 10
6.557291806336735
 20
3.191832164552254
 30
0.0
 50
270.0
  0
LINE
  5
1098
330
1F
100
AcDbEntity
  8
4
100
AcDbLine
 10
6.747291806336735
 20
3.233956289218731
 30
0.0
 11
6.557291806336735
 21
3.233956289218731
 31
0.0
  0
INSERT
  5
1099
330
1F
100
AcDbEntity
  8
4
100
AcDbBlockReference
  2
ARRO
 10
6.557291806336735
 20
3.233956289218731
 30
0.0
 50
90.0
  0
LINE
  5
109A
330
1F
100
AcDbEntity
  8
4
100
AcDbLine
 10
6.557291806336735
 20
3.233956289218731
 30
0.0
 11
6.495291806336735
 21
3.233956289218731
 31
0.0
  0
LINE
  5
109B
330
1F
100
AcDbEntity
  8
4
100
AcDbLine
 10
6.810291806336733
 20
6.12979388921874
 30
0.0
 11
6.810291806336735
 21
4.733006843109386
 31
0.0
  0
LINE
  5
109C
330
1F
100
AcDbEntity
  8
4
100
AcDbLine
 10
6.747291806336734
 20
4.712669243109381
 30
0.0
 11
6.557291806336734
 21
4.712669243109381
 31
0.0
  0
INSERT
  5
109D
330
1F
100
AcDbEntity
  8
4
100
AcDbBlockReference
  2
ARRO2
 10
6.557291806336734
 20
4.712669243109381
 30
0.0
 50
90.0
  0
LINE
  5
109E
330
1F
100
AcDbEntity
  8
4
100
AcDbLine
 10
6.557291806336734
 20
4.712669243109381
 30
0.0
 11
6.495291806336734
 21
4.712669243109381
 31
0.0
  0
LINE
  5
109F
330
1F
100
AcDbEntity
  8
4
100
AcDbLine
 10
6.810291806336735
 20
4.650602254128155
 30
0.0
 11
6.872291806336735
 21
4.650602254128155
 31
0.0
  0
LINE
  5
10A0
330
1F
100
AcDbEntity
  8
4
100
AcDbLine
 10
6.810291806336735
 20
4.733006843109386
 30
0.0
 11
6.872291806336734
 21
4.733006843109386
 31
0.0
  0
INSERT
  5
10A1
330
1F
100
AcDbEntity
  8
4
100
AcDbBlockReference
  2
ARRO
 10
6.557291806336735
 20
6.191832164552254
 30
0.0
 50
270.0
  0
LINE
  5
10A2
330
1F
100
AcDbEntity
  8
4
100
AcDbLine
 10
8.120291806336734
 20
6.12979388921874
 30
0.0
 11
8.120291806336734
 21
4.733006843109386
 31
0.0
  0
LINE
  5
10A3
330
1F
100
AcDbEntity
  8
4
100
AcDbLine
 10
8.120291806336734
 20
4.650602254128155
 30
0.0
 11
8.182291806336735
 21
4.650602254128155
 31
0.0
  0
LINE
  5
10A4
330
1F
100
AcDbEntity
  8
4
100
AcDbLine
 10
8.120291806336734
 20
4.733006843109386
 30
0.0
 11
8.182291806336735
 21
4.733006843109386
 31
0.0
  0
LINE
  5
10A5
330
1F
100
AcDbEntity
  8
4
100
AcDbLine
 10
9.388791806336737
 20
6.12979388921874
 30
0.0
 11
9.388791806336737
 21
4.733006843109386
 31
0.0
  0
LINE
  5
10A6
330
1F
100
AcDbEntity
  8
4
100
AcDbLine
 10
9.326791806336736
 20
4.650602254128155
 30
0.0
 11
9.388791806336735
 21
4.650602254128155
 31
0.0
  0
LINE
  5
10A7
330
1F
100
AcDbEntity
  8
4
100
AcDbLine
 10
9.326791806336736
 20
4.733006843109386
 30
0.0
 11
9.388791806336735
 21
4.733006843109386
 31
0.0
  0
LINE
  5
10AD
330
1F
100
AcDbEntity
  8
0
100
AcDbLine
 10
8.764291806336736
 20
3.192293889218738
 30
0.0
 11
8.764291806336736
 21
6.19179388921874
 31
0.0
  0
LINE
  5
10AE
330
1F
100
AcDbEntity
  8
4
100
AcDbLine
 10
7.434791806336735
 20
2.69179388921874
 30
0.0
 11
6.809791806336735
 21
2.69179388921874
 31
0.0
  0
LINE
  5
10AF
330
1F
100
AcDbEntity
  8
4
100
AcDbLine
 10
7.494791806336735
 20
2.69179388921874
 30
0.0
 11
7.744791806336735
 21
2.69179388921874
 31
0.0
  0
LINE
  5
10B0
330
1F
100
AcDbEntity
  8
4
100
AcDbLine
 10
6.934791806336735
 20
2.711793889218739
 30
0.0
 11
6.934791806336735
 21
2.67179388921874
 31
0.0
  0
LINE
  5
10B1
330
1F
100
AcDbEntity
  8
4
100
AcDbLine
 10
6.934791806336735
 20
2.681793889218738
 30
0.0
 11
6.809791806336735
 21
2.69179388921874
 31
0.0
  0
LINE
  5
10B2
330
1F
100
AcDbEntity
  8
4
100
AcDbLine
 10
6.934791806336735
 20
2.701793889218738
 30
0.0
 11
6.809791806336735
 21
2.69179388921874
 31
0.0
  0
LINE
  5
10B3
330
1F
100
AcDbEntity
  8
4
100
AcDbLine
 10
6.809791806336735
 20
2.69179388921874
 30
0.0
 11
6.934791806336735
 21
2.67179388921874
 31
0.0
  0
LINE
  5
10B4
330
1F
100
AcDbEntity
  8
4
100
AcDbLine
 10
6.934791806336735
 20
2.711793889218739
 30
0.0
 11
6.809791806336735
 21
2.69179388921874
 31
0.0
  0
LINE
  5
10B5
330
1F
100
AcDbEntity
  8
4
100
AcDbLine
 10
7.309791806336732
 20
2.67179388921874
 30
0.0
 11
7.309791806336732
 21
2.711793889218739
 31
0.0
  0
LINE
  5
10B6
330
1F
100
AcDbEntity
  8
4
100
AcDbLine
 10
7.309791806336732
 20
2.701793889218741
 30
0.0
 11
7.434791806336733
 21
2.69179388921874
 31
0.0
  0
LINE
  5
10B7
330
1F
100
AcDbEntity
  8
4
100
AcDbLine
 10
7.309791806336732
 20
2.681793889218742
 30
0.0
 11
7.434791806336732
 21
2.69179388921874
 31
0.0
  0
LINE
  5
10B8
330
1F
100
AcDbEntity
  8
4
100
AcDbLine
 10
7.434791806336732
 20
2.69179388921874
 30
0.0
 11
7.309791806336732
 21
2.711793889218739
 31
0.0
  0
LINE
  5
10B9
330
1F
100
AcDbEntity
  8
4
100
AcDbLine
 10
7.309791806336732
 20
2.67179388921874
 30
0.0
 11
7.434791806336732
 21
2.69179388921874
 31
0.0
  0
LINE
  5
10BA
330
1F
100
AcDbEntity
  8
4
100
AcDbLine
 10
7.619791806336735
 20
2.711793889218739
 30
0.0
 11
7.619791806336735
 21
2.67179388921874
 31
0.0
  0
LINE
  5
10BB
330
1F
100
AcDbEntity
  8
4
100
AcDbLine
 10
7.619791806336735
 20
2.681793889218738
 30
0.0
 11
7.494791806336735
 21
2.69179388921874
 31
0.0
  0
LINE
  5
10BC
330
1F
100
AcDbEntity
  8
4
100
AcDbLine
 10
7.619791806336735
 20
2.701793889218738
 30
0.0
 11
7.494791806336735
 21
2.69179388921874
 31
0.0
  0
LINE
  5
10BD
330
1F
100
AcDbEntity
  8
4
100
AcDbLine
 10
7.494791806336735
 20
2.69179388921874
 30
0.0
 11
7.619791806336735
 21
2.67179388921874
 31
0.0
  0
LINE
  5
10BE
330
1F
100
AcDbEntity
  8
4
100
AcDbLine
 10
7.619791806336735
 20
2.711793889218739
 30
0.0
 11
7.494791806336735
 21
2.69179388921874
 31
0.0
  0
LINE
  5
10BF
330
1F
100
AcDbEntity
  8
4
100
AcDbLine
 10
6.809791806336735
 20
2.629793889218742
 30
0.0
 11
6.809791806336735
 21
2.817793889218741
 31
0.0
  0
LINE
  5
10C0
330
1F
100
AcDbEntity
  8
4
100
AcDbLine
 10
7.434791806336735
 20
2.629793889218742
 30
0.0
 11
7.434791806336735
 21
2.817793889218741
 31
0.0
  0
LINE
  5
10C1
330
1F
100
AcDbEntity
  8
4
100
AcDbLine
 10
7.494791806336735
 20
2.629793889218742
 30
0.0
 11
7.494791806336735
 21
2.817793889218741
 31
0.0
  0
TEXT
  5
10C2
330
1F
100
AcDbEntity
  8
8
100
AcDbText
 10
6.957291806336733
 20
2.595642127164424
 30
0.0
 40
0.07
  1
DEPTH
  7
ROMANS
 72
     1
 11
7.122291806336733
 21
2.595642127164424
 31
0.0
100
AcDbText
  0
TEXT
  5
10C3
330
1F
100
AcDbEntity
  8
8
100
AcDbText
 10
7.031209896530389
 20
2.438394896044052
 30
0.0
 40
0.1
  1
SR
  7
ROMANS
 72
     1
 11
7.128828944149437
 21
2.438394896044052
 31
0.0
100
AcDbText
  0
TEXT
  5
10C4
330
1F
100
AcDbEntity
  8
0
100
AcDbText
 10
6.802529901574828
 20
2.740093889218741
 30
0.0
 40
0.085
  1
XX 1/16"
  7
ROMANS
 72
     1
 11
7.122291806336733
 21
2.740093889218741
 31
0.0
100
AcDbText
  0
TEXT
  5
10C5
330
1F
100
AcDbEntity
  8
0
100
AcDbText
 10
7.667958473003397
 20
2.740093889218741
 30
0.0
 40
0.085
  1
0"
  7
ROMANS
 72
     1
 11
7.738791806336731
 21
2.740093889218741
 31
0.0
100
AcDbText
  0
LINE
  5
10C6
330
1F
100
AcDbEntity
  8
4
100
AcDbLine
 10
8.120291806336734
 20
2.69179388921874
 30
0.0
 11
9.388791806336737
 21
2.69179388921874
 31
0.0
  0
LINE
  5
10C7
330
1F
100
AcDbEntity
  8
4
100
AcDbLine
 10
8.245291806336735
 20
2.711793889218739
 30
0.0
 11
8.245291806336735
 21
2.67179388921874
 31
0.0
  0
LINE
  5
10C8
330
1F
100
AcDbEntity
  8
4
100
AcDbLine
 10
8.245291806336735
 20
2.681793889218738
 30
0.0
 11
8.120291806336734
 21
2.69179388921874
 31
0.0
  0
LINE
  5
10C9
330
1F
100
AcDbEntity
  8
4
100
AcDbLine
 10
8.245291806336735
 20
2.701793889218738
 30
0.0
 11
8.120291806336735
 21
2.69179388921874
 31
0.0
  0
LINE
  5
10CA
330
1F
100
AcDbEntity
  8
4
100
AcDbLine
 10
8.120291806336735
 20
2.69179388921874
 30
0.0
 11
8.245291806336735
 21
2.67179388921874
 31
0.0
  0
LINE
  5
10CB
330
1F
100
AcDbEntity
  8
4
100
AcDbLine
 10
8.245291806336735
 20
2.711793889218739
 30
0.0
 11
8.120291806336735
 21
2.69179388921874
 31
0.0
  0
LINE
  5
10CC
330
1F
100
AcDbEntity
  8
4
100
AcDbLine
 10
9.263791806336735
 20
2.67179388921874
 30
0.0
 11
9.263791806336735
 21
2.711793889218739
 31
0.0
  0
LINE
  5
10CD
330
1F
100
AcDbEntity
  8
4
100
AcDbLine
 10
9.263791806336735
 20
2.701793889218741
 30
0.0
 11
9.388791806336737
 21
2.69179388921874
 31
0.0
  0
LINE
  5
10CE
330
1F
100
AcDbEntity
  8
4
100
AcDbLine
 10
9.263791806336735
 20
2.681793889218742
 30
0.0
 11
9.388791806336735
 21
2.69179388921874
 31
0.0
  0
LINE
  5
10CF
330
1F
100
AcDbEntity
  8
4
100
AcDbLine
 10
9.388791806336735
 20
2.69179388921874
 30
0.0
 11
9.263791806336735
 21
2.711793889218739
 31
0.0
  0
LINE
  5
10D0
330
1F
100
AcDbEntity
  8
4
100
AcDbLine
 10
9.263791806336735
 20
2.67179388921874
 30
0.0
 11
9.388791806336735
 21
2.69179388921874
 31
0.0
  0
LINE
  5
10D1
330
1F
100
AcDbEntity
  8
4
100
AcDbLine
 10
8.120291806336734
 20
2.629793889218742
 30
0.0
 11
8.120291806336734
 21
2.817793889218741
 31
0.0
  0
LINE
  5
10D2
330
1F
100
AcDbEntity
  8
4
100
AcDbLine
 10
9.388791806336737
 20
2.629793889218742
 30
0.0
 11
9.388791806336737
 21
2.817793889218741
 31
0.0
  0
TEXT
  5
10D3
330
1F
100
AcDbEntity
  8
8
100
AcDbText
 10
8.589541806336736
 20
2.595642127164424
 30
0.0
 40
0.07
  1
DEPTH
  7
ROMANS
 72
     1
 11
8.754541806336735
 21
2.595642127164424
 31
0.0
100
AcDbText
  0
TEXT
  5
10D4
330
1F
100
AcDbEntity
  8
0
100
AcDbText
 10
8.050232282527211
 20
2.43839388921874
 30
0.0
 40
0.1
  1
SR BACK TO BACK
  7
ROMANS
 72
     1
 11
8.774041806336734
 21
2.43839388921874
 31
0.0
100
AcDbText
  0
TEXT
  5
10D5
330
1F
100
AcDbEntity
  8
0
100
AcDbText
 10
8.476856092051018
 20
2.74039388921874
 30
0.0
 40
0.085
  1
XX 1/8"
  7
ROMANS
 72
     1
 11
8.756141806336733
 21
2.74039388921874
 31
0.0
100
AcDbText
  0
TEXT
  5
10D6
330
1F
100
AcDbEntity
  8
8
100
AcDbText
 10
3.089791806336734
 20
2.753793889218741
 30
0.0
 40
0.07
  1
LOCKER WIDTH - SEE SCHEDULE
  7
ROMANS
 72
     1
 11
3.994791806336735
 21
2.753793889218741
 31
0.0
100
AcDbText
  0
LINE
  5
10D7
330
1F
100
AcDbEntity
  8
4
100
AcDbLine
 10
2.744791806336735
 20
2.817793889218739
 30
0.0
 11
2.744791806336735
 21
2.62979388921874
 31
0.0
  0
LINE
  5
10D8
330
1F
100
AcDbEntity
  8
4
100
AcDbLine
 10
5.244791806336735
 20
2.817793889218739
 30
0.0
 11
5.244791806336735
 21
2.62979388921874
 31
0.0
  0
LINE
  5
10D9
330
1F
100
AcDbEntity
  8
4
100
AcDbLine
 10
5.244791806336735
 20
2.69179388921874
 30
0.0
 11
2.744791806336735
 21
2.69179388921874
 31
0.0
  0
LINE
  5
10DA
330
1F
100
AcDbEntity
  8
4
100
AcDbLine
 10
2.869791806336737
 20
2.711793889218739
 30
0.0
 11
2.869791806336737
 21
2.67179388921874
 31
0.0
  0
LINE
  5
10DB
330
1F
100
AcDbEntity
  8
4
100
AcDbLine
 10
2.869791806336737
 20
2.68179388921874
 30
0.0
 11
2.744791806336736
 21
2.69179388921874
 31
0.0
  0
LINE
  5
10DC
330
1F
100
AcDbEntity
  8
4
100
AcDbLine
 10
2.869791806336737
 20
2.701793889218739
 30
0.0
 11
2.744791806336737
 21
2.69179388921874
 31
0.0
  0
LINE
  5
10DD
330
1F
100
AcDbEntity
  8
4
100
AcDbLine
 10
2.744791806336737
 20
2.69179388921874
 30
0.0
 11
2.869791806336737
 21
2.67179388921874
 31
0.0
  0
LINE
  5
10DE
330
1F
100
AcDbEntity
  8
4
100
AcDbLine
 10
2.869791806336737
 20
2.711793889218739
 30
0.0
 11
2.744791806336737
 21
2.69179388921874
 31
0.0
  0
LINE
  5
10DF
330
1F
100
AcDbEntity
  8
4
100
AcDbLine
 10
5.119791806336733
 20
2.67179388921874
 30
0.0
 11
5.119791806336733
 21
2.711793889218739
 31
0.0
  0
LINE
  5
10E0
330
1F
100
AcDbEntity
  8
4
100
AcDbLine
 10
5.119791806336733
 20
2.701793889218741
 30
0.0
 11
5.244791806336733
 21
2.69179388921874
 31
0.0
  0
LINE
  5
10E1
330
1F
100
AcDbEntity
  8
4
100
AcDbLine
 10
5.119791806336733
 20
2.68179388921874
 30
0.0
 11
5.244791806336733
 21
2.69179388921874
 31
0.0
  0
LINE
  5
10E2
330
1F
100
AcDbEntity
  8
4
100
AcDbLine
 10
5.244791806336733
 20
2.69179388921874
 30
0.0
 11
5.119791806336733
 21
2.711793889218739
 31
0.0
  0
LINE
  5
10E3
330
1F
100
AcDbEntity
  8
4
100
AcDbLine
 10
5.119791806336733
 20
2.67179388921874
 30
0.0
 11
5.244791806336733
 21
2.69179388921874
 31
0.0
  0
TEXT
  5
10E4
330
1F
100
AcDbEntity
  8
0
100
AcDbText
 10
3.645863234908163
 20
5.96129388921874
 30
0.0
 40
0.085
  1
?
  7
ROMANS
 72
     1
 11
3.682291806336735
 21
6.003793889218741
 31
0.0
100
AcDbText
 73
     2
  0
TEXT
  5
10E6
330
1F
100
AcDbEntity
  8
0
100
AcDbText
 10
6.245291806336735
 20
3.984784365409215
 30
0.0
 40
0.085
  1
72"
 50
90.0
  7
ROMANS
 72
     1
 11
6.245291806336735
 21
4.096093889218739
 31
0.0
100
AcDbText
  0
TEXT
  5
10E7
330
1F
100
AcDbEntity
  8
0
100
AcDbText
 10
6.495291806336735
 20
3.732254417985379
 30
0.0
 40
0.085
  1
35 1/2"
 50
90.0
  7
ROMANS
 72
     1
 11
6.495291806336735
 21
4.011540132271093
 31
0.0
100
AcDbText
  0
TEXT
  5
10E8
330
1F
100
AcDbEntity
  8
0
100
AcDbText
 10
6.495291806336735
 20
5.214848046898665
 30
0.0
 40
0.085
  1
35 1/2"
 50
90.0
  7
ROMANS
 72
     1
 11
6.495291806336735
 21
5.494133761184379
 31
0.0
100
AcDbText
  0
TEXT
  5
10E9
330
1F
100
AcDbEntity
  8
0
100
AcDbText
 10
6.495291806336735
 20
3.422009765059178
 30
0.0
 40
0.085
  1
1"
 50
90.0
  7
ROMANS
 72
     1
 11
6.495291806336735
 21
3.49891452696394
 31
0.0
100
AcDbText
  0
LINE
  5
10EA
330
1F
100
AcDbEntity
  8
1
100
AcDbLine
 10
4.199791806336735
 20
6.081768068530319
 30
0.0
 11
4.289791806336735
 21
5.991768068530319
 31
0.0
  0
LINE
  5
10EB
330
1F
100
AcDbEntity
  8
1
100
AcDbLine
 10
4.289791806336735
 20
5.991768068530319
 30
0.0
 11
4.199791806336735
 21
5.991768068530319
 31
0.0
  0
LINE
  5
10EC
330
1F
100
AcDbEntity
  8
1
100
AcDbLine
 10
4.199791806336735
 20
5.991768068530319
 30
0.0
 11
4.289791806336735
 21
5.901768068530319
 31
0.0
  0
LINE
  5
10ED
330
1F
100
AcDbEntity
  8
1
100
AcDbLine
 10
4.199791806336735
 20
4.741768068530319
 30
0.0
 11
4.289791806336735
 21
4.651768068530319
 31
0.0
  0
LINE
  5
10EE
330
1F
100
AcDbEntity
  8
1
100
AcDbLine
 10
4.289791806336735
 20
4.741768068530319
 30
0.0
 11
4.199791806336735
 21
4.741768068530319
 31
0.0
  0
LINE
  5
10EF
330
1F
100
AcDbEntity
  8
1
100
AcDbLine
 10
4.199791806336735
 20
4.831768068530319
 30
0.0
 11
4.289791806336735
 21
4.741768068530319
 31
0.0
  0
LINE
  5
10F0
330
1F
100
AcDbEntity
  8
1
100
AcDbLine
 10
4.199791806336735
 20
3.491768068530319
 30
0.0
 11
4.289791806336735
 21
3.401768068530319
 31
0.0
  0
LINE
  5
10F1
330
1F
100
AcDbEntity
  8
1
100
AcDbLine
 10
4.289791806336735
 20
3.491768068530319
 30
0.0
 11
4.199791806336735
 21
3.491768068530319
 31
0.0
  0
LINE
  5
10F2
330
1F
100
AcDbEntity
  8
1
100
AcDbLine
 10
4.199791806336735
 20
3.581768068530319
 30
0.0
 11
4.289791806336735
 21
3.491768068530319
 31
0.0
  0
LINE
  5
10F3
330
1F
100
AcDbEntity
  8
1
100
AcDbLine
 10
4.244791806336735
 20
6.31679388921874
 30
0.0
 11
4.244791806336736
 21
6.036768068530319
 31
0.0
  0
LINE
  5
10F4
330
1F
100
AcDbEntity
  8
1
100
AcDbLine
 10
4.244791806336736
 20
5.946768068530321
 30
0.0
 11
4.244791806336736
 21
4.786768068530319
 31
0.0
  0
LINE
  5
10F5
330
1F
100
AcDbEntity
  8
1
100
AcDbLine
 10
4.244791806336736
 20
4.696768068530319
 30
0.0
 11
4.244791806336735
 21
3.536768068530317
 31
0.0
  0
LINE
  5
10F6
330
1F
100
AcDbEntity
  8
1
100
AcDbLine
 10
4.244791806336735
 20
3.446768068530319
 30
0.0
 11
4.244791806336735
 21
3.06679388921874
 31
0.0
  0
LINE
  5
10F7
330
1F
100
AcDbEntity
  8
1
100
AcDbLine
 10
4.324791806336735
 20
4.206768068530319
 30
0.0
 11
4.414791806336735
 21
4.116768068530319
 31
0.0
  0
LINE
  5
10F8
330
1F
100
AcDbEntity
  8
1
100
AcDbLine
 10
4.414791806336735
 20
4.116768068530319
 30
0.0
 11
4.324791806336735
 21
4.116768068530319
 31
0.0
  0
LINE
  5
10F9
330
1F
100
AcDbEntity
  8
1
100
AcDbLine
 10
4.324791806336735
 20
4.116768068530319
 30
0.0
 11
4.414791806336735
 21
4.026768068530319
 31
0.0
  0
LINE
  5
10FA
330
1F
100
AcDbEntity
  8
1
100
AcDbLine
 10
4.324791806336735
 20
5.446768068530319
 30
0.0
 11
4.414791806336735
 21
5.356768068530319
 31
0.0
  0
LINE
  5
10FB
330
1F
100
AcDbEntity
  8
1
100
AcDbLine
 10
4.414791806336735
 20
5.356768068530319
 30
0.0
 11
4.324791806336735
 21
5.356768068530319
 31
0.0
  0
LINE
  5
10FC
330
1F
100
AcDbEntity
  8
1
100
AcDbLine
 10
4.324791806336735
 20
5.356768068530319
 30
0.0
 11
4.414791806336735
 21
5.266768068530319
 31
0.0
  0
LINE
  5
10FD
330
1F
100
AcDbEntity
  8
1
100
AcDbLine
 10
4.369791806336735
 20
6.31679388921874
 30
0.0
 11
4.369791806336736
 21
5.401768068530319
 31
0.0
  0
LINE
  5
10FE
330
1F
100
AcDbEntity
  8
1
100
AcDbLine
 10
4.369791806336736
 20
5.311768068530319
 30
0.0
 11
4.369791806336736
 21
4.161768068530319
 31
0.0
  0
LINE
  5
10FF
330
1F
100
AcDbEntity
  8
1
100
AcDbLine
 10
4.369791806336736
 20
4.071768068530319
 30
0.0
 11
4.369791806336735
 21
3.06679388921874
 31
0.0
  0
LINE
  5
112D
330
1F
100
AcDbEntity
  8
1
100
AcDbLine
 10
2.786454206336728
 20
4.671006843109388
 30
0.0
 11
3.328129406336742
 21
4.671006843109388
 31
0.0
  0
LINE
  5
112E
330
1F
100
AcDbEntity
  8
1
100
AcDbLine
 10
2.786454206336728
 20
4.712669243109381
 30
0.0
 11
3.328129406336742
 21
4.712669243109381
 31
0.0
  0
LINE
  5
112F
330
1F
100
AcDbEntity
  8
1
100
AcDbLine
 10
3.411454206336728
 20
4.671006843109388
 30
0.0
 11
3.953129406336742
 21
4.671006843109388
 31
0.0
  0
LINE
  5
1130
330
1F
100
AcDbEntity
  8
1
100
AcDbLine
 10
3.411454206336728
 20
4.712669243109381
 30
0.0
 11
3.953129406336742
 21
4.712669243109381
 31
0.0
  0
LINE
  5
1131
330
1F
100
AcDbEntity
  8
1
100
AcDbLine
 10
4.661454206336728
 20
4.671006843109388
 30
0.0
 11
5.203129406336742
 21
4.671006843109388
 31
0.0
  0
LINE
  5
1132
330
1F
100
AcDbEntity
  8
1
100
AcDbLine
 10
4.661454206336728
 20
4.712669243109381
 30
0.0
 11
5.203129406336742
 21
4.712669243109381
 31
0.0
  0
LINE
  5
1133
330
1F
100
AcDbEntity
  8
1
100
AcDbLine
 10
3.328129406336742
 20
6.150131489218747
 30
0.0
 11
3.328129406336742
 21
4.712669243109381
 31
0.0
  0
LINE
  5
1134
330
1F
100
AcDbEntity
  8
1
100
AcDbLine
 10
2.786454206336728
 20
3.233456289218741
 30
0.0
 11
2.786454206336728
 21
4.671006843109388
 31
0.0
  0
LINE
  5
1135
330
1F
100
AcDbEntity
  8
1
100
AcDbLine
 10
2.786454206336728
 20
4.712669243109381
 30
0.0
 11
2.786454206336728
 21
6.150131489218747
 31
0.0
  0
LINE
  5
1136
330
1F
100
AcDbEntity
  8
1
100
AcDbLine
 10
3.328129406336742
 20
3.233456289218732
 30
0.0
 11
2.786454206336733
 21
3.233456289218732
 31
0.0
  0
LINE
  5
1137
330
1F
100
AcDbEntity
  8
1
100
AcDbLine
 10
3.328129406336742
 20
3.233456289218741
 30
0.0
 11
3.328129406336742
 21
4.671006843109388
 31
0.0
  0
LINE
  5
1138
330
1F
100
AcDbEntity
  8
1
100
AcDbLine
 10
3.328129406336742
 20
6.150131489218747
 30
0.0
 11
2.786454206336733
 21
6.150131489218747
 31
0.0
  0
LINE
  5
1139
330
1F
100
AcDbEntity
  8
1
100
AcDbLine
 10
2.779911777062562
 20
6.116709030670408
 30
0.0
 11
2.751334235610901
 21
6.116709030670408
 31
0.0
  0
LINE
  5
113A
330
1F
100
AcDbEntity
  8
1
100
AcDbLine
 10
2.786454206336728
 20
6.123251459944572
 30
0.0
 11
2.779911777062562
 21
6.123251459944572
 31
0.0
  0
LINE
  5
113B
330
1F
100
AcDbEntity
  8
1
100
AcDbLine
 10
2.751334235610901
 20
6.123251459944572
 30
0.0
 11
2.744791806336735
 21
6.123251459944574
 31
0.0
  0
LINE
  5
113C
330
1F
100
AcDbEntity
  8
1
100
AcDbLine
 10
2.751334235610901
 20
6.123251459944572
 30
0.0
 11
2.751334235610901
 21
6.116709030670408
 31
0.0
  0
LINE
  5
113D
330
1F
100
AcDbEntity
  8
1
100
AcDbLine
 10
2.779911777062562
 20
6.123251459944572
 30
0.0
 11
2.779911777062562
 21
6.116709030670408
 31
0.0
  0
LINE
  5
113E
330
1F
100
AcDbEntity
  8
1
100
AcDbLine
 10
3.334671835610914
 20
6.116709030670408
 30
0.0
 11
3.363249377062575
 21
6.116709030670408
 31
0.0
  0
LINE
  5
113F
330
1F
100
AcDbEntity
  8
1
100
AcDbLine
 10
3.328129406336748
 20
6.123251459944572
 30
0.0
 11
3.334671835610914
 21
6.123251459944572
 31
0.0
  0
LINE
  5
1140
330
1F
100
AcDbEntity
  8
1
100
AcDbLine
 10
3.363249377062575
 20
6.123251459944572
 30
0.0
 11
3.369791806336741
 21
6.123251459944574
 31
0.0
  0
LINE
  5
1141
330
1F
100
AcDbEntity
  8
1
100
AcDbLine
 10
3.363249377062575
 20
6.123251459944572
 30
0.0
 11
3.363249377062575
 21
6.116709030670408
 31
0.0
  0
LINE
  5
1142
330
1F
100
AcDbEntity
  8
1
100
AcDbLine
 10
3.334671835610914
 20
6.123251459944572
 30
0.0
 11
3.334671835610914
 21
6.116709030670408
 31
0.0
  0
LINE
  5
1143
330
1F
100
AcDbEntity
  8
1
100
AcDbLine
 10
2.779911777062562
 20
3.266878747767071
 30
0.0
 11
2.751334235610901
 21
3.266878747767071
 31
0.0
  0
LINE
  5
1144
330
1F
100
AcDbEntity
  8
1
100
AcDbLine
 10
2.786454206336728
 20
3.260336318492907
 30
0.0
 11
2.779911777062562
 21
3.260336318492907
 31
0.0
  0
LINE
  5
1145
330
1F
100
AcDbEntity
  8
1
100
AcDbLine
 10
2.751334235610901
 20
3.260336318492907
 30
0.0
 11
2.744791806336735
 21
3.260336318492905
 31
0.0
  0
LINE
  5
1146
330
1F
100
AcDbEntity
  8
1
100
AcDbLine
 10
2.751334235610901
 20
3.260336318492907
 30
0.0
 11
2.751334235610901
 21
3.266878747767071
 31
0.0
  0
LINE
  5
1147
330
1F
100
AcDbEntity
  8
1
100
AcDbLine
 10
2.779911777062562
 20
3.260336318492907
 30
0.0
 11
2.779911777062562
 21
3.266878747767071
 31
0.0
  0
LINE
  5
1148
330
1F
100
AcDbEntity
  8
1
100
AcDbLine
 10
3.334671835610914
 20
3.266878747767071
 30
0.0
 11
3.363249377062575
 21
3.266878747767071
 31
0.0
  0
LINE
  5
1149
330
1F
100
AcDbEntity
  8
1
100
AcDbLine
 10
3.328129406336748
 20
3.260336318492907
 30
0.0
 11
3.334671835610914
 21
3.260336318492907
 31
0.0
  0
LINE
  5
114A
330
1F
100
AcDbEntity
  8
1
100
AcDbLine
 10
3.363249377062575
 20
3.260336318492907
 30
0.0
 11
3.369791806336741
 21
3.260336318492905
 31
0.0
  0
LINE
  5
114B
330
1F
100
AcDbEntity
  8
1
100
AcDbLine
 10
3.363249377062575
 20
3.260336318492907
 30
0.0
 11
3.363249377062575
 21
3.266878747767071
 31
0.0
  0
LINE
  5
114C
330
1F
100
AcDbEntity
  8
1
100
AcDbLine
 10
3.334671835610914
 20
3.260336318492907
 30
0.0
 11
3.334671835610914
 21
3.266878747767071
 31
0.0
  0
LINE
  5
114D
330
1F
100
AcDbEntity
  8
4
100
AcDbLine
 10
2.818454206336725
 20
4.733006843109386
 30
0.0
 11
3.296129406336739
 21
4.733006843109386
 31
0.0
  0
LINE
  5
1176
330
1F
100
AcDbEntity
  8
4
100
AcDbLine
 10
3.296129406336742
 20
3.253793889218739
 30
0.0
 11
3.296129406336742
 21
4.650602254128155
 31
0.0
  0
LINE
  5
1177
330
1F
100
AcDbEntity
  8
4
100
AcDbLine
 10
2.818454206336728
 20
4.65058093532809
 30
0.0
 11
2.818454206336728
 21
3.253793889218739
 31
0.0
  0
LINE
  5
1178
330
1F
100
AcDbEntity
  8
4
100
AcDbLine
 10
3.309982025979691
 20
3.523291788066382
 30
0.0
 11
3.279608271841358
 21
3.523291788066382
 31
0.0
  0
LINE
  5
1179
330
1F
100
AcDbEntity
  8
4
100
AcDbLine
 10
3.289398824059472
 20
3.485352841885879
 30
0.0
 11
3.296129406336742
 21
3.485352841885879
 31
0.0
  0
LINE
  5
117A
330
1F
100
AcDbEntity
  8
4
100
AcDbLine
 10
3.296129406336742
 20
3.56428421586475
 30
0.0
 11
3.289398824059472
 21
3.56428421586475
 31
0.0
  0
LINE
  5
117B
330
1F
100
AcDbEntity
  8
4
100
AcDbLine
 10
3.289398824059472
 20
3.56428421586475
 30
0.0
 11
3.289398824059472
 21
3.485352841885879
 31
0.0
  0
LINE
  5
117C
330
1F
100
AcDbEntity
  8
4
100
AcDbLine
 10
3.289398824059476
 20
4.420801636738975
 30
0.0
 11
3.289398824059472
 21
4.341870262760103
 31
0.0
  0
LINE
  5
117D
330
1F
100
AcDbEntity
  8
4
100
AcDbLine
 10
3.289398824059472
 20
4.341870262760103
 30
0.0
 11
3.296129406336742
 21
4.341870262760103
 31
0.0
  0
LINE
  5
117E
330
1F
100
AcDbEntity
  8
4
100
AcDbLine
 10
3.296129406336742
 20
4.420801636738975
 30
0.0
 11
3.289398824059476
 21
4.420801636738975
 31
0.0
  0
LINE
  5
117F
330
1F
100
AcDbEntity
  8
4
100
AcDbLine
 10
3.301763201038984
 20
4.379809208940603
 30
0.0
 11
3.281216327426139
 21
4.379809208940603
 31
0.0
  0
LINE
  5
1185
330
1F
100
AcDbEntity
  8
4
100
AcDbLine
 10
2.818454206336728
 20
3.253793889218739
 30
0.0
 11
3.296129406336742
 21
3.253793889218739
 31
0.0
  0
LINE
  5
11AE
330
1F
100
AcDbEntity
  8
4
100
AcDbLine
 10
3.296129406336739
 20
4.650690561909446
 30
0.0
 11
2.818454206336725
 21
4.65066924310938
 31
0.0
  0
LINE
  5
11AF
330
1F
100
AcDbEntity
  8
1
100
AcDbLine
 10
2.779911777062557
 20
4.637584384561048
 30
0.0
 11
2.751334235610896
 21
4.637584384561048
 31
0.0
  0
LINE
  5
11B0
330
1F
100
AcDbEntity
  8
1
100
AcDbLine
 10
2.786454206336723
 20
4.644126813835214
 30
0.0
 11
2.779911777062557
 21
4.644126813835214
 31
0.0
  0
LINE
  5
11B1
330
1F
100
AcDbEntity
  8
1
100
AcDbLine
 10
2.751334235610896
 20
4.644126813835214
 30
0.0
 11
2.74479180633673
 21
4.644126813835214
 31
0.0
  0
LINE
  5
11B2
330
1F
100
AcDbEntity
  8
1
100
AcDbLine
 10
2.751334235610896
 20
4.644126813835214
 30
0.0
 11
2.751334235610896
 21
4.637584384561048
 31
0.0
  0
LINE
  5
11B3
330
1F
100
AcDbEntity
  8
1
100
AcDbLine
 10
2.779911777062557
 20
4.644126813835214
 30
0.0
 11
2.779911777062557
 21
4.637584384561048
 31
0.0
  0
LINE
  5
11B4
330
1F
100
AcDbEntity
  8
1
100
AcDbLine
 10
2.779911777062557
 20
4.746091701657718
 30
0.0
 11
2.751334235610896
 21
4.746091701657718
 31
0.0
  0
LINE
  5
11B5
330
1F
100
AcDbEntity
  8
1
100
AcDbLine
 10
2.786454206336723
 20
4.739549272383555
 30
0.0
 11
2.779911777062557
 21
4.739549272383555
 31
0.0
  0
LINE
  5
11B6
330
1F
100
AcDbEntity
  8
1
100
AcDbLine
 10
2.751334235610896
 20
4.739549272383555
 30
0.0
 11
2.74479180633673
 21
4.739549272383552
 31
0.0
  0
LINE
  5
11B7
330
1F
100
AcDbEntity
  8
1
100
AcDbLine
 10
2.751334235610896
 20
4.739549272383555
 30
0.0
 11
2.751334235610896
 21
4.746091701657718
 31
0.0
  0
LINE
  5
11B8
330
1F
100
AcDbEntity
  8
1
100
AcDbLine
 10
2.779911777062557
 20
4.739549272383555
 30
0.0
 11
2.779911777062557
 21
4.746091701657718
 31
0.0
  0
LINE
  5
11B9
330
1F
100
AcDbEntity
  8
1
100
AcDbLine
 10
3.334671835610913
 20
4.637584384561048
 30
0.0
 11
3.363249377062574
 21
4.637584384561048
 31
0.0
  0
LINE
  5
11BA
330
1F
100
AcDbEntity
  8
1
100
AcDbLine
 10
3.328129406336747
 20
4.644126813835214
 30
0.0
 11
3.334671835610913
 21
4.644126813835214
 31
0.0
  0
LINE
  5
11BB
330
1F
100
AcDbEntity
  8
1
100
AcDbLine
 10
3.363249377062574
 20
4.644126813835214
 30
0.0
 11
3.36979180633674
 21
4.644126813835214
 31
0.0
  0
LINE
  5
11BC
330
1F
100
AcDbEntity
  8
1
100
AcDbLine
 10
3.363249377062574
 20
4.644126813835214
 30
0.0
 11
3.363249377062574
 21
4.637584384561048
 31
0.0
  0
LINE
  5
11BD
330
1F
100
AcDbEntity
  8
1
100
AcDbLine
 10
3.334671835610913
 20
4.644126813835214
 30
0.0
 11
3.334671835610913
 21
4.637584384561048
 31
0.0
  0
LINE
  5
11BE
330
1F
100
AcDbEntity
  8
1
100
AcDbLine
 10
3.334671835610913
 20
4.746091701657718
 30
0.0
 11
3.363249377062574
 21
4.746091701657718
 31
0.0
  0
LINE
  5
11BF
330
1F
100
AcDbEntity
  8
1
100
AcDbLine
 10
3.328129406336747
 20
4.739549272383555
 30
0.0
 11
3.334671835610913
 21
4.739549272383555
 31
0.0
  0
LINE
  5
11C0
330
1F
100
AcDbEntity
  8
1
100
AcDbLine
 10
3.363249377062574
 20
4.739549272383555
 30
0.0
 11
3.36979180633674
 21
4.739549272383552
 31
0.0
  0
LINE
  5
11C1
330
1F
100
AcDbEntity
  8
1
100
AcDbLine
 10
3.363249377062574
 20
4.739549272383555
 30
0.0
 11
3.363249377062574
 21
4.746091701657718
 31
0.0
  0
LINE
  5
11C2
330
1F
100
AcDbEntity
  8
1
100
AcDbLine
 10
3.334671835610913
 20
4.739549272383555
 30
0.0
 11
3.334671835610913
 21
4.746091701657718
 31
0.0
  0
LINE
  5
11C3
330
1F
100
AcDbEntity
  8
1
100
AcDbLine
 10
3.953129406336742
 20
6.150131489218747
 30
0.0
 11
3.953129406336742
 21
4.712669243109381
 31
0.0
  0
LINE
  5
11C4
330
1F
100
AcDbEntity
  8
1
100
AcDbLine
 10
3.411454206336728
 20
3.233456289218741
 30
0.0
 11
3.411454206336728
 21
4.671006843109388
 31
0.0
  0
LINE
  5
11C5
330
1F
100
AcDbEntity
  8
1
100
AcDbLine
 10
3.411454206336728
 20
4.712669243109381
 30
0.0
 11
3.411454206336728
 21
6.150131489218747
 31
0.0
  0
LINE
  5
11C6
330
1F
100
AcDbEntity
  8
1
100
AcDbLine
 10
3.953129406336742
 20
3.233456289218732
 30
0.0
 11
3.411454206336733
 21
3.233456289218732
 31
0.0
  0
LINE
  5
11C7
330
1F
100
AcDbEntity
  8
1
100
AcDbLine
 10
3.953129406336742
 20
3.233456289218741
 30
0.0
 11
3.953129406336742
 21
4.671006843109388
 31
0.0
  0
LINE
  5
11C8
330
1F
100
AcDbEntity
  8
1
100
AcDbLine
 10
3.953129406336742
 20
6.150131489218747
 30
0.0
 11
3.411454206336733
 21
6.150131489218747
 31
0.0
  0
LINE
  5
11C9
330
1F
100
AcDbEntity
  8
1
100
AcDbLine
 10
5.203129406336742
 20
6.150131489218747
 30
0.0
 11
5.203129406336742
 21
4.712669243109381
 31
0.0
  0
LINE
  5
11CA
330
1F
100
AcDbEntity
  8
1
100
AcDbLine
 10
4.661454206336728
 20
3.233456289218741
 30
0.0
 11
4.661454206336728
 21
4.671006843109388
 31
0.0
  0
LINE
  5
11CB
330
1F
100
AcDbEntity
  8
1
100
AcDbLine
 10
4.661454206336728
 20
4.712669243109381
 30
0.0
 11
4.661454206336728
 21
6.150131489218747
 31
0.0
  0
LINE
  5
11CC
330
1F
100
AcDbEntity
  8
1
100
AcDbLine
 10
5.203129406336742
 20
3.233456289218732
 30
0.0
 11
4.661454206336733
 21
3.233456289218732
 31
0.0
  0
LINE
  5
11CD
330
1F
100
AcDbEntity
  8
1
100
AcDbLine
 10
5.203129406336742
 20
3.233456289218741
 30
0.0
 11
5.203129406336742
 21
4.671006843109388
 31
0.0
  0
LINE
  5
11CE
330
1F
100
AcDbEntity
  8
1
100
AcDbLine
 10
5.203129406336742
 20
6.150131489218747
 30
0.0
 11
4.661454206336733
 21
6.150131489218747
 31
0.0
  0
LINE
  5
11CF
330
1F
100
AcDbEntity
  8
1
100
AcDbLine
 10
4.578129406336742
 20
6.150131489218747
 30
0.0
 11
4.578129406336742
 21
4.712669243109381
 31
0.0
  0
LINE
  5
11D0
330
1F
100
AcDbEntity
  8
1
100
AcDbLine
 10
4.036454206336728
 20
3.233456289218741
 30
0.0
 11
4.036454206336728
 21
4.671006843109388
 31
0.0
  0
LINE
  5
11D1
330
1F
100
AcDbEntity
  8
1
100
AcDbLine
 10
4.036454206336728
 20
4.712669243109381
 30
0.0
 11
4.036454206336728
 21
6.150131489218747
 31
0.0
  0
LINE
  5
11D2
330
1F
100
AcDbEntity
  8
1
100
AcDbLine
 10
4.578129406336742
 20
3.233456289218732
 30
0.0
 11
4.369791806336735
 21
3.233456289218732
 31
0.0
  0
LINE
  5
11D3
330
1F
100
AcDbEntity
  8
1
100
AcDbLine
 10
4.244791806336735
 20
3.233456289218732
 30
0.0
 11
4.036454206336733
 21
3.233456289218732
 31
0.0
  0
LINE
  5
11D4
330
1F
100
AcDbEntity
  8
1
100
AcDbLine
 10
4.578129406336742
 20
3.233456289218741
 30
0.0
 11
4.578129406336742
 21
4.671006843109388
 31
0.0
  0
LINE
  5
11D5
330
1F
100
AcDbEntity
  8
1
100
AcDbLine
 10
4.578129406336742
 20
6.150131489218747
 30
0.0
 11
4.369791806336734
 21
6.150131489218747
 31
0.0
  0
LINE
  5
11D6
330
1F
100
AcDbEntity
  8
1
100
AcDbLine
 10
4.244791806336734
 20
6.150131489218747
 30
0.0
 11
4.036454206336733
 21
6.150131489218747
 31
0.0
  0
LINE
  5
11D7
330
1F
100
AcDbEntity
  8
1
100
AcDbLine
 10
4.036454206336728
 20
4.671006843109388
 30
0.0
 11
4.244791806336735
 21
4.671006843109386
 31
0.0
  0
LINE
  5
11D8
330
1F
100
AcDbEntity
  8
1
100
AcDbLine
 10
4.369791806336736
 20
4.671006843109388
 30
0.0
 11
4.578129406336742
 21
4.671006843109388
 31
0.0
  0
LINE
  5
11D9
330
1F
100
AcDbEntity
  8
1
100
AcDbLine
 10
4.036454206336728
 20
4.712669243109381
 30
0.0
 11
4.228890631757674
 21
4.712669243109381
 31
0.0
  0
LINE
  5
11DA
330
1F
100
AcDbEntity
  8
1
100
AcDbLine
 10
4.369791806336736
 20
4.712669243109381
 30
0.0
 11
4.578129406336742
 21
4.712669243109381
 31
0.0
  0
LINE
  5
11DB
330
1F
100
AcDbEntity
  8
1
100
AcDbLine
 10
3.404911777062562
 20
3.266878747767071
 30
0.0
 11
3.376334235610901
 21
3.266878747767071
 31
0.0
  0
LINE
  5
11DC
330
1F
100
AcDbEntity
  8
1
100
AcDbLine
 10
3.411454206336728
 20
3.260336318492907
 30
0.0
 11
3.404911777062562
 21
3.260336318492907
 31
0.0
  0
LINE
  5
11DD
330
1F
100
AcDbEntity
  8
1
100
AcDbLine
 10
3.376334235610901
 20
3.260336318492907
 30
0.0
 11
3.369791806336735
 21
3.260336318492905
 31
0.0
  0
LINE
  5
11DE
330
1F
100
AcDbEntity
  8
1
100
AcDbLine
 10
3.376334235610901
 20
3.260336318492907
 30
0.0
 11
3.376334235610901
 21
3.266878747767071
 31
0.0
  0
LINE
  5
11DF
330
1F
100
AcDbEntity
  8
1
100
AcDbLine
 10
3.404911777062562
 20
3.260336318492907
 30
0.0
 11
3.404911777062562
 21
3.266878747767071
 31
0.0
  0
LINE
  5
11E0
330
1F
100
AcDbEntity
  8
1
100
AcDbLine
 10
3.959671835610913
 20
3.266878747767071
 30
0.0
 11
3.988249377062574
 21
3.266878747767071
 31
0.0
  0
LINE
  5
11E1
330
1F
100
AcDbEntity
  8
1
100
AcDbLine
 10
3.953129406336747
 20
3.260336318492907
 30
0.0
 11
3.959671835610913
 21
3.260336318492907
 31
0.0
  0
LINE
  5
11E2
330
1F
100
AcDbEntity
  8
1
100
AcDbLine
 10
3.988249377062574
 20
3.260336318492907
 30
0.0
 11
3.99479180633674
 21
3.260336318492905
 31
0.0
  0
LINE
  5
11E3
330
1F
100
AcDbEntity
  8
1
100
AcDbLine
 10
3.988249377062574
 20
3.260336318492907
 30
0.0
 11
3.988249377062574
 21
3.266878747767071
 31
0.0
  0
LINE
  5
11E4
330
1F
100
AcDbEntity
  8
1
100
AcDbLine
 10
3.959671835610913
 20
3.260336318492907
 30
0.0
 11
3.959671835610913
 21
3.266878747767071
 31
0.0
  0
LINE
  5
11E5
330
1F
100
AcDbEntity
  8
1
100
AcDbLine
 10
4.029911777062562
 20
3.266878747767071
 30
0.0
 11
4.001334235610901
 21
3.266878747767071
 31
0.0
  0
LINE
  5
11E6
330
1F
100
AcDbEntity
  8
1
100
AcDbLine
 10
4.036454206336728
 20
3.260336318492907
 30
0.0
 11
4.029911777062562
 21
3.260336318492907
 31
0.0
  0
LINE
  5
11E7
330
1F
100
AcDbEntity
  8
1
100
AcDbLine
 10
4.001334235610901
 20
3.260336318492907
 30
0.0
 11
3.994791806336735
 21
3.260336318492905
 31
0.0
  0
LINE
  5
11E8
330
1F
100
AcDbEntity
  8
1
100
AcDbLine
 10
4.001334235610901
 20
3.260336318492907
 30
0.0
 11
4.001334235610901
 21
3.266878747767071
 31
0.0
  0
LINE
  5
11E9
330
1F
100
AcDbEntity
  8
1
100
AcDbLine
 10
4.029911777062562
 20
3.260336318492907
 30
0.0
 11
4.029911777062562
 21
3.266878747767071
 31
0.0
  0
LINE
  5
11EA
330
1F
100
AcDbEntity
  8
1
100
AcDbLine
 10
4.584671835610913
 20
3.266878747767071
 30
0.0
 11
4.613249377062574
 21
3.266878747767071
 31
0.0
  0
LINE
  5
11EB
330
1F
100
AcDbEntity
  8
1
100
AcDbLine
 10
4.578129406336747
 20
3.260336318492907
 30
0.0
 11
4.584671835610913
 21
3.260336318492907
 31
0.0
  0
LINE
  5
11EC
330
1F
100
AcDbEntity
  8
1
100
AcDbLine
 10
4.613249377062574
 20
3.260336318492907
 30
0.0
 11
4.61979180633674
 21
3.260336318492905
 31
0.0
  0
LINE
  5
11ED
330
1F
100
AcDbEntity
  8
1
100
AcDbLine
 10
4.613249377062574
 20
3.260336318492907
 30
0.0
 11
4.613249377062574
 21
3.266878747767071
 31
0.0
  0
LINE
  5
11EE
330
1F
100
AcDbEntity
  8
1
100
AcDbLine
 10
4.584671835610913
 20
3.260336318492907
 30
0.0
 11
4.584671835610913
 21
3.266878747767071
 31
0.0
  0
LINE
  5
11EF
330
1F
100
AcDbEntity
  8
1
100
AcDbLine
 10
4.654911777062562
 20
3.266878747767071
 30
0.0
 11
4.626334235610901
 21
3.266878747767071
 31
0.0
  0
LINE
  5
11F0
330
1F
100
AcDbEntity
  8
1
100
AcDbLine
 10
4.661454206336728
 20
3.260336318492907
 30
0.0
 11
4.654911777062562
 21
3.260336318492907
 31
0.0
  0
LINE
  5
11F1
330
1F
100
AcDbEntity
  8
1
100
AcDbLine
 10
4.626334235610901
 20
3.260336318492907
 30
0.0
 11
4.619791806336735
 21
3.260336318492905
 31
0.0
  0
LINE
  5
11F2
330
1F
100
AcDbEntity
  8
1
100
AcDbLine
 10
4.626334235610901
 20
3.260336318492907
 30
0.0
 11
4.626334235610901
 21
3.266878747767071
 31
0.0
  0
LINE
  5
11F3
330
1F
100
AcDbEntity
  8
1
100
AcDbLine
 10
4.654911777062562
 20
3.260336318492907
 30
0.0
 11
4.654911777062562
 21
3.266878747767071
 31
0.0
  0
LINE
  5
11F4
330
1F
100
AcDbEntity
  8
1
100
AcDbLine
 10
5.209671835610913
 20
3.266878747767071
 30
0.0
 11
5.238249377062574
 21
3.266878747767071
 31
0.0
  0
LINE
  5
11F5
330
1F
100
AcDbEntity
  8
1
100
AcDbLine
 10
5.203129406336747
 20
3.260336318492907
 30
0.0
 11
5.209671835610913
 21
3.260336318492907
 31
0.0
  0
LINE
  5
11F6
330
1F
100
AcDbEntity
  8
1
100
AcDbLine
 10
5.238249377062574
 20
3.260336318492907
 30
0.0
 11
5.24479180633674
 21
3.260336318492905
 31
0.0
  0
LINE
  5
11F7
330
1F
100
AcDbEntity
  8
1
100
AcDbLine
 10
5.238249377062574
 20
3.260336318492907
 30
0.0
 11
5.238249377062574
 21
3.266878747767071
 31
0.0
  0
LINE
  5
11F8
330
1F
100
AcDbEntity
  8
1
100
AcDbLine
 10
5.209671835610913
 20
3.260336318492907
 30
0.0
 11
5.209671835610913
 21
3.266878747767071
 31
0.0
  0
LINE
  5
11F9
330
1F
100
AcDbEntity
  8
1
100
AcDbLine
 10
3.404911777062562
 20
6.116709030670408
 30
0.0
 11
3.376334235610901
 21
6.116709030670408
 31
0.0
  0
LINE
  5
11FA
330
1F
100
AcDbEntity
  8
1
100
AcDbLine
 10
3.411454206336728
 20
6.123251459944572
 30
0.0
 11
3.404911777062562
 21
6.123251459944572
 31
0.0
  0
LINE
  5
11FB
330
1F
100
AcDbEntity
  8
1
100
AcDbLine
 10
3.376334235610901
 20
6.123251459944572
 30
0.0
 11
3.369791806336735
 21
6.123251459944574
 31
0.0
  0
LINE
  5
11FC
330
1F
100
AcDbEntity
  8
1
100
AcDbLine
 10
3.376334235610901
 20
6.123251459944572
 30
0.0
 11
3.376334235610901
 21
6.116709030670408
 31
0.0
  0
LINE
  5
11FD
330
1F
100
AcDbEntity
  8
1
100
AcDbLine
 10
3.404911777062562
 20
6.123251459944572
 30
0.0
 11
3.404911777062562
 21
6.116709030670408
 31
0.0
  0
LINE
  5
11FE
330
1F
100
AcDbEntity
  8
1
100
AcDbLine
 10
3.959671835610913
 20
6.116709030670408
 30
0.0
 11
3.988249377062574
 21
6.116709030670408
 31
0.0
  0
LINE
  5
11FF
330
1F
100
AcDbEntity
  8
1
100
AcDbLine
 10
3.953129406336747
 20
6.123251459944572
 30
0.0
 11
3.959671835610913
 21
6.123251459944572
 31
0.0
  0
LINE
  5
1200
330
1F
100
AcDbEntity
  8
1
100
AcDbLine
 10
3.988249377062574
 20
6.123251459944572
 30
0.0
 11
3.99479180633674
 21
6.123251459944574
 31
0.0
  0
LINE
  5
1201
330
1F
100
AcDbEntity
  8
1
100
AcDbLine
 10
3.988249377062574
 20
6.123251459944572
 30
0.0
 11
3.988249377062574
 21
6.116709030670408
 31
0.0
  0
LINE
  5
1202
330
1F
100
AcDbEntity
  8
1
100
AcDbLine
 10
3.959671835610913
 20
6.123251459944572
 30
0.0
 11
3.959671835610913
 21
6.116709030670408
 31
0.0
  0
LINE
  5
1203
330
1F
100
AcDbEntity
  8
1
100
AcDbLine
 10
4.029911777062562
 20
6.116709030670408
 30
0.0
 11
4.001334235610901
 21
6.116709030670408
 31
0.0
  0
LINE
  5
1204
330
1F
100
AcDbEntity
  8
1
100
AcDbLine
 10
4.036454206336728
 20
6.123251459944572
 30
0.0
 11
4.029911777062562
 21
6.123251459944572
 31
0.0
  0
LINE
  5
1205
330
1F
100
AcDbEntity
  8
1
100
AcDbLine
 10
4.001334235610901
 20
6.123251459944572
 30
0.0
 11
3.994791806336735
 21
6.123251459944574
 31
0.0
  0
LINE
  5
1206
330
1F
100
AcDbEntity
  8
1
100
AcDbLine
 10
4.001334235610901
 20
6.123251459944572
 30
0.0
 11
4.001334235610901
 21
6.116709030670408
 31
0.0
  0
LINE
  5
1207
330
1F
100
AcDbEntity
  8
1
100
AcDbLine
 10
4.029911777062562
 20
6.123251459944572
 30
0.0
 11
4.029911777062562
 21
6.116709030670408
 31
0.0
  0
LINE
  5
1208
330
1F
100
AcDbEntity
  8
1
100
AcDbLine
 10
4.584671835610913
 20
6.116709030670408
 30
0.0
 11
4.613249377062574
 21
6.116709030670408
 31
0.0
  0
LINE
  5
1209
330
1F
100
AcDbEntity
  8
1
100
AcDbLine
 10
4.578129406336747
 20
6.123251459944572
 30
0.0
 11
4.584671835610913
 21
6.123251459944572
 31
0.0
  0
LINE
  5
120A
330
1F
100
AcDbEntity
  8
1
100
AcDbLine
 10
4.613249377062574
 20
6.123251459944572
 30
0.0
 11
4.61979180633674
 21
6.123251459944574
 31
0.0
  0
LINE
  5
120B
330
1F
100
AcDbEntity
  8
1
100
AcDbLine
 10
4.613249377062574
 20
6.123251459944572
 30
0.0
 11
4.613249377062574
 21
6.116709030670408
 31
0.0
  0
LINE
  5
120C
330
1F
100
AcDbEntity
  8
1
100
AcDbLine
 10
4.584671835610913
 20
6.123251459944572
 30
0.0
 11
4.584671835610913
 21
6.116709030670408
 31
0.0
  0
LINE
  5
120D
330
1F
100
AcDbEntity
  8
1
100
AcDbLine
 10
4.654911777062562
 20
6.116709030670408
 30
0.0
 11
4.626334235610901
 21
6.116709030670408
 31
0.0
  0
LINE
  5
120E
330
1F
100
AcDbEntity
  8
1
100
AcDbLine
 10
4.661454206336728
 20
6.123251459944572
 30
0.0
 11
4.654911777062562
 21
6.123251459944572
 31
0.0
  0
LINE
  5
120F
330
1F
100
AcDbEntity
  8
1
100
AcDbLine
 10
4.626334235610901
 20
6.123251459944572
 30
0.0
 11
4.619791806336735
 21
6.123251459944574
 31
0.0
  0
LINE
  5
1210
330
1F
100
AcDbEntity
  8
1
100
AcDbLine
 10
4.626334235610901
 20
6.123251459944572
 30
0.0
 11
4.626334235610901
 21
6.116709030670408
 31
0.0
  0
LINE
  5
1211
330
1F
100
AcDbEntity
  8
1
100
AcDbLine
 10
4.654911777062562
 20
6.123251459944572
 30
0.0
 11
4.654911777062562
 21
6.116709030670408
 31
0.0
  0
LINE
  5
1212
330
1F
100
AcDbEntity
  8
1
100
AcDbLine
 10
5.209671835610913
 20
6.116709030670408
 30
0.0
 11
5.238249377062574
 21
6.116709030670408
 31
0.0
  0
LINE
  5
1213
330
1F
100
AcDbEntity
  8
1
100
AcDbLine
 10
5.203129406336747
 20
6.123251459944572
 30
0.0
 11
5.209671835610913
 21
6.123251459944572
 31
0.0
  0
LINE
  5
1214
330
1F
100
AcDbEntity
  8
1
100
AcDbLine
 10
5.238249377062574
 20
6.123251459944572
 30
0.0
 11
5.24479180633674
 21
6.123251459944574
 31
0.0
  0
LINE
  5
1215
330
1F
100
AcDbEntity
  8
1
100
AcDbLine
 10
5.238249377062574
 20
6.123251459944572
 30
0.0
 11
5.238249377062574
 21
6.116709030670408
 31
0.0
  0
LINE
  5
1216
330
1F
100
AcDbEntity
  8
1
100
AcDbLine
 10
5.209671835610913
 20
6.123251459944572
 30
0.0
 11
5.209671835610913
 21
6.116709030670408
 31
0.0
  0
LINE
  5
1217
330
1F
100
AcDbEntity
  8
1
100
AcDbLine
 10
3.404911777062557
 20
4.637584384561048
 30
0.0
 11
3.376334235610896
 21
4.637584384561048
 31
0.0
  0
LINE
  5
1218
330
1F
100
AcDbEntity
  8
1
100
AcDbLine
 10
3.411454206336723
 20
4.644126813835214
 30
0.0
 11
3.404911777062557
 21
4.644126813835214
 31
0.0
  0
LINE
  5
1219
330
1F
100
AcDbEntity
  8
1
100
AcDbLine
 10
3.376334235610896
 20
4.644126813835214
 30
0.0
 11
3.36979180633673
 21
4.644126813835214
 31
0.0
  0
LINE
  5
121A
330
1F
100
AcDbEntity
  8
1
100
AcDbLine
 10
3.376334235610896
 20
4.644126813835214
 30
0.0
 11
3.376334235610896
 21
4.637584384561048
 31
0.0
  0
LINE
  5
121B
330
1F
100
AcDbEntity
  8
1
100
AcDbLine
 10
3.404911777062557
 20
4.644126813835214
 30
0.0
 11
3.404911777062557
 21
4.637584384561048
 31
0.0
  0
LINE
  5
121C
330
1F
100
AcDbEntity
  8
1
100
AcDbLine
 10
3.404911777062557
 20
4.746091701657718
 30
0.0
 11
3.376334235610896
 21
4.746091701657718
 31
0.0
  0
LINE
  5
121D
330
1F
100
AcDbEntity
  8
1
100
AcDbLine
 10
3.411454206336723
 20
4.739549272383555
 30
0.0
 11
3.404911777062557
 21
4.739549272383555
 31
0.0
  0
LINE
  5
121E
330
1F
100
AcDbEntity
  8
1
100
AcDbLine
 10
3.376334235610896
 20
4.739549272383555
 30
0.0
 11
3.36979180633673
 21
4.739549272383552
 31
0.0
  0
LINE
  5
121F
330
1F
100
AcDbEntity
  8
1
100
AcDbLine
 10
3.376334235610896
 20
4.739549272383555
 30
0.0
 11
3.376334235610896
 21
4.746091701657718
 31
0.0
  0
LINE
  5
1220
330
1F
100
AcDbEntity
  8
1
100
AcDbLine
 10
3.404911777062557
 20
4.739549272383555
 30
0.0
 11
3.404911777062557
 21
4.746091701657718
 31
0.0
  0
LINE
  5
1221
330
1F
100
AcDbEntity
  8
1
100
AcDbLine
 10
3.959671835610913
 20
4.637584384561048
 30
0.0
 11
3.988249377062574
 21
4.637584384561048
 31
0.0
  0
LINE
  5
1222
330
1F
100
AcDbEntity
  8
1
100
AcDbLine
 10
3.953129406336747
 20
4.644126813835214
 30
0.0
 11
3.959671835610913
 21
4.644126813835214
 31
0.0
  0
LINE
  5
1223
330
1F
100
AcDbEntity
  8
1
100
AcDbLine
 10
3.988249377062574
 20
4.644126813835214
 30
0.0
 11
3.99479180633674
 21
4.644126813835214
 31
0.0
  0
LINE
  5
1224
330
1F
100
AcDbEntity
  8
1
100
AcDbLine
 10
3.988249377062574
 20
4.644126813835214
 30
0.0
 11
3.988249377062574
 21
4.637584384561048
 31
0.0
  0
LINE
  5
1225
330
1F
100
AcDbEntity
  8
1
100
AcDbLine
 10
3.959671835610913
 20
4.644126813835214
 30
0.0
 11
3.959671835610913
 21
4.637584384561048
 31
0.0
  0
LINE
  5
1226
330
1F
100
AcDbEntity
  8
1
100
AcDbLine
 10
3.959671835610913
 20
4.746091701657718
 30
0.0
 11
3.988249377062574
 21
4.746091701657718
 31
0.0
  0
LINE
  5
1227
330
1F
100
AcDbEntity
  8
1
100
AcDbLine
 10
3.953129406336747
 20
4.739549272383555
 30
0.0
 11
3.959671835610913
 21
4.739549272383555
 31
0.0
  0
LINE
  5
1228
330
1F
100
AcDbEntity
  8
1
100
AcDbLine
 10
3.988249377062574
 20
4.739549272383555
 30
0.0
 11
3.99479180633674
 21
4.739549272383552
 31
0.0
  0
LINE
  5
1229
330
1F
100
AcDbEntity
  8
1
100
AcDbLine
 10
3.988249377062574
 20
4.739549272383555
 30
0.0
 11
3.988249377062574
 21
4.746091701657718
 31
0.0
  0
LINE
  5
122A
330
1F
100
AcDbEntity
  8
1
100
AcDbLine
 10
3.959671835610913
 20
4.739549272383555
 30
0.0
 11
3.959671835610913
 21
4.746091701657718
 31
0.0
  0
LINE
  5
122B
330
1F
100
AcDbEntity
  8
1
100
AcDbLine
 10
4.029911777062556
 20
4.637584384561048
 30
0.0
 11
4.001334235610896
 21
4.637584384561048
 31
0.0
  0
LINE
  5
122C
330
1F
100
AcDbEntity
  8
1
100
AcDbLine
 10
4.036454206336722
 20
4.644126813835214
 30
0.0
 11
4.029911777062556
 21
4.644126813835214
 31
0.0
  0
LINE
  5
122D
330
1F
100
AcDbEntity
  8
1
100
AcDbLine
 10
4.001334235610896
 20
4.644126813835214
 30
0.0
 11
3.99479180633673
 21
4.644126813835214
 31
0.0
  0
LINE
  5
122E
330
1F
100
AcDbEntity
  8
1
100
AcDbLine
 10
4.001334235610896
 20
4.644126813835214
 30
0.0
 11
4.001334235610896
 21
4.637584384561048
 31
0.0
  0
LINE
  5
122F
330
1F
100
AcDbEntity
  8
1
100
AcDbLine
 10
4.029911777062556
 20
4.644126813835214
 30
0.0
 11
4.029911777062556
 21
4.637584384561048
 31
0.0
  0
LINE
  5
1230
330
1F
100
AcDbEntity
  8
1
100
AcDbLine
 10
4.029911777062556
 20
4.746091701657718
 30
0.0
 11
4.001334235610896
 21
4.746091701657718
 31
0.0
  0
LINE
  5
1231
330
1F
100
AcDbEntity
  8
1
100
AcDbLine
 10
4.036454206336722
 20
4.739549272383555
 30
0.0
 11
4.029911777062556
 21
4.739549272383555
 31
0.0
  0
LINE
  5
1232
330
1F
100
AcDbEntity
  8
1
100
AcDbLine
 10
4.001334235610896
 20
4.739549272383555
 30
0.0
 11
3.99479180633673
 21
4.739549272383552
 31
0.0
  0
LINE
  5
1233
330
1F
100
AcDbEntity
  8
1
100
AcDbLine
 10
4.001334235610896
 20
4.739549272383555
 30
0.0
 11
4.001334235610896
 21
4.746091701657718
 31
0.0
  0
LINE
  5
1234
330
1F
100
AcDbEntity
  8
1
100
AcDbLine
 10
4.029911777062556
 20
4.739549272383555
 30
0.0
 11
4.029911777062556
 21
4.746091701657718
 31
0.0
  0
LINE
  5
1235
330
1F
100
AcDbEntity
  8
1
100
AcDbLine
 10
4.584671835610913
 20
4.637584384561048
 30
0.0
 11
4.613249377062574
 21
4.637584384561048
 31
0.0
  0
LINE
  5
1236
330
1F
100
AcDbEntity
  8
1
100
AcDbLine
 10
4.578129406336747
 20
4.644126813835214
 30
0.0
 11
4.584671835610913
 21
4.644126813835214
 31
0.0
  0
LINE
  5
1237
330
1F
100
AcDbEntity
  8
1
100
AcDbLine
 10
4.613249377062574
 20
4.644126813835214
 30
0.0
 11
4.61979180633674
 21
4.644126813835214
 31
0.0
  0
LINE
  5
1238
330
1F
100
AcDbEntity
  8
1
100
AcDbLine
 10
4.613249377062574
 20
4.644126813835214
 30
0.0
 11
4.613249377062574
 21
4.637584384561048
 31
0.0
  0
LINE
  5
1239
330
1F
100
AcDbEntity
  8
1
100
AcDbLine
 10
4.584671835610913
 20
4.644126813835214
 30
0.0
 11
4.584671835610913
 21
4.637584384561048
 31
0.0
  0
LINE
  5
123A
330
1F
100
AcDbEntity
  8
1
100
AcDbLine
 10
4.584671835610913
 20
4.746091701657718
 30
0.0
 11
4.613249377062574
 21
4.746091701657718
 31
0.0
  0
LINE
  5
123B
330
1F
100
AcDbEntity
  8
1
100
AcDbLine
 10
4.578129406336747
 20
4.739549272383555
 30
0.0
 11
4.584671835610913
 21
4.739549272383555
 31
0.0
  0
LINE
  5
123C
330
1F
100
AcDbEntity
  8
1
100
AcDbLine
 10
4.613249377062574
 20
4.739549272383555
 30
0.0
 11
4.61979180633674
 21
4.739549272383552
 31
0.0
  0
LINE
  5
123D
330
1F
100
AcDbEntity
  8
1
100
AcDbLine
 10
4.613249377062574
 20
4.739549272383555
 30
0.0
 11
4.613249377062574
 21
4.746091701657718
 31
0.0
  0
LINE
  5
123E
330
1F
100
AcDbEntity
  8
1
100
AcDbLine
 10
4.584671835610913
 20
4.739549272383555
 30
0.0
 11
4.584671835610913
 21
4.746091701657718
 31
0.0
  0
LINE
  5
123F
330
1F
100
AcDbEntity
  8
1
100
AcDbLine
 10
4.654911777062556
 20
4.637584384561048
 30
0.0
 11
4.626334235610896
 21
4.637584384561048
 31
0.0
  0
LINE
  5
1240
330
1F
100
AcDbEntity
  8
1
100
AcDbLine
 10
4.661454206336722
 20
4.644126813835214
 30
0.0
 11
4.654911777062556
 21
4.644126813835214
 31
0.0
  0
LINE
  5
1241
330
1F
100
AcDbEntity
  8
1
100
AcDbLine
 10
4.626334235610896
 20
4.644126813835214
 30
0.0
 11
4.61979180633673
 21
4.644126813835214
 31
0.0
  0
LINE
  5
1242
330
1F
100
AcDbEntity
  8
1
100
AcDbLine
 10
4.626334235610896
 20
4.644126813835214
 30
0.0
 11
4.626334235610896
 21
4.637584384561048
 31
0.0
  0
LINE
  5
1243
330
1F
100
AcDbEntity
  8
1
100
AcDbLine
 10
4.654911777062556
 20
4.644126813835214
 30
0.0
 11
4.654911777062556
 21
4.637584384561048
 31
0.0
  0
LINE
  5
1244
330
1F
100
AcDbEntity
  8
1
100
AcDbLine
 10
4.654911777062556
 20
4.746091701657718
 30
0.0
 11
4.626334235610896
 21
4.746091701657718
 31
0.0
  0
LINE
  5
1245
330
1F
100
AcDbEntity
  8
1
100
AcDbLine
 10
4.661454206336722
 20
4.739549272383555
 30
0.0
 11
4.654911777062556
 21
4.739549272383555
 31
0.0
  0
LINE
  5
1246
330
1F
100
AcDbEntity
  8
1
100
AcDbLine
 10
4.626334235610896
 20
4.739549272383555
 30
0.0
 11
4.61979180633673
 21
4.739549272383552
 31
0.0
  0
LINE
  5
1247
330
1F
100
AcDbEntity
  8
1
100
AcDbLine
 10
4.626334235610896
 20
4.739549272383555
 30
0.0
 11
4.626334235610896
 21
4.746091701657718
 31
0.0
  0
LINE
  5
1248
330
1F
100
AcDbEntity
  8
1
100
AcDbLine
 10
4.654911777062556
 20
4.739549272383555
 30
0.0
 11
4.654911777062556
 21
4.746091701657718
 31
0.0
  0
LINE
  5
1249
330
1F
100
AcDbEntity
  8
1
100
AcDbLine
 10
5.209671835610913
 20
4.637584384561048
 30
0.0
 11
5.238249377062574
 21
4.637584384561048
 31
0.0
  0
LINE
  5
124A
330
1F
100
AcDbEntity
  8
1
100
AcDbLine
 10
5.203129406336747
 20
4.644126813835214
 30
0.0
 11
5.209671835610913
 21
4.644126813835214
 31
0.0
  0
LINE
  5
124B
330
1F
100
AcDbEntity
  8
1
100
AcDbLine
 10
5.238249377062574
 20
4.644126813835214
 30
0.0
 11
5.24479180633674
 21
4.644126813835214
 31
0.0
  0
LINE
  5
124C
330
1F
100
AcDbEntity
  8
1
100
AcDbLine
 10
5.238249377062574
 20
4.644126813835214
 30
0.0
 11
5.238249377062574
 21
4.637584384561048
 31
0.0
  0
LINE
  5
124D
330
1F
100
AcDbEntity
  8
1
100
AcDbLine
 10
5.209671835610913
 20
4.644126813835214
 30
0.0
 11
5.209671835610913
 21
4.637584384561048
 31
0.0
  0
LINE
  5
124E
330
1F
100
AcDbEntity
  8
1
100
AcDbLine
 10
5.209671835610913
 20
4.746091701657718
 30
0.0
 11
5.238249377062574
 21
4.746091701657718
 31
0.0
  0
LINE
  5
124F
330
1F
100
AcDbEntity
  8
1
100
AcDbLine
 10
5.203129406336747
 20
4.739549272383555
 30
0.0
 11
5.209671835610913
 21
4.739549272383555
 31
0.0
  0
LINE
  5
1250
330
1F
100
AcDbEntity
  8
1
100
AcDbLine
 10
5.238249377062574
 20
4.739549272383555
 30
0.0
 11
5.24479180633674
 21
4.739549272383552
 31
0.0
  0
LINE
  5
1251
330
1F
100
AcDbEntity
  8
1
100
AcDbLine
 10
5.238249377062574
 20
4.739549272383555
 30
0.0
 11
5.238249377062574
 21
4.746091701657718
 31
0.0
  0
LINE
  5
1252
330
1F
100
AcDbEntity
  8
1
100
AcDbLine
 10
5.209671835610913
 20
4.739549272383555
 30
0.0
 11
5.209671835610913
 21
4.746091701657718
 31
0.0
  0
LINE
  5
1253
330
1F
100
AcDbEntity
  8
1
100
AcDbLine
 10
6.948291806336734
 20
6.19179388921874
 30
0.0
 11
6.933291806336734
 21
6.176793889218739
 31
0.0
  0
LINE
  5
1254
330
1F
100
AcDbEntity
  8
1
100
AcDbLine
 10
6.933291806336734
 20
6.176793889218739
 30
0.0
 11
6.835291806336734
 21
6.176793889218739
 31
0.0
  0
LINE
  5
1255
330
1F
100
AcDbEntity
  8
1
100
AcDbLine
 10
6.835291806336734
 20
6.176793889218739
 30
0.0
 11
6.835291806336734
 21
6.162670817999959
 31
0.0
  0
LINE
  5
1256
330
1F
100
AcDbEntity
  8
1
100
AcDbLine
 10
6.948291806336734
 20
6.150131489218747
 30
0.0
 11
6.948291806336734
 21
6.19179388921874
 31
0.0
  0
LINE
  5
1257
330
1F
100
AcDbEntity
  8
1
100
AcDbLine
 10
7.375291806336734
 20
6.150131489218747
 30
0.0
 11
6.948291806336734
 21
6.150131489218747
 31
0.0
  0
LINE
  5
1258
330
1F
100
AcDbEntity
  8
1
100
AcDbLine
 10
7.375291806336734
 20
6.19179388921874
 30
0.0
 11
7.375291806336734
 21
6.150131489218747
 31
0.0
  0
LINE
  5
1259
330
1F
100
AcDbEntity
  8
1
100
AcDbLine
 10
7.415291806336735
 20
6.19179388921874
 30
0.0
 11
7.415291806336734
 21
6.150131489218747
 31
0.0
  0
LINE
  5
125A
330
1F
100
AcDbEntity
  8
1
100
AcDbLine
 10
6.810291806336734
 20
6.19179388921874
 30
0.0
 11
6.918291806336734
 21
6.19179388921874
 31
0.0
  0
LINE
  5
125B
330
1F
100
AcDbEntity
  8
1
100
AcDbLine
 10
6.810291806336734
 20
6.150131489218747
 30
0.0
 11
6.810291806336734
 21
6.19179388921874
 31
0.0
  0
LINE
  5
125C
330
1F
100
AcDbEntity
  8
1
100
AcDbLine
 10
6.872291806336734
 20
6.150131489218747
 30
0.0
 11
6.810291806336734
 21
6.150131489218747
 31
0.0
  0
LINE
  5
125D
330
1F
100
AcDbEntity
  8
1
100
AcDbLine
 10
6.948291806336734
 20
6.19179388921874
 30
0.0
 11
7.415291806336735
 21
6.19179388921874
 31
0.0
  0
LINE
  5
125E
330
1F
100
AcDbEntity
  8
4
100
AcDbLine
 10
6.810291806336733
 20
6.12979388921874
 30
0.0
 11
6.872291806336734
 21
6.12979388921874
 31
0.0
  0
LINE
  5
125F
330
1F
100
AcDbEntity
  8
1
100
AcDbLine
 10
8.725291806336734
 20
6.19179388921874
 30
0.0
 11
8.725291806336734
 21
6.150131489218747
 31
0.0
  0
LINE
  5
1260
330
1F
100
AcDbEntity
  8
1
100
AcDbLine
 10
8.258291806336734
 20
6.19179388921874
 30
0.0
 11
8.243291806336735
 21
6.176793889218739
 31
0.0
  0
LINE
  5
1261
330
1F
100
AcDbEntity
  8
1
100
AcDbLine
 10
8.243291806336735
 20
6.176793889218739
 30
0.0
 11
8.145291806336734
 21
6.176793889218739
 31
0.0
  0
LINE
  5
1262
330
1F
100
AcDbEntity
  8
1
100
AcDbLine
 10
8.145291806336734
 20
6.176793889218739
 30
0.0
 11
8.145291806336734
 21
6.162670817999959
 31
0.0
  0
LINE
  5
1263
330
1F
100
AcDbEntity
  8
1
100
AcDbLine
 10
8.258291806336734
 20
6.150131489218747
 30
0.0
 11
8.258291806336734
 21
6.19179388921874
 31
0.0
  0
LINE
  5
1264
330
1F
100
AcDbEntity
  8
1
100
AcDbLine
 10
8.685291806336735
 20
6.150131489218747
 30
0.0
 11
8.258291806336734
 21
6.150131489218747
 31
0.0
  0
LINE
  5
1265
330
1F
100
AcDbEntity
  8
1
100
AcDbLine
 10
8.685291806336735
 20
6.19179388921874
 30
0.0
 11
8.685291806336733
 21
6.150131489218747
 31
0.0
  0
LINE
  5
1266
330
1F
100
AcDbEntity
  8
1
100
AcDbLine
 10
8.120291806336734
 20
6.19179388921874
 30
0.0
 11
8.228291806336734
 21
6.19179388921874
 31
0.0
  0
LINE
  5
1267
330
1F
100
AcDbEntity
  8
1
100
AcDbLine
 10
8.120291806336734
 20
6.150131489218747
 30
0.0
 11
8.120291806336734
 21
6.19179388921874
 31
0.0
  0
LINE
  5
1268
330
1F
100
AcDbEntity
  8
1
100
AcDbLine
 10
8.182291806336735
 20
6.150131489218747
 30
0.0
 11
8.120291806336734
 21
6.150131489218747
 31
0.0
  0
LINE
  5
1269
330
1F
100
AcDbEntity
  8
1
100
AcDbLine
 10
8.258291806336734
 20
6.19179388921874
 30
0.0
 11
8.725291806336734
 21
6.19179388921874
 31
0.0
  0
LINE
  5
126A
330
1F
100
AcDbEntity
  8
4
100
AcDbLine
 10
8.120291806336734
 20
6.12979388921874
 30
0.0
 11
8.182291806336735
 21
6.12979388921874
 31
0.0
  0
LINE
  5
126B
330
1F
100
AcDbEntity
  8
1
100
AcDbLine
 10
8.783791806336736
 20
6.19179388921874
 30
0.0
 11
8.783791806336736
 21
6.150131489218747
 31
0.0
  0
LINE
  5
126C
330
1F
100
AcDbEntity
  8
1
100
AcDbLine
 10
9.250791806336737
 20
6.19179388921874
 30
0.0
 11
9.265791806336736
 21
6.176793889218739
 31
0.0
  0
LINE
  5
126D
330
1F
100
AcDbEntity
  8
1
100
AcDbLine
 10
9.265791806336736
 20
6.176793889218739
 30
0.0
 11
9.363791806336736
 21
6.176793889218739
 31
0.0
  0
LINE
  5
126E
330
1F
100
AcDbEntity
  8
1
100
AcDbLine
 10
9.363791806336736
 20
6.176793889218739
 30
0.0
 11
9.363791806336736
 21
6.162670817999959
 31
0.0
  0
LINE
  5
126F
330
1F
100
AcDbEntity
  8
1
100
AcDbLine
 10
9.250791806336737
 20
6.150131489218747
 30
0.0
 11
9.250791806336737
 21
6.19179388921874
 31
0.0
  0
LINE
  5
1270
330
1F
100
AcDbEntity
  8
1
100
AcDbLine
 10
8.823791806336735
 20
6.150131489218747
 30
0.0
 11
9.250791806336737
 21
6.150131489218747
 31
0.0
  0
LINE
  5
1271
330
1F
100
AcDbEntity
  8
1
100
AcDbLine
 10
8.823791806336735
 20
6.19179388921874
 30
0.0
 11
8.823791806336737
 21
6.150131489218747
 31
0.0
  0
LINE
  5
1272
330
1F
100
AcDbEntity
  8
1
100
AcDbLine
 10
9.388791806336737
 20
6.19179388921874
 30
0.0
 11
9.280791806336736
 21
6.19179388921874
 31
0.0
  0
LINE
  5
1273
330
1F
100
AcDbEntity
  8
1
100
AcDbLine
 10
9.388791806336737
 20
6.150131489218747
 30
0.0
 11
9.388791806336737
 21
6.19179388921874
 31
0.0
  0
LINE
  5
1274
330
1F
100
AcDbEntity
  8
1
100
AcDbLine
 10
9.326791806336736
 20
6.150131489218747
 30
0.0
 11
9.388791806336737
 21
6.150131489218747
 31
0.0
  0
LINE
  5
1275
330
1F
100
AcDbEntity
  8
1
100
AcDbLine
 10
9.250791806336737
 20
6.19179388921874
 30
0.0
 11
8.783791806336736
 21
6.19179388921874
 31
0.0
  0
LINE
  5
1276
330
1F
100
AcDbEntity
  8
4
100
AcDbLine
 10
9.388791806336737
 20
6.12979388921874
 30
0.0
 11
9.326791806336736
 21
6.12979388921874
 31
0.0
  0
LINE
  5
1277
330
1F
100
AcDbEntity
  8
1
100
AcDbLine
 10
8.725291806336734
 20
3.233956289218731
 30
0.0
 11
8.725291806336734
 21
3.192293889218738
 31
0.0
  0
LINE
  5
1278
330
1F
100
AcDbEntity
  8
1
100
AcDbLine
 10
8.182291806336735
 20
3.192293889218738
 30
0.0
 11
8.120291806336734
 21
3.192293889218738
 31
0.0
  0
LINE
  5
1279
330
1F
100
AcDbEntity
  8
1
100
AcDbLine
 10
6.872291806336734
 20
3.192293889218738
 30
0.0
 11
6.810291806336734
 21
3.192293889218738
 31
0.0
  0
LINE
  5
127A
330
1F
100
AcDbEntity
  8
4
100
AcDbLine
 10
6.810291806336734
 20
3.253793889218737
 30
0.0
 11
6.872291806336735
 21
3.253793889218737
 31
0.0
  0
LINE
  5
127B
330
1F
100
AcDbEntity
  8
1
100
AcDbLine
 10
6.948291806336734
 20
3.233956289218731
 30
0.0
 11
6.933291806336734
 21
3.218956289218731
 31
0.0
  0
LINE
  5
127C
330
1F
100
AcDbEntity
  8
1
100
AcDbLine
 10
6.933291806336734
 20
3.218956289218731
 30
0.0
 11
6.835291806336734
 21
3.218956289218731
 31
0.0
  0
LINE
  5
127D
330
1F
100
AcDbEntity
  8
1
100
AcDbLine
 10
6.835291806336734
 20
3.218956289218731
 30
0.0
 11
6.835291806336734
 21
3.204833217999951
 31
0.0
  0
LINE
  5
127E
330
1F
100
AcDbEntity
  8
1
100
AcDbLine
 10
6.948291806336734
 20
3.192293889218738
 30
0.0
 11
6.948291806336734
 21
3.233956289218731
 31
0.0
  0
LINE
  5
127F
330
1F
100
AcDbEntity
  8
1
100
AcDbLine
 10
7.375291806336734
 20
3.233956289218731
 30
0.0
 11
7.375291806336734
 21
3.192293889218737
 31
0.0
  0
LINE
  5
1280
330
1F
100
AcDbEntity
  8
1
100
AcDbLine
 10
7.415291806336735
 20
3.233956289218731
 30
0.0
 11
7.415291806336734
 21
3.192293889218737
 31
0.0
  0
LINE
  5
1281
330
1F
100
AcDbEntity
  8
1
100
AcDbLine
 10
6.810291806336734
 20
3.233956289218731
 30
0.0
 11
6.918291806336734
 21
3.233956289218731
 31
0.0
  0
LINE
  5
1282
330
1F
100
AcDbEntity
  8
1
100
AcDbLine
 10
6.810291806336734
 20
3.192293889218738
 30
0.0
 11
6.810291806336734
 21
3.233956289218731
 31
0.0
  0
LINE
  5
1283
330
1F
100
AcDbEntity
  8
1
100
AcDbLine
 10
6.948291806336734
 20
3.233956289218731
 30
0.0
 11
7.415291806336735
 21
3.233956289218731
 31
0.0
  0
LINE
  5
1284
330
1F
100
AcDbEntity
  8
4
100
AcDbLine
 10
8.120291806336734
 20
3.253793889218737
 30
0.0
 11
8.182291806336735
 21
3.253793889218737
 31
0.0
  0
LINE
  5
1285
330
1F
100
AcDbEntity
  8
1
100
AcDbLine
 10
8.258291806336734
 20
3.233956289218731
 30
0.0
 11
8.243291806336735
 21
3.218956289218731
 31
0.0
  0
LINE
  5
1286
330
1F
100
AcDbEntity
  8
1
100
AcDbLine
 10
8.243291806336735
 20
3.218956289218731
 30
0.0
 11
8.145291806336734
 21
3.218956289218731
 31
0.0
  0
LINE
  5
1287
330
1F
100
AcDbEntity
  8
1
100
AcDbLine
 10
8.145291806336734
 20
3.218956289218731
 30
0.0
 11
8.145291806336734
 21
3.204833217999951
 31
0.0
  0
LINE
  5
1288
330
1F
100
AcDbEntity
  8
1
100
AcDbLine
 10
8.258291806336734
 20
3.192293889218738
 30
0.0
 11
8.258291806336734
 21
3.233956289218731
 31
0.0
  0
LINE
  5
1289
330
1F
100
AcDbEntity
  8
1
100
AcDbLine
 10
8.685291806336735
 20
3.233956289218731
 30
0.0
 11
8.685291806336733
 21
3.192293889218737
 31
0.0
  0
LINE
  5
128A
330
1F
100
AcDbEntity
  8
1
100
AcDbLine
 10
8.725291806336734
 20
3.233956289218731
 30
0.0
 11
8.725291806336734
 21
3.192293889218737
 31
0.0
  0
LINE
  5
128B
330
1F
100
AcDbEntity
  8
1
100
AcDbLine
 10
8.120291806336734
 20
3.233956289218731
 30
0.0
 11
8.228291806336734
 21
3.233956289218731
 31
0.0
  0
LINE
  5
128C
330
1F
100
AcDbEntity
  8
1
100
AcDbLine
 10
8.120291806336734
 20
3.192293889218738
 30
0.0
 11
8.120291806336734
 21
3.233956289218731
 31
0.0
  0
LINE
  5
128D
330
1F
100
AcDbEntity
  8
1
100
AcDbLine
 10
8.258291806336734
 20
3.233956289218731
 30
0.0
 11
8.725291806336734
 21
3.233956289218731
 31
0.0
  0
LINE
  5
128E
330
1F
100
AcDbEntity
  8
1
100
AcDbLine
 10
7.375291806336734
 20
3.192293889218738
 30
0.0
 11
6.948291806336734
 21
3.192293889218738
 31
0.0
  0
LINE
  5
128F
330
1F
100
AcDbEntity
  8
1
100
AcDbLine
 10
8.685291806336735
 20
3.192293889218738
 30
0.0
 11
8.258291806336734
 21
3.192293889218738
 31
0.0
  0
LINE
  5
1290
330
1F
100
AcDbEntity
  8
1
100
AcDbLine
 10
8.783791806336736
 20
3.233956289218731
 30
0.0
 11
8.783791806336736
 21
3.192293889218738
 31
0.0
  0
LINE
  5
1291
330
1F
100
AcDbEntity
  8
1
100
AcDbLine
 10
9.326791806336736
 20
3.192293889218738
 30
0.0
 11
9.388791806336737
 21
3.192293889218738
 31
0.0
  0
LINE
  5
1292
330
1F
100
AcDbEntity
  8
4
100
AcDbLine
 10
9.388791806336737
 20
3.253793889218737
 30
0.0
 11
9.326791806336736
 21
3.253793889218737
 31
0.0
  0
LINE
  5
1293
330
1F
100
AcDbEntity
  8
1
100
AcDbLine
 10
9.250791806336737
 20
3.233956289218731
 30
0.0
 11
9.265791806336736
 21
3.218956289218731
 31
0.0
  0
LINE
  5
1294
330
1F
100
AcDbEntity
  8
1
100
AcDbLine
 10
9.265791806336736
 20
3.218956289218731
 30
0.0
 11
9.363791806336736
 21
3.218956289218731
 31
0.0
  0
LINE
  5
1295
330
1F
100
AcDbEntity
  8
1
100
AcDbLine
 10
9.363791806336736
 20
3.218956289218731
 30
0.0
 11
9.363791806336736
 21
3.204833217999951
 31
0.0
  0
LINE
  5
1296
330
1F
100
AcDbEntity
  8
1
100
AcDbLine
 10
9.250791806336737
 20
3.192293889218738
 30
0.0
 11
9.250791806336737
 21
3.233956289218731
 31
0.0
  0
LINE
  5
1297
330
1F
100
AcDbEntity
  8
1
100
AcDbLine
 10
8.823791806336735
 20
3.233956289218731
 30
0.0
 11
8.823791806336737
 21
3.192293889218737
 31
0.0
  0
LINE
  5
1298
330
1F
100
AcDbEntity
  8
1
100
AcDbLine
 10
8.783791806336736
 20
3.233956289218731
 30
0.0
 11
8.783791806336736
 21
3.192293889218737
 31
0.0
  0
LINE
  5
1299
330
1F
100
AcDbEntity
  8
1
100
AcDbLine
 10
9.388791806336737
 20
3.233956289218731
 30
0.0
 11
9.280791806336736
 21
3.233956289218731
 31
0.0
  0
LINE
  5
129A
330
1F
100
AcDbEntity
  8
1
100
AcDbLine
 10
9.388791806336737
 20
3.192293889218738
 30
0.0
 11
9.388791806336737
 21
3.233956289218731
 31
0.0
  0
LINE
  5
129B
330
1F
100
AcDbEntity
  8
1
100
AcDbLine
 10
9.250791806336737
 20
3.233956289218731
 30
0.0
 11
8.783791806336736
 21
3.233956289218731
 31
0.0
  0
LINE
  5
129C
330
1F
100
AcDbEntity
  8
1
100
AcDbLine
 10
8.823791806336735
 20
3.192293889218738
 30
0.0
 11
9.250791806336737
 21
3.192293889218738
 31
0.0
  0
LINE
  5
129D
330
1F
100
AcDbEntity
  8
1
100
AcDbLine
 10
6.948291806336735
 20
4.712669243109381
 30
0.0
 11
6.933291806336735
 21
4.69766924310938
 31
0.0
  0
LINE
  5
129E
330
1F
100
AcDbEntity
  8
1
100
AcDbLine
 10
6.933291806336735
 20
4.69766924310938
 30
0.0
 11
6.835291806336735
 21
4.69766924310938
 31
0.0
  0
LINE
  5
129F
330
1F
100
AcDbEntity
  8
1
100
AcDbLine
 10
6.835291806336735
 20
4.69766924310938
 30
0.0
 11
6.835291806336735
 21
4.683546171890601
 31
0.0
  0
LINE
  5
12A0
330
1F
100
AcDbEntity
  8
1
100
AcDbLine
 10
6.948291806336734
 20
4.671006843109388
 30
0.0
 11
6.948291806336735
 21
4.712669243109381
 31
0.0
  0
LINE
  5
12A1
330
1F
100
AcDbEntity
  8
1
100
AcDbLine
 10
7.375291806336735
 20
4.671006843109388
 30
0.0
 11
6.948291806336734
 21
4.671006843109388
 31
0.0
  0
LINE
  5
12A2
330
1F
100
AcDbEntity
  8
1
100
AcDbLine
 10
7.375291806336735
 20
4.712669243109381
 30
0.0
 11
7.375291806336734
 21
4.671006843109388
 31
0.0
  0
LINE
  5
12A3
330
1F
100
AcDbEntity
  8
1
100
AcDbLine
 10
7.415291806336735
 20
4.712669243109381
 30
0.0
 11
7.415291806336735
 21
4.671006843109388
 31
0.0
  0
LINE
  5
12A4
330
1F
100
AcDbEntity
  8
1
100
AcDbLine
 10
6.810291806336735
 20
4.712669243109381
 30
0.0
 11
6.918291806336735
 21
4.712669243109381
 31
0.0
  0
LINE
  5
12A5
330
1F
100
AcDbEntity
  8
1
100
AcDbLine
 10
6.810291806336735
 20
4.671006843109388
 30
0.0
 11
6.810291806336735
 21
4.712669243109381
 31
0.0
  0
LINE
  5
12A6
330
1F
100
AcDbEntity
  8
1
100
AcDbLine
 10
6.872291806336735
 20
4.671006843109388
 30
0.0
 11
6.810291806336735
 21
4.671006843109388
 31
0.0
  0
LINE
  5
12A7
330
1F
100
AcDbEntity
  8
1
100
AcDbLine
 10
6.948291806336735
 20
4.712669243109381
 30
0.0
 11
7.415291806336735
 21
4.712669243109381
 31
0.0
  0
LINE
  5
12A8
330
1F
100
AcDbEntity
  8
1
100
AcDbLine
 10
8.725291806336734
 20
4.712669243109381
 30
0.0
 11
8.725291806336734
 21
4.671006843109388
 31
0.0
  0
LINE
  5
12A9
330
1F
100
AcDbEntity
  8
1
100
AcDbLine
 10
8.258291806336735
 20
4.712669243109381
 30
0.0
 11
8.243291806336735
 21
4.69766924310938
 31
0.0
  0
LINE
  5
12AA
330
1F
100
AcDbEntity
  8
1
100
AcDbLine
 10
8.243291806336735
 20
4.69766924310938
 30
0.0
 11
8.145291806336736
 21
4.69766924310938
 31
0.0
  0
LINE
  5
12AB
330
1F
100
AcDbEntity
  8
1
100
AcDbLine
 10
8.145291806336736
 20
4.69766924310938
 30
0.0
 11
8.145291806336736
 21
4.683546171890601
 31
0.0
  0
LINE
  5
12AC
330
1F
100
AcDbEntity
  8
1
100
AcDbLine
 10
8.258291806336734
 20
4.671006843109388
 30
0.0
 11
8.258291806336735
 21
4.712669243109381
 31
0.0
  0
LINE
  5
12AD
330
1F
100
AcDbEntity
  8
1
100
AcDbLine
 10
8.685291806336735
 20
4.671006843109388
 30
0.0
 11
8.258291806336734
 21
4.671006843109388
 31
0.0
  0
LINE
  5
12AE
330
1F
100
AcDbEntity
  8
1
100
AcDbLine
 10
8.685291806336735
 20
4.712669243109381
 30
0.0
 11
8.685291806336735
 21
4.671006843109388
 31
0.0
  0
LINE
  5
12AF
330
1F
100
AcDbEntity
  8
1
100
AcDbLine
 10
8.120291806336734
 20
4.712669243109381
 30
0.0
 11
8.228291806336734
 21
4.712669243109381
 31
0.0
  0
LINE
  5
12B0
330
1F
100
AcDbEntity
  8
1
100
AcDbLine
 10
8.120291806336734
 20
4.671006843109388
 30
0.0
 11
8.120291806336734
 21
4.712669243109381
 31
0.0
  0
LINE
  5
12B1
330
1F
100
AcDbEntity
  8
1
100
AcDbLine
 10
8.182291806336735
 20
4.671006843109388
 30
0.0
 11
8.120291806336734
 21
4.671006843109388
 31
0.0
  0
LINE
  5
12B2
330
1F
100
AcDbEntity
  8
1
100
AcDbLine
 10
8.258291806336735
 20
4.712669243109381
 30
0.0
 11
8.725291806336734
 21
4.712669243109381
 31
0.0
  0
LINE
  5
12B3
330
1F
100
AcDbEntity
  8
1
100
AcDbLine
 10
8.783791806336736
 20
4.712669243109381
 30
0.0
 11
8.783791806336736
 21
4.671006843109388
 31
0.0
  0
LINE
  5
12B4
330
1F
100
AcDbEntity
  8
1
100
AcDbLine
 10
9.250791806336739
 20
4.712669243109381
 30
0.0
 11
9.265791806336736
 21
4.69766924310938
 31
0.0
  0
LINE
  5
12B5
330
1F
100
AcDbEntity
  8
1
100
AcDbLine
 10
9.265791806336736
 20
4.69766924310938
 30
0.0
 11
9.363791806336738
 21
4.69766924310938
 31
0.0
  0
LINE
  5
12B6
330
1F
100
AcDbEntity
  8
1
100
AcDbLine
 10
9.363791806336738
 20
4.69766924310938
 30
0.0
 11
9.363791806336738
 21
4.683546171890601
 31
0.0
  0
LINE
  5
12B7
330
1F
100
AcDbEntity
  8
1
100
AcDbLine
 10
9.250791806336737
 20
4.671006843109388
 30
0.0
 11
9.250791806336739
 21
4.712669243109381
 31
0.0
  0
LINE
  5
12B8
330
1F
100
AcDbEntity
  8
1
100
AcDbLine
 10
8.823791806336735
 20
4.671006843109388
 30
0.0
 11
9.250791806336737
 21
4.671006843109388
 31
0.0
  0
LINE
  5
12B9
330
1F
100
AcDbEntity
  8
1
100
AcDbLine
 10
8.823791806336735
 20
4.712669243109381
 30
0.0
 11
8.823791806336739
 21
4.671006843109388
 31
0.0
  0
LINE
  5
12BA
330
1F
100
AcDbEntity
  8
1
100
AcDbLine
 10
9.388791806336737
 20
4.712669243109381
 30
0.0
 11
9.280791806336736
 21
4.712669243109381
 31
0.0
  0
LINE
  5
12BB
330
1F
100
AcDbEntity
  8
1
100
AcDbLine
 10
9.388791806336737
 20
4.671006843109388
 30
0.0
 11
9.388791806336737
 21
4.712669243109381
 31
0.0
  0
LINE
  5
12BC
330
1F
100
AcDbEntity
  8
1
100
AcDbLine
 10
9.326791806336736
 20
4.671006843109388
 30
0.0
 11
9.388791806336737
 21
4.671006843109388
 31
0.0
  0
LINE
  5
12BD
330
1F
100
AcDbEntity
  8
1
100
AcDbLine
 10
9.250791806336739
 20
4.712669243109381
 30
0.0
 11
8.783791806336736
 21
4.712669243109381
 31
0.0
  0
ARC
  5
13D2
330
1F
100
AcDbEntity
  8
4
100
AcDbCircle
 10
3.455954206336726
 20
4.601047148542038
 30
0.0
 40
0.025
100
AcDbArc
 50
180.0
 51
0.0
  0
LINE
  5
13D3
330
1F
100
AcDbEntity
  8
4
100
AcDbLine
 10
3.430954206336727
 20
4.601047148542038
 30
0.0
 11
3.430954206336727
 21
4.671006843109388
 31
0.0
  0
ARC
  5
13D4
330
1F
100
AcDbEntity
  8
4
100
AcDbCircle
 10
4.080954206336725
 20
4.601047148542038
 30
0.0
 40
0.025
100
AcDbArc
 50
180.0
 51
0.0
  0
LINE
  5
13D5
330
1F
100
AcDbEntity
  8
4
100
AcDbLine
 10
4.055954206336727
 20
4.601047148542038
 30
0.0
 11
4.055954206336727
 21
4.671006843109388
 31
0.0
  0
ARC
  5
13D6
330
1F
100
AcDbEntity
  8
4
100
AcDbCircle
 10
4.705954206336725
 20
4.601047148542038
 30
0.0
 40
0.025
100
AcDbArc
 50
180.0
 51
0.0
  0
LINE
  5
13D7
330
1F
100
AcDbEntity
  8
4
100
AcDbLine
 10
4.680954206336727
 20
4.601047148542038
 30
0.0
 11
4.680954206336727
 21
4.671006843109388
 31
0.0
  0
ARC
  5
13D8
330
1F
100
AcDbEntity
  8
4
100
AcDbCircle
 10
3.455954206336731
 20
6.080171794651397
 30
0.0
 40
0.025
100
AcDbArc
 50
180.0
 51
0.0
  0
LINE
  5
13D9
330
1F
100
AcDbEntity
  8
4
100
AcDbLine
 10
3.430954206336732
 20
6.080171794651397
 30
0.0
 11
3.430954206336732
 21
6.150131489218747
 31
0.0
  0
ARC
  5
13DA
330
1F
100
AcDbEntity
  8
4
100
AcDbCircle
 10
4.080954206336731
 20
6.080171794651397
 30
0.0
 40
0.025
100
AcDbArc
 50
180.0
 51
0.0
  0
LINE
  5
13DB
330
1F
100
AcDbEntity
  8
4
100
AcDbLine
 10
4.055954206336732
 20
6.080171794651397
 30
0.0
 11
4.055954206336732
 21
6.150131489218747
 31
0.0
  0
ARC
  5
13DC
330
1F
100
AcDbEntity
  8
4
100
AcDbCircle
 10
4.705954206336731
 20
6.080171794651397
 30
0.0
 40
0.025
100
AcDbArc
 50
180.0
 51
0.0
  0
LINE
  5
13DD
330
1F
100
AcDbEntity
  8
4
100
AcDbLine
 10
4.680954206336732
 20
6.080171794651397
 30
0.0
 11
4.680954206336732
 21
6.150131489218747
 31
0.0
  0
LINE
  5
13E1
330
1F
100
AcDbEntity
  8
4
100
AcDbLine
 10
3.651291806336735
 20
4.671006843109388
 30
0.0
 11
3.651291806336735
 21
4.576047148542038
 31
0.0
  0
LINE
  5
13E2
330
1F
100
AcDbEntity
  8
4
100
AcDbLine
 10
3.713291806336735
 20
4.671006843109388
 30
0.0
 11
3.713291806336735
 21
4.576047148542038
 31
0.0
  0
LINE
  5
13E3
330
1F
100
AcDbEntity
  8
4
100
AcDbLine
 10
3.651291806336735
 20
4.671006843109388
 30
0.0
 11
3.713291806336735
 21
4.671006843109388
 31
0.0
  0
LINE
  5
13E4
330
1F
100
AcDbEntity
  8
4
100
AcDbLine
 10
4.901291806336734
 20
4.671006843109388
 30
0.0
 11
4.901291806336734
 21
4.576047148542038
 31
0.0
  0
LINE
  5
13E5
330
1F
100
AcDbEntity
  8
4
100
AcDbLine
 10
4.963291806336735
 20
4.671006843109388
 30
0.0
 11
4.963291806336735
 21
4.576047148542038
 31
0.0
  0
LINE
  5
13E6
330
1F
100
AcDbEntity
  8
4
100
AcDbLine
 10
4.901291806336734
 20
4.671006843109388
 30
0.0
 11
4.963291806336735
 21
4.671006843109388
 31
0.0
  0
LINE
  5
13E7
330
1F
100
AcDbEntity
  8
4
100
AcDbLine
 10
4.901291806336738
 20
6.150131489218747
 30
0.0
 11
4.901291806336738
 21
6.055171794651396
 31
0.0
  0
LINE
  5
13E8
330
1F
100
AcDbEntity
  8
4
100
AcDbLine
 10
4.963291806336737
 20
6.150131489218747
 30
0.0
 11
4.963291806336737
 21
6.055171794651396
 31
0.0
  0
LINE
  5
13E9
330
1F
100
AcDbEntity
  8
4
100
AcDbLine
 10
4.901291806336738
 20
6.150131489218747
 30
0.0
 11
4.963291806336737
 21
6.150131489218747
 31
0.0
  0
ARC
  5
13EA
330
1F
100
AcDbEntity
  8
4
100
AcDbCircle
 10
3.908629406336744
 20
4.601045118442902
 30
0.0
 40
0.025
100
AcDbArc
 50
180.0
 51
0.0
  0
LINE
  5
13EB
330
1F
100
AcDbEntity
  8
4
100
AcDbLine
 10
3.933629406336742
 20
4.601045118442902
 30
0.0
 11
3.933629406336742
 21
4.671006843109388
 31
0.0
  0
ARC
  5
13EC
330
1F
100
AcDbEntity
  8
4
100
AcDbCircle
 10
4.533629406336744
 20
4.601045118442902
 30
0.0
 40
0.025
100
AcDbArc
 50
180.0
 51
0.0
  0
LINE
  5
13ED
330
1F
100
AcDbEntity
  8
4
100
AcDbLine
 10
4.558629406336742
 20
4.601045118442902
 30
0.0
 11
4.558629406336742
 21
4.671006843109388
 31
0.0
  0
ARC
  5
13EE
330
1F
100
AcDbEntity
  8
4
100
AcDbCircle
 10
3.908629406336744
 20
6.080169764552261
 30
0.0
 40
0.025
100
AcDbArc
 50
180.0
 51
0.0
  0
LINE
  5
13EF
330
1F
100
AcDbEntity
  8
4
100
AcDbLine
 10
3.933629406336742
 20
6.080169764552261
 30
0.0
 11
3.933629406336742
 21
6.150131489218747
 31
0.0
  0
ARC
  5
13F0
330
1F
100
AcDbEntity
  8
4
100
AcDbCircle
 10
4.533629406336744
 20
6.080169764552261
 30
0.0
 40
0.025
100
AcDbArc
 50
180.0
 51
0.0
  0
LINE
  5
13F1
330
1F
100
AcDbEntity
  8
4
100
AcDbLine
 10
4.558629406336742
 20
6.080169764552261
 30
0.0
 11
4.558629406336742
 21
6.150131489218747
 31
0.0
  0
ARC
  5
13F2
330
1F
100
AcDbEntity
  8
4
100
AcDbCircle
 10
5.158629406336744
 20
6.080169764552261
 30
0.0
 40
0.025
100
AcDbArc
 50
180.0
 51
0.0
  0
LINE
  5
13F3
330
1F
100
AcDbEntity
  8
4
100
AcDbLine
 10
5.183629406336742
 20
6.080169764552261
 30
0.0
 11
5.183629406336742
 21
6.150131489218747
 31
0.0
  0
ARC
  5
13F4
330
1F
100
AcDbEntity
  8
4
100
AcDbCircle
 10
5.158629406336744
 20
4.601045118442902
 30
0.0
 40
0.025
100
AcDbArc
 50
180.0
 51
0.0
  0
LINE
  5
13F5
330
1F
100
AcDbEntity
  8
4
100
AcDbLine
 10
5.183629406336742
 20
4.601045118442902
 30
0.0
 11
5.183629406336742
 21
4.671006843109388
 31
0.0
  0
LINE
  5
13F6
330
1F
100
AcDbEntity
  8
4
100
AcDbLine
 10
7.10227169643922
 20
6.150131489218747
 30
0.0
 11
7.164271696439219
 21
6.150131489218747
 31
0.0
  0
LINE
  5
13F7
330
1F
100
AcDbEntity
  8
4
100
AcDbLine
 10
7.133271696439219
 20
6.150131489218747
 30
0.0
 11
7.133271696439219
 21
6.05516976455226
 31
0.0
  0
ARC
  5
13F8
330
1F
100
AcDbEntity
  8
4
100
AcDbCircle
 10
7.390291806336736
 20
6.080169764552262
 30
0.0
 40
0.025
100
AcDbArc
 50
180.0
 51
0.0
  0
LINE
  5
13F9
330
1F
100
AcDbEntity
  8
4
100
AcDbLine
 10
7.415291806336735
 20
6.080169764552262
 30
0.0
 11
7.415291806336734
 21
6.150131489218747
 31
0.0
  0
LINE
  5
13FA
330
1F
100
AcDbEntity
  8
4
100
AcDbLine
 10
7.10227169643922
 20
4.671006843109388
 30
0.0
 11
7.16427169643922
 21
4.671006843109388
 31
0.0
  0
LINE
  5
13FB
330
1F
100
AcDbEntity
  8
4
100
AcDbLine
 10
7.13327169643922
 20
4.671006843109388
 30
0.0
 11
7.13327169643922
 21
4.576045118442902
 31
0.0
  0
ARC
  5
13FC
330
1F
100
AcDbEntity
  8
4
100
AcDbCircle
 10
7.390291806336737
 20
4.601045118442904
 30
0.0
 40
0.025
100
AcDbArc
 50
180.0
 51
0.0
  0
LINE
  5
13FD
330
1F
100
AcDbEntity
  8
4
100
AcDbLine
 10
7.415291806336735
 20
4.601045118442904
 30
0.0
 11
7.415291806336735
 21
4.671006843109388
 31
0.0
  0
LINE
  5
13FE
330
1F
100
AcDbEntity
  8
4
100
AcDbLine
 10
8.412271696439219
 20
4.671006843109388
 30
0.0
 11
8.47427169643922
 21
4.671006843109388
 31
0.0
  0
LINE
  5
13FF
330
1F
100
AcDbEntity
  8
4
100
AcDbLine
 10
8.44327169643922
 20
4.671006843109388
 30
0.0
 11
8.44327169643922
 21
4.576045118442902
 31
0.0
  0
ARC
  5
1400
330
1F
100
AcDbEntity
  8
4
100
AcDbCircle
 10
8.700291806336736
 20
4.601045118442904
 30
0.0
 40
0.025
100
AcDbArc
 50
180.0
 51
0.0
  0
LINE
  5
1401
330
1F
100
AcDbEntity
  8
4
100
AcDbLine
 10
8.725291806336734
 20
4.601045118442904
 30
0.0
 11
8.725291806336734
 21
4.671006843109388
 31
0.0
  0
LINE
  5
1402
330
1F
100
AcDbEntity
  8
4
100
AcDbLine
 10
8.412271696439219
 20
6.150131489218747
 30
0.0
 11
8.47427169643922
 21
6.150131489218747
 31
0.0
  0
LINE
  5
1403
330
1F
100
AcDbEntity
  8
4
100
AcDbLine
 10
8.44327169643922
 20
6.150131489218747
 30
0.0
 11
8.44327169643922
 21
6.05516976455226
 31
0.0
  0
ARC
  5
1404
330
1F
100
AcDbEntity
  8
4
100
AcDbCircle
 10
8.700291806336736
 20
6.080169764552262
 30
0.0
 40
0.025
100
AcDbArc
 50
180.0
 51
0.0
  0
LINE
  5
1405
330
1F
100
AcDbEntity
  8
4
100
AcDbLine
 10
8.725291806336734
 20
6.080169764552262
 30
0.0
 11
8.725291806336734
 21
6.150131489218747
 31
0.0
  0
LINE
  5
1406
330
1F
100
AcDbEntity
  8
4
100
AcDbLine
 10
9.096811916234251
 20
4.671006843109388
 30
0.0
 11
9.03481191623425
 21
4.671006843109388
 31
0.0
  0
LINE
  5
1407
330
1F
100
AcDbEntity
  8
4
100
AcDbLine
 10
9.065811916234251
 20
4.671006843109388
 30
0.0
 11
9.065811916234251
 21
4.576045118442902
 31
0.0
  0
ARC
  5
1408
330
1F
100
AcDbEntity
  8
4
100
AcDbCircle
 10
8.808791806336735
 20
4.601045118442904
 30
0.0
 40
0.025
100
AcDbArc
 50
180.0
 51
0.0
  0
LINE
  5
1409
330
1F
100
AcDbEntity
  8
4
100
AcDbLine
 10
8.783791806336736
 20
4.601045118442904
 30
0.0
 11
8.783791806336736
 21
4.671006843109388
 31
0.0
  0
LINE
  5
140A
330
1F
100
AcDbEntity
  8
4
100
AcDbLine
 10
9.096811916234251
 20
6.150131489218747
 30
0.0
 11
9.03481191623425
 21
6.150131489218747
 31
0.0
  0
LINE
  5
140B
330
1F
100
AcDbEntity
  8
4
100
AcDbLine
 10
9.065811916234251
 20
6.150131489218747
 30
0.0
 11
9.065811916234251
 21
6.05516976455226
 31
0.0
  0
ARC
  5
140C
330
1F
100
AcDbEntity
  8
4
100
AcDbCircle
 10
8.808791806336735
 20
6.080169764552262
 30
0.0
 40
0.025
100
AcDbArc
 50
180.0
 51
0.0
  0
LINE
  5
140D
330
1F
100
AcDbEntity
  8
4
100
AcDbLine
 10
8.783791806336736
 20
6.080169764552262
 30
0.0
 11
8.783791806336736
 21
6.150131489218747
 31
0.0
  0
INSERT
  5
140E
330
1F
100
AcDbEntity
  8
4
100
AcDbBlockReference
  2
A1
 10
9.171477309507606
 20
3.353081031164551
 30
0.0
 50
180.0
  0
LINE
  5
140F
330
1F
100
AcDbEntity
  8
2
100
AcDbLine
 10
8.921477309507606
 20
3.353081031164551
 30
0.0
 11
9.171477309507606
 21
3.353081031164551
 31
0.0
  0
INSERT
  5
1410
330
1F
100
AcDbEntity
  8
4
100
AcDbBlockReference
  2
A1
 10
7.302977309507605
 20
3.353081031164551
 30
0.0
 50
180.0
  0
LINE
  5
1411
330
1F
100
AcDbEntity
  8
2
100
AcDbLine
 10
7.052977309507604
 20
3.353081031164551
 30
0.0
 11
7.302977309507605
 21
3.353081031164551
 31
0.0
  0
INSERT
  5
1412
330
1F
100
AcDbEntity
  8
4
100
AcDbBlockReference
  2
A1
 10
8.612977309507604
 20
3.353081031164551
 30
0.0
 50
180.0
  0
LINE
  5
1413
330
1F
100
AcDbEntity
  8
2
100
AcDbLine
 10
8.362977309507604
 20
3.353081031164551
 30
0.0
 11
8.612977309507604
 21
3.353081031164551
 31
0.0
  0
INSERT
  5
1414
330
1F
100
AcDbEntity
  8
4
100
AcDbBlockReference
  2
A1
 10
8.896477309507607
 20
6.015897412255981
 30
0.0
  0
LINE
  5
1415
330
1F
100
AcDbEntity
  8
2
100
AcDbLine
 10
8.896477309507607
 20
6.015897412255981
 30
0.0
 11
9.146477309507606
 21
6.015897412255981
 31
0.0
  0
INSERT
  5
1416
330
1F
100
AcDbEntity
  8
4
100
AcDbBlockReference
  2
A1
 10
7.027977309507606
 20
6.015897412255981
 30
0.0
  0
LINE
  5
1417
330
1F
100
AcDbEntity
  8
2
100
AcDbLine
 10
7.027977309507606
 20
6.015897412255981
 30
0.0
 11
7.277977309507605
 21
6.015897412255981
 31
0.0
  0
LINE
  5
1418
330
1F
100
AcDbEntity
  8
2
100
AcDbLine
 10
7.009227309507605
 20
5.978397412255981
 30
0.0
 11
7.009227309507605
 21
3.44858103116455
 31
0.0
  0
INSERT
  5
1419
330
1F
100
AcDbEntity
  8
4
100
AcDbBlockReference
  2
A1
 10
8.337977309507605
 20
6.015897412255981
 30
0.0
  0
LINE
  5
141A
330
1F
100
AcDbEntity
  8
2
100
AcDbLine
 10
7.321727309507606
 20
5.920397412255981
 30
0.0
 11
7.321727309507605
 21
3.390581031164551
 31
0.0
  0
LINE
  5
141B
330
1F
100
AcDbEntity
  8
2
100
AcDbLine
 10
8.319227309507605
 20
5.978397412255981
 30
0.0
 11
8.319227309507605
 21
3.44858103116455
 31
0.0
  0
LINE
  5
141C
330
1F
100
AcDbEntity
  8
2
100
AcDbLine
 10
8.631727309507605
 20
5.920397412255981
 30
0.0
 11
8.631727309507605
 21
3.390581031164551
 31
0.0
  0
LINE
  5
141D
330
1F
100
AcDbEntity
  8
2
100
AcDbLine
 10
8.877727309507607
 20
5.978397412255981
 30
0.0
 11
8.877727309507607
 21
3.44858103116455
 31
0.0
  0
LINE
  5
141E
330
1F
100
AcDbEntity
  8
2
100
AcDbLine
 10
8.337977309507605
 20
6.015897412255981
 30
0.0
 11
8.587977309507605
 21
6.015897412255981
 31
0.0
  0
LINE
  5
141F
330
1F
100
AcDbEntity
  8
2
100
AcDbLine
 10
9.190227309507607
 20
5.920397412255981
 30
0.0
 11
9.190227309507607
 21
3.390581031164551
 31
0.0
  0
TEXT
  5
14F7
330
1F
100
AcDbEntity
  8
0
100
AcDbText
 10
5.265625139670068
 20
1.785793889218741
 30
0.0
 40
0.125
  1
(72" FRAME)
  7
ROMANS
 72
     1
 11
5.869791806336735
 21
1.785793889218741
 31
0.0
100
AcDbText
  0
TEXT
  5
14F8
330
1F
100
AcDbEntity
  8
0
100
AcDbText
 10
3.616815615860544
 20
1.973293889218741
 30
0.0
 40
0.125
  1
ALL WELDED VENTILATED DOUBLE TIER LOCKER
  7
ROMANS
 72
     1
 11
5.869791806336735
 21
1.973293889218741
 31
0.0
100
AcDbText
  0
CIRCLE
  5
1519
330
1F
100
AcDbEntity
  8
4
100
AcDbCircle
 10
2.931688261800176
 20
3.931860471673441
 30
0.0
 40
0.023
  0
LWPOLYLINE
  5
151A
330
1F
100
AcDbEntity
  8
4
100
AcDbPolyline
 90
        2
 70
     1
 43
0.01
 10
2.926688261800177
 20
3.98436047167344
 42
1.0
 10
2.936688261800175
 20
3.98436047167344
 42
1.0
  0
LWPOLYLINE
  5
151B
330
1F
100
AcDbEntity
  8
4
100
AcDbPolyline
 90
        2
 70
     1
 43
0.01
 10
2.926688261800177
 20
3.87936047167344
 42
1.0
 10
2.936688261800175
 20
3.87936047167344
 42
1.0
  0
LINE
  5
151C
330
1F
100
AcDbEntity
  8
4
100
AcDbLine
 10
2.837688261800175
 20
4.113843827314045
 30
0.0
 11
3.025688261800177
 21
4.113843827314045
 31
0.0
  0
LINE
  5
151D
330
1F
100
AcDbEntity
  8
4
100
AcDbLine
 10
3.025688261800177
 20
4.113843827314045
 30
0.0
 11
2.993688261800177
 21
3.811343827314043
 31
0.0
  0
LINE
  5
151E
330
1F
100
AcDbEntity
  8
4
100
AcDbLine
 10
2.837688261800175
 20
4.113843827314045
 30
0.0
 11
2.869688261800175
 21
3.811343827314043
 31
0.0
  0
LINE
  5
151F
330
1F
100
AcDbEntity
  8
4
100
AcDbLine
 10
2.869688261800175
 20
3.811343827314043
 30
0.0
 11
2.993688261800177
 21
3.811343827314043
 31
0.0
  0
LINE
  5
1520
330
1F
100
AcDbEntity
  8
4
100
AcDbLine
 10
2.854358733856874
 20
4.098843827314045
 30
0.0
 11
2.883185180137865
 21
3.826343827314044
 31
0.0
  0
LINE
  5
1521
330
1F
100
AcDbEntity
  8
4
100
AcDbLine
 10
2.883185180137865
 20
3.826343827314044
 30
0.0
 11
2.980191343462487
 21
3.826343827314044
 31
0.0
  0
LINE
  5
1522
330
1F
100
AcDbEntity
  8
4
100
AcDbLine
 10
3.009017789743478
 20
4.098843827314045
 30
0.0
 11
2.980191343462487
 21
3.826343827314044
 31
0.0
  0
LINE
  5
1523
330
1F
100
AcDbEntity
  8
4
100
AcDbLine
 10
2.854358733856874
 20
4.098843827314045
 30
0.0
 11
3.009017789743478
 21
4.098843827314045
 31
0.0
  0
LINE
  5
1524
330
1F
100
AcDbEntity
  8
4
100
AcDbLine
 10
2.946688261800177
 20
4.098843827314045
 30
0.0
 11
2.946688261800177
 21
4.051843827314041
 31
0.0
  0
LINE
  5
1525
330
1F
100
AcDbEntity
  8
4
100
AcDbLine
 10
2.946688261800177
 20
4.051843827314041
 30
0.0
 11
2.916688261800175
 21
4.051843827314041
 31
0.0
  0
LINE
  5
1526
330
1F
100
AcDbEntity
  8
4
100
AcDbLine
 10
2.916688261800175
 20
4.051843827314041
 30
0.0
 11
2.916688261800175
 21
4.098843827314045
 31
0.0
  0
INSERT
  5
1527
330
1F
100
AcDbEntity
  8
2
100
AcDbBlockReference
  2
LE029
 10
3.213541806336729
 20
4.226772502325868
 30
0.0
 50
180.0
  0
INSERT
  5
1528
330
1F
100
AcDbEntity
  8
2
100
AcDbBlockReference
  2
LE029
 10
3.213541806336729
 20
3.38204815802484
 30
0.0
 50
180.0
  0
INSERT
  5
1529
330
1F
100
AcDbEntity
  8
2
100
AcDbBlockReference
  2
LE029
 10
2.901041806336729
 20
3.68254815802484
 30
0.0
  0
INSERT
  5
152A
330
1F
100
AcDbEntity
  8
2
100
AcDbBlockReference
  2
LE029
 10
2.901041806336729
 20
4.527272502325867
 30
0.0
  0
LINE
  5
152B
330
1F
100
AcDbEntity
  8
2
100
AcDbLine
 10
2.919791806336729
 20
3.720048158024841
 30
0.0
 11
3.169791806336729
 21
3.720048158024841
 31
0.0
  0
LINE
  5
152C
330
1F
100
AcDbEntity
  8
2
100
AcDbLine
 10
2.944791806336728
 20
3.344548158024839
 30
0.0
 11
3.194791806336728
 21
3.344548158024839
 31
0.0
  0
LINE
  5
152D
330
1F
100
AcDbEntity
  8
2
100
AcDbLine
 10
2.901041806336729
 20
3.68254815802484
 30
0.0
 11
2.901041806336729
 21
3.44004815802484
 31
0.0
  0
LINE
  5
152E
330
1F
100
AcDbEntity
  8
2
100
AcDbLine
 10
3.213541806336729
 20
3.62454815802484
 30
0.0
 11
3.213541806336729
 21
3.38204815802484
 31
0.0
  0
LINE
  5
152F
330
1F
100
AcDbEntity
  8
2
100
AcDbLine
 10
3.213541806336729
 20
4.469272502325868
 30
0.0
 11
3.213541806336729
 21
4.226772502325868
 31
0.0
  0
LINE
  5
1530
330
1F
100
AcDbEntity
  8
2
100
AcDbLine
 10
2.901041806336729
 20
4.527272502325867
 30
0.0
 11
2.901041806336729
 21
4.284772502325868
 31
0.0
  0
LINE
  5
1531
330
1F
100
AcDbEntity
  8
2
100
AcDbLine
 10
2.944791806336728
 20
4.189272502325867
 30
0.0
 11
3.194791806336728
 21
4.189272502325867
 31
0.0
  0
LINE
  5
1532
330
1F
100
AcDbEntity
  8
2
100
AcDbLine
 10
2.919791806336729
 20
4.564772502325869
 30
0.0
 11
3.169791806336729
 21
4.564772502325869
 31
0.0
  0
CIRCLE
  5
1553
330
1F
100
AcDbEntity
  8
4
100
AcDbCircle
 10
2.931688261800176
 20
5.4109851177828
 30
0.0
 40
0.023
  0
LWPOLYLINE
  5
1554
330
1F
100
AcDbEntity
  8
4
100
AcDbPolyline
 90
        2
 70
     1
 43
0.01
 10
2.926688261800177
 20
5.463485117782798
 42
1.0
 10
2.936688261800175
 20
5.463485117782798
 42
1.0
  0
LWPOLYLINE
  5
1555
330
1F
100
AcDbEntity
  8
4
100
AcDbPolyline
 90
        2
 70
     1
 43
0.01
 10
2.926688261800177
 20
5.358485117782798
 42
1.0
 10
2.936688261800175
 20
5.358485117782798
 42
1.0
  0
LINE
  5
1556
330
1F
100
AcDbEntity
  8
4
100
AcDbLine
 10
2.837688261800175
 20
5.592968473423404
 30
0.0
 11
3.025688261800177
 21
5.592968473423404
 31
0.0
  0
LINE
  5
1557
330
1F
100
AcDbEntity
  8
4
100
AcDbLine
 10
3.025688261800177
 20
5.592968473423404
 30
0.0
 11
2.993688261800177
 21
5.290468473423402
 31
0.0
  0
LINE
  5
1558
330
1F
100
AcDbEntity
  8
4
100
AcDbLine
 10
2.837688261800175
 20
5.592968473423404
 30
0.0
 11
2.869688261800175
 21
5.290468473423402
 31
0.0
  0
LINE
  5
1559
330
1F
100
AcDbEntity
  8
4
100
AcDbLine
 10
2.869688261800175
 20
5.290468473423402
 30
0.0
 11
2.993688261800177
 21
5.290468473423402
 31
0.0
  0
LINE
  5
155A
330
1F
100
AcDbEntity
  8
4
100
AcDbLine
 10
2.854358733856874
 20
5.577968473423403
 30
0.0
 11
2.883185180137865
 21
5.305468473423402
 31
0.0
  0
LINE
  5
155B
330
1F
100
AcDbEntity
  8
4
100
AcDbLine
 10
2.883185180137865
 20
5.305468473423402
 30
0.0
 11
2.980191343462487
 21
5.305468473423402
 31
0.0
  0
LINE
  5
155C
330
1F
100
AcDbEntity
  8
4
100
AcDbLine
 10
3.009017789743478
 20
5.577968473423403
 30
0.0
 11
2.980191343462487
 21
5.305468473423402
 31
0.0
  0
LINE
  5
155D
330
1F
100
AcDbEntity
  8
4
100
AcDbLine
 10
2.854358733856874
 20
5.577968473423403
 30
0.0
 11
3.009017789743478
 21
5.577968473423403
 31
0.0
  0
LINE
  5
155E
330
1F
100
AcDbEntity
  8
4
100
AcDbLine
 10
2.946688261800177
 20
5.577968473423403
 30
0.0
 11
2.946688261800177
 21
5.530968473423399
 31
0.0
  0
LINE
  5
155F
330
1F
100
AcDbEntity
  8
4
100
AcDbLine
 10
2.946688261800177
 20
5.530968473423399
 30
0.0
 11
2.916688261800175
 21
5.530968473423399
 31
0.0
  0
LINE
  5
1560
330
1F
100
AcDbEntity
  8
4
100
AcDbLine
 10
2.916688261800175
 20
5.530968473423399
 30
0.0
 11
2.916688261800175
 21
5.577968473423403
 31
0.0
  0
INSERT
  5
1561
330
1F
100
AcDbEntity
  8
2
100
AcDbBlockReference
  2
LE029
 10
3.213541806336729
 20
5.705897148435226
 30
0.0
 50
180.0
  0
INSERT
  5
1562
330
1F
100
AcDbEntity
  8
2
100
AcDbBlockReference
  2
LE029
 10
3.213541806336729
 20
4.861172804134199
 30
0.0
 50
180.0
  0
INSERT
  5
1563
330
1F
100
AcDbEntity
  8
2
100
AcDbBlockReference
  2
LE029
 10
2.901041806336729
 20
5.161672804134198
 30
0.0
  0
INSERT
  5
1564
330
1F
100
AcDbEntity
  8
2
100
AcDbBlockReference
  2
LE029
 10
2.901041806336729
 20
6.006397148435226
 30
0.0
  0
LINE
  5
1565
330
1F
100
AcDbEntity
  8
2
100
AcDbLine
 10
2.919791806336729
 20
5.1991728041342
 30
0.0
 11
3.169791806336729
 21
5.1991728041342
 31
0.0
  0
LINE
  5
1566
330
1F
100
AcDbEntity
  8
2
100
AcDbLine
 10
2.944791806336728
 20
4.823672804134197
 30
0.0
 11
3.194791806336728
 21
4.823672804134197
 31
0.0
  0
LINE
  5
1567
330
1F
100
AcDbEntity
  8
2
100
AcDbLine
 10
2.901041806336729
 20
5.161672804134198
 30
0.0
 11
2.901041806336729
 21
4.919172804134198
 31
0.0
  0
LINE
  5
1568
330
1F
100
AcDbEntity
  8
2
100
AcDbLine
 10
3.213541806336729
 20
5.103672804134198
 30
0.0
 11
3.213541806336729
 21
4.861172804134199
 31
0.0
  0
LINE
  5
1569
330
1F
100
AcDbEntity
  8
2
100
AcDbLine
 10
3.213541806336729
 20
5.948397148435226
 30
0.0
 11
3.213541806336729
 21
5.705897148435226
 31
0.0
  0
LINE
  5
156A
330
1F
100
AcDbEntity
  8
2
100
AcDbLine
 10
2.901041806336729
 20
6.006397148435226
 30
0.0
 11
2.901041806336729
 21
5.763897148435226
 31
0.0
  0
LINE
  5
156B
330
1F
100
AcDbEntity
  8
2
100
AcDbLine
 10
2.944791806336728
 20
5.668397148435225
 30
0.0
 11
3.194791806336728
 21
5.668397148435225
 31
0.0
  0
LINE
  5
156C
330
1F
100
AcDbEntity
  8
2
100
AcDbLine
 10
2.919791806336729
 20
6.043897148435227
 30
0.0
 11
3.169791806336729
 21
6.043897148435227
 31
0.0
  0
VIEWPORT
  5
69B
330
1B
100
AcDbEntity
 67
     1
  8
0
100
AcDbViewport
 10
5.249999639556163
 20
3.999999883606677
 30
0.0
 40
18.82780997001893
 41
8.992999745766947
 68
     1
 69
     1
 12
5.249999639556163
 22
3.999999883606677
 13
0.0
 23
0.0
 14
0.5
 24
0.5
 15
0.5
 25
0.5
 16
0.0
 26
0.0
 36
1.0
 17
0.0
 27
0.0
 37
0.0
 42
50.0
 43
0.0
 44
0.0
 45
8.992999745766947
 50
0.0
 51
0.0
 72
   100
 90
    32800
  1

281
     0
 71
     1
 74
     0
110
0.0
120
0.0
130
0.0
111
1.0
121
0.0
131
0.0
112
0.0
122
1.0
132
0.0
 79
     0
146
0.0
170
     0
  0
VIEWPORT
  5
69D
330
1B
100
AcDbEntity
 67
     1
  8
VP-1
100
AcDbViewport
 10
5.321783238576831
 20
3.91805912011122
 30
0.0
 40
10.00868328532046
 41
7.456610302866103
 68
     2
 69
     2
 12
5.869791806336735
 22
4.31679388921874
 13
0.0
 23
0.0
 14
0.5
 24
0.5
 15
0.5
 25
0.5
 16
0.0
 26
0.0
 36
1.0
 17
0.0
 27
0.0
 37
0.0
 42
50.0
 43
0.0
 44
0.0
 45
7.456610302866103
 50
0.0
 51
0.0
 72
   100
 90
    32864
  1

281
     0
 71
     1
 74
     0
110
0.0
120
0.0
130
0.0
111
1.0
121
0.0
131
0.0
112
0.0
122
1.0
132
0.0
 79
     0
146
0.0
170
     0
  0
ENDSEC
  0
SECTION
  2
OBJECTS
  0
DICTIONARY
  5
C
330
0
100
AcDbDictionary
281
     1
  3
ACAD_CIP_PREVIOUS_PRODUCT_INFO
350
1493
  3
ACAD_COLOR
350
6B6
  3
ACAD_DETAILVIEWSTYLE
350
148A
  3
ACAD_GROUP
350
D
  3
ACAD_LAYOUT
350
1A
  3
ACAD_MATERIAL
350
6A1
  3
ACAD_MLEADERSTYLE
350
1485
  3
ACAD_MLINESTYLE
350
17
  3
ACAD_PLOTSETTINGS
350
19
  3
ACAD_PLOTSTYLENAME
350
E
  3
ACAD_SCALELIST
350
1473
  3
ACAD_SECTIONVIEWSTYLE
350
1487
  3
ACAD_TABLESTYLE
350
6B7
  3
ACAD_VISUALSTYLE
350
6A5
  3
ACDB_RECOMPOSE_DATA
350
162A
  3
AcDbVariableDictionary
350
D45
  3
AcDsDecomposeData
350
1630
  3
AEC_PROPERTY_SET_DEFS
350
14F5
  0
DICTIONARY
  5
D2B
330
8
100
AcDbDictionary
280
     1
281
     1
  0
DICTIONARY
  5
6D3
330
2
100
AcDbDictionary
280
     1
281
     1
  3
ACAD_LAYERSTATES
360
6D4
  0
DICTIONARY
  5
1494
330
10
100
AcDbDictionary
280
     1
281
     1
  3
ADSK_XREC_LAYER_RECONCILED
360
1495
  0
DICTIONARY
  5
1496
330
33
100
AcDbDictionary
280
     1
281
     1
  3
ADSK_XREC_LAYER_RECONCILED
360
1497
  0
DICTIONARY
  5
1498
330
34
100
AcDbDictionary
280
     1
281
     1
  3
ADSK_XREC_LAYER_RECONCILED
360
1499
  0
DICTIONARY
  5
149A
330
35
100
AcDbDictionary
280
     1
281
     1
  3
ADSK_XREC_LAYER_RECONCILED
360
149B
  0
DICTIONARY
  5
149C
330
691
100
AcDbDictionary
280
     1
281
     1
  3
ADSK_XREC_LAYER_RECONCILED
360
149D
  0
DICTIONARY
  5
149E
330
69E
100
AcDbDictionary
280
     1
281
     1
  3
ADSK_XREC_LAYER_RECONCILED
360
149F
  0
XRECORD
  5
1493
102
{ACAD_REACTORS
330
C
102
}
330
C
100
AcDbXrecord
280
     1
300
AMECH_PP
300
2013
300
AMECH_PP_F_S
  0
DICTIONARY
  5
6B6
102
{ACAD_REACTORS
330
C
102
}
330
C
100
AcDbDictionary
281
     1
  0
DICTIONARY
  5
148A
102
{ACAD_REACTORS
330
C
102
}
330
C
100
AcDbDictionary
281
     1
  3
Imperial24
350
148B
  0
DICTIONARY
  5
D
102
{ACAD_REACTORS
330
C
102
}
330
C
100
AcDbDictionary
281
     1
  0
DICTIONARY
  5
1A
102
{ACAD_REACTORS
330
C
102
}
330
C
100
AcDbDictionary
281
     1
  3
Layout1
350
1E
  3
Layout2
350
26
  3
Model
350
22
  0
DICTIONARY
  5
6A1
102
{ACAD_REACTORS
330
C
102
}
330
C
100
AcDbDictionary
281
     1
  3
ByBlock
350
6A3
  3
ByLayer
350
6A2
  3
Global
350
6A4
  0
DICTIONARY
  5
1485
102
{ACAD_REACTORS
330
C
102
}
330
C
100
AcDbDictionary
281
     1
  3
Standard
350
1486
  0
DICTIONARY
  5
17
102
{ACAD_REACTORS
330
C
102
}
330
C
100
AcDbDictionary
281
     1
  3
Standard
350
18
  0
DICTIONARY
  5
19
102
{ACAD_REACTORS
330
C
102
}
330
C
100
AcDbDictionary
281
     1
  0
ACDBDICTIONARYWDFLT
  5
E
102
{ACAD_REACTORS
330
C
102
}
330
C
100
AcDbDictionary
281
     1
  3
Normal
350
F
100
AcDbDictionaryWithDefault
340
F
  0
DICTIONARY
  5
1473
102
{ACAD_REACTORS
330
C
102
}
330
C
100
AcDbDictionary
281
     1
  3
A0
350
1474
  3
A1
350
1475
  3
A2
350
1476
  3
A3
350
1477
  3
A4
350
1478
  3
A5
350
1479
  3
A6
350
147A
  3
A7
350
147B
  3
A8
350
147C
  3
A9
350
147D
  3
B0
350
147E
  3
B1
350
147F
  3
B2
350
1480
  3
B3
350
1481
  3
B4
350
1482
  3
B5
350
1483
  3
B6
350
1484
  0
DICTIONARY
  5
1487
102
{ACAD_REACTORS
330
C
102
}
330
C
100
AcDbDictionary
281
     1
  3
Imperial24
350
1489
  0
DICTIONARY
  5
6B7
102
{ACAD_REACTORS
330
C
102
}
330
C
100
AcDbDictionary
281
     1
  3
Standard
350
6B8
  0
DICTIONARY
  5
6A5
102
{ACAD_REACTORS
330
C
102
}
330
C
100
AcDbDictionary
281
     1
  3
2dWireframe
350
6AB
  3
3D Hidden
350
D49
  3
3dWireframe
350
D48
  3
Basic
350
6AA
  3
Brighten
350
6B1
  3
ColorChange
350
6B5
  3
Conceptual
350
D4A
  3
Dim
350
6B0
  3
EdgeColorOff
350
1472
  3
Facepattern
350
6B4
  3
Flat
350
6A6
  3
FlatWithEdges
350
6A7
  3
Gouraud
350
6A8
  3
GouraudWithEdges
350
6A9
  3
Hidden
350
146A
  3
JitterOff
350
1470
  3
Linepattern
350
6B3
  3
OverhangOff
350
1471
  3
Realistic
350
D4B
  3
Shaded
350
146F
  3
Shaded with edges
350
146E
  3
Shades of Gray
350
146B
  3
Sketchy
350
146C
  3
Thicken
350
6B2
  3
Wireframe
350
1469
  3
X-Ray
350
146D
  0
XRECORD
  5
162A
102
{ACAD_REACTORS
330
C
102
}
330
C
100
AcDbXrecord
280
     1
 90
        1
330
6B8
  0
DICTIONARY
  5
D45
102
{ACAD_REACTORS
330
C
102
}
330
C
100
AcDbDictionary
281
     1
  3
CANNOSCALE
350
1627
  3
CMLEADERSTYLE
350
1624
  3
CTABLESTYLE
350
D46
  3
CVIEWDETAILSTYLE
350
1625
  3
CVIEWSECTIONSTYLE
350
1626
  0
DICTIONARY
  5
1630
102
{ACAD_REACTORS
330
C
102
}
330
C
100
AcDbDictionary
281
     1
  3
AcDsRecords
350
1632
  3
AcDsSchemas
350
1631
1001
ACAD
1070
     2
  0
DICTIONARY
  5
14F5
102
{ACAD_REACTORS
330
C
102
}
330
C
100
AcDbDictionary
281
     1
  0
DICTIONARY
  5
6D4
102
{ACAD_REACTORS
330
6D3
102
}
330
6D3
100
AcDbDictionary
281
     1
  0
XRECORD
  5
1495
102
{ACAD_REACTORS
330
1494
102
}
330
1494
100
AcDbXrecord
280
     1
290
     1
  0
XRECORD
  5
1497
102
{ACAD_REACTORS
330
1496
102
}
330
1496
100
AcDbXrecord
280
     1
290
     1
  0
XRECORD
  5
1499
102
{ACAD_REACTORS
330
1498
102
}
330
1498
100
AcDbXrecord
280
     1
290
     1
  0
XRECORD
  5
149B
102
{ACAD_REACTORS
330
149A
102
}
330
149A
100
AcDbXrecord
280
     1
290
     1
  0
XRECORD
  5
149D
102
{ACAD_REACTORS
330
149C
102
}
330
149C
100
AcDbXrecord
280
     1
290
     1
  0
XRECORD
  5
149F
102
{ACAD_REACTORS
330
149E
102
}
330
149E
100
AcDbXrecord
280
     1
290
     1
  0
ACDBDETAILVIEWSTYLE
  5
148B
102
{ACAD_REACTORS
330
148A
102
}
330
148A
100
AcDbModelDocViewStyle
 70
     0
  3
Imperial24
290
     0
100
AcDbDetailViewStyle
 70
     0
 71
     0
 90
        3
 71
     1
340
11
 62
   256
 40
0.24
340
0
 62
   256
 40
0.24
300

 40
0.36
280
     3
 71
     2
340
16
 90
       25
 62
   256
 71
     3
340
11
 62
   256
 40
0.24
 90
        1
 40
0.75
 90
        1
300
%<\AcVar ViewType \f "%tc1">% %<\AcVar ViewDetailId>%\PSCALE %<\AcVar ViewScale \f "%sn">%
 71
     4
340
16
 90
       25
 62
   256
340
16
 90
       25
 62
   256
280
     0
  0
LAYOUT
  5
1E
102
{ACAD_REACTORS
330
1A
102
}
330
1A
100
AcDbPlotSettings
  1

  2
none_device
  4
Letter_(8.50_x_11.00_Inches)
  6

 40
6.349999904632568
 41
6.349999904632568
 42
6.350006103515625
 43
6.350006103515625
 44
215.8999938964844
 45
279.3999938964844
 46
0.0
 47
0.0
 48
0.0
 49
0.0
140
0.0
141
0.0
142
1.0
143
1.0
 70
   688
 72
     0
 73
     1
 74
     5
  7
monochrome.ctb
 75
    16
147
1.0
 76
     0
 77
     2
 78
   300
148
0.0
149
0.0
100
AcDbLayout
  1
Layout1
 70
     1
 71
     1
 10
-0.2500002402958907
 20
-0.2499999962453767
 11
10.74999951940821
 21
8.249999763458731
 12
0.0
 22
0.0
 32
0.0
 14
0.3173218056528384
 24
0.1892395231281867
 34
-0.0015258207003583
 15
10.32678225255429
 25
7.646896381684225
 35
0.0000000349246037
146
0.0
 13
0.0
 23
0.0
 33
0.0
 16
1.0
 26
0.0
 36
0.0
 17
0.0
 27
1.0
 37
0.0
 76
     0
330
1B
331
69B
  0
LAYOUT
  5
26
102
{ACAD_REACTORS
330
1A
102
}
330
1A
100
AcDbPlotSettings
  1

  2
Lexmark E210
  4

  6

 40
0.0
 41
0.0
 42
0.0
 43
0.0
 44
0.0
 45
0.0
 46
0.0
 47
0.0
 48
0.0
 49
0.0
140
0.0
141
0.0
142
1.0
143
1.0
 70
   688
 72
     0
 73
     0
 74
     5
  7
monochrome.ctb
 75
    16
147
1.0
 76
     0
 77
     2
 78
   300
148
0.0
149
0.0
100
AcDbLayout
  1
Layout2
 70
     1
 71
     2
 10
0.0
 20
0.0
 11
12.0
 21
9.0
 12
0.0
 22
0.0
 32
0.0
 14
0.0
 24
0.0
 34
0.0
 15
0.0
 25
0.0
 35
0.0
146
0.0
 13
0.0
 23
0.0
 33
0.0
 16
1.0
 26
0.0
 36
0.0
 17
0.0
 27
1.0
 37
0.0
 76
     0
330
23
  0
LAYOUT
  5
22
102
{ACAD_REACTORS
330
1A
102
}
330
1A
100
AcDbPlotSettings
  1

  2
none_device
  4
Letter_(8.50_x_11.00_Inches)
  6

 40
6.349999904632568
 41
6.349999904632568
 42
6.350006103515625
 43
6.350006103515625
 44
215.8999938964844
 45
279.3999938964844
 46
0.0
 47
0.0
 48
0.0
 49
0.0
140
0.0
141
0.0
142
1.0
143
1.263289121271446
 70
 11952
 72
     0
 73
     1
 74
     0
  7
monochrome.ctb
 75
     0
147
0.7915844308019865
 76
     0
 77
     2
 78
   300
148
19.36171998889476
149
-42.44412666697753
100
AcDbLayout
  1
Model
 70
     1
 71
     0
 10
0.0
 20
0.0
 11
12.0
 21
9.0
 12
0.0
 22
0.0
 32
0.0
 14
0.0
 24
0.0
 34
0.0
 15
0.0
 25
0.0
 35
0.0
146
0.0
 13
0.0
 23
0.0
 33
0.0
 16
1.0
 26
0.0
 36
0.0
 17
0.0
 27
1.0
 37
0.0
 76
     0
330
1F
331
69F
1001
ACAD_PSEXT
1000
None
1000
None
1000
Not applicable
1000
The layout will not be plotted unless a new plotter configuration name is selected.
1070
     0
  0
MATERIAL
  5
6A3
102
{ACAD_XDICTIONARY
360
1635
102
}
102
{ACAD_REACTORS
330
6A1
102
}
330
6A1
100
AcDbMaterial
  1
ByBlock
 73
     1
 78
     1
172
     1
176
     1
270
     1
274
     1
  0
MATERIAL
  5
6A2
102
{ACAD_XDICTIONARY
360
1633
102
}
102
{ACAD_REACTORS
330
6A1
102
}
330
6A1
100
AcDbMaterial
  1
ByLayer
 73
     1
 78
     1
172
     1
176
     1
270
     1
274
     1
  0
MATERIAL
  5
6A4
102
{ACAD_XDICTIONARY
360
1637
102
}
102
{ACAD_REACTORS
330
6A1
102
}
330
6A1
100
AcDbMaterial
  1
Global
 73
     1
 78
     1
172
     1
176
     1
270
     1
274
     1
  0
MLEADERSTYLE
  5
1486
102
{ACAD_XDICTIONARY
360
166F
102
}
102
{ACAD_REACTORS
330
1485
102
}
330
1485
100
AcDbMLeaderStyle
170
     2
171
     1
172
     0
 90
        2
 40
0.0
 41
0.0
173
     1
 91
-1056964608
340
14
 92
       -2
290
     1
 42
0.09
291
     1
 43
0.36
  3
Standard
 44
0.18
300

342
11
174
     1
178
     6
175
     1
176
     0
 93
-1056964608
 45
0.18
292
     0
297
     0
 46
0.18
 94
-1056964608
 47
1.0
 49
1.0
140
1.0
293
     1
141
0.0
294
     1
177
     0
142
1.0
295
     0
296
     0
143
0.125
1001
ACAD_MLEADERVER
1070
     2
  0
MLINESTYLE
  5
18
102
{ACAD_REACTORS
330
17
102
}
330
17
100
AcDbMlineStyle
  2
STANDARD
 70
     0
  3

 62
   256
 51
90.0
 52
90.0
 71
     2
 49
0.5
 62
   256
  6
BYLAYER
 49
-0.5
 62
   256
  6
BYLAYER
  0
ACDBPLACEHOLDER
  5
F
102
{ACAD_REACTORS
330
E
102
}
330
E
  0
SCALE
  5
1474
102
{ACAD_REACTORS
330
1473
102
}
330
1473
100
AcDbScale
 70
     0
300
1:1
140
1.0
141
1.0
290
     1
  0
SCALE
  5
1475
102
{ACAD_REACTORS
330
1473
102
}
330
1473
100
AcDbScale
 70
     0
300
1/128" = 1'-0"
140
0.0078125
141
12.0
290
     0
  0
SCALE
  5
1476
102
{ACAD_REACTORS
330
1473
102
}
330
1473
100
AcDbScale
 70
     0
300
1/64" = 1'-0"
140
0.015625
141
12.0
290
     0
  0
SCALE
  5
1477
102
{ACAD_REACTORS
330
1473
102
}
330
1473
100
AcDbScale
 70
     0
300
1/32" = 1'-0"
140
0.03125
141
12.0
290
     0
  0
SCALE
  5
1478
102
{ACAD_REACTORS
330
1473
102
}
330
1473
100
AcDbScale
 70
     0
300
1/16" = 1'-0"
140
0.0625
141
12.0
290
     0
  0
SCALE
  5
1479
102
{ACAD_REACTORS
330
1473
102
}
330
1473
100
AcDbScale
 70
     0
300
3/32" = 1'-0"
140
0.09375
141
12.0
290
     0
  0
SCALE
  5
147A
102
{ACAD_REACTORS
330
1473
102
}
330
1473
100
AcDbScale
 70
     0
300
1/8" = 1'-0"
140
0.125
141
12.0
290
     0
  0
SCALE
  5
147B
102
{ACAD_REACTORS
330
1473
102
}
330
1473
100
AcDbScale
 70
     0
300
3/16" = 1'-0"
140
0.1875
141
12.0
290
     0
  0
SCALE
  5
147C
102
{ACAD_REACTORS
330
1473
102
}
330
1473
100
AcDbScale
 70
     0
300
1/4" = 1'-0"
140
0.25
141
12.0
290
     0
  0
SCALE
  5
147D
102
{ACAD_REACTORS
330
1473
102
}
330
1473
100
AcDbScale
 70
     0
300
3/8" = 1'-0"
140
0.375
141
12.0
290
     0
  0
SCALE
  5
147E
102
{ACAD_REACTORS
330
1473
102
}
330
1473
100
AcDbScale
 70
     0
300
1/2" = 1'-0"
140
0.5
141
12.0
290
     0
  0
SCALE
  5
147F
102
{ACAD_REACTORS
330
1473
102
}
330
1473
100
AcDbScale
 70
     0
300
3/4" = 1'-0"
140
0.75
141
12.0
290
     0
  0
SCALE
  5
1480
102
{ACAD_REACTORS
330
1473
102
}
330
1473
100
AcDbScale
 70
     0
300
1" = 1'-0"
140
1.0
141
12.0
290
     0
  0
SCALE
  5
1481
102
{ACAD_REACTORS
330
1473
102
}
330
1473
100
AcDbScale
 70
     0
300
1-1/2" = 1'-0"
140
1.5
141
12.0
290
     0
  0
SCALE
  5
1482
102
{ACAD_REACTORS
330
1473
102
}
330
1473
100
AcDbScale
 70
     0
300
3" = 1'-0"
140
3.0
141
12.0
290
     0
  0
SCALE
  5
1483
102
{ACAD_REACTORS
330
1473
102
}
330
1473
100
AcDbScale
 70
     0
300
6" = 1'-0"
140
6.0
141
12.0
290
     0
  0
SCALE
  5
1484
102
{ACAD_REACTORS
330
1473
102
}
330
1473
100
AcDbScale
 70
     0
300
1'-0" = 1'-0"
140
12.0
141
12.0
290
     0
  0
ACDBSECTIONVIEWSTYLE
  5
1489
102
{ACAD_REACTORS
330
1487
102
}
330
1487
100
AcDbModelDocViewStyle
 70
     0
  3
Imperial24
290
     0
100
AcDbSectionViewStyle
 70
     0
 71
     0
 90
       78
 71
     1
340
11
 62
   256
 40
0.24
340
0
340
0
 62
   256
 40
0.24
300
I, O, Q, S, X, Z
 40
0.48
 90
        3
 40
0.18
 90
        1
 71
     2
340
1488
 90
       25
 62
   256
340
16
 90
       50
 62
   256
 40
0.24
 40
0.0
 40
0.24
 71
     3
340
11
 62
   256
 40
0.24
 90
        1
 40
0.75
 90
        1
300
%<\AcVar ViewType \f "%tc1">% %<\AcVar ViewSectionStartId>%-%<\AcVar ViewSectionEndId>%\PSCALE %<\AcVar ViewScale \f "%sn">%
 71
     4
 62
   256
 62
   257
300
ANSI31
 40
1.0
 90
        0
290
     0
290
     0
 90
        6
 40
0.0
 40
1.570796326794896
 40
0.2617993877991494
 40
1.308996938995747
 40
-0.2617993877991494
 40
1.832595714594046
  0
TABLESTYLE
  5
6B8
102
{ACAD_XDICTIONARY
360
1628
102
}
102
{ACAD_REACTORS
330
6B7
102
}
330
6B7
100
AcDbTableStyle
  3
Standard
 70
     0
 71
     0
 40
0.06
 41
0.06
280
     0
281
     0
  7
Standard
140
0.18
170
     2
 62
     0
 63
     7
283
     0
274
    -2
284
     1
 64
     0
275
    -2
285
     1
 65
     0
276
    -2
286
     1
 66
     0
277
    -2
287
     1
 67
     0
278
    -2
288
     1
 68
     0
279
    -2
289
     1
 69
     0
  7
Standard
140
0.25
170
     5
 62
     0
 63
     7
283
     0
274
    -2
284
     1
 64
     0
275
    -2
285
     1
 65
     0
276
    -2
286
     1
 66
     0
277
    -2
287
     1
 67
     0
278
    -2
288
     1
 68
     0
279
    -2
289
     1
 69
     0
  7
Standard
140
0.18
170
     5
 62
     0
 63
     7
283
     0
274
    -2
284
     1
 64
     0
275
    -2
285
     1
 65
     0
276
    -2
286
     1
 66
     0
277
    -2
287
     1
 67
     0
278
    -2
288
     1
 68
     0
279
    -2
289
     1
 69
     0
  0
VISUALSTYLE
  5
6AB
102
{ACAD_XDICTIONARY
360
1643
102
}
102
{ACAD_REACTORS
330
6A5
102
}
330
6A5
100
AcDbVisualStyle
  2
2dWireframe
 70
     4
 71
     0
 72
     2
 73
     0
 90
        0
 40
-0.6
 41
-30.0
 62
     5
 63
     7
421
 16777215
 74
     1
 91
        4
 64
     7
 65
   257
 75
     1
175
     1
 42
1.0
 92
        0
 66
   257
 43
1.0
 76
     1
 77
     6
 78
     2
 67
     7
 79
     5
170
     0
171
     0
290
     0
174
     0
 93
        1
 44
0.0
173
     0
291
     0
 45
0.0
1001
ACAD
1000
AcDbSavedByObjectVersion
1070
     0
  0
VISUALSTYLE
  5
D49
102
{ACAD_XDICTIONARY
360
1654
102
}
102
{ACAD_REACTORS
330
6A5
102
}
330
6A5
100
AcDbVisualStyle
  2
3D Hidden
 70
     6
 71
     1
 72
     2
 73
     2
 90
        0
 40
-0.6
 41
-30.0
 62
     5
 63
     7
421
 16777215
 74
     2
 91
        2
 64
     7
 65
   257
 75
     2
175
     1
 42
40.0
 92
        0
 66
   257
 43
1.0
 76
     1
 77
     6
 78
     2
 67
     7
 79
     3
170
     0
171
     0
290
     0
174
     0
 93
        1
 44
0.0
173
     0
291
     0
 45
0.0
1001
ACAD
1000
AcDbSavedByObjectVersion
1070
     0
  0
VISUALSTYLE
  5
D48
102
{ACAD_XDICTIONARY
360
1652
102
}
102
{ACAD_REACTORS
330
6A5
102
}
330
6A5
100
AcDbVisualStyle
  2
3dWireframe
 70
     5
 71
     0
 72
     2
 73
     0
 90
        0
 40
-0.6
 41
-30.0
 62
     5
 63
     7
421
 16777215
 74
     1
 91
        4
 64
     7
 65
   257
 75
     1
175
     1
 42
1.0
 92
        0
 66
   257
 43
1.0
 76
     1
 77
     6
 78
     2
 67
     7
 79
     5
170
     0
171
     0
290
     0
174
     0
 93
        1
 44
0.0
173
     0
291
     0
 45
0.0
1001
ACAD
1000
AcDbSavedByObjectVersion
1070
     0
  0
VISUALSTYLE
  5
6AA
102
{ACAD_XDICTIONARY
360
1641
102
}
102
{ACAD_REACTORS
330
6A5
102
}
330
6A5
100
AcDbVisualStyle
  2
Basic
 70
     7
 71
     1
 72
     0
 73
     1
 90
        0
 40
-0.6
 41
-30.0
 62
     5
 63
     7
421
 16777215
 74
     0
 91
        4
 64
     7
 65
   257
 75
     1
175
     1
 42
1.0
 92
        8
 66
     7
 43
1.0
 76
     1
 77
     6
 78
     2
 67
     7
 79
     5
170
     0
171
     0
290
     0
174
     0
 93
        1
 44
0.0
173
     0
291
     1
 45
0.0
1001
ACAD
1000
AcDbSavedByObjectVersion
1070
     0
  0
VISUALSTYLE
  5
6B1
102
{ACAD_XDICTIONARY
360
1647
102
}
102
{ACAD_REACTORS
330
6A5
102
}
330
6A5
100
AcDbVisualStyle
  2
Brighten
 70
    12
 71
     2
 72
     2
 73
     0
 90
        0
 40
-0.6
 41
-30.0
 62
     5
 63
     7
421
 16777215
 74
     1
 91
        4
 64
     7
 65
   257
 75
     1
175
     1
 42
1.0
 92
        8
 66
     7
 43
1.0
 76
     1
 77
     6
 78
     2
 67
     7
 79
     5
170
     0
171
     0
290
     0
174
     0
 93
        1
 44
50.0
173
     0
291
     1
 45
0.0
1001
ACAD
1000
AcDbSavedByObjectVersion
1070
     0
  0
VISUALSTYLE
  5
6B5
102
{ACAD_XDICTIONARY
360
164F
102
}
102
{ACAD_REACTORS
330
6A5
102
}
330
6A5
100
AcDbVisualStyle
  2
ColorChange
 70
    16
 71
     2
 72
     2
 73
     3
 90
        0
 40
-0.6
 41
-30.0
 62
     5
 63
     8
421
  8421504
 74
     1
 91
        4
 64
     7
 65
   257
 75
     1
175
     1
 42
1.0
 92
        8
 66
     8
424
  8421504
 43
1.0
 76
     1
 77
     6
 78
     2
 67
     7
 79
     5
170
     0
171
     0
290
     0
174
     0
 93
        1
 44
0.0
173
     0
291
     1
 45
0.0
1001
ACAD
1000
AcDbSavedByObjectVersion
1070
     0
  0
VISUALSTYLE
  5
D4A
102
{ACAD_XDICTIONARY
360
1656
102
}
102
{ACAD_REACTORS
330
6A5
102
}
330
6A5
100
AcDbVisualStyle
  2
Conceptual
 70
     9
 71
     3
 72
     2
 73
     0
 90
        0
 40
-0.6
 41
-30.0
 62
     5
 63
     7
421
 16777215
 74
     2
 91
        2
 64
     7
 65
   257
 75
     1
175
     1
 42
40.0
 92
        8
 66
     7
 43
1.0
 76
     1
 77
     6
 78
     2
 67
     7
 79
     3
170
     0
171
     0
290
     0
174
     0
 93
        1
 44
0.0
173
     0
291
     0
 45
0.0
1001
ACAD
1000
AcDbSavedByObjectVersion
1070
     0
  0
VISUALSTYLE
  5
6B0
102
{ACAD_XDICTIONARY
360
1645
102
}
102
{ACAD_REACTORS
330
6A5
102
}
330
6A5
100
AcDbVisualStyle
  2
Dim
 70
    11
 71
     2
 72
     2
 73
     0
 90
        0
 40
-0.6
 41
-30.0
 62
     5
 63
     7
421
 16777215
 74
     1
 91
        4
 64
     7
 65
   257
 75
     1
175
     1
 42
1.0
 92
        8
 66
     7
 43
1.0
 76
     1
 77
     6
 78
     2
 67
     7
 79
     5
170
     0
171
     0
290
     0
174
     0
 93
        1
 44
-50.0
173
     0
291
     1
 45
0.0
1001
ACAD
1000
AcDbSavedByObjectVersion
1070
     0
  0
VISUALSTYLE
  5
1472
102
{ACAD_XDICTIONARY
360
166C
102
}
102
{ACAD_REACTORS
330
6A5
102
}
330
6A5
100
AcDbVisualStyle
  2
EdgeColorOff
 70
    22
 71
     2
 72
     2
 73
     0
 90
        0
 40
-0.6
 41
-30.0
 62
     5
 63
     7
421
 16777215
 74
     1
 91
        4
 64
     7
 65
   257
 75
     1
175
     1
 42
1.0
 92
        8
 66
     7
 43
1.0
 76
     1
 77
     6
 78
     2
 67
     7
 79
     5
170
     0
171
     0
290
     0
174
     0
 93
        1
 44
0.0
173
     0
291
     1
 45
0.0
1001
ACAD
1000
AcDbSavedByObjectVersion
1070
     0
  0
VISUALSTYLE
  5
6B4
102
{ACAD_XDICTIONARY
360
164D
102
}
102
{ACAD_REACTORS
330
6A5
102
}
330
6A5
100
AcDbVisualStyle
  2
Facepattern
 70
    15
 71
     2
 72
     2
 73
     0
 90
        0
 40
-0.6
 41
-30.0
 62
     5
 63
     7
421
 16777215
 74
     1
 91
        4
 64
     7
 65
   257
 75
     1
175
     1
 42
1.0
 92
        8
 66
     7
 43
1.0
 76
     1
 77
     6
 78
     2
 67
     7
 79
     5
170
     0
171
     0
290
     0
174
     0
 93
        1
 44
0.0
173
     0
291
     1
 45
0.0
1001
ACAD
1000
AcDbSavedByObjectVersion
1070
     0
  0
VISUALSTYLE
  5
6A6
102
{ACAD_XDICTIONARY
360
1639
102
}
102
{ACAD_REACTORS
330
6A5
102
}
330
6A5
100
AcDbVisualStyle
  2
Flat
 70
     0
 71
     2
 72
     1
 73
     1
 90
        2
 40
-0.6
 41
30.0
 62
     5
 63
     7
421
 16777215
 74
     0
 91
        4
 64
     7
 65
   257
 75
     1
175
     1
 42
1.0
 92
        8
 66
     7
 43
1.0
 76
     1
 77
     6
 78
     2
 67
     7
 79
     5
170
     0
171
     0
290
     0
174
     0
 93
       13
 44
0.0
173
     0
291
     1
 45
0.0
1001
ACAD
1000
AcDbSavedByObjectVersion
1070
     0
  0
VISUALSTYLE
  5
6A7
102
{ACAD_XDICTIONARY
360
163B
102
}
102
{ACAD_REACTORS
330
6A5
102
}
330
6A5
100
AcDbVisualStyle
  2
FlatWithEdges
 70
     1
 71
     2
 72
     1
 73
     1
 90
        2
 40
-0.6
 41
30.0
 62
     5
 63
     7
421
 16777215
 74
     1
 91
        4
 64
     7
 65
   257
 75
     1
175
     1
 42
1.0
 92
        0
 66
   257
 43
1.0
 76
     1
 77
     6
 78
     2
 67
     7
 79
     5
170
     0
171
     0
290
     0
174
     0
 93
       13
 44
0.0
173
     0
291
     1
 45
0.0
1001
ACAD
1000
AcDbSavedByObjectVersion
1070
     0
  0
VISUALSTYLE
  5
6A8
102
{ACAD_XDICTIONARY
360
163D
102
}
102
{ACAD_REACTORS
330
6A5
102
}
330
6A5
100
AcDbVisualStyle
  2
Gouraud
 70
     2
 71
     2
 72
     2
 73
     1
 90
        2
 40
-0.6
 41
30.0
 62
     5
 63
     7
421
 16777215
 74
     0
 91
        4
 64
     7
 65
   257
 75
     1
175
     1
 42
1.0
 92
        0
 66
     7
 43
1.0
 76
     1
 77
     6
 78
     2
 67
     7
 79
     5
170
     0
171
     0
290
     0
174
     0
 93
       13
 44
0.0
173
     0
291
     1
 45
0.0
1001
ACAD
1000
AcDbSavedByObjectVersion
1070
     0
  0
VISUALSTYLE
  5
6A9
102
{ACAD_XDICTIONARY
360
163F
102
}
102
{ACAD_REACTORS
330
6A5
102
}
330
6A5
100
AcDbVisualStyle
  2
GouraudWithEdges
 70
     3
 71
     2
 72
     2
 73
     1
 90
        2
 40
-0.6
 41
30.0
 62
     5
 63
     7
421
 16777215
 74
     1
 91
        4
 64
     7
 65
   257
 75
     1
175
     1
 42
1.0
 92
        0
 66
   257
 43
1.0
 76
     1
 77
     6
 78
     2
 67
     7
 79
     5
170
     0
171
     0
290
     0
174
     0
 93
       13
 44
0.0
173
     0
291
     1
 45
0.0
1001
ACAD
1000
AcDbSavedByObjectVersion
1070
     0
  0
VISUALSTYLE
  5
146A
102
{ACAD_XDICTIONARY
360
165C
102
}
102
{ACAD_REACTORS
330
6A5
102
}
330
6A5
100
AcDbVisualStyle
  2
Hidden
 70
     6
 71
     1
 72
     2
 73
     2
 90
        0
 40
-0.6
 41
-30.0
 62
     5
 63
     7
421
 16777215
 74
     2
 91
        2
 64
     7
 65
   257
 75
     2
175
     1
 42
40.0
 92
        0
 66
   257
 43
1.0
 76
     1
 77
     6
 78
     2
 67
     7
 79
     3
170
     0
171
     0
290
     0
174
     0
 93
        1
 44
0.0
173
     0
291
     0
 45
0.0
1001
ACAD
1000
AcDbSavedByObjectVersion
1070
     0
  0
VISUALSTYLE
  5
1470
102
{ACAD_XDICTIONARY
360
1668
102
}
102
{ACAD_REACTORS
330
6A5
102
}
330
6A5
100
AcDbVisualStyle
  2
JitterOff
 70
    20
 71
     2
 72
     2
 73
     0
 90
        0
 40
-0.6
 41
-30.0
 62
     5
 63
     7
421
 16777215
 74
     1
 91
        4
 64
     7
 65
   257
 75
     1
175
     1
 42
1.0
 92
       10
 66
     7
 43
1.0
 76
     1
 77
     6
 78
     2
 67
     7
 79
     5
170
     0
171
     0
290
     0
174
     0
 93
        1
 44
0.0
173
     0
291
     1
 45
0.0
1001
ACAD
1000
AcDbSavedByObjectVersion
1070
     0
  0
VISUALSTYLE
  5
6B3
102
{ACAD_XDICTIONARY
360
164B
102
}
102
{ACAD_REACTORS
330
6A5
102
}
330
6A5
100
AcDbVisualStyle
  2
Linepattern
 70
    14
 71
     2
 72
     2
 73
     0
 90
        0
 40
-0.6
 41
-30.0
 62
     5
 63
     7
421
 16777215
 74
     1
 91
        4
 64
     7
 65
   257
 75
     7
175
     7
 42
1.0
 92
        8
 66
     7
 43
1.0
 76
     1
 77
     6
 78
     2
 67
     7
 79
     5
170
     0
171
     0
290
     0
174
     0
 93
        1
 44
0.0
173
     0
291
     1
 45
0.0
1001
ACAD
1000
AcDbSavedByObjectVersion
1070
     0
  0
VISUALSTYLE
  5
1471
102
{ACAD_XDICTIONARY
360
166A
102
}
102
{ACAD_REACTORS
330
6A5
102
}
330
6A5
100
AcDbVisualStyle
  2
OverhangOff
 70
    21
 71
     2
 72
     2
 73
     0
 90
        0
 40
-0.6
 41
-30.0
 62
     5
 63
     7
421
 16777215
 74
     1
 91
        4
 64
     7
 65
   257
 75
     1
175
     1
 42
1.0
 92
        9
 66
     7
 43
1.0
 76
     1
 77
     6
 78
     2
 67
     7
 79
     5
170
     0
171
     0
290
     0
174
     0
 93
        1
 44
0.0
173
     0
291
     1
 45
0.0
1001
ACAD
1000
AcDbSavedByObjectVersion
1070
     0
  0
VISUALSTYLE
  5
D4B
102
{ACAD_XDICTIONARY
360
1658
102
}
102
{ACAD_REACTORS
330
6A5
102
}
330
6A5
100
AcDbVisualStyle
  2
Realistic
 70
     8
 71
     2
 72
     2
 73
     0
 90
        0
 40
-0.6
 41
-30.0
 62
     5
 63
     7
421
 16777215
 74
     1
 91
        0
 64
     7
 65
   257
 75
     1
175
     1
 42
1.0
 92
        8
 66
     8
424
  7895160
 43
1.0
 76
     1
 77
     6
 78
     2
 67
     7
 79
     5
170
     0
171
     0
290
     0
174
     0
 93
       13
 44
0.0
173
     0
291
     0
 45
0.0
1001
ACAD
1000
AcDbSavedByObjectVersion
1070
     0
  0
VISUALSTYLE
  5
146F
102
{ACAD_XDICTIONARY
360
1666
102
}
102
{ACAD_REACTORS
330
6A5
102
}
330
6A5
100
AcDbVisualStyle
  2
Shaded
 70
    27
 71
     2
 72
     2
 73
     1
 90
        2
 40
-0.6
 41
30.0
 62
     5
 63
     7
421
 16777215
 74
     0
 91
        4
 64
     7
 65
   257
 75
     1
175
     1
 42
1.0
 92
        8
 66
   257
 43
1.0
 76
     1
 77
     6
 78
     2
 67
     8
425
  7895160
 79
     3
170
     0
171
     0
290
     0
174
     0
 93
        5
 44
0.0
173
     0
291
     0
 45
0.0
1001
ACAD
1000
AcDbSavedByObjectVersion
1070
     0
  0
VISUALSTYLE
  5
146E
102
{ACAD_XDICTIONARY
360
1664
102
}
102
{ACAD_REACTORS
330
6A5
102
}
330
6A5
100
AcDbVisualStyle
  2
Shaded with edges
 70
    26
 71
     2
 72
     2
 73
     1
 90
        2
 40
-0.6
 41
30.0
 62
     5
 63
     7
421
 16777215
 74
     1
 91
       10
 64
     7
 65
   257
 75
     2
175
     1
 42
1.0
 92
        8
 66
   257
 43
1.0
 76
     1
 77
     6
 78
     2
 67
     7
 79
     3
170
     0
171
     0
290
     0
174
     0
 93
        5
 44
0.0
173
     0
291
     0
 45
0.0
1001
ACAD
1000
AcDbSavedByObjectVersion
1070
     0
  0
VISUALSTYLE
  5
146B
102
{ACAD_XDICTIONARY
360
165E
102
}
102
{ACAD_REACTORS
330
6A5
102
}
330
6A5
100
AcDbVisualStyle
  2
Shades of Gray
 70
    23
 71
     2
 72
     2
 73
     3
 90
        0
 40
-0.6
 41
-30.0
 62
     5
 63
     7
421
 16777215
 74
     2
 91
        2
 64
     7
 65
     7
 75
     1
175
     1
 42
40.0
 92
        8
 66
     7
 43
1.0
 76
     1
 77
     6
 78
     2
 67
     7
 79
     3
170
     0
171
     0
290
     0
174
     0
 93
        1
 44
0.0
173
     0
291
     0
 45
0.0
1001
ACAD
1000
AcDbSavedByObjectVersion
1070
     0
  0
VISUALSTYLE
  5
146C
102
{ACAD_XDICTIONARY
360
1660
102
}
102
{ACAD_REACTORS
330
6A5
102
}
330
6A5
100
AcDbVisualStyle
  2
Sketchy
 70
    24
 71
     1
 72
     2
 73
     2
 90
        0
 40
-0.6
 41
-30.0
 62
     5
 63
     7
421
 16777215
 74
     2
 91
        2
 64
     7
 65
     7
 75
     1
175
     1
 42
40.0
 92
       11
 66
     7
 43
1.0
 76
     1
 77
     6
 78
     2
 67
     7
 79
     6
170
     0
171
     0
290
     0
174
     0
 93
        1
 44
0.0
173
     0
291
     0
 45
0.0
1001
ACAD
1000
AcDbSavedByObjectVersion
1070
     0
  0
VISUALSTYLE
  5
6B2
102
{ACAD_XDICTIONARY
360
1649
102
}
102
{ACAD_REACTORS
330
6A5
102
}
330
6A5
100
AcDbVisualStyle
  2
Thicken
 70
    13
 71
     2
 72
     2
 73
     0
 90
        0
 40
-0.6
 41
-30.0
 62
     5
 63
     7
421
 16777215
 74
     1
 91
        4
 64
     7
 65
   257
 75
     1
175
     1
 42
1.0
 92
       12
 66
     7
 43
1.0
 76
     1
 77
     6
 78
     2
 67
     7
 79
     5
170
     0
171
     0
290
     0
174
     0
 93
        1
 44
0.0
173
     0
291
     1
 45
0.0
1001
ACAD
1000
AcDbSavedByObjectVersion
1070
     0
  0
VISUALSTYLE
  5
1469
102
{ACAD_XDICTIONARY
360
165A
102
}
102
{ACAD_REACTORS
330
6A5
102
}
330
6A5
100
AcDbVisualStyle
  2
Wireframe
 70
     5
 71
     0
 72
     2
 73
     0
 90
        0
 40
-0.6
 41
-30.0
 62
     5
 63
     7
421
 16777215
 74
     1
 91
        4
 64
     7
 65
   257
 75
     1
175
     1
 42
1.0
 92
        0
 66
   257
 43
1.0
 76
     1
 77
     6
 78
     2
 67
     7
 79
     3
170
     0
171
     0
290
     0
174
     0
 93
        1
 44
0.0
173
     0
291
     0
 45
0.0
1001
ACAD
1000
AcDbSavedByObjectVersion
1070
     0
  0
VISUALSTYLE
  5
146D
102
{ACAD_XDICTIONARY
360
1662
102
}
102
{ACAD_REACTORS
330
6A5
102
}
330
6A5
100
AcDbVisualStyle
  2
X-Ray
 70
    25
 71
     2
 72
     2
 73
     1
 90
        1
 40
0.5
 41
-30.0
 62
     5
 63
     7
421
 16777215
 74
     1
 91
        0
 64
     7
 65
   257
 75
     1
175
     1
 42
1.0
 92
        8
 66
     7
 43
1.0
 76
     1
 77
     6
 78
     2
 67
     7
 79
     3
170
     0
171
     0
290
     0
174
     0
 93
       13
 44
0.0
173
     0
291
     0
 45
0.0
1001
ACAD
1000
AcDbSavedByObjectVersion
1070
     0
  0
DICTIONARYVAR
  5
1627
102
{ACAD_REACTORS
330
D45
102
}
330
D45
100
DictionaryVariables
280
     0
  1
1:1
  0
DICTIONARYVAR
  5
1624
102
{ACAD_REACTORS
330
D45
102
}
330
D45
100
DictionaryVariables
280
     0
  1
STANDARD
  0
DICTIONARYVAR
  5
D46
102
{ACAD_REACTORS
330
D45
102
}
330
D45
100
DictionaryVariables
280
     0
  1
STANDARD
  0
DICTIONARYVAR
  5
1625
102
{ACAD_REACTORS
330
D45
102
}
330
D45
100
DictionaryVariables
280
     0
  1
Imperial24
  0
DICTIONARYVAR
  5
1626
102
{ACAD_REACTORS
330
D45
102
}
330
D45
100
DictionaryVariables
280
     0
  1
Imperial24
  0
DICTIONARY
  5
1632
102
{ACAD_REACTORS
330
1630
102
}
330
1630
100
AcDbDictionary
281
     1
  0
DICTIONARY
  5
1631
102
{ACAD_REACTORS
330
1630
102
}
330
1630
100
AcDbDictionary
281
     1
  3
8796083963056
350
162B
  3
8796083963072
350
162C
  3
8796083963088
350
162D
  3
8796083963104
350
162E
  3
8796083963120
350
162F
  0
DICTIONARY
  5
1635
330
6A3
100
AcDbDictionary
280
     1
281
     1
  3
ACAD_XREC_ROUNDTRIP
360
1636
  0
DICTIONARY
  5
1633
330
6A2
100
AcDbDictionary
280
     1
281
     1
  3
ACAD_XREC_ROUNDTRIP
360
1634
  0
DICTIONARY
  5
1637
330
6A4
100
AcDbDictionary
280
     1
281
     1
  3
ACAD_XREC_ROUNDTRIP
360
1638
  0
DICTIONARY
  5
166F
330
1486
100
AcDbDictionary
280
     1
281
     1
  3
ACAD_XREC_ROUNDTRIP
360
1670
  0
DICTIONARY
  5
1628
330
6B8
100
AcDbDictionary
280
     1
281
     1
  3
ACAD_ROUNDTRIP_2008_TABLESTYLE_CELLSTYLEMAP
360
1629
  3
ACAD_XREC_ROUNDTRIP
360
1651
  0
DICTIONARY
  5
1643
330
6AB
100
AcDbDictionary
280
     1
281
     1
  3
ACAD_XREC_ROUNDTRIP
360
1644
  0
DICTIONARY
  5
1654
330
D49
100
AcDbDictionary
280
     1
281
     1
  3
ACAD_XREC_ROUNDTRIP
360
1655
  0
DICTIONARY
  5
1652
330
D48
100
AcDbDictionary
280
     1
281
     1
  3
ACAD_XREC_ROUNDTRIP
360
1653
  0
DICTIONARY
  5
1641
330
6AA
100
AcDbDictionary
280
     1
281
     1
  3
ACAD_XREC_ROUNDTRIP
360
1642
  0
DICTIONARY
  5
1647
330
6B1
100
AcDbDictionary
280
     1
281
     1
  3
ACAD_XREC_ROUNDTRIP
360
1648
  0
DICTIONARY
  5
164F
330
6B5
100
AcDbDictionary
280
     1
281
     1
  3
ACAD_XREC_ROUNDTRIP
360
1650
  0
DICTIONARY
  5
1656
330
D4A
100
AcDbDictionary
280
     1
281
     1
  3
ACAD_XREC_ROUNDTRIP
360
1657
  0
DICTIONARY
  5
1645
330
6B0
100
AcDbDictionary
280
     1
281
     1
  3
ACAD_XREC_ROUNDTRIP
360
1646
  0
DICTIONARY
  5
166C
330
1472
100
AcDbDictionary
280
     1
281
     1
  3
ACAD_XREC_ROUNDTRIP
360
166D
  0
DICTIONARY
  5
164D
330
6B4
100
AcDbDictionary
280
     1
281
     1
  3
ACAD_XREC_ROUNDTRIP
360
164E
  0
DICTIONARY
  5
1639
330
6A6
100
AcDbDictionary
280
     1
281
     1
  3
ACAD_XREC_ROUNDTRIP
360
163A
  0
DICTIONARY
  5
163B
330
6A7
100
AcDbDictionary
280
     1
281
     1
  3
ACAD_XREC_ROUNDTRIP
360
163C
  0
DICTIONARY
  5
163D
330
6A8
100
AcDbDictionary
280
     1
281
     1
  3
ACAD_XREC_ROUNDTRIP
360
163E
  0
DICTIONARY
  5
163F
330
6A9
100
AcDbDictionary
280
     1
281
     1
  3
ACAD_XREC_ROUNDTRIP
360
1640
  0
DICTIONARY
  5
165C
330
146A
100
AcDbDictionary
280
     1
281
     1
  3
ACAD_XREC_ROUNDTRIP
360
165D
  0
DICTIONARY
  5
1668
330
1470
100
AcDbDictionary
280
     1
281
     1
  3
ACAD_XREC_ROUNDTRIP
360
1669
  0
DICTIONARY
  5
164B
330
6B3
100
AcDbDictionary
280
     1
281
     1
  3
ACAD_XREC_ROUNDTRIP
360
164C
  0
DICTIONARY
  5
166A
330
1471
100
AcDbDictionary
280
     1
281
     1
  3
ACAD_XREC_ROUNDTRIP
360
166B
  0
DICTIONARY
  5
1658
330
D4B
100
AcDbDictionary
280
     1
281
     1
  3
ACAD_XREC_ROUNDTRIP
360
1659
  0
DICTIONARY
  5
1666
330
146F
100
AcDbDictionary
280
     1
281
     1
  3
ACAD_XREC_ROUNDTRIP
360
1667
  0
DICTIONARY
  5
1664
330
146E
100
AcDbDictionary
280
     1
281
     1
  3
ACAD_XREC_ROUNDTRIP
360
1665
  0
DICTIONARY
  5
165E
330
146B
100
AcDbDictionary
280
     1
281
     1
  3
ACAD_XREC_ROUNDTRIP
360
165F
  0
DICTIONARY
  5
1660
330
146C
100
AcDbDictionary
280
     1
281
     1
  3
ACAD_XREC_ROUNDTRIP
360
1661
  0
DICTIONARY
  5
1649
330
6B2
100
AcDbDictionary
280
     1
281
     1
  3
ACAD_XREC_ROUNDTRIP
360
164A
  0
DICTIONARY
  5
165A
330
1469
100
AcDbDictionary
280
     1
281
     1
  3
ACAD_XREC_ROUNDTRIP
360
165B
  0
DICTIONARY
  5
1662
330
146D
100
AcDbDictionary
280
     1
281
     1
  3
ACAD_XREC_ROUNDTRIP
360
1663
  0
XRECORD
  5
162B
102
{ACAD_REACTORS
330
1631
102
}
330
1631
100
AcDbXrecord
280
     1
  1
AcDb_Thumbnail_Schema
102
{ATTRRECORD
341
162C
  2
AcDbDs::TreatedAsObjectData
280
     1
291
     1
102
ATTRRECORD}
102
{ATTRRECORD
341
162D
  2
AcDbDs::Legacy
280
     1
291
     1
102
ATTRRECORD}
  2
AcDbDs::ID
280
    10
 91
        8
102
{ATTRRECORD
341
162E
  2
AcDs:Indexable
280
     1
291
     1
102
ATTRRECORD}
102
{ATTRRECORD
341
162F
  2
AcDbDs::HandleAttribute
280
     7
282
     1
102
ATTRRECORD}
  2
Thumbnail_Data
280
    15
 91
        0
  0
XRECORD
  5
162C
102
{ACAD_REACTORS
330
1631
102
}
330
1631
100
AcDbXrecord
280
     1
  1
AcDbDs::TreatedAsObjectDataSchema
  2
AcDbDs::TreatedAsObjectData
280
     1
 91
        0
  0
XRECORD
  5
162D
102
{ACAD_REACTORS
330
1631
102
}
330
1631
100
AcDbXrecord
280
     1
  1
AcDbDs::LegacySchema
  2
AcDbDs::Legacy
280
     1
 91
        0
  0
XRECORD
  5
162E
102
{ACAD_REACTORS
330
1631
102
}
330
1631
100
AcDbXrecord
280
     1
  1
AcDbDs::IndexedPropertySchema
  2
AcDs:Indexable
280
     1
 91
        0
  0
XRECORD
  5
162F
102
{ACAD_REACTORS
330
1631
102
}
330
1631
100
AcDbXrecord
280
     1
  1
AcDbDs::HandleAttributeSchema
  2
AcDbDs::HandleAttribute
280
     7
 91
        1
284
     1
  0
XRECORD
  5
1636
102
{ACAD_REACTORS
330
1635
102
}
330
1635
100
AcDbXrecord
280
     1
102
MATERIAL
148
0.0
149
0.0
149
0.0
 93
        0
 94
       63
282
     0
 72
     1
 77
     1
171
     1
175
     1
179
     1
273
     0
  0
XRECORD
  5
1634
102
{ACAD_REACTORS
330
1633
102
}
330
1633
100
AcDbXrecord
280
     1
102
MATERIAL
148
0.0
149
0.0
149
0.0
 93
        0
 94
       63
282
     0
 72
     1
 77
     1
171
     1
175
     1
179
     1
273
     0
  0
XRECORD
  5
1638
102
{ACAD_REACTORS
330
1637
102
}
330
1637
100
AcDbXrecord
280
     1
102
MATERIAL
148
0.0
149
0.0
149
0.0
 93
        0
 94
       63
282
     0
 72
     1
 77
     1
171
     1
175
     1
179
     1
273
     0
  0
XRECORD
  5
1670
102
{ACAD_REACTORS
330
166F
102
}
330
166F
100
AcDbXrecord
280
     1
102
ACAD_ROUNDTRIP_2012_MLEADER_STYLE
298
     1
  0
CELLSTYLEMAP
  5
1629
102
{ACAD_REACTORS
330
1628
102
}
330
1628
100
AcDbCellStyleMap
 90
        3
300
CELLSTYLE
  1
TABLEFORMAT_BEGIN
 90
        5
170
     1
 91
        0
 92
    32768
 62
   257
 93
        1
300
CONTENTFORMAT
  1
CONTENTFORMAT_BEGIN
 90
        0
 91
        0
 92
      512
 93
        0
300

 40
0.0
140
1.0
 94
        5
 62
     0
340
11
144
0.25
309
CONTENTFORMAT_END
171
     0
 94
        6
 95
        1
302
GRIDFORMAT
  1
GRIDFORMAT_BEGIN
 90
        0
 91
        1
 62
     0
 92
       -2
340
0
 93
        0
 40
0.045
309
GRIDFORMAT_END
 95
        2
302
GRIDFORMAT
  1
GRIDFORMAT_BEGIN
 90
        0
 91
        1
 62
     0
 92
       -2
340
0
 93
        0
 40
0.045
309
GRIDFORMAT_END
 95
        4
302
GRIDFORMAT
  1
GRIDFORMAT_BEGIN
 90
        0
 91
        1
 62
     0
 92
       -2
340
0
 93
        0
 40
0.045
309
GRIDFORMAT_END
 95
        8
302
GRIDFORMAT
  1
GRIDFORMAT_BEGIN
 90
        0
 91
        1
 62
     0
 92
       -2
340
0
 93
        0
 40
0.045
309
GRIDFORMAT_END
 95
       16
302
GRIDFORMAT
  1
GRIDFORMAT_BEGIN
 90
        0
 91
        1
 62
     0
 92
       -2
340
0
 93
        0
 40
0.045
309
GRIDFORMAT_END
 95
       32
302
GRIDFORMAT
  1
GRIDFORMAT_BEGIN
 90
        0
 91
        1
 62
     0
 92
       -2
340
0
 93
        0
 40
0.045
309
GRIDFORMAT_END
309
TABLEFORMAT_END
  1
CELLSTYLE_BEGIN
 90
        1
 91
        1
300
_TITLE
309
CELLSTYLE_END
300
CELLSTYLE
  1
TABLEFORMAT_BEGIN
 90
        5
170
     1
 91
        0
 92
        0
 62
   257
 93
        1
300
CONTENTFORMAT
  1
CONTENTFORMAT_BEGIN
 90
        0
 91
        0
 92
      512
 93
        0
300

 40
0.0
140
1.0
 94
        5
 62
     0
340
11
144
0.18
309
CONTENTFORMAT_END
171
     0
 94
        6
 95
        1
302
GRIDFORMAT
  1
GRIDFORMAT_BEGIN
 90
        0
 91
        1
 62
     0
 92
       -2
340
0
 93
        0
 40
0.045
309
GRIDFORMAT_END
 95
        2
302
GRIDFORMAT
  1
GRIDFORMAT_BEGIN
 90
        0
 91
        1
 62
     0
 92
       -2
340
0
 93
        0
 40
0.045
309
GRIDFORMAT_END
 95
        4
302
GRIDFORMAT
  1
GRIDFORMAT_BEGIN
 90
        0
 91
        1
 62
     0
 92
       -2
340
0
 93
        0
 40
0.045
309
GRIDFORMAT_END
 95
        8
302
GRIDFORMAT
  1
GRIDFORMAT_BEGIN
 90
        0
 91
        1
 62
     0
 92
       -2
340
0
 93
        0
 40
0.045
309
GRIDFORMAT_END
 95
       16
302
GRIDFORMAT
  1
GRIDFORMAT_BEGIN
 90
        0
 91
        1
 62
     0
 92
       -2
340
0
 93
        0
 40
0.045
309
GRIDFORMAT_END
 95
       32
302
GRIDFORMAT
  1
GRIDFORMAT_BEGIN
 90
        0
 91
        1
 62
     0
 92
       -2
340
0
 93
        0
 40
0.045
309
GRIDFORMAT_END
309
TABLEFORMAT_END
  1
CELLSTYLE_BEGIN
 90
        2
 91
        1
300
_HEADER
309
CELLSTYLE_END
300
CELLSTYLE
  1
TABLEFORMAT_BEGIN
 90
        5
170
     1
 91
        0
 92
        0
 62
   257
 93
        1
300
CONTENTFORMAT
  1
CONTENTFORMAT_BEGIN
 90
        0
 91
        0
 92
      512
 93
        0
300

 40
0.0
140
1.0
 94
        2
 62
     0
340
11
144
0.18
309
CONTENTFORMAT_END
171
     0
 94
        6
 95
        1
302
GRIDFORMAT
  1
GRIDFORMAT_BEGIN
 90
        0
 91
        1
 62
     0
 92
       -2
340
0
 93
        0
 40
0.045
309
GRIDFORMAT_END
 95
        2
302
GRIDFORMAT
  1
GRIDFORMAT_BEGIN
 90
        0
 91
        1
 62
     0
 92
       -2
340
0
 93
        0
 40
0.045
309
GRIDFORMAT_END
 95
        4
302
GRIDFORMAT
  1
GRIDFORMAT_BEGIN
 90
        0
 91
        1
 62
     0
 92
       -2
340
0
 93
        0
 40
0.045
309
GRIDFORMAT_END
 95
        8
302
GRIDFORMAT
  1
GRIDFORMAT_BEGIN
 90
        0
 91
        1
 62
     0
 92
       -2
340
0
 93
        0
 40
0.045
309
GRIDFORMAT_END
 95
       16
302
GRIDFORMAT
  1
GRIDFORMAT_BEGIN
 90
        0
 91
        1
 62
     0
 92
       -2
340
0
 93
        0
 40
0.045
309
GRIDFORMAT_END
 95
       32
302
GRIDFORMAT
  1
GRIDFORMAT_BEGIN
 90
        0
 91
        1
 62
     0
 92
       -2
340
0
 93
        0
 40
0.045
309
GRIDFORMAT_END
309
TABLEFORMAT_END
  1
CELLSTYLE_BEGIN
 90
        3
 91
        2
300
_DATA
309
CELLSTYLE_END
  0
XRECORD
  5
1651
102
{ACAD_REACTORS
330
1628
102
}
330
1628
100
AcDbXrecord
280
     1
102
ACAD_ROUNDTRIP_PRE2007_TABLESTYLE
 90
      512
 91
        0
  1

 92
      512
 93
        0
  2

 94
      512
 95
        0
  3

  0
XRECORD
  5
1644
102
{ACAD_REACTORS
330
1643
102
}
330
1643
100
AcDbXrecord
280
     1
102
RTVSPost2010Prop28
280
     1
102
RTVSPost2010PropOp28
 70
     1
102
RTVSPost2010Prop29
280
     1
102
RTVSPost2010PropOp29
 70
     1
102
RTVSPost2010Prop30
280
     0
102
RTVSPost2010PropOp30
 70
     1
102
RTVSPost2010Prop31
280
     0
102
RTVSPost2010PropOp31
 70
     1
102
RTVSPost2010Prop32
280
     0
102
RTVSPost2010PropOp32
 70
     1
102
RTVSPost2010Prop33
280
     0
102
RTVSPost2010PropOp33
 70
     1
102
RTVSPost2010Prop34
280
     0
102
RTVSPost2010PropOp34
 70
     1
102
RTVSPost2010Prop35
280
     0
102
RTVSPost2010PropOp35
 70
     1
102
RTVSPost2010Prop36
280
     0
102
RTVSPost2010PropOp36
 70
     1
102
RTVSPost2010Prop37
 90
       50
102
RTVSPost2010PropOp37
 70
     1
102
RTVSPost2010Prop38
140
0.0
102
RTVSPost2010PropOp38
 70
     1
102
RTVSPost2010Prop39
140
1.0
102
RTVSPost2010PropOp39
 70
     1
102
RTVSPost2010Prop40
 90
        0
102
RTVSPost2010PropOp40
 70
     1
102
RTVSPost2010Prop41ColorIndex
 90
       18
102
RTVSPost2010Prop41ColorRGB
 90
        0
102
RTVSPost2010PropOp41
 70
     1
102
RTVSPost2010Prop42
 90
       50
102
RTVSPost2010PropOp42
 70
     1
102
RTVSPost2010Prop43
 90
        3
102
RTVSPost2010PropOp43
 70
     1
102
RTVSPost2010Prop44ColorIndex
 90
        5
102
RTVSPost2010Prop44ColorRGB
 90
      255
102
RTVSPost2010PropOp44
 70
     1
102
RTVSPost2010Prop45
280
     0
102
RTVSPost2010PropOp45
 70
     1
102
RTVSPost2010Prop46
 90
       50
102
RTVSPost2010PropOp46
 70
     1
102
RTVSPost2010Prop47
 90
       50
102
RTVSPost2010PropOp47
 70
     1
102
RTVSPost2010Prop48
 90
       50
102
RTVSPost2010PropOp48
 70
     1
102
RTVSPost2010Prop49
280
     0
102
RTVSPost2010PropOp49
 70
     1
102
RTVSPost2010Prop50
 90
       50
102
RTVSPost2010PropOp50
 70
     1
102
RTVSPost2010Prop51ColorIndex
 90
      256
102
RTVSPost2010Prop51ColorRGB
 90
-16777216
102
RTVSPost2010PropOp51
 70
     0
102
RTVSPost2010Prop52
140
1.0
102
RTVSPost2010PropOp52
 70
     0
102
RTVSPost2010Prop53
 90
        2
102
RTVSPost2010PropOp53
 70
     1
102
RTVSPost2010Prop54
  1
strokes_ogs.tif
102
RTVSPost2010PropOp54
 70
     1
102
RTVSPost2010Prop55
280
     0
102
RTVSPost2010PropOp55
 70
     1
102
RTVSPost2010Prop56
140
1.0
102
RTVSPost2010PropOp56
 70
     1
102
RTVSPost2010Prop57
140
1.0
102
RTVSPost2010PropOp57
 70
     1
102
RTVSPropertyOp0
 70
     1
102
RTVSPropertyOp1
 70
     1
102
RTVSPropertyOp2
 70
     1
102
RTVSPropertyOp3
 70
     1
102
RTVSPropertyOp4
 70
     1
102
RTVSPropertyOp5
 70
     1
102
RTVSPropertyOp6
 70
     1
102
RTVSPropertyOp7
 70
     1
102
RTVSPropertyOp8
 70
     1
102
RTVSPropertyOp9
 70
     1
102
RTVSPropertyOp10
 70
     1
102
RTVSPropertyOp11
 70
     1
102
RTVSPropertyOp12
 70
     1
102
RTVSPropertyOp13
 70
     1
102
RTVSPropertyOp14
 70
     1
102
RTVSPropertyOp15
 70
     1
102
RTVSPropertyOp16
 70
     1
102
RTVSPropertyOp17
 70
     1
102
RTVSPropertyOp18
 70
     1
102
RTVSPropertyOp19
 70
     1
102
RTVSPropertyOp20
 70
     1
102
RTVSPropertyOp21
 70
     1
102
RTVSPropertyOp22
 70
     1
102
RTVSPropertyOp23
 70
     1
102
RTVSPropertyOp24
 70
     1
102
RTVSPropertyOp25
 70
     1
102
RTVSPropertyOp26
 70
     1
102
RTVSPropertyOp27
 70
     1
102
RTVSPropertyOp28
 70
     1
102
RTVSPropertyOp29
 70
     1
102
RTVSPropertyOp30
 70
     1
102
RTVSPropertyOp31
 70
     1
102
RTVSPropertyOp32
 70
     1
102
RTVSPropertyOp33
 70
     1
102
RTVSPropertyOp34
 70
     1
102
RTVSPropertyOp35
 70
     1
102
RTVSPropertyOp36
 70
     1
102
RTVSPropertyOp37
 70
     1
102
RTVSPropertyOp38
 70
     1
102
RTVSPropertyOp39
 70
     1
102
RTVSPropertyOp40
 70
     1
102
RTVSPropertyOp41
 70
     1
102
RTVSPropertyOp42
 70
     1
102
RTVSPropertyOp43
 70
     1
102
RTVSPropertyOp44
 70
     1
102
RTVSPropertyOp45
 70
     1
102
RTVSPropertyOp46
 70
     1
102
RTVSPropertyOp47
 70
     1
102
RTVSPropertyOp48
 70
     1
102
RTVSPropertyOp49
 70
     1
102
RTVSPropertyOp50
 70
     1
102
RTVSPropertyOp51
 70
     0
102
RTVSPropertyOp52
 70
     0
102
RTVSPropertyOp53
 70
     1
102
RTVSPropertyOp54
 70
     1
102
RTVSPropertyOp55
 70
     1
102
RTVSPropertyOp56
 70
     1
102
RTVSPropertyOp57
 70
     1
102
RTVSPropertyOp58
 70
     1
102
RTVSPropertyOp59
 70
     1
102
RTVSPropertyOp60
 70
     1
102
RTVSPropertyOp61
 70
     1
102
RTVSPropertyOp62
 70
     1
  0
XRECORD
  5
1655
102
{ACAD_REACTORS
330
1654
102
}
330
1654
100
AcDbXrecord
280
     1
102
RTVSPost2010Prop28
280
     0
102
RTVSPost2010PropOp28
 70
     1
102
RTVSPost2010Prop29
280
     1
102
RTVSPost2010PropOp29
 70
     1
102
RTVSPost2010Prop30
280
     1
102
RTVSPost2010PropOp30
 70
     1
102
RTVSPost2010Prop31
280
     0
102
RTVSPost2010PropOp31
 70
     1
102
RTVSPost2010Prop32
280
     0
102
RTVSPost2010PropOp32
 70
     1
102
RTVSPost2010Prop33
280
     0
102
RTVSPost2010PropOp33
 70
     1
102
RTVSPost2010Prop34
280
     0
102
RTVSPost2010PropOp34
 70
     1
102
RTVSPost2010Prop35
280
     0
102
RTVSPost2010PropOp35
 70
     1
102
RTVSPost2010Prop36
280
     0
102
RTVSPost2010PropOp36
 70
     1
102
RTVSPost2010Prop37
 90
       50
102
RTVSPost2010PropOp37
 70
     1
102
RTVSPost2010Prop38
140
0.0
102
RTVSPost2010PropOp38
 70
     1
102
RTVSPost2010Prop39
140
1.0
102
RTVSPost2010PropOp39
 70
     1
102
RTVSPost2010Prop40
 90
        0
102
RTVSPost2010PropOp40
 70
     1
102
RTVSPost2010Prop41ColorIndex
 90
       18
102
RTVSPost2010Prop41ColorRGB
 90
        0
102
RTVSPost2010PropOp41
 70
     1
102
RTVSPost2010Prop42
 90
       50
102
RTVSPost2010PropOp42
 70
     1
102
RTVSPost2010Prop43
 90
        3
102
RTVSPost2010PropOp43
 70
     1
102
RTVSPost2010Prop44ColorIndex
 90
        5
102
RTVSPost2010Prop44ColorRGB
 90
      255
102
RTVSPost2010PropOp44
 70
     1
102
RTVSPost2010Prop45
280
     0
102
RTVSPost2010PropOp45
 70
     1
102
RTVSPost2010Prop46
 90
       50
102
RTVSPost2010PropOp46
 70
     1
102
RTVSPost2010Prop47
 90
       50
102
RTVSPost2010PropOp47
 70
     1
102
RTVSPost2010Prop48
 90
       50
102
RTVSPost2010PropOp48
 70
     1
102
RTVSPost2010Prop49
280
     0
102
RTVSPost2010PropOp49
 70
     1
102
RTVSPost2010Prop50
 90
       50
102
RTVSPost2010PropOp50
 70
     1
102
RTVSPost2010Prop51ColorIndex
 90
      256
102
RTVSPost2010Prop51ColorRGB
 90
-16777216
102
RTVSPost2010PropOp51
 70
     0
102
RTVSPost2010Prop52
140
1.0
102
RTVSPost2010PropOp52
 70
     0
102
RTVSPost2010Prop53
 90
        2
102
RTVSPost2010PropOp53
 70
     1
102
RTVSPost2010Prop54
  1
strokes_ogs.tif
102
RTVSPost2010PropOp54
 70
     1
102
RTVSPost2010Prop55
280
     0
102
RTVSPost2010PropOp55
 70
     1
102
RTVSPost2010Prop56
140
1.0
102
RTVSPost2010PropOp56
 70
     1
102
RTVSPost2010Prop57
140
1.0
102
RTVSPost2010PropOp57
 70
     1
102
RTVSPropertyOp0
 70
     1
102
RTVSPropertyOp1
 70
     1
102
RTVSPropertyOp2
 70
     1
102
RTVSPropertyOp3
 70
     1
102
RTVSPropertyOp4
 70
     1
102
RTVSPropertyOp5
 70
     1
102
RTVSPropertyOp6
 70
     1
102
RTVSPropertyOp7
 70
     1
102
RTVSPropertyOp8
 70
     1
102
RTVSPropertyOp9
 70
     1
102
RTVSPropertyOp10
 70
     1
102
RTVSPropertyOp11
 70
     1
102
RTVSPropertyOp12
 70
     1
102
RTVSPropertyOp13
 70
     1
102
RTVSPropertyOp14
 70
     1
102
RTVSPropertyOp15
 70
     1
102
RTVSPropertyOp16
 70
     1
102
RTVSPropertyOp17
 70
     1
102
RTVSPropertyOp18
 70
     1
102
RTVSPropertyOp19
 70
     1
102
RTVSPropertyOp20
 70
     1
102
RTVSPropertyOp21
 70
     1
102
RTVSPropertyOp22
 70
     1
102
RTVSPropertyOp23
 70
     1
102
RTVSPropertyOp24
 70
     1
102
RTVSPropertyOp25
 70
     1
102
RTVSPropertyOp26
 70
     1
102
RTVSPropertyOp27
 70
     1
102
RTVSPropertyOp28
 70
     1
102
RTVSPropertyOp29
 70
     1
102
RTVSPropertyOp30
 70
     1
102
RTVSPropertyOp31
 70
     1
102
RTVSPropertyOp32
 70
     1
102
RTVSPropertyOp33
 70
     1
102
RTVSPropertyOp34
 70
     1
102
RTVSPropertyOp35
 70
     1
102
RTVSPropertyOp36
 70
     1
102
RTVSPropertyOp37
 70
     1
102
RTVSPropertyOp38
 70
     1
102
RTVSPropertyOp39
 70
     1
102
RTVSPropertyOp40
 70
     1
102
RTVSPropertyOp41
 70
     1
102
RTVSPropertyOp42
 70
     1
102
RTVSPropertyOp43
 70
     1
102
RTVSPropertyOp44
 70
     1
102
RTVSPropertyOp45
 70
     1
102
RTVSPropertyOp46
 70
     1
102
RTVSPropertyOp47
 70
     1
102
RTVSPropertyOp48
 70
     1
102
RTVSPropertyOp49
 70
     1
102
RTVSPropertyOp50
 70
     1
102
RTVSPropertyOp51
 70
     0
102
RTVSPropertyOp52
 70
     0
102
RTVSPropertyOp53
 70
     1
102
RTVSPropertyOp54
 70
     1
102
RTVSPropertyOp55
 70
     1
102
RTVSPropertyOp56
 70
     1
102
RTVSPropertyOp57
 70
     1
102
RTVSPropertyOp58
 70
     1
102
RTVSPropertyOp59
 70
     1
102
RTVSPropertyOp60
 70
     1
102
RTVSPropertyOp61
 70
     1
102
RTVSPropertyOp62
 70
     1
  0
XRECORD
  5
1653
102
{ACAD_REACTORS
330
1652
102
}
330
1652
100
AcDbXrecord
280
     1
102
RTVSPost2010Prop28
280
     0
102
RTVSPost2010PropOp28
 70
     1
102
RTVSPost2010Prop29
280
     1
102
RTVSPost2010PropOp29
 70
     1
102
RTVSPost2010Prop30
280
     1
102
RTVSPost2010PropOp30
 70
     1
102
RTVSPost2010Prop31
280
     0
102
RTVSPost2010PropOp31
 70
     1
102
RTVSPost2010Prop32
280
     0
102
RTVSPost2010PropOp32
 70
     1
102
RTVSPost2010Prop33
280
     0
102
RTVSPost2010PropOp33
 70
     1
102
RTVSPost2010Prop34
280
     0
102
RTVSPost2010PropOp34
 70
     1
102
RTVSPost2010Prop35
280
     0
102
RTVSPost2010PropOp35
 70
     1
102
RTVSPost2010Prop36
280
     0
102
RTVSPost2010PropOp36
 70
     1
102
RTVSPost2010Prop37
 90
       50
102
RTVSPost2010PropOp37
 70
     1
102
RTVSPost2010Prop38
140
0.0
102
RTVSPost2010PropOp38
 70
     1
102
RTVSPost2010Prop39
140
1.0
102
RTVSPost2010PropOp39
 70
     1
102
RTVSPost2010Prop40
 90
        0
102
RTVSPost2010PropOp40
 70
     1
102
RTVSPost2010Prop41ColorIndex
 90
       18
102
RTVSPost2010Prop41ColorRGB
 90
        0
102
RTVSPost2010PropOp41
 70
     1
102
RTVSPost2010Prop42
 90
       50
102
RTVSPost2010PropOp42
 70
     1
102
RTVSPost2010Prop43
 90
        3
102
RTVSPost2010PropOp43
 70
     1
102
RTVSPost2010Prop44ColorIndex
 90
        5
102
RTVSPost2010Prop44ColorRGB
 90
      255
102
RTVSPost2010PropOp44
 70
     1
102
RTVSPost2010Prop45
280
     0
102
RTVSPost2010PropOp45
 70
     1
102
RTVSPost2010Prop46
 90
       50
102
RTVSPost2010PropOp46
 70
     1
102
RTVSPost2010Prop47
 90
       50
102
RTVSPost2010PropOp47
 70
     1
102
RTVSPost2010Prop48
 90
       50
102
RTVSPost2010PropOp48
 70
     1
102
RTVSPost2010Prop49
280
     0
102
RTVSPost2010PropOp49
 70
     1
102
RTVSPost2010Prop50
 90
       50
102
RTVSPost2010PropOp50
 70
     1
102
RTVSPost2010Prop51ColorIndex
 90
      256
102
RTVSPost2010Prop51ColorRGB
 90
-16777216
102
RTVSPost2010PropOp51
 70
     0
102
RTVSPost2010Prop52
140
1.0
102
RTVSPost2010PropOp52
 70
     0
102
RTVSPost2010Prop53
 90
        2
102
RTVSPost2010PropOp53
 70
     1
102
RTVSPost2010Prop54
  1
strokes_ogs.tif
102
RTVSPost2010PropOp54
 70
     1
102
RTVSPost2010Prop55
280
     0
102
RTVSPost2010PropOp55
 70
     1
102
RTVSPost2010Prop56
140
1.0
102
RTVSPost2010PropOp56
 70
     1
102
RTVSPost2010Prop57
140
1.0
102
RTVSPost2010PropOp57
 70
     1
102
RTVSPropertyOp0
 70
     1
102
RTVSPropertyOp1
 70
     1
102
RTVSPropertyOp2
 70
     1
102
RTVSPropertyOp3
 70
     1
102
RTVSPropertyOp4
 70
     1
102
RTVSPropertyOp5
 70
     1
102
RTVSPropertyOp6
 70
     1
102
RTVSPropertyOp7
 70
     1
102
RTVSPropertyOp8
 70
     1
102
RTVSPropertyOp9
 70
     1
102
RTVSPropertyOp10
 70
     1
102
RTVSPropertyOp11
 70
     1
102
RTVSPropertyOp12
 70
     1
102
RTVSPropertyOp13
 70
     1
102
RTVSPropertyOp14
 70
     1
102
RTVSPropertyOp15
 70
     1
102
RTVSPropertyOp16
 70
     1
102
RTVSPropertyOp17
 70
     1
102
RTVSPropertyOp18
 70
     1
102
RTVSPropertyOp19
 70
     1
102
RTVSPropertyOp20
 70
     1
102
RTVSPropertyOp21
 70
     1
102
RTVSPropertyOp22
 70
     1
102
RTVSPropertyOp23
 70
     1
102
RTVSPropertyOp24
 70
     1
102
RTVSPropertyOp25
 70
     1
102
RTVSPropertyOp26
 70
     1
102
RTVSPropertyOp27
 70
     1
102
RTVSPropertyOp28
 70
     1
102
RTVSPropertyOp29
 70
     1
102
RTVSPropertyOp30
 70
     1
102
RTVSPropertyOp31
 70
     1
102
RTVSPropertyOp32
 70
     1
102
RTVSPropertyOp33
 70
     1
102
RTVSPropertyOp34
 70
     1
102
RTVSPropertyOp35
 70
     1
102
RTVSPropertyOp36
 70
     1
102
RTVSPropertyOp37
 70
     1
102
RTVSPropertyOp38
 70
     1
102
RTVSPropertyOp39
 70
     1
102
RTVSPropertyOp40
 70
     1
102
RTVSPropertyOp41
 70
     1
102
RTVSPropertyOp42
 70
     1
102
RTVSPropertyOp43
 70
     1
102
RTVSPropertyOp44
 70
     1
102
RTVSPropertyOp45
 70
     1
102
RTVSPropertyOp46
 70
     1
102
RTVSPropertyOp47
 70
     1
102
RTVSPropertyOp48
 70
     1
102
RTVSPropertyOp49
 70
     1
102
RTVSPropertyOp50
 70
     1
102
RTVSPropertyOp51
 70
     0
102
RTVSPropertyOp52
 70
     0
102
RTVSPropertyOp53
 70
     1
102
RTVSPropertyOp54
 70
     1
102
RTVSPropertyOp55
 70
     1
102
RTVSPropertyOp56
 70
     1
102
RTVSPropertyOp57
 70
     1
102
RTVSPropertyOp58
 70
     1
102
RTVSPropertyOp59
 70
     1
102
RTVSPropertyOp60
 70
     1
102
RTVSPropertyOp61
 70
     1
102
RTVSPropertyOp62
 70
     1
  0
XRECORD
  5
1642
102
{ACAD_REACTORS
330
1641
102
}
330
1641
100
AcDbXrecord
280
     1
102
RTVSPost2010Prop28
280
     0
102
RTVSPost2010PropOp28
 70
     1
102
RTVSPost2010Prop29
280
     1
102
RTVSPost2010PropOp29
 70
     1
102
RTVSPost2010Prop30
280
     1
102
RTVSPost2010PropOp30
 70
     1
102
RTVSPost2010Prop31
280
     0
102
RTVSPost2010PropOp31
 70
     1
102
RTVSPost2010Prop32
280
     0
102
RTVSPost2010PropOp32
 70
     1
102
RTVSPost2010Prop33
280
     0
102
RTVSPost2010PropOp33
 70
     1
102
RTVSPost2010Prop34
280
     0
102
RTVSPost2010PropOp34
 70
     1
102
RTVSPost2010Prop35
280
     0
102
RTVSPost2010PropOp35
 70
     1
102
RTVSPost2010Prop36
280
     0
102
RTVSPost2010PropOp36
 70
     1
102
RTVSPost2010Prop37
 90
       50
102
RTVSPost2010PropOp37
 70
     1
102
RTVSPost2010Prop38
140
0.0
102
RTVSPost2010PropOp38
 70
     1
102
RTVSPost2010Prop39
140
1.0
102
RTVSPost2010PropOp39
 70
     1
102
RTVSPost2010Prop40
 90
        0
102
RTVSPost2010PropOp40
 70
     1
102
RTVSPost2010Prop41ColorIndex
 90
       18
102
RTVSPost2010Prop41ColorRGB
 90
        0
102
RTVSPost2010PropOp41
 70
     1
102
RTVSPost2010Prop42
 90
       50
102
RTVSPost2010PropOp42
 70
     1
102
RTVSPost2010Prop43
 90
        3
102
RTVSPost2010PropOp43
 70
     1
102
RTVSPost2010Prop44ColorIndex
 90
        5
102
RTVSPost2010Prop44ColorRGB
 90
      255
102
RTVSPost2010PropOp44
 70
     1
102
RTVSPost2010Prop45
280
     0
102
RTVSPost2010PropOp45
 70
     1
102
RTVSPost2010Prop46
 90
       50
102
RTVSPost2010PropOp46
 70
     1
102
RTVSPost2010Prop47
 90
       50
102
RTVSPost2010PropOp47
 70
     1
102
RTVSPost2010Prop48
 90
       50
102
RTVSPost2010PropOp48
 70
     1
102
RTVSPost2010Prop49
280
     0
102
RTVSPost2010PropOp49
 70
     1
102
RTVSPost2010Prop50
 90
       50
102
RTVSPost2010PropOp50
 70
     1
102
RTVSPost2010Prop51ColorIndex
 90
      256
102
RTVSPost2010Prop51ColorRGB
 90
-16777216
102
RTVSPost2010PropOp51
 70
     0
102
RTVSPost2010Prop52
140
1.0
102
RTVSPost2010PropOp52
 70
     0
102
RTVSPost2010Prop53
 90
        2
102
RTVSPost2010PropOp53
 70
     1
102
RTVSPost2010Prop54
  1
strokes_ogs.tif
102
RTVSPost2010PropOp54
 70
     1
102
RTVSPost2010Prop55
280
     0
102
RTVSPost2010PropOp55
 70
     1
102
RTVSPost2010Prop56
140
1.0
102
RTVSPost2010PropOp56
 70
     1
102
RTVSPost2010Prop57
140
1.0
102
RTVSPost2010PropOp57
 70
     1
102
RTVSPropertyOp0
 70
     1
102
RTVSPropertyOp1
 70
     1
102
RTVSPropertyOp2
 70
     1
102
RTVSPropertyOp3
 70
     1
102
RTVSPropertyOp4
 70
     1
102
RTVSPropertyOp5
 70
     1
102
RTVSPropertyOp6
 70
     1
102
RTVSPropertyOp7
 70
     1
102
RTVSPropertyOp8
 70
     1
102
RTVSPropertyOp9
 70
     1
102
RTVSPropertyOp10
 70
     1
102
RTVSPropertyOp11
 70
     1
102
RTVSPropertyOp12
 70
     1
102
RTVSPropertyOp13
 70
     1
102
RTVSPropertyOp14
 70
     1
102
RTVSPropertyOp15
 70
     1
102
RTVSPropertyOp16
 70
     1
102
RTVSPropertyOp17
 70
     1
102
RTVSPropertyOp18
 70
     1
102
RTVSPropertyOp19
 70
     1
102
RTVSPropertyOp20
 70
     1
102
RTVSPropertyOp21
 70
     1
102
RTVSPropertyOp22
 70
     1
102
RTVSPropertyOp23
 70
     1
102
RTVSPropertyOp24
 70
     1
102
RTVSPropertyOp25
 70
     1
102
RTVSPropertyOp26
 70
     1
102
RTVSPropertyOp27
 70
     1
102
RTVSPropertyOp28
 70
     1
102
RTVSPropertyOp29
 70
     1
102
RTVSPropertyOp30
 70
     1
102
RTVSPropertyOp31
 70
     1
102
RTVSPropertyOp32
 70
     1
102
RTVSPropertyOp33
 70
     1
102
RTVSPropertyOp34
 70
     1
102
RTVSPropertyOp35
 70
     1
102
RTVSPropertyOp36
 70
     1
102
RTVSPropertyOp37
 70
     1
102
RTVSPropertyOp38
 70
     1
102
RTVSPropertyOp39
 70
     1
102
RTVSPropertyOp40
 70
     1
102
RTVSPropertyOp41
 70
     1
102
RTVSPropertyOp42
 70
     1
102
RTVSPropertyOp43
 70
     1
102
RTVSPropertyOp44
 70
     1
102
RTVSPropertyOp45
 70
     1
102
RTVSPropertyOp46
 70
     1
102
RTVSPropertyOp47
 70
     1
102
RTVSPropertyOp48
 70
     1
102
RTVSPropertyOp49
 70
     1
102
RTVSPropertyOp50
 70
     1
102
RTVSPropertyOp51
 70
     0
102
RTVSPropertyOp52
 70
     0
102
RTVSPropertyOp53
 70
     1
102
RTVSPropertyOp54
 70
     1
102
RTVSPropertyOp55
 70
     1
102
RTVSPropertyOp56
 70
     1
102
RTVSPropertyOp57
 70
     1
102
RTVSPropertyOp58
 70
     1
102
RTVSPropertyOp59
 70
     1
102
RTVSPropertyOp60
 70
     1
102
RTVSPropertyOp61
 70
     1
102
RTVSPropertyOp62
 70
     1
  0
XRECORD
  5
1648
102
{ACAD_REACTORS
330
1647
102
}
330
1647
100
AcDbXrecord
280
     1
102
RTVSPost2010Prop28
280
     0
102
RTVSPost2010PropOp28
 70
     1
102
RTVSPost2010Prop29
280
     1
102
RTVSPost2010PropOp29
 70
     1
102
RTVSPost2010Prop30
280
     1
102
RTVSPost2010PropOp30
 70
     1
102
RTVSPost2010Prop31
280
     0
102
RTVSPost2010PropOp31
 70
     1
102
RTVSPost2010Prop32
280
     0
102
RTVSPost2010PropOp32
 70
     1
102
RTVSPost2010Prop33
280
     0
102
RTVSPost2010PropOp33
 70
     1
102
RTVSPost2010Prop34
280
     0
102
RTVSPost2010PropOp34
 70
     1
102
RTVSPost2010Prop35
280
     0
102
RTVSPost2010PropOp35
 70
     1
102
RTVSPost2010Prop36
280
     0
102
RTVSPost2010PropOp36
 70
     1
102
RTVSPost2010Prop37
 90
       50
102
RTVSPost2010PropOp37
 70
     1
102
RTVSPost2010Prop38
140
0.0
102
RTVSPost2010PropOp38
 70
     1
102
RTVSPost2010Prop39
140
1.0
102
RTVSPost2010PropOp39
 70
     1
102
RTVSPost2010Prop40
 90
        0
102
RTVSPost2010PropOp40
 70
     1
102
RTVSPost2010Prop41ColorIndex
 90
       18
102
RTVSPost2010Prop41ColorRGB
 90
        0
102
RTVSPost2010PropOp41
 70
     1
102
RTVSPost2010Prop42
 90
       50
102
RTVSPost2010PropOp42
 70
     1
102
RTVSPost2010Prop43
 90
        3
102
RTVSPost2010PropOp43
 70
     1
102
RTVSPost2010Prop44ColorIndex
 90
        5
102
RTVSPost2010Prop44ColorRGB
 90
      255
102
RTVSPost2010PropOp44
 70
     1
102
RTVSPost2010Prop45
280
     0
102
RTVSPost2010PropOp45
 70
     1
102
RTVSPost2010Prop46
 90
       50
102
RTVSPost2010PropOp46
 70
     1
102
RTVSPost2010Prop47
 90
       50
102
RTVSPost2010PropOp47
 70
     1
102
RTVSPost2010Prop48
 90
       50
102
RTVSPost2010PropOp48
 70
     1
102
RTVSPost2010Prop49
280
     0
102
RTVSPost2010PropOp49
 70
     1
102
RTVSPost2010Prop50
 90
       50
102
RTVSPost2010PropOp50
 70
     1
102
RTVSPost2010Prop51ColorIndex
 90
      256
102
RTVSPost2010Prop51ColorRGB
 90
-16777216
102
RTVSPost2010PropOp51
 70
     0
102
RTVSPost2010Prop52
140
1.0
102
RTVSPost2010PropOp52
 70
     0
102
RTVSPost2010Prop53
 90
        2
102
RTVSPost2010PropOp53
 70
     1
102
RTVSPost2010Prop54
  1
strokes_ogs.tif
102
RTVSPost2010PropOp54
 70
     1
102
RTVSPost2010Prop55
280
     0
102
RTVSPost2010PropOp55
 70
     1
102
RTVSPost2010Prop56
140
1.0
102
RTVSPost2010PropOp56
 70
     1
102
RTVSPost2010Prop57
140
1.0
102
RTVSPost2010PropOp57
 70
     1
102
RTVSPropertyOp0
 70
     1
102
RTVSPropertyOp1
 70
     1
102
RTVSPropertyOp2
 70
     1
102
RTVSPropertyOp3
 70
     1
102
RTVSPropertyOp4
 70
     1
102
RTVSPropertyOp5
 70
     1
102
RTVSPropertyOp6
 70
     1
102
RTVSPropertyOp7
 70
     1
102
RTVSPropertyOp8
 70
     1
102
RTVSPropertyOp9
 70
     1
102
RTVSPropertyOp10
 70
     1
102
RTVSPropertyOp11
 70
     1
102
RTVSPropertyOp12
 70
     1
102
RTVSPropertyOp13
 70
     1
102
RTVSPropertyOp14
 70
     1
102
RTVSPropertyOp15
 70
     1
102
RTVSPropertyOp16
 70
     1
102
RTVSPropertyOp17
 70
     1
102
RTVSPropertyOp18
 70
     1
102
RTVSPropertyOp19
 70
     1
102
RTVSPropertyOp20
 70
     1
102
RTVSPropertyOp21
 70
     1
102
RTVSPropertyOp22
 70
     1
102
RTVSPropertyOp23
 70
     1
102
RTVSPropertyOp24
 70
     1
102
RTVSPropertyOp25
 70
     1
102
RTVSPropertyOp26
 70
     1
102
RTVSPropertyOp27
 70
     1
102
RTVSPropertyOp28
 70
     1
102
RTVSPropertyOp29
 70
     1
102
RTVSPropertyOp30
 70
     1
102
RTVSPropertyOp31
 70
     1
102
RTVSPropertyOp32
 70
     1
102
RTVSPropertyOp33
 70
     1
102
RTVSPropertyOp34
 70
     1
102
RTVSPropertyOp35
 70
     1
102
RTVSPropertyOp36
 70
     1
102
RTVSPropertyOp37
 70
     1
102
RTVSPropertyOp38
 70
     1
102
RTVSPropertyOp39
 70
     1
102
RTVSPropertyOp40
 70
     1
102
RTVSPropertyOp41
 70
     1
102
RTVSPropertyOp42
 70
     1
102
RTVSPropertyOp43
 70
     1
102
RTVSPropertyOp44
 70
     1
102
RTVSPropertyOp45
 70
     1
102
RTVSPropertyOp46
 70
     1
102
RTVSPropertyOp47
 70
     1
102
RTVSPropertyOp48
 70
     1
102
RTVSPropertyOp49
 70
     1
102
RTVSPropertyOp50
 70
     1
102
RTVSPropertyOp51
 70
     0
102
RTVSPropertyOp52
 70
     0
102
RTVSPropertyOp53
 70
     1
102
RTVSPropertyOp54
 70
     1
102
RTVSPropertyOp55
 70
     1
102
RTVSPropertyOp56
 70
     1
102
RTVSPropertyOp57
 70
     1
102
RTVSPropertyOp58
 70
     1
102
RTVSPropertyOp59
 70
     1
102
RTVSPropertyOp60
 70
     1
102
RTVSPropertyOp61
 70
     1
102
RTVSPropertyOp62
 70
     1
  0
XRECORD
  5
1650
102
{ACAD_REACTORS
330
164F
102
}
330
164F
100
AcDbXrecord
280
     1
102
RTVSPost2010Prop28
280
     0
102
RTVSPost2010PropOp28
 70
     1
102
RTVSPost2010Prop29
280
     1
102
RTVSPost2010PropOp29
 70
     1
102
RTVSPost2010Prop30
280
     1
102
RTVSPost2010PropOp30
 70
     1
102
RTVSPost2010Prop31
280
     0
102
RTVSPost2010PropOp31
 70
     1
102
RTVSPost2010Prop32
280
     0
102
RTVSPost2010PropOp32
 70
     1
102
RTVSPost2010Prop33
280
     0
102
RTVSPost2010PropOp33
 70
     1
102
RTVSPost2010Prop34
280
     0
102
RTVSPost2010PropOp34
 70
     1
102
RTVSPost2010Prop35
280
     0
102
RTVSPost2010PropOp35
 70
     1
102
RTVSPost2010Prop36
280
     0
102
RTVSPost2010PropOp36
 70
     1
102
RTVSPost2010Prop37
 90
       50
102
RTVSPost2010PropOp37
 70
     1
102
RTVSPost2010Prop38
140
0.0
102
RTVSPost2010PropOp38
 70
     1
102
RTVSPost2010Prop39
140
1.0
102
RTVSPost2010PropOp39
 70
     1
102
RTVSPost2010Prop40
 90
        0
102
RTVSPost2010PropOp40
 70
     1
102
RTVSPost2010Prop41ColorIndex
 90
       18
102
RTVSPost2010Prop41ColorRGB
 90
        0
102
RTVSPost2010PropOp41
 70
     1
102
RTVSPost2010Prop42
 90
       50
102
RTVSPost2010PropOp42
 70
     1
102
RTVSPost2010Prop43
 90
        3
102
RTVSPost2010PropOp43
 70
     1
102
RTVSPost2010Prop44ColorIndex
 90
        5
102
RTVSPost2010Prop44ColorRGB
 90
      255
102
RTVSPost2010PropOp44
 70
     1
102
RTVSPost2010Prop45
280
     0
102
RTVSPost2010PropOp45
 70
     1
102
RTVSPost2010Prop46
 90
       50
102
RTVSPost2010PropOp46
 70
     1
102
RTVSPost2010Prop47
 90
       50
102
RTVSPost2010PropOp47
 70
     1
102
RTVSPost2010Prop48
 90
       50
102
RTVSPost2010PropOp48
 70
     1
102
RTVSPost2010Prop49
280
     0
102
RTVSPost2010PropOp49
 70
     1
102
RTVSPost2010Prop50
 90
       50
102
RTVSPost2010PropOp50
 70
     1
102
RTVSPost2010Prop51ColorIndex
 90
      256
102
RTVSPost2010Prop51ColorRGB
 90
-16777216
102
RTVSPost2010PropOp51
 70
     0
102
RTVSPost2010Prop52
140
1.0
102
RTVSPost2010PropOp52
 70
     0
102
RTVSPost2010Prop53
 90
        2
102
RTVSPost2010PropOp53
 70
     1
102
RTVSPost2010Prop54
  1
strokes_ogs.tif
102
RTVSPost2010PropOp54
 70
     1
102
RTVSPost2010Prop55
280
     0
102
RTVSPost2010PropOp55
 70
     1
102
RTVSPost2010Prop56
140
1.0
102
RTVSPost2010PropOp56
 70
     1
102
RTVSPost2010Prop57
140
1.0
102
RTVSPost2010PropOp57
 70
     1
102
RTVSPropertyOp0
 70
     1
102
RTVSPropertyOp1
 70
     1
102
RTVSPropertyOp2
 70
     1
102
RTVSPropertyOp3
 70
     1
102
RTVSPropertyOp4
 70
     1
102
RTVSPropertyOp5
 70
     1
102
RTVSPropertyOp6
 70
     1
102
RTVSPropertyOp7
 70
     1
102
RTVSPropertyOp8
 70
     1
102
RTVSPropertyOp9
 70
     1
102
RTVSPropertyOp10
 70
     1
102
RTVSPropertyOp11
 70
     1
102
RTVSPropertyOp12
 70
     1
102
RTVSPropertyOp13
 70
     1
102
RTVSPropertyOp14
 70
     1
102
RTVSPropertyOp15
 70
     1
102
RTVSPropertyOp16
 70
     1
102
RTVSPropertyOp17
 70
     1
102
RTVSPropertyOp18
 70
     1
102
RTVSPropertyOp19
 70
     1
102
RTVSPropertyOp20
 70
     1
102
RTVSPropertyOp21
 70
     1
102
RTVSPropertyOp22
 70
     1
102
RTVSPropertyOp23
 70
     1
102
RTVSPropertyOp24
 70
     1
102
RTVSPropertyOp25
 70
     1
102
RTVSPropertyOp26
 70
     1
102
RTVSPropertyOp27
 70
     1
102
RTVSPropertyOp28
 70
     1
102
RTVSPropertyOp29
 70
     1
102
RTVSPropertyOp30
 70
     1
102
RTVSPropertyOp31
 70
     1
102
RTVSPropertyOp32
 70
     1
102
RTVSPropertyOp33
 70
     1
102
RTVSPropertyOp34
 70
     1
102
RTVSPropertyOp35
 70
     1
102
RTVSPropertyOp36
 70
     1
102
RTVSPropertyOp37
 70
     1
102
RTVSPropertyOp38
 70
     1
102
RTVSPropertyOp39
 70
     1
102
RTVSPropertyOp40
 70
     1
102
RTVSPropertyOp41
 70
     1
102
RTVSPropertyOp42
 70
     1
102
RTVSPropertyOp43
 70
     1
102
RTVSPropertyOp44
 70
     1
102
RTVSPropertyOp45
 70
     1
102
RTVSPropertyOp46
 70
     1
102
RTVSPropertyOp47
 70
     1
102
RTVSPropertyOp48
 70
     1
102
RTVSPropertyOp49
 70
     1
102
RTVSPropertyOp50
 70
     1
102
RTVSPropertyOp51
 70
     0
102
RTVSPropertyOp52
 70
     0
102
RTVSPropertyOp53
 70
     1
102
RTVSPropertyOp54
 70
     1
102
RTVSPropertyOp55
 70
     1
102
RTVSPropertyOp56
 70
     1
102
RTVSPropertyOp57
 70
     1
102
RTVSPropertyOp58
 70
     1
102
RTVSPropertyOp59
 70
     1
102
RTVSPropertyOp60
 70
     1
102
RTVSPropertyOp61
 70
     1
102
RTVSPropertyOp62
 70
     1
  0
XRECORD
  5
1657
102
{ACAD_REACTORS
330
1656
102
}
330
1656
100
AcDbXrecord
280
     1
102
RTVSPost2010Prop28
280
     0
102
RTVSPost2010PropOp28
 70
     1
102
RTVSPost2010Prop29
280
     1
102
RTVSPost2010PropOp29
 70
     1
102
RTVSPost2010Prop30
280
     1
102
RTVSPost2010PropOp30
 70
     1
102
RTVSPost2010Prop31
280
     0
102
RTVSPost2010PropOp31
 70
     1
102
RTVSPost2010Prop32
280
     0
102
RTVSPost2010PropOp32
 70
     1
102
RTVSPost2010Prop33
280
     0
102
RTVSPost2010PropOp33
 70
     1
102
RTVSPost2010Prop34
280
     0
102
RTVSPost2010PropOp34
 70
     1
102
RTVSPost2010Prop35
280
     0
102
RTVSPost2010PropOp35
 70
     1
102
RTVSPost2010Prop36
280
     0
102
RTVSPost2010PropOp36
 70
     1
102
RTVSPost2010Prop37
 90
       50
102
RTVSPost2010PropOp37
 70
     1
102
RTVSPost2010Prop38
140
0.0
102
RTVSPost2010PropOp38
 70
     1
102
RTVSPost2010Prop39
140
1.0
102
RTVSPost2010PropOp39
 70
     1
102
RTVSPost2010Prop40
 90
        0
102
RTVSPost2010PropOp40
 70
     1
102
RTVSPost2010Prop41ColorIndex
 90
       18
102
RTVSPost2010Prop41ColorRGB
 90
        0
102
RTVSPost2010PropOp41
 70
     1
102
RTVSPost2010Prop42
 90
       50
102
RTVSPost2010PropOp42
 70
     1
102
RTVSPost2010Prop43
 90
        3
102
RTVSPost2010PropOp43
 70
     1
102
RTVSPost2010Prop44ColorIndex
 90
        5
102
RTVSPost2010Prop44ColorRGB
 90
      255
102
RTVSPost2010PropOp44
 70
     1
102
RTVSPost2010Prop45
280
     0
102
RTVSPost2010PropOp45
 70
     1
102
RTVSPost2010Prop46
 90
       50
102
RTVSPost2010PropOp46
 70
     1
102
RTVSPost2010Prop47
 90
       50
102
RTVSPost2010PropOp47
 70
     1
102
RTVSPost2010Prop48
 90
       50
102
RTVSPost2010PropOp48
 70
     1
102
RTVSPost2010Prop49
280
     0
102
RTVSPost2010PropOp49
 70
     1
102
RTVSPost2010Prop50
 90
       50
102
RTVSPost2010PropOp50
 70
     1
102
RTVSPost2010Prop51ColorIndex
 90
      256
102
RTVSPost2010Prop51ColorRGB
 90
-16777216
102
RTVSPost2010PropOp51
 70
     0
102
RTVSPost2010Prop52
140
1.0
102
RTVSPost2010PropOp52
 70
     0
102
RTVSPost2010Prop53
 90
        2
102
RTVSPost2010PropOp53
 70
     1
102
RTVSPost2010Prop54
  1
strokes_ogs.tif
102
RTVSPost2010PropOp54
 70
     1
102
RTVSPost2010Prop55
280
     0
102
RTVSPost2010PropOp55
 70
     1
102
RTVSPost2010Prop56
140
1.0
102
RTVSPost2010PropOp56
 70
     1
102
RTVSPost2010Prop57
140
1.0
102
RTVSPost2010PropOp57
 70
     1
102
RTVSPropertyOp0
 70
     1
102
RTVSPropertyOp1
 70
     1
102
RTVSPropertyOp2
 70
     1
102
RTVSPropertyOp3
 70
     1
102
RTVSPropertyOp4
 70
     1
102
RTVSPropertyOp5
 70
     1
102
RTVSPropertyOp6
 70
     1
102
RTVSPropertyOp7
 70
     1
102
RTVSPropertyOp8
 70
     1
102
RTVSPropertyOp9
 70
     1
102
RTVSPropertyOp10
 70
     1
102
RTVSPropertyOp11
 70
     1
102
RTVSPropertyOp12
 70
     1
102
RTVSPropertyOp13
 70
     1
102
RTVSPropertyOp14
 70
     1
102
RTVSPropertyOp15
 70
     1
102
RTVSPropertyOp16
 70
     1
102
RTVSPropertyOp17
 70
     1
102
RTVSPropertyOp18
 70
     1
102
RTVSPropertyOp19
 70
     1
102
RTVSPropertyOp20
 70
     1
102
RTVSPropertyOp21
 70
     1
102
RTVSPropertyOp22
 70
     1
102
RTVSPropertyOp23
 70
     1
102
RTVSPropertyOp24
 70
     1
102
RTVSPropertyOp25
 70
     1
102
RTVSPropertyOp26
 70
     1
102
RTVSPropertyOp27
 70
     1
102
RTVSPropertyOp28
 70
     1
102
RTVSPropertyOp29
 70
     1
102
RTVSPropertyOp30
 70
     1
102
RTVSPropertyOp31
 70
     1
102
RTVSPropertyOp32
 70
     1
102
RTVSPropertyOp33
 70
     1
102
RTVSPropertyOp34
 70
     1
102
RTVSPropertyOp35
 70
     1
102
RTVSPropertyOp36
 70
     1
102
RTVSPropertyOp37
 70
     1
102
RTVSPropertyOp38
 70
     1
102
RTVSPropertyOp39
 70
     1
102
RTVSPropertyOp40
 70
     1
102
RTVSPropertyOp41
 70
     1
102
RTVSPropertyOp42
 70
     1
102
RTVSPropertyOp43
 70
     1
102
RTVSPropertyOp44
 70
     1
102
RTVSPropertyOp45
 70
     1
102
RTVSPropertyOp46
 70
     1
102
RTVSPropertyOp47
 70
     1
102
RTVSPropertyOp48
 70
     1
102
RTVSPropertyOp49
 70
     1
102
RTVSPropertyOp50
 70
     1
102
RTVSPropertyOp51
 70
     0
102
RTVSPropertyOp52
 70
     0
102
RTVSPropertyOp53
 70
     1
102
RTVSPropertyOp54
 70
     1
102
RTVSPropertyOp55
 70
     1
102
RTVSPropertyOp56
 70
     1
102
RTVSPropertyOp57
 70
     1
102
RTVSPropertyOp58
 70
     1
102
RTVSPropertyOp59
 70
     1
102
RTVSPropertyOp60
 70
     1
102
RTVSPropertyOp61
 70
     1
102
RTVSPropertyOp62
 70
     1
  0
XRECORD
  5
1646
102
{ACAD_REACTORS
330
1645
102
}
330
1645
100
AcDbXrecord
280
     1
102
RTVSPost2010Prop28
280
     0
102
RTVSPost2010PropOp28
 70
     1
102
RTVSPost2010Prop29
280
     1
102
RTVSPost2010PropOp29
 70
     1
102
RTVSPost2010Prop30
280
     1
102
RTVSPost2010PropOp30
 70
     1
102
RTVSPost2010Prop31
280
     0
102
RTVSPost2010PropOp31
 70
     1
102
RTVSPost2010Prop32
280
     0
102
RTVSPost2010PropOp32
 70
     1
102
RTVSPost2010Prop33
280
     0
102
RTVSPost2010PropOp33
 70
     1
102
RTVSPost2010Prop34
280
     0
102
RTVSPost2010PropOp34
 70
     1
102
RTVSPost2010Prop35
280
     0
102
RTVSPost2010PropOp35
 70
     1
102
RTVSPost2010Prop36
280
     0
102
RTVSPost2010PropOp36
 70
     1
102
RTVSPost2010Prop37
 90
       50
102
RTVSPost2010PropOp37
 70
     1
102
RTVSPost2010Prop38
140
0.0
102
RTVSPost2010PropOp38
 70
     1
102
RTVSPost2010Prop39
140
1.0
102
RTVSPost2010PropOp39
 70
     1
102
RTVSPost2010Prop40
 90
        0
102
RTVSPost2010PropOp40
 70
     1
102
RTVSPost2010Prop41ColorIndex
 90
       18
102
RTVSPost2010Prop41ColorRGB
 90
        0
102
RTVSPost2010PropOp41
 70
     1
102
RTVSPost2010Prop42
 90
       50
102
RTVSPost2010PropOp42
 70
     1
102
RTVSPost2010Prop43
 90
        3
102
RTVSPost2010PropOp43
 70
     1
102
RTVSPost2010Prop44ColorIndex
 90
        5
102
RTVSPost2010Prop44ColorRGB
 90
      255
102
RTVSPost2010PropOp44
 70
     1
102
RTVSPost2010Prop45
280
     0
102
RTVSPost2010PropOp45
 70
     1
102
RTVSPost2010Prop46
 90
       50
102
RTVSPost2010PropOp46
 70
     1
102
RTVSPost2010Prop47
 90
       50
102
RTVSPost2010PropOp47
 70
     1
102
RTVSPost2010Prop48
 90
       50
102
RTVSPost2010PropOp48
 70
     1
102
RTVSPost2010Prop49
280
     0
102
RTVSPost2010PropOp49
 70
     1
102
RTVSPost2010Prop50
 90
       50
102
RTVSPost2010PropOp50
 70
     1
102
RTVSPost2010Prop51ColorIndex
 90
      256
102
RTVSPost2010Prop51ColorRGB
 90
-16777216
102
RTVSPost2010PropOp51
 70
     0
102
RTVSPost2010Prop52
140
1.0
102
RTVSPost2010PropOp52
 70
     0
102
RTVSPost2010Prop53
 90
        2
102
RTVSPost2010PropOp53
 70
     1
102
RTVSPost2010Prop54
  1
strokes_ogs.tif
102
RTVSPost2010PropOp54
 70
     1
102
RTVSPost2010Prop55
280
     0
102
RTVSPost2010PropOp55
 70
     1
102
RTVSPost2010Prop56
140
1.0
102
RTVSPost2010PropOp56
 70
     1
102
RTVSPost2010Prop57
140
1.0
102
RTVSPost2010PropOp57
 70
     1
102
RTVSPropertyOp0
 70
     1
102
RTVSPropertyOp1
 70
     1
102
RTVSPropertyOp2
 70
     1
102
RTVSPropertyOp3
 70
     1
102
RTVSPropertyOp4
 70
     1
102
RTVSPropertyOp5
 70
     1
102
RTVSPropertyOp6
 70
     1
102
RTVSPropertyOp7
 70
     1
102
RTVSPropertyOp8
 70
     1
102
RTVSPropertyOp9
 70
     1
102
RTVSPropertyOp10
 70
     1
102
RTVSPropertyOp11
 70
     1
102
RTVSPropertyOp12
 70
     1
102
RTVSPropertyOp13
 70
     1
102
RTVSPropertyOp14
 70
     1
102
RTVSPropertyOp15
 70
     1
102
RTVSPropertyOp16
 70
     1
102
RTVSPropertyOp17
 70
     1
102
RTVSPropertyOp18
 70
     1
102
RTVSPropertyOp19
 70
     1
102
RTVSPropertyOp20
 70
     1
102
RTVSPropertyOp21
 70
     1
102
RTVSPropertyOp22
 70
     1
102
RTVSPropertyOp23
 70
     1
102
RTVSPropertyOp24
 70
     1
102
RTVSPropertyOp25
 70
     1
102
RTVSPropertyOp26
 70
     1
102
RTVSPropertyOp27
 70
     1
102
RTVSPropertyOp28
 70
     1
102
RTVSPropertyOp29
 70
     1
102
RTVSPropertyOp30
 70
     1
102
RTVSPropertyOp31
 70
     1
102
RTVSPropertyOp32
 70
     1
102
RTVSPropertyOp33
 70
     1
102
RTVSPropertyOp34
 70
     1
102
RTVSPropertyOp35
 70
     1
102
RTVSPropertyOp36
 70
     1
102
RTVSPropertyOp37
 70
     1
102
RTVSPropertyOp38
 70
     1
102
RTVSPropertyOp39
 70
     1
102
RTVSPropertyOp40
 70
     1
102
RTVSPropertyOp41
 70
     1
102
RTVSPropertyOp42
 70
     1
102
RTVSPropertyOp43
 70
     1
102
RTVSPropertyOp44
 70
     1
102
RTVSPropertyOp45
 70
     1
102
RTVSPropertyOp46
 70
     1
102
RTVSPropertyOp47
 70
     1
102
RTVSPropertyOp48
 70
     1
102
RTVSPropertyOp49
 70
     1
102
RTVSPropertyOp50
 70
     1
102
RTVSPropertyOp51
 70
     0
102
RTVSPropertyOp52
 70
     0
102
RTVSPropertyOp53
 70
     1
102
RTVSPropertyOp54
 70
     1
102
RTVSPropertyOp55
 70
     1
102
RTVSPropertyOp56
 70
     1
102
RTVSPropertyOp57
 70
     1
102
RTVSPropertyOp58
 70
     1
102
RTVSPropertyOp59
 70
     1
102
RTVSPropertyOp60
 70
     1
102
RTVSPropertyOp61
 70
     1
102
RTVSPropertyOp62
 70
     1
  0
XRECORD
  5
166D
102
{ACAD_REACTORS
330
166C
102
}
330
166C
100
AcDbXrecord
280
     1
102
RTVSPost2010Prop28
280
     0
102
RTVSPost2010PropOp28
 70
     0
102
RTVSPost2010Prop29
280
     1
102
RTVSPost2010PropOp29
 70
     0
102
RTVSPost2010Prop30
280
     1
102
RTVSPost2010PropOp30
 70
     0
102
RTVSPost2010Prop31
280
     0
102
RTVSPost2010PropOp31
 70
     0
102
RTVSPost2010Prop32
280
     0
102
RTVSPost2010PropOp32
 70
     0
102
RTVSPost2010Prop33
280
     0
102
RTVSPost2010PropOp33
 70
     0
102
RTVSPost2010Prop34
280
     0
102
RTVSPost2010PropOp34
 70
     0
102
RTVSPost2010Prop35
280
     0
102
RTVSPost2010PropOp35
 70
     0
102
RTVSPost2010Prop36
280
     0
102
RTVSPost2010PropOp36
 70
     0
102
RTVSPost2010Prop37
 90
       50
102
RTVSPost2010PropOp37
 70
     0
102
RTVSPost2010Prop38
140
0.0
102
RTVSPost2010PropOp38
 70
     0
102
RTVSPost2010Prop39
140
1.0
102
RTVSPost2010PropOp39
 70
     0
102
RTVSPost2010Prop40
 90
        0
102
RTVSPost2010PropOp40
 70
     0
102
RTVSPost2010Prop41ColorIndex
 90
       18
102
RTVSPost2010Prop41ColorRGB
 90
        0
102
RTVSPost2010PropOp41
 70
     0
102
RTVSPost2010Prop42
 90
       50
102
RTVSPost2010PropOp42
 70
     0
102
RTVSPost2010Prop43
 90
        3
102
RTVSPost2010PropOp43
 70
     0
102
RTVSPost2010Prop44ColorIndex
 90
        5
102
RTVSPost2010Prop44ColorRGB
 90
      255
102
RTVSPost2010PropOp44
 70
     0
102
RTVSPost2010Prop45
280
     0
102
RTVSPost2010PropOp45
 70
     0
102
RTVSPost2010Prop46
 90
       50
102
RTVSPost2010PropOp46
 70
     0
102
RTVSPost2010Prop47
 90
       50
102
RTVSPost2010PropOp47
 70
     0
102
RTVSPost2010Prop48
 90
       50
102
RTVSPost2010PropOp48
 70
     0
102
RTVSPost2010Prop49
280
     0
102
RTVSPost2010PropOp49
 70
     0
102
RTVSPost2010Prop50
 90
       50
102
RTVSPost2010PropOp50
 70
     0
102
RTVSPost2010Prop51ColorIndex
 90
      256
102
RTVSPost2010Prop51ColorRGB
 90
-16777216
102
RTVSPost2010PropOp51
 70
     0
102
RTVSPost2010Prop52
140
1.0
102
RTVSPost2010PropOp52
 70
     0
102
RTVSPost2010Prop53
 90
        2
102
RTVSPost2010PropOp53
 70
     0
102
RTVSPost2010Prop54
  1
strokes_ogs.tif
102
RTVSPost2010PropOp54
 70
     0
102
RTVSPost2010Prop55
280
     0
102
RTVSPost2010PropOp55
 70
     0
102
RTVSPost2010Prop56
140
1.0
102
RTVSPost2010PropOp56
 70
     0
102
RTVSPost2010Prop57
140
1.0
102
RTVSPost2010PropOp57
 70
     0
102
RTVSPropertyOp0
 70
     0
102
RTVSPropertyOp1
 70
     0
102
RTVSPropertyOp2
 70
     0
102
RTVSPropertyOp3
 70
     0
102
RTVSPropertyOp4
 70
     0
102
RTVSPropertyOp5
 70
     0
102
RTVSPropertyOp6
 70
     0
102
RTVSPropertyOp7
 70
     0
102
RTVSPropertyOp8
 70
     0
102
RTVSPropertyOp9
 70
     0
102
RTVSPropertyOp10
 70
     0
102
RTVSPropertyOp11
 70
     0
102
RTVSPropertyOp12
 70
     0
102
RTVSPropertyOp13
 70
     0
102
RTVSPropertyOp14
 70
     2
102
RTVSPropertyOp15
 70
     0
102
RTVSPropertyOp16
 70
     0
102
RTVSPropertyOp17
 70
     0
102
RTVSPropertyOp18
 70
     0
102
RTVSPropertyOp19
 70
     0
102
RTVSPropertyOp20
 70
     0
102
RTVSPropertyOp21
 70
     0
102
RTVSPropertyOp22
 70
     0
102
RTVSPropertyOp23
 70
     0
102
RTVSPropertyOp24
 70
     0
102
RTVSPropertyOp25
 70
     0
102
RTVSPropertyOp26
 70
     0
102
RTVSPropertyOp27
 70
     0
102
RTVSPropertyOp28
 70
     0
102
RTVSPropertyOp29
 70
     0
102
RTVSPropertyOp30
 70
     0
102
RTVSPropertyOp31
 70
     0
102
RTVSPropertyOp32
 70
     0
102
RTVSPropertyOp33
 70
     0
102
RTVSPropertyOp34
 70
     0
102
RTVSPropertyOp35
 70
     0
102
RTVSPropertyOp36
 70
     0
102
RTVSPropertyOp37
 70
     0
102
RTVSPropertyOp38
 70
     0
102
RTVSPropertyOp39
 70
     0
102
RTVSPropertyOp40
 70
     0
102
RTVSPropertyOp41
 70
     0
102
RTVSPropertyOp42
 70
     0
102
RTVSPropertyOp43
 70
     0
102
RTVSPropertyOp44
 70
     0
102
RTVSPropertyOp45
 70
     0
102
RTVSPropertyOp46
 70
     0
102
RTVSPropertyOp47
 70
     0
102
RTVSPropertyOp48
 70
     0
102
RTVSPropertyOp49
 70
     0
102
RTVSPropertyOp50
 70
     0
102
RTVSPropertyOp51
 70
     0
102
RTVSPropertyOp52
 70
     0
102
RTVSPropertyOp53
 70
     0
102
RTVSPropertyOp54
 70
     0
102
RTVSPropertyOp55
 70
     0
102
RTVSPropertyOp56
 70
     0
102
RTVSPropertyOp57
 70
     0
102
RTVSPropertyOp58
 70
     0
102
RTVSPropertyOp59
 70
     0
102
RTVSPropertyOp60
 70
     0
102
RTVSPropertyOp61
 70
     0
102
RTVSPropertyOp62
 70
     0
  0
XRECORD
  5
164E
102
{ACAD_REACTORS
330
164D
102
}
330
164D
100
AcDbXrecord
280
     1
102
RTVSPost2010Prop28
280
     0
102
RTVSPost2010PropOp28
 70
     1
102
RTVSPost2010Prop29
280
     1
102
RTVSPost2010PropOp29
 70
     1
102
RTVSPost2010Prop30
280
     1
102
RTVSPost2010PropOp30
 70
     1
102
RTVSPost2010Prop31
280
     0
102
RTVSPost2010PropOp31
 70
     1
102
RTVSPost2010Prop32
280
     0
102
RTVSPost2010PropOp32
 70
     1
102
RTVSPost2010Prop33
280
     0
102
RTVSPost2010PropOp33
 70
     1
102
RTVSPost2010Prop34
280
     0
102
RTVSPost2010PropOp34
 70
     1
102
RTVSPost2010Prop35
280
     0
102
RTVSPost2010PropOp35
 70
     1
102
RTVSPost2010Prop36
280
     0
102
RTVSPost2010PropOp36
 70
     1
102
RTVSPost2010Prop37
 90
       50
102
RTVSPost2010PropOp37
 70
     1
102
RTVSPost2010Prop38
140
0.0
102
RTVSPost2010PropOp38
 70
     1
102
RTVSPost2010Prop39
140
1.0
102
RTVSPost2010PropOp39
 70
     1
102
RTVSPost2010Prop40
 90
        0
102
RTVSPost2010PropOp40
 70
     1
102
RTVSPost2010Prop41ColorIndex
 90
       18
102
RTVSPost2010Prop41ColorRGB
 90
        0
102
RTVSPost2010PropOp41
 70
     1
102
RTVSPost2010Prop42
 90
       50
102
RTVSPost2010PropOp42
 70
     1
102
RTVSPost2010Prop43
 90
        3
102
RTVSPost2010PropOp43
 70
     1
102
RTVSPost2010Prop44ColorIndex
 90
        5
102
RTVSPost2010Prop44ColorRGB
 90
      255
102
RTVSPost2010PropOp44
 70
     1
102
RTVSPost2010Prop45
280
     0
102
RTVSPost2010PropOp45
 70
     1
102
RTVSPost2010Prop46
 90
       50
102
RTVSPost2010PropOp46
 70
     1
102
RTVSPost2010Prop47
 90
       50
102
RTVSPost2010PropOp47
 70
     1
102
RTVSPost2010Prop48
 90
       50
102
RTVSPost2010PropOp48
 70
     1
102
RTVSPost2010Prop49
280
     0
102
RTVSPost2010PropOp49
 70
     1
102
RTVSPost2010Prop50
 90
       50
102
RTVSPost2010PropOp50
 70
     1
102
RTVSPost2010Prop51ColorIndex
 90
      256
102
RTVSPost2010Prop51ColorRGB
 90
-16777216
102
RTVSPost2010PropOp51
 70
     0
102
RTVSPost2010Prop52
140
1.0
102
RTVSPost2010PropOp52
 70
     0
102
RTVSPost2010Prop53
 90
        2
102
RTVSPost2010PropOp53
 70
     1
102
RTVSPost2010Prop54
  1
strokes_ogs.tif
102
RTVSPost2010PropOp54
 70
     1
102
RTVSPost2010Prop55
280
     0
102
RTVSPost2010PropOp55
 70
     1
102
RTVSPost2010Prop56
140
1.0
102
RTVSPost2010PropOp56
 70
     1
102
RTVSPost2010Prop57
140
1.0
102
RTVSPost2010PropOp57
 70
     1
102
RTVSPropertyOp0
 70
     1
102
RTVSPropertyOp1
 70
     1
102
RTVSPropertyOp2
 70
     1
102
RTVSPropertyOp3
 70
     1
102
RTVSPropertyOp4
 70
     1
102
RTVSPropertyOp5
 70
     1
102
RTVSPropertyOp6
 70
     1
102
RTVSPropertyOp7
 70
     1
102
RTVSPropertyOp8
 70
     1
102
RTVSPropertyOp9
 70
     1
102
RTVSPropertyOp10
 70
     1
102
RTVSPropertyOp11
 70
     1
102
RTVSPropertyOp12
 70
     1
102
RTVSPropertyOp13
 70
     1
102
RTVSPropertyOp14
 70
     1
102
RTVSPropertyOp15
 70
     1
102
RTVSPropertyOp16
 70
     1
102
RTVSPropertyOp17
 70
     1
102
RTVSPropertyOp18
 70
     1
102
RTVSPropertyOp19
 70
     1
102
RTVSPropertyOp20
 70
     1
102
RTVSPropertyOp21
 70
     1
102
RTVSPropertyOp22
 70
     1
102
RTVSPropertyOp23
 70
     1
102
RTVSPropertyOp24
 70
     1
102
RTVSPropertyOp25
 70
     1
102
RTVSPropertyOp26
 70
     1
102
RTVSPropertyOp27
 70
     1
102
RTVSPropertyOp28
 70
     1
102
RTVSPropertyOp29
 70
     1
102
RTVSPropertyOp30
 70
     1
102
RTVSPropertyOp31
 70
     1
102
RTVSPropertyOp32
 70
     1
102
RTVSPropertyOp33
 70
     1
102
RTVSPropertyOp34
 70
     1
102
RTVSPropertyOp35
 70
     1
102
RTVSPropertyOp36
 70
     1
102
RTVSPropertyOp37
 70
     1
102
RTVSPropertyOp38
 70
     1
102
RTVSPropertyOp39
 70
     1
102
RTVSPropertyOp40
 70
     1
102
RTVSPropertyOp41
 70
     1
102
RTVSPropertyOp42
 70
     1
102
RTVSPropertyOp43
 70
     1
102
RTVSPropertyOp44
 70
     1
102
RTVSPropertyOp45
 70
     1
102
RTVSPropertyOp46
 70
     1
102
RTVSPropertyOp47
 70
     1
102
RTVSPropertyOp48
 70
     1
102
RTVSPropertyOp49
 70
     1
102
RTVSPropertyOp50
 70
     1
102
RTVSPropertyOp51
 70
     0
102
RTVSPropertyOp52
 70
     0
102
RTVSPropertyOp53
 70
     1
102
RTVSPropertyOp54
 70
     1
102
RTVSPropertyOp55
 70
     1
102
RTVSPropertyOp56
 70
     1
102
RTVSPropertyOp57
 70
     1
102
RTVSPropertyOp58
 70
     1
102
RTVSPropertyOp59
 70
     1
102
RTVSPropertyOp60
 70
     1
102
RTVSPropertyOp61
 70
     1
102
RTVSPropertyOp62
 70
     1
  0
XRECORD
  5
163A
102
{ACAD_REACTORS
330
1639
102
}
330
1639
100
AcDbXrecord
280
     1
102
RTVSPost2010Prop28
280
     0
102
RTVSPost2010PropOp28
 70
     1
102
RTVSPost2010Prop29
280
     1
102
RTVSPost2010PropOp29
 70
     1
102
RTVSPost2010Prop30
280
     1
102
RTVSPost2010PropOp30
 70
     1
102
RTVSPost2010Prop31
280
     0
102
RTVSPost2010PropOp31
 70
     1
102
RTVSPost2010Prop32
280
     0
102
RTVSPost2010PropOp32
 70
     1
102
RTVSPost2010Prop33
280
     0
102
RTVSPost2010PropOp33
 70
     1
102
RTVSPost2010Prop34
280
     0
102
RTVSPost2010PropOp34
 70
     1
102
RTVSPost2010Prop35
280
     0
102
RTVSPost2010PropOp35
 70
     1
102
RTVSPost2010Prop36
280
     0
102
RTVSPost2010PropOp36
 70
     1
102
RTVSPost2010Prop37
 90
       50
102
RTVSPost2010PropOp37
 70
     1
102
RTVSPost2010Prop38
140
0.0
102
RTVSPost2010PropOp38
 70
     1
102
RTVSPost2010Prop39
140
1.0
102
RTVSPost2010PropOp39
 70
     1
102
RTVSPost2010Prop40
 90
        0
102
RTVSPost2010PropOp40
 70
     1
102
RTVSPost2010Prop41ColorIndex
 90
       18
102
RTVSPost2010Prop41ColorRGB
 90
        0
102
RTVSPost2010PropOp41
 70
     1
102
RTVSPost2010Prop42
 90
       50
102
RTVSPost2010PropOp42
 70
     1
102
RTVSPost2010Prop43
 90
        3
102
RTVSPost2010PropOp43
 70
     1
102
RTVSPost2010Prop44ColorIndex
 90
        5
102
RTVSPost2010Prop44ColorRGB
 90
      255
102
RTVSPost2010PropOp44
 70
     1
102
RTVSPost2010Prop45
280
     0
102
RTVSPost2010PropOp45
 70
     1
102
RTVSPost2010Prop46
 90
       50
102
RTVSPost2010PropOp46
 70
     1
102
RTVSPost2010Prop47
 90
       50
102
RTVSPost2010PropOp47
 70
     1
102
RTVSPost2010Prop48
 90
       50
102
RTVSPost2010PropOp48
 70
     1
102
RTVSPost2010Prop49
280
     0
102
RTVSPost2010PropOp49
 70
     1
102
RTVSPost2010Prop50
 90
       50
102
RTVSPost2010PropOp50
 70
     1
102
RTVSPost2010Prop51ColorIndex
 90
      256
102
RTVSPost2010Prop51ColorRGB
 90
-16777216
102
RTVSPost2010PropOp51
 70
     0
102
RTVSPost2010Prop52
140
1.0
102
RTVSPost2010PropOp52
 70
     0
102
RTVSPost2010Prop53
 90
        2
102
RTVSPost2010PropOp53
 70
     1
102
RTVSPost2010Prop54
  1
strokes_ogs.tif
102
RTVSPost2010PropOp54
 70
     1
102
RTVSPost2010Prop55
280
     0
102
RTVSPost2010PropOp55
 70
     1
102
RTVSPost2010Prop56
140
1.0
102
RTVSPost2010PropOp56
 70
     1
102
RTVSPost2010Prop57
140
1.0
102
RTVSPost2010PropOp57
 70
     1
102
RTVSPropertyOp0
 70
     1
102
RTVSPropertyOp1
 70
     1
102
RTVSPropertyOp2
 70
     1
102
RTVSPropertyOp3
 70
     1
102
RTVSPropertyOp4
 70
     1
102
RTVSPropertyOp5
 70
     1
102
RTVSPropertyOp6
 70
     1
102
RTVSPropertyOp7
 70
     1
102
RTVSPropertyOp8
 70
     1
102
RTVSPropertyOp9
 70
     1
102
RTVSPropertyOp10
 70
     1
102
RTVSPropertyOp11
 70
     1
102
RTVSPropertyOp12
 70
     1
102
RTVSPropertyOp13
 70
     1
102
RTVSPropertyOp14
 70
     1
102
RTVSPropertyOp15
 70
     1
102
RTVSPropertyOp16
 70
     1
102
RTVSPropertyOp17
 70
     1
102
RTVSPropertyOp18
 70
     1
102
RTVSPropertyOp19
 70
     1
102
RTVSPropertyOp20
 70
     1
102
RTVSPropertyOp21
 70
     1
102
RTVSPropertyOp22
 70
     1
102
RTVSPropertyOp23
 70
     1
102
RTVSPropertyOp24
 70
     1
102
RTVSPropertyOp25
 70
     1
102
RTVSPropertyOp26
 70
     1
102
RTVSPropertyOp27
 70
     1
102
RTVSPropertyOp28
 70
     1
102
RTVSPropertyOp29
 70
     1
102
RTVSPropertyOp30
 70
     1
102
RTVSPropertyOp31
 70
     1
102
RTVSPropertyOp32
 70
     1
102
RTVSPropertyOp33
 70
     1
102
RTVSPropertyOp34
 70
     1
102
RTVSPropertyOp35
 70
     1
102
RTVSPropertyOp36
 70
     1
102
RTVSPropertyOp37
 70
     1
102
RTVSPropertyOp38
 70
     1
102
RTVSPropertyOp39
 70
     1
102
RTVSPropertyOp40
 70
     1
102
RTVSPropertyOp41
 70
     1
102
RTVSPropertyOp42
 70
     1
102
RTVSPropertyOp43
 70
     1
102
RTVSPropertyOp44
 70
     1
102
RTVSPropertyOp45
 70
     1
102
RTVSPropertyOp46
 70
     1
102
RTVSPropertyOp47
 70
     1
102
RTVSPropertyOp48
 70
     1
102
RTVSPropertyOp49
 70
     1
102
RTVSPropertyOp50
 70
     1
102
RTVSPropertyOp51
 70
     0
102
RTVSPropertyOp52
 70
     0
102
RTVSPropertyOp53
 70
     1
102
RTVSPropertyOp54
 70
     1
102
RTVSPropertyOp55
 70
     1
102
RTVSPropertyOp56
 70
     1
102
RTVSPropertyOp57
 70
     1
102
RTVSPropertyOp58
 70
     1
102
RTVSPropertyOp59
 70
     1
102
RTVSPropertyOp60
 70
     1
102
RTVSPropertyOp61
 70
     1
102
RTVSPropertyOp62
 70
     1
  0
XRECORD
  5
163C
102
{ACAD_REACTORS
330
163B
102
}
330
163B
100
AcDbXrecord
280
     1
102
RTVSPost2010Prop28
280
     0
102
RTVSPost2010PropOp28
 70
     1
102
RTVSPost2010Prop29
280
     1
102
RTVSPost2010PropOp29
 70
     1
102
RTVSPost2010Prop30
280
     1
102
RTVSPost2010PropOp30
 70
     1
102
RTVSPost2010Prop31
280
     0
102
RTVSPost2010PropOp31
 70
     1
102
RTVSPost2010Prop32
280
     0
102
RTVSPost2010PropOp32
 70
     1
102
RTVSPost2010Prop33
280
     0
102
RTVSPost2010PropOp33
 70
     1
102
RTVSPost2010Prop34
280
     0
102
RTVSPost2010PropOp34
 70
     1
102
RTVSPost2010Prop35
280
     0
102
RTVSPost2010PropOp35
 70
     1
102
RTVSPost2010Prop36
280
     0
102
RTVSPost2010PropOp36
 70
     1
102
RTVSPost2010Prop37
 90
       50
102
RTVSPost2010PropOp37
 70
     1
102
RTVSPost2010Prop38
140
0.0
102
RTVSPost2010PropOp38
 70
     1
102
RTVSPost2010Prop39
140
1.0
102
RTVSPost2010PropOp39
 70
     1
102
RTVSPost2010Prop40
 90
        0
102
RTVSPost2010PropOp40
 70
     1
102
RTVSPost2010Prop41ColorIndex
 90
       18
102
RTVSPost2010Prop41ColorRGB
 90
        0
102
RTVSPost2010PropOp41
 70
     1
102
RTVSPost2010Prop42
 90
       50
102
RTVSPost2010PropOp42
 70
     1
102
RTVSPost2010Prop43
 90
        3
102
RTVSPost2010PropOp43
 70
     1
102
RTVSPost2010Prop44ColorIndex
 90
        5
102
RTVSPost2010Prop44ColorRGB
 90
      255
102
RTVSPost2010PropOp44
 70
     1
102
RTVSPost2010Prop45
280
     0
102
RTVSPost2010PropOp45
 70
     1
102
RTVSPost2010Prop46
 90
       50
102
RTVSPost2010PropOp46
 70
     1
102
RTVSPost2010Prop47
 90
       50
102
RTVSPost2010PropOp47
 70
     1
102
RTVSPost2010Prop48
 90
       50
102
RTVSPost2010PropOp48
 70
     1
102
RTVSPost2010Prop49
280
     0
102
RTVSPost2010PropOp49
 70
     1
102
RTVSPost2010Prop50
 90
       50
102
RTVSPost2010PropOp50
 70
     1
102
RTVSPost2010Prop51ColorIndex
 90
      256
102
RTVSPost2010Prop51ColorRGB
 90
-16777216
102
RTVSPost2010PropOp51
 70
     0
102
RTVSPost2010Prop52
140
1.0
102
RTVSPost2010PropOp52
 70
     0
102
RTVSPost2010Prop53
 90
        2
102
RTVSPost2010PropOp53
 70
     1
102
RTVSPost2010Prop54
  1
strokes_ogs.tif
102
RTVSPost2010PropOp54
 70
     1
102
RTVSPost2010Prop55
280
     0
102
RTVSPost2010PropOp55
 70
     1
102
RTVSPost2010Prop56
140
1.0
102
RTVSPost2010PropOp56
 70
     1
102
RTVSPost2010Prop57
140
1.0
102
RTVSPost2010PropOp57
 70
     1
102
RTVSPropertyOp0
 70
     1
102
RTVSPropertyOp1
 70
     1
102
RTVSPropertyOp2
 70
     1
102
RTVSPropertyOp3
 70
     1
102
RTVSPropertyOp4
 70
     1
102
RTVSPropertyOp5
 70
     1
102
RTVSPropertyOp6
 70
     1
102
RTVSPropertyOp7
 70
     1
102
RTVSPropertyOp8
 70
     1
102
RTVSPropertyOp9
 70
     1
102
RTVSPropertyOp10
 70
     1
102
RTVSPropertyOp11
 70
     1
102
RTVSPropertyOp12
 70
     1
102
RTVSPropertyOp13
 70
     1
102
RTVSPropertyOp14
 70
     1
102
RTVSPropertyOp15
 70
     1
102
RTVSPropertyOp16
 70
     1
102
RTVSPropertyOp17
 70
     1
102
RTVSPropertyOp18
 70
     1
102
RTVSPropertyOp19
 70
     1
102
RTVSPropertyOp20
 70
     1
102
RTVSPropertyOp21
 70
     1
102
RTVSPropertyOp22
 70
     1
102
RTVSPropertyOp23
 70
     1
102
RTVSPropertyOp24
 70
     1
102
RTVSPropertyOp25
 70
     1
102
RTVSPropertyOp26
 70
     1
102
RTVSPropertyOp27
 70
     1
102
RTVSPropertyOp28
 70
     1
102
RTVSPropertyOp29
 70
     1
102
RTVSPropertyOp30
 70
     1
102
RTVSPropertyOp31
 70
     1
102
RTVSPropertyOp32
 70
     1
102
RTVSPropertyOp33
 70
     1
102
RTVSPropertyOp34
 70
     1
102
RTVSPropertyOp35
 70
     1
102
RTVSPropertyOp36
 70
     1
102
RTVSPropertyOp37
 70
     1
102
RTVSPropertyOp38
 70
     1
102
RTVSPropertyOp39
 70
     1
102
RTVSPropertyOp40
 70
     1
102
RTVSPropertyOp41
 70
     1
102
RTVSPropertyOp42
 70
     1
102
RTVSPropertyOp43
 70
     1
102
RTVSPropertyOp44
 70
     1
102
RTVSPropertyOp45
 70
     1
102
RTVSPropertyOp46
 70
     1
102
RTVSPropertyOp47
 70
     1
102
RTVSPropertyOp48
 70
     1
102
RTVSPropertyOp49
 70
     1
102
RTVSPropertyOp50
 70
     1
102
RTVSPropertyOp51
 70
     0
102
RTVSPropertyOp52
 70
     0
102
RTVSPropertyOp53
 70
     1
102
RTVSPropertyOp54
 70
     1
102
RTVSPropertyOp55
 70
     1
102
RTVSPropertyOp56
 70
     1
102
RTVSPropertyOp57
 70
     1
102
RTVSPropertyOp58
 70
     1
102
RTVSPropertyOp59
 70
     1
102
RTVSPropertyOp60
 70
     1
102
RTVSPropertyOp61
 70
     1
102
RTVSPropertyOp62
 70
     1
  0
XRECORD
  5
163E
102
{ACAD_REACTORS
330
163D
102
}
330
163D
100
AcDbXrecord
280
     1
102
RTVSPost2010Prop28
280
     0
102
RTVSPost2010PropOp28
 70
     1
102
RTVSPost2010Prop29
280
     1
102
RTVSPost2010PropOp29
 70
     1
102
RTVSPost2010Prop30
280
     1
102
RTVSPost2010PropOp30
 70
     1
102
RTVSPost2010Prop31
280
     0
102
RTVSPost2010PropOp31
 70
     1
102
RTVSPost2010Prop32
280
     0
102
RTVSPost2010PropOp32
 70
     1
102
RTVSPost2010Prop33
280
     0
102
RTVSPost2010PropOp33
 70
     1
102
RTVSPost2010Prop34
280
     0
102
RTVSPost2010PropOp34
 70
     1
102
RTVSPost2010Prop35
280
     0
102
RTVSPost2010PropOp35
 70
     1
102
RTVSPost2010Prop36
280
     0
102
RTVSPost2010PropOp36
 70
     1
102
RTVSPost2010Prop37
 90
       50
102
RTVSPost2010PropOp37
 70
     1
102
RTVSPost2010Prop38
140
0.0
102
RTVSPost2010PropOp38
 70
     1
102
RTVSPost2010Prop39
140
1.0
102
RTVSPost2010PropOp39
 70
     1
102
RTVSPost2010Prop40
 90
        0
102
RTVSPost2010PropOp40
 70
     1
102
RTVSPost2010Prop41ColorIndex
 90
       18
102
RTVSPost2010Prop41ColorRGB
 90
        0
102
RTVSPost2010PropOp41
 70
     1
102
RTVSPost2010Prop42
 90
       50
102
RTVSPost2010PropOp42
 70
     1
102
RTVSPost2010Prop43
 90
        3
102
RTVSPost2010PropOp43
 70
     1
102
RTVSPost2010Prop44ColorIndex
 90
        5
102
RTVSPost2010Prop44ColorRGB
 90
      255
102
RTVSPost2010PropOp44
 70
     1
102
RTVSPost2010Prop45
280
     0
102
RTVSPost2010PropOp45
 70
     1
102
RTVSPost2010Prop46
 90
       50
102
RTVSPost2010PropOp46
 70
     1
102
RTVSPost2010Prop47
 90
       50
102
RTVSPost2010PropOp47
 70
     1
102
RTVSPost2010Prop48
 90
       50
102
RTVSPost2010PropOp48
 70
     1
102
RTVSPost2010Prop49
280
     0
102
RTVSPost2010PropOp49
 70
     1
102
RTVSPost2010Prop50
 90
       50
102
RTVSPost2010PropOp50
 70
     1
102
RTVSPost2010Prop51ColorIndex
 90
      256
102
RTVSPost2010Prop51ColorRGB
 90
-16777216
102
RTVSPost2010PropOp51
 70
     0
102
RTVSPost2010Prop52
140
1.0
102
RTVSPost2010PropOp52
 70
     0
102
RTVSPost2010Prop53
 90
        2
102
RTVSPost2010PropOp53
 70
     1
102
RTVSPost2010Prop54
  1
strokes_ogs.tif
102
RTVSPost2010PropOp54
 70
     1
102
RTVSPost2010Prop55
280
     0
102
RTVSPost2010PropOp55
 70
     1
102
RTVSPost2010Prop56
140
1.0
102
RTVSPost2010PropOp56
 70
     1
102
RTVSPost2010Prop57
140
1.0
102
RTVSPost2010PropOp57
 70
     1
102
RTVSPropertyOp0
 70
     1
102
RTVSPropertyOp1
 70
     1
102
RTVSPropertyOp2
 70
     1
102
RTVSPropertyOp3
 70
     1
102
RTVSPropertyOp4
 70
     1
102
RTVSPropertyOp5
 70
     1
102
RTVSPropertyOp6
 70
     1
102
RTVSPropertyOp7
 70
     1
102
RTVSPropertyOp8
 70
     1
102
RTVSPropertyOp9
 70
     1
102
RTVSPropertyOp10
 70
     1
102
RTVSPropertyOp11
 70
     1
102
RTVSPropertyOp12
 70
     1
102
RTVSPropertyOp13
 70
     1
102
RTVSPropertyOp14
 70
     1
102
RTVSPropertyOp15
 70
     1
102
RTVSPropertyOp16
 70
     1
102
RTVSPropertyOp17
 70
     1
102
RTVSPropertyOp18
 70
     1
102
RTVSPropertyOp19
 70
     1
102
RTVSPropertyOp20
 70
     1
102
RTVSPropertyOp21
 70
     1
102
RTVSPropertyOp22
 70
     1
102
RTVSPropertyOp23
 70
     1
102
RTVSPropertyOp24
 70
     1
102
RTVSPropertyOp25
 70
     1
102
RTVSPropertyOp26
 70
     1
102
RTVSPropertyOp27
 70
     1
102
RTVSPropertyOp28
 70
     1
102
RTVSPropertyOp29
 70
     1
102
RTVSPropertyOp30
 70
     1
102
RTVSPropertyOp31
 70
     1
102
RTVSPropertyOp32
 70
     1
102
RTVSPropertyOp33
 70
     1
102
RTVSPropertyOp34
 70
     1
102
RTVSPropertyOp35
 70
     1
102
RTVSPropertyOp36
 70
     1
102
RTVSPropertyOp37
 70
     1
102
RTVSPropertyOp38
 70
     1
102
RTVSPropertyOp39
 70
     1
102
RTVSPropertyOp40
 70
     1
102
RTVSPropertyOp41
 70
     1
102
RTVSPropertyOp42
 70
     1
102
RTVSPropertyOp43
 70
     1
102
RTVSPropertyOp44
 70
     1
102
RTVSPropertyOp45
 70
     1
102
RTVSPropertyOp46
 70
     1
102
RTVSPropertyOp47
 70
     1
102
RTVSPropertyOp48
 70
     1
102
RTVSPropertyOp49
 70
     1
102
RTVSPropertyOp50
 70
     1
102
RTVSPropertyOp51
 70
     0
102
RTVSPropertyOp52
 70
     0
102
RTVSPropertyOp53
 70
     1
102
RTVSPropertyOp54
 70
     1
102
RTVSPropertyOp55
 70
     1
102
RTVSPropertyOp56
 70
     1
102
RTVSPropertyOp57
 70
     1
102
RTVSPropertyOp58
 70
     1
102
RTVSPropertyOp59
 70
     1
102
RTVSPropertyOp60
 70
     1
102
RTVSPropertyOp61
 70
     1
102
RTVSPropertyOp62
 70
     1
  0
XRECORD
  5
1640
102
{ACAD_REACTORS
330
163F
102
}
330
163F
100
AcDbXrecord
280
     1
102
RTVSPost2010Prop28
280
     0
102
RTVSPost2010PropOp28
 70
     1
102
RTVSPost2010Prop29
280
     1
102
RTVSPost2010PropOp29
 70
     1
102
RTVSPost2010Prop30
280
     1
102
RTVSPost2010PropOp30
 70
     1
102
RTVSPost2010Prop31
280
     0
102
RTVSPost2010PropOp31
 70
     1
102
RTVSPost2010Prop32
280
     0
102
RTVSPost2010PropOp32
 70
     1
102
RTVSPost2010Prop33
280
     0
102
RTVSPost2010PropOp33
 70
     1
102
RTVSPost2010Prop34
280
     0
102
RTVSPost2010PropOp34
 70
     1
102
RTVSPost2010Prop35
280
     0
102
RTVSPost2010PropOp35
 70
     1
102
RTVSPost2010Prop36
280
     0
102
RTVSPost2010PropOp36
 70
     1
102
RTVSPost2010Prop37
 90
       50
102
RTVSPost2010PropOp37
 70
     1
102
RTVSPost2010Prop38
140
0.0
102
RTVSPost2010PropOp38
 70
     1
102
RTVSPost2010Prop39
140
1.0
102
RTVSPost2010PropOp39
 70
     1
102
RTVSPost2010Prop40
 90
        0
102
RTVSPost2010PropOp40
 70
     1
102
RTVSPost2010Prop41ColorIndex
 90
       18
102
RTVSPost2010Prop41ColorRGB
 90
        0
102
RTVSPost2010PropOp41
 70
     1
102
RTVSPost2010Prop42
 90
       50
102
RTVSPost2010PropOp42
 70
     1
102
RTVSPost2010Prop43
 90
        3
102
RTVSPost2010PropOp43
 70
     1
102
RTVSPost2010Prop44ColorIndex
 90
        5
102
RTVSPost2010Prop44ColorRGB
 90
      255
102
RTVSPost2010PropOp44
 70
     1
102
RTVSPost2010Prop45
280
     0
102
RTVSPost2010PropOp45
 70
     1
102
RTVSPost2010Prop46
 90
       50
102
RTVSPost2010PropOp46
 70
     1
102
RTVSPost2010Prop47
 90
       50
102
RTVSPost2010PropOp47
 70
     1
102
RTVSPost2010Prop48
 90
       50
102
RTVSPost2010PropOp48
 70
     1
102
RTVSPost2010Prop49
280
     0
102
RTVSPost2010PropOp49
 70
     1
102
RTVSPost2010Prop50
 90
       50
102
RTVSPost2010PropOp50
 70
     1
102
RTVSPost2010Prop51ColorIndex
 90
      256
102
RTVSPost2010Prop51ColorRGB
 90
-16777216
102
RTVSPost2010PropOp51
 70
     0
102
RTVSPost2010Prop52
140
1.0
102
RTVSPost2010PropOp52
 70
     0
102
RTVSPost2010Prop53
 90
        2
102
RTVSPost2010PropOp53
 70
     1
102
RTVSPost2010Prop54
  1
strokes_ogs.tif
102
RTVSPost2010PropOp54
 70
     1
102
RTVSPost2010Prop55
280
     0
102
RTVSPost2010PropOp55
 70
     1
102
RTVSPost2010Prop56
140
1.0
102
RTVSPost2010PropOp56
 70
     1
102
RTVSPost2010Prop57
140
1.0
102
RTVSPost2010PropOp57
 70
     1
102
RTVSPropertyOp0
 70
     1
102
RTVSPropertyOp1
 70
     1
102
RTVSPropertyOp2
 70
     1
102
RTVSPropertyOp3
 70
     1
102
RTVSPropertyOp4
 70
     1
102
RTVSPropertyOp5
 70
     1
102
RTVSPropertyOp6
 70
     1
102
RTVSPropertyOp7
 70
     1
102
RTVSPropertyOp8
 70
     1
102
RTVSPropertyOp9
 70
     1
102
RTVSPropertyOp10
 70
     1
102
RTVSPropertyOp11
 70
     1
102
RTVSPropertyOp12
 70
     1
102
RTVSPropertyOp13
 70
     1
102
RTVSPropertyOp14
 70
     1
102
RTVSPropertyOp15
 70
     1
102
RTVSPropertyOp16
 70
     1
102
RTVSPropertyOp17
 70
     1
102
RTVSPropertyOp18
 70
     1
102
RTVSPropertyOp19
 70
     1
102
RTVSPropertyOp20
 70
     1
102
RTVSPropertyOp21
 70
     1
102
RTVSPropertyOp22
 70
     1
102
RTVSPropertyOp23
 70
     1
102
RTVSPropertyOp24
 70
     1
102
RTVSPropertyOp25
 70
     1
102
RTVSPropertyOp26
 70
     1
102
RTVSPropertyOp27
 70
     1
102
RTVSPropertyOp28
 70
     1
102
RTVSPropertyOp29
 70
     1
102
RTVSPropertyOp30
 70
     1
102
RTVSPropertyOp31
 70
     1
102
RTVSPropertyOp32
 70
     1
102
RTVSPropertyOp33
 70
     1
102
RTVSPropertyOp34
 70
     1
102
RTVSPropertyOp35
 70
     1
102
RTVSPropertyOp36
 70
     1
102
RTVSPropertyOp37
 70
     1
102
RTVSPropertyOp38
 70
     1
102
RTVSPropertyOp39
 70
     1
102
RTVSPropertyOp40
 70
     1
102
RTVSPropertyOp41
 70
     1
102
RTVSPropertyOp42
 70
     1
102
RTVSPropertyOp43
 70
     1
102
RTVSPropertyOp44
 70
     1
102
RTVSPropertyOp45
 70
     1
102
RTVSPropertyOp46
 70
     1
102
RTVSPropertyOp47
 70
     1
102
RTVSPropertyOp48
 70
     1
102
RTVSPropertyOp49
 70
     1
102
RTVSPropertyOp50
 70
     1
102
RTVSPropertyOp51
 70
     0
102
RTVSPropertyOp52
 70
     0
102
RTVSPropertyOp53
 70
     1
102
RTVSPropertyOp54
 70
     1
102
RTVSPropertyOp55
 70
     1
102
RTVSPropertyOp56
 70
     1
102
RTVSPropertyOp57
 70
     1
102
RTVSPropertyOp58
 70
     1
102
RTVSPropertyOp59
 70
     1
102
RTVSPropertyOp60
 70
     1
102
RTVSPropertyOp61
 70
     1
102
RTVSPropertyOp62
 70
     1
  0
XRECORD
  5
165D
102
{ACAD_REACTORS
330
165C
102
}
330
165C
100
AcDbXrecord
280
     1
102
RTVSPost2010Prop28
280
     0
102
RTVSPost2010PropOp28
 70
     1
102
RTVSPost2010Prop29
280
     1
102
RTVSPost2010PropOp29
 70
     1
102
RTVSPost2010Prop30
280
     1
102
RTVSPost2010PropOp30
 70
     1
102
RTVSPost2010Prop31
280
     0
102
RTVSPost2010PropOp31
 70
     1
102
RTVSPost2010Prop32
280
     0
102
RTVSPost2010PropOp32
 70
     1
102
RTVSPost2010Prop33
280
     0
102
RTVSPost2010PropOp33
 70
     1
102
RTVSPost2010Prop34
280
     0
102
RTVSPost2010PropOp34
 70
     1
102
RTVSPost2010Prop35
280
     0
102
RTVSPost2010PropOp35
 70
     1
102
RTVSPost2010Prop36
280
     0
102
RTVSPost2010PropOp36
 70
     1
102
RTVSPost2010Prop37
 90
       50
102
RTVSPost2010PropOp37
 70
     1
102
RTVSPost2010Prop38
140
0.0
102
RTVSPost2010PropOp38
 70
     1
102
RTVSPost2010Prop39
140
1.0
102
RTVSPost2010PropOp39
 70
     1
102
RTVSPost2010Prop40
 90
        0
102
RTVSPost2010PropOp40
 70
     1
102
RTVSPost2010Prop41ColorIndex
 90
       18
102
RTVSPost2010Prop41ColorRGB
 90
        0
102
RTVSPost2010PropOp41
 70
     1
102
RTVSPost2010Prop42
 90
       50
102
RTVSPost2010PropOp42
 70
     1
102
RTVSPost2010Prop43
 90
        3
102
RTVSPost2010PropOp43
 70
     1
102
RTVSPost2010Prop44ColorIndex
 90
        5
102
RTVSPost2010Prop44ColorRGB
 90
      255
102
RTVSPost2010PropOp44
 70
     1
102
RTVSPost2010Prop45
280
     0
102
RTVSPost2010PropOp45
 70
     1
102
RTVSPost2010Prop46
 90
       50
102
RTVSPost2010PropOp46
 70
     1
102
RTVSPost2010Prop47
 90
       50
102
RTVSPost2010PropOp47
 70
     1
102
RTVSPost2010Prop48
 90
       50
102
RTVSPost2010PropOp48
 70
     1
102
RTVSPost2010Prop49
280
     0
102
RTVSPost2010PropOp49
 70
     1
102
RTVSPost2010Prop50
 90
       50
102
RTVSPost2010PropOp50
 70
     1
102
RTVSPost2010Prop51ColorIndex
 90
      256
102
RTVSPost2010Prop51ColorRGB
 90
-16777216
102
RTVSPost2010PropOp51
 70
     0
102
RTVSPost2010Prop52
140
1.0
102
RTVSPost2010PropOp52
 70
     0
102
RTVSPost2010Prop53
 90
        2
102
RTVSPost2010PropOp53
 70
     1
102
RTVSPost2010Prop54
  1
strokes_ogs.tif
102
RTVSPost2010PropOp54
 70
     1
102
RTVSPost2010Prop55
280
     0
102
RTVSPost2010PropOp55
 70
     1
102
RTVSPost2010Prop56
140
1.0
102
RTVSPost2010PropOp56
 70
     1
102
RTVSPost2010Prop57
140
1.0
102
RTVSPost2010PropOp57
 70
     1
102
RTVSPropertyOp0
 70
     1
102
RTVSPropertyOp1
 70
     1
102
RTVSPropertyOp2
 70
     1
102
RTVSPropertyOp3
 70
     1
102
RTVSPropertyOp4
 70
     1
102
RTVSPropertyOp5
 70
     1
102
RTVSPropertyOp6
 70
     1
102
RTVSPropertyOp7
 70
     1
102
RTVSPropertyOp8
 70
     1
102
RTVSPropertyOp9
 70
     1
102
RTVSPropertyOp10
 70
     1
102
RTVSPropertyOp11
 70
     1
102
RTVSPropertyOp12
 70
     1
102
RTVSPropertyOp13
 70
     1
102
RTVSPropertyOp14
 70
     1
102
RTVSPropertyOp15
 70
     1
102
RTVSPropertyOp16
 70
     1
102
RTVSPropertyOp17
 70
     1
102
RTVSPropertyOp18
 70
     1
102
RTVSPropertyOp19
 70
     1
102
RTVSPropertyOp20
 70
     1
102
RTVSPropertyOp21
 70
     1
102
RTVSPropertyOp22
 70
     1
102
RTVSPropertyOp23
 70
     1
102
RTVSPropertyOp24
 70
     1
102
RTVSPropertyOp25
 70
     1
102
RTVSPropertyOp26
 70
     1
102
RTVSPropertyOp27
 70
     1
102
RTVSPropertyOp28
 70
     1
102
RTVSPropertyOp29
 70
     1
102
RTVSPropertyOp30
 70
     1
102
RTVSPropertyOp31
 70
     1
102
RTVSPropertyOp32
 70
     1
102
RTVSPropertyOp33
 70
     1
102
RTVSPropertyOp34
 70
     1
102
RTVSPropertyOp35
 70
     1
102
RTVSPropertyOp36
 70
     1
102
RTVSPropertyOp37
 70
     1
102
RTVSPropertyOp38
 70
     1
102
RTVSPropertyOp39
 70
     1
102
RTVSPropertyOp40
 70
     1
102
RTVSPropertyOp41
 70
     1
102
RTVSPropertyOp42
 70
     1
102
RTVSPropertyOp43
 70
     1
102
RTVSPropertyOp44
 70
     1
102
RTVSPropertyOp45
 70
     1
102
RTVSPropertyOp46
 70
     1
102
RTVSPropertyOp47
 70
     1
102
RTVSPropertyOp48
 70
     1
102
RTVSPropertyOp49
 70
     1
102
RTVSPropertyOp50
 70
     1
102
RTVSPropertyOp51
 70
     0
102
RTVSPropertyOp52
 70
     0
102
RTVSPropertyOp53
 70
     1
102
RTVSPropertyOp54
 70
     1
102
RTVSPropertyOp55
 70
     1
102
RTVSPropertyOp56
 70
     1
102
RTVSPropertyOp57
 70
     1
102
RTVSPropertyOp58
 70
     1
102
RTVSPropertyOp59
 70
     1
102
RTVSPropertyOp60
 70
     1
102
RTVSPropertyOp61
 70
     1
102
RTVSPropertyOp62
 70
     1
  0
XRECORD
  5
1669
102
{ACAD_REACTORS
330
1668
102
}
330
1668
100
AcDbXrecord
280
     1
102
RTVSPost2010Prop28
280
     0
102
RTVSPost2010PropOp28
 70
     0
102
RTVSPost2010Prop29
280
     1
102
RTVSPost2010PropOp29
 70
     0
102
RTVSPost2010Prop30
280
     1
102
RTVSPost2010PropOp30
 70
     0
102
RTVSPost2010Prop31
280
     0
102
RTVSPost2010PropOp31
 70
     0
102
RTVSPost2010Prop32
280
     0
102
RTVSPost2010PropOp32
 70
     0
102
RTVSPost2010Prop33
280
     0
102
RTVSPost2010PropOp33
 70
     0
102
RTVSPost2010Prop34
280
     0
102
RTVSPost2010PropOp34
 70
     0
102
RTVSPost2010Prop35
280
     0
102
RTVSPost2010PropOp35
 70
     0
102
RTVSPost2010Prop36
280
     0
102
RTVSPost2010PropOp36
 70
     0
102
RTVSPost2010Prop37
 90
       50
102
RTVSPost2010PropOp37
 70
     0
102
RTVSPost2010Prop38
140
0.0
102
RTVSPost2010PropOp38
 70
     0
102
RTVSPost2010Prop39
140
1.0
102
RTVSPost2010PropOp39
 70
     0
102
RTVSPost2010Prop40
 90
        0
102
RTVSPost2010PropOp40
 70
     0
102
RTVSPost2010Prop41ColorIndex
 90
       18
102
RTVSPost2010Prop41ColorRGB
 90
        0
102
RTVSPost2010PropOp41
 70
     0
102
RTVSPost2010Prop42
 90
       50
102
RTVSPost2010PropOp42
 70
     0
102
RTVSPost2010Prop43
 90
        3
102
RTVSPost2010PropOp43
 70
     0
102
RTVSPost2010Prop44ColorIndex
 90
        5
102
RTVSPost2010Prop44ColorRGB
 90
      255
102
RTVSPost2010PropOp44
 70
     0
102
RTVSPost2010Prop45
280
     0
102
RTVSPost2010PropOp45
 70
     0
102
RTVSPost2010Prop46
 90
       50
102
RTVSPost2010PropOp46
 70
     0
102
RTVSPost2010Prop47
 90
       50
102
RTVSPost2010PropOp47
 70
     0
102
RTVSPost2010Prop48
 90
       50
102
RTVSPost2010PropOp48
 70
     0
102
RTVSPost2010Prop49
280
     0
102
RTVSPost2010PropOp49
 70
     0
102
RTVSPost2010Prop50
 90
       50
102
RTVSPost2010PropOp50
 70
     0
102
RTVSPost2010Prop51ColorIndex
 90
      256
102
RTVSPost2010Prop51ColorRGB
 90
-16777216
102
RTVSPost2010PropOp51
 70
     0
102
RTVSPost2010Prop52
140
1.0
102
RTVSPost2010PropOp52
 70
     0
102
RTVSPost2010Prop53
 90
        2
102
RTVSPost2010PropOp53
 70
     0
102
RTVSPost2010Prop54
  1
strokes_ogs.tif
102
RTVSPost2010PropOp54
 70
     0
102
RTVSPost2010Prop55
280
     0
102
RTVSPost2010PropOp55
 70
     0
102
RTVSPost2010Prop56
140
1.0
102
RTVSPost2010PropOp56
 70
     0
102
RTVSPost2010Prop57
140
1.0
102
RTVSPost2010PropOp57
 70
     0
102
RTVSPropertyOp0
 70
     0
102
RTVSPropertyOp1
 70
     0
102
RTVSPropertyOp2
 70
     0
102
RTVSPropertyOp3
 70
     0
102
RTVSPropertyOp4
 70
     0
102
RTVSPropertyOp5
 70
     0
102
RTVSPropertyOp6
 70
     0
102
RTVSPropertyOp7
 70
     0
102
RTVSPropertyOp8
 70
     0
102
RTVSPropertyOp9
 70
     0
102
RTVSPropertyOp10
 70
     0
102
RTVSPropertyOp11
 70
     0
102
RTVSPropertyOp12
 70
     0
102
RTVSPropertyOp13
 70
     0
102
RTVSPropertyOp14
 70
     2
102
RTVSPropertyOp15
 70
     0
102
RTVSPropertyOp16
 70
     0
102
RTVSPropertyOp17
 70
     0
102
RTVSPropertyOp18
 70
     0
102
RTVSPropertyOp19
 70
     0
102
RTVSPropertyOp20
 70
     0
102
RTVSPropertyOp21
 70
     0
102
RTVSPropertyOp22
 70
     0
102
RTVSPropertyOp23
 70
     0
102
RTVSPropertyOp24
 70
     0
102
RTVSPropertyOp25
 70
     0
102
RTVSPropertyOp26
 70
     0
102
RTVSPropertyOp27
 70
     0
102
RTVSPropertyOp28
 70
     0
102
RTVSPropertyOp29
 70
     0
102
RTVSPropertyOp30
 70
     0
102
RTVSPropertyOp31
 70
     0
102
RTVSPropertyOp32
 70
     0
102
RTVSPropertyOp33
 70
     0
102
RTVSPropertyOp34
 70
     0
102
RTVSPropertyOp35
 70
     0
102
RTVSPropertyOp36
 70
     0
102
RTVSPropertyOp37
 70
     0
102
RTVSPropertyOp38
 70
     0
102
RTVSPropertyOp39
 70
     0
102
RTVSPropertyOp40
 70
     0
102
RTVSPropertyOp41
 70
     0
102
RTVSPropertyOp42
 70
     0
102
RTVSPropertyOp43
 70
     0
102
RTVSPropertyOp44
 70
     0
102
RTVSPropertyOp45
 70
     0
102
RTVSPropertyOp46
 70
     0
102
RTVSPropertyOp47
 70
     0
102
RTVSPropertyOp48
 70
     0
102
RTVSPropertyOp49
 70
     0
102
RTVSPropertyOp50
 70
     0
102
RTVSPropertyOp51
 70
     0
102
RTVSPropertyOp52
 70
     0
102
RTVSPropertyOp53
 70
     0
102
RTVSPropertyOp54
 70
     0
102
RTVSPropertyOp55
 70
     0
102
RTVSPropertyOp56
 70
     0
102
RTVSPropertyOp57
 70
     0
102
RTVSPropertyOp58
 70
     0
102
RTVSPropertyOp59
 70
     0
102
RTVSPropertyOp60
 70
     0
102
RTVSPropertyOp61
 70
     0
102
RTVSPropertyOp62
 70
     0
  0
XRECORD
  5
164C
102
{ACAD_REACTORS
330
164B
102
}
330
164B
100
AcDbXrecord
280
     1
102
RTVSPost2010Prop28
280
     0
102
RTVSPost2010PropOp28
 70
     1
102
RTVSPost2010Prop29
280
     1
102
RTVSPost2010PropOp29
 70
     1
102
RTVSPost2010Prop30
280
     1
102
RTVSPost2010PropOp30
 70
     1
102
RTVSPost2010Prop31
280
     0
102
RTVSPost2010PropOp31
 70
     1
102
RTVSPost2010Prop32
280
     0
102
RTVSPost2010PropOp32
 70
     1
102
RTVSPost2010Prop33
280
     0
102
RTVSPost2010PropOp33
 70
     1
102
RTVSPost2010Prop34
280
     0
102
RTVSPost2010PropOp34
 70
     1
102
RTVSPost2010Prop35
280
     0
102
RTVSPost2010PropOp35
 70
     1
102
RTVSPost2010Prop36
280
     0
102
RTVSPost2010PropOp36
 70
     1
102
RTVSPost2010Prop37
 90
       50
102
RTVSPost2010PropOp37
 70
     1
102
RTVSPost2010Prop38
140
0.0
102
RTVSPost2010PropOp38
 70
     1
102
RTVSPost2010Prop39
140
1.0
102
RTVSPost2010PropOp39
 70
     1
102
RTVSPost2010Prop40
 90
        0
102
RTVSPost2010PropOp40
 70
     1
102
RTVSPost2010Prop41ColorIndex
 90
       18
102
RTVSPost2010Prop41ColorRGB
 90
        0
102
RTVSPost2010PropOp41
 70
     1
102
RTVSPost2010Prop42
 90
       50
102
RTVSPost2010PropOp42
 70
     1
102
RTVSPost2010Prop43
 90
        3
102
RTVSPost2010PropOp43
 70
     1
102
RTVSPost2010Prop44ColorIndex
 90
        5
102
RTVSPost2010Prop44ColorRGB
 90
      255
102
RTVSPost2010PropOp44
 70
     1
102
RTVSPost2010Prop45
280
     0
102
RTVSPost2010PropOp45
 70
     1
102
RTVSPost2010Prop46
 90
       50
102
RTVSPost2010PropOp46
 70
     1
102
RTVSPost2010Prop47
 90
       50
102
RTVSPost2010PropOp47
 70
     1
102
RTVSPost2010Prop48
 90
       50
102
RTVSPost2010PropOp48
 70
     1
102
RTVSPost2010Prop49
280
     0
102
RTVSPost2010PropOp49
 70
     1
102
RTVSPost2010Prop50
 90
       50
102
RTVSPost2010PropOp50
 70
     1
102
RTVSPost2010Prop51ColorIndex
 90
      256
102
RTVSPost2010Prop51ColorRGB
 90
-16777216
102
RTVSPost2010PropOp51
 70
     0
102
RTVSPost2010Prop52
140
1.0
102
RTVSPost2010PropOp52
 70
     0
102
RTVSPost2010Prop53
 90
        2
102
RTVSPost2010PropOp53
 70
     1
102
RTVSPost2010Prop54
  1
strokes_ogs.tif
102
RTVSPost2010PropOp54
 70
     1
102
RTVSPost2010Prop55
280
     0
102
RTVSPost2010PropOp55
 70
     1
102
RTVSPost2010Prop56
140
1.0
102
RTVSPost2010PropOp56
 70
     1
102
RTVSPost2010Prop57
140
1.0
102
RTVSPost2010PropOp57
 70
     1
102
RTVSPropertyOp0
 70
     1
102
RTVSPropertyOp1
 70
     1
102
RTVSPropertyOp2
 70
     1
102
RTVSPropertyOp3
 70
     1
102
RTVSPropertyOp4
 70
     1
102
RTVSPropertyOp5
 70
     1
102
RTVSPropertyOp6
 70
     1
102
RTVSPropertyOp7
 70
     1
102
RTVSPropertyOp8
 70
     1
102
RTVSPropertyOp9
 70
     1
102
RTVSPropertyOp10
 70
     1
102
RTVSPropertyOp11
 70
     1
102
RTVSPropertyOp12
 70
     1
102
RTVSPropertyOp13
 70
     1
102
RTVSPropertyOp14
 70
     1
102
RTVSPropertyOp15
 70
     1
102
RTVSPropertyOp16
 70
     1
102
RTVSPropertyOp17
 70
     1
102
RTVSPropertyOp18
 70
     1
102
RTVSPropertyOp19
 70
     1
102
RTVSPropertyOp20
 70
     1
102
RTVSPropertyOp21
 70
     1
102
RTVSPropertyOp22
 70
     1
102
RTVSPropertyOp23
 70
     1
102
RTVSPropertyOp24
 70
     1
102
RTVSPropertyOp25
 70
     1
102
RTVSPropertyOp26
 70
     1
102
RTVSPropertyOp27
 70
     1
102
RTVSPropertyOp28
 70
     1
102
RTVSPropertyOp29
 70
     1
102
RTVSPropertyOp30
 70
     1
102
RTVSPropertyOp31
 70
     1
102
RTVSPropertyOp32
 70
     1
102
RTVSPropertyOp33
 70
     1
102
RTVSPropertyOp34
 70
     1
102
RTVSPropertyOp35
 70
     1
102
RTVSPropertyOp36
 70
     1
102
RTVSPropertyOp37
 70
     1
102
RTVSPropertyOp38
 70
     1
102
RTVSPropertyOp39
 70
     1
102
RTVSPropertyOp40
 70
     1
102
RTVSPropertyOp41
 70
     1
102
RTVSPropertyOp42
 70
     1
102
RTVSPropertyOp43
 70
     1
102
RTVSPropertyOp44
 70
     1
102
RTVSPropertyOp45
 70
     1
102
RTVSPropertyOp46
 70
     1
102
RTVSPropertyOp47
 70
     1
102
RTVSPropertyOp48
 70
     1
102
RTVSPropertyOp49
 70
     1
102
RTVSPropertyOp50
 70
     1
102
RTVSPropertyOp51
 70
     0
102
RTVSPropertyOp52
 70
     0
102
RTVSPropertyOp53
 70
     1
102
RTVSPropertyOp54
 70
     1
102
RTVSPropertyOp55
 70
     1
102
RTVSPropertyOp56
 70
     1
102
RTVSPropertyOp57
 70
     1
102
RTVSPropertyOp58
 70
     1
102
RTVSPropertyOp59
 70
     1
102
RTVSPropertyOp60
 70
     1
102
RTVSPropertyOp61
 70
     1
102
RTVSPropertyOp62
 70
     1
  0
XRECORD
  5
166B
102
{ACAD_REACTORS
330
166A
102
}
330
166A
100
AcDbXrecord
280
     1
102
RTVSPost2010Prop28
280
     0
102
RTVSPost2010PropOp28
 70
     0
102
RTVSPost2010Prop29
280
     1
102
RTVSPost2010PropOp29
 70
     0
102
RTVSPost2010Prop30
280
     1
102
RTVSPost2010PropOp30
 70
     0
102
RTVSPost2010Prop31
280
     0
102
RTVSPost2010PropOp31
 70
     0
102
RTVSPost2010Prop32
280
     0
102
RTVSPost2010PropOp32
 70
     0
102
RTVSPost2010Prop33
280
     0
102
RTVSPost2010PropOp33
 70
     0
102
RTVSPost2010Prop34
280
     0
102
RTVSPost2010PropOp34
 70
     0
102
RTVSPost2010Prop35
280
     0
102
RTVSPost2010PropOp35
 70
     0
102
RTVSPost2010Prop36
280
     0
102
RTVSPost2010PropOp36
 70
     0
102
RTVSPost2010Prop37
 90
       50
102
RTVSPost2010PropOp37
 70
     0
102
RTVSPost2010Prop38
140
0.0
102
RTVSPost2010PropOp38
 70
     0
102
RTVSPost2010Prop39
140
1.0
102
RTVSPost2010PropOp39
 70
     0
102
RTVSPost2010Prop40
 90
        0
102
RTVSPost2010PropOp40
 70
     0
102
RTVSPost2010Prop41ColorIndex
 90
       18
102
RTVSPost2010Prop41ColorRGB
 90
        0
102
RTVSPost2010PropOp41
 70
     0
102
RTVSPost2010Prop42
 90
       50
102
RTVSPost2010PropOp42
 70
     0
102
RTVSPost2010Prop43
 90
        3
102
RTVSPost2010PropOp43
 70
     0
102
RTVSPost2010Prop44ColorIndex
 90
        5
102
RTVSPost2010Prop44ColorRGB
 90
      255
102
RTVSPost2010PropOp44
 70
     0
102
RTVSPost2010Prop45
280
     0
102
RTVSPost2010PropOp45
 70
     0
102
RTVSPost2010Prop46
 90
       50
102
RTVSPost2010PropOp46
 70
     0
102
RTVSPost2010Prop47
 90
       50
102
RTVSPost2010PropOp47
 70
     0
102
RTVSPost2010Prop48
 90
       50
102
RTVSPost2010PropOp48
 70
     0
102
RTVSPost2010Prop49
280
     0
102
RTVSPost2010PropOp49
 70
     0
102
RTVSPost2010Prop50
 90
       50
102
RTVSPost2010PropOp50
 70
     0
102
RTVSPost2010Prop51ColorIndex
 90
      256
102
RTVSPost2010Prop51ColorRGB
 90
-16777216
102
RTVSPost2010PropOp51
 70
     0
102
RTVSPost2010Prop52
140
1.0
102
RTVSPost2010PropOp52
 70
     0
102
RTVSPost2010Prop53
 90
        2
102
RTVSPost2010PropOp53
 70
     0
102
RTVSPost2010Prop54
  1
strokes_ogs.tif
102
RTVSPost2010PropOp54
 70
     0
102
RTVSPost2010Prop55
280
     0
102
RTVSPost2010PropOp55
 70
     0
102
RTVSPost2010Prop56
140
1.0
102
RTVSPost2010PropOp56
 70
     0
102
RTVSPost2010Prop57
140
1.0
102
RTVSPost2010PropOp57
 70
     0
102
RTVSPropertyOp0
 70
     0
102
RTVSPropertyOp1
 70
     0
102
RTVSPropertyOp2
 70
     0
102
RTVSPropertyOp3
 70
     0
102
RTVSPropertyOp4
 70
     0
102
RTVSPropertyOp5
 70
     0
102
RTVSPropertyOp6
 70
     0
102
RTVSPropertyOp7
 70
     0
102
RTVSPropertyOp8
 70
     0
102
RTVSPropertyOp9
 70
     0
102
RTVSPropertyOp10
 70
     0
102
RTVSPropertyOp11
 70
     0
102
RTVSPropertyOp12
 70
     0
102
RTVSPropertyOp13
 70
     0
102
RTVSPropertyOp14
 70
     2
102
RTVSPropertyOp15
 70
     0
102
RTVSPropertyOp16
 70
     0
102
RTVSPropertyOp17
 70
     0
102
RTVSPropertyOp18
 70
     0
102
RTVSPropertyOp19
 70
     0
102
RTVSPropertyOp20
 70
     0
102
RTVSPropertyOp21
 70
     0
102
RTVSPropertyOp22
 70
     0
102
RTVSPropertyOp23
 70
     0
102
RTVSPropertyOp24
 70
     0
102
RTVSPropertyOp25
 70
     0
102
RTVSPropertyOp26
 70
     0
102
RTVSPropertyOp27
 70
     0
102
RTVSPropertyOp28
 70
     0
102
RTVSPropertyOp29
 70
     0
102
RTVSPropertyOp30
 70
     0
102
RTVSPropertyOp31
 70
     0
102
RTVSPropertyOp32
 70
     0
102
RTVSPropertyOp33
 70
     0
102
RTVSPropertyOp34
 70
     0
102
RTVSPropertyOp35
 70
     0
102
RTVSPropertyOp36
 70
     0
102
RTVSPropertyOp37
 70
     0
102
RTVSPropertyOp38
 70
     0
102
RTVSPropertyOp39
 70
     0
102
RTVSPropertyOp40
 70
     0
102
RTVSPropertyOp41
 70
     0
102
RTVSPropertyOp42
 70
     0
102
RTVSPropertyOp43
 70
     0
102
RTVSPropertyOp44
 70
     0
102
RTVSPropertyOp45
 70
     0
102
RTVSPropertyOp46
 70
     0
102
RTVSPropertyOp47
 70
     0
102
RTVSPropertyOp48
 70
     0
102
RTVSPropertyOp49
 70
     0
102
RTVSPropertyOp50
 70
     0
102
RTVSPropertyOp51
 70
     0
102
RTVSPropertyOp52
 70
     0
102
RTVSPropertyOp53
 70
     0
102
RTVSPropertyOp54
 70
     0
102
RTVSPropertyOp55
 70
     0
102
RTVSPropertyOp56
 70
     0
102
RTVSPropertyOp57
 70
     0
102
RTVSPropertyOp58
 70
     0
102
RTVSPropertyOp59
 70
     0
102
RTVSPropertyOp60
 70
     0
102
RTVSPropertyOp61
 70
     0
102
RTVSPropertyOp62
 70
     0
  0
XRECORD
  5
1659
102
{ACAD_REACTORS
330
1658
102
}
330
1658
100
AcDbXrecord
280
     1
102
RTVSPost2010Prop28
280
     0
102
RTVSPost2010PropOp28
 70
     1
102
RTVSPost2010Prop29
280
     1
102
RTVSPost2010PropOp29
 70
     1
102
RTVSPost2010Prop30
280
     1
102
RTVSPost2010PropOp30
 70
     1
102
RTVSPost2010Prop31
280
     0
102
RTVSPost2010PropOp31
 70
     1
102
RTVSPost2010Prop32
280
     0
102
RTVSPost2010PropOp32
 70
     1
102
RTVSPost2010Prop33
280
     0
102
RTVSPost2010PropOp33
 70
     1
102
RTVSPost2010Prop34
280
     0
102
RTVSPost2010PropOp34
 70
     1
102
RTVSPost2010Prop35
280
     0
102
RTVSPost2010PropOp35
 70
     1
102
RTVSPost2010Prop36
280
     0
102
RTVSPost2010PropOp36
 70
     1
102
RTVSPost2010Prop37
 90
       50
102
RTVSPost2010PropOp37
 70
     1
102
RTVSPost2010Prop38
140
0.0
102
RTVSPost2010PropOp38
 70
     1
102
RTVSPost2010Prop39
140
1.0
102
RTVSPost2010PropOp39
 70
     1
102
RTVSPost2010Prop40
 90
        0
102
RTVSPost2010PropOp40
 70
     1
102
RTVSPost2010Prop41ColorIndex
 90
       18
102
RTVSPost2010Prop41ColorRGB
 90
        0
102
RTVSPost2010PropOp41
 70
     1
102
RTVSPost2010Prop42
 90
       50
102
RTVSPost2010PropOp42
 70
     1
102
RTVSPost2010Prop43
 90
        3
102
RTVSPost2010PropOp43
 70
     1
102
RTVSPost2010Prop44ColorIndex
 90
        5
102
RTVSPost2010Prop44ColorRGB
 90
      255
102
RTVSPost2010PropOp44
 70
     1
102
RTVSPost2010Prop45
280
     0
102
RTVSPost2010PropOp45
 70
     1
102
RTVSPost2010Prop46
 90
       50
102
RTVSPost2010PropOp46
 70
     1
102
RTVSPost2010Prop47
 90
       50
102
RTVSPost2010PropOp47
 70
     1
102
RTVSPost2010Prop48
 90
       50
102
RTVSPost2010PropOp48
 70
     1
102
RTVSPost2010Prop49
280
     0
102
RTVSPost2010PropOp49
 70
     1
102
RTVSPost2010Prop50
 90
       50
102
RTVSPost2010PropOp50
 70
     1
102
RTVSPost2010Prop51ColorIndex
 90
      256
102
RTVSPost2010Prop51ColorRGB
 90
-16777216
102
RTVSPost2010PropOp51
 70
     0
102
RTVSPost2010Prop52
140
1.0
102
RTVSPost2010PropOp52
 70
     0
102
RTVSPost2010Prop53
 90
        2
102
RTVSPost2010PropOp53
 70
     1
102
RTVSPost2010Prop54
  1
strokes_ogs.tif
102
RTVSPost2010PropOp54
 70
     1
102
RTVSPost2010Prop55
280
     0
102
RTVSPost2010PropOp55
 70
     1
102
RTVSPost2010Prop56
140
1.0
102
RTVSPost2010PropOp56
 70
     1
102
RTVSPost2010Prop57
140
1.0
102
RTVSPost2010PropOp57
 70
     1
102
RTVSPropertyOp0
 70
     1
102
RTVSPropertyOp1
 70
     1
102
RTVSPropertyOp2
 70
     1
102
RTVSPropertyOp3
 70
     1
102
RTVSPropertyOp4
 70
     1
102
RTVSPropertyOp5
 70
     1
102
RTVSPropertyOp6
 70
     1
102
RTVSPropertyOp7
 70
     1
102
RTVSPropertyOp8
 70
     1
102
RTVSPropertyOp9
 70
     1
102
RTVSPropertyOp10
 70
     1
102
RTVSPropertyOp11
 70
     1
102
RTVSPropertyOp12
 70
     1
102
RTVSPropertyOp13
 70
     1
102
RTVSPropertyOp14
 70
     1
102
RTVSPropertyOp15
 70
     1
102
RTVSPropertyOp16
 70
     1
102
RTVSPropertyOp17
 70
     1
102
RTVSPropertyOp18
 70
     1
102
RTVSPropertyOp19
 70
     1
102
RTVSPropertyOp20
 70
     1
102
RTVSPropertyOp21
 70
     1
102
RTVSPropertyOp22
 70
     1
102
RTVSPropertyOp23
 70
     1
102
RTVSPropertyOp24
 70
     1
102
RTVSPropertyOp25
 70
     1
102
RTVSPropertyOp26
 70
     1
102
RTVSPropertyOp27
 70
     1
102
RTVSPropertyOp28
 70
     1
102
RTVSPropertyOp29
 70
     1
102
RTVSPropertyOp30
 70
     1
102
RTVSPropertyOp31
 70
     1
102
RTVSPropertyOp32
 70
     1
102
RTVSPropertyOp33
 70
     1
102
RTVSPropertyOp34
 70
     1
102
RTVSPropertyOp35
 70
     1
102
RTVSPropertyOp36
 70
     1
102
RTVSPropertyOp37
 70
     1
102
RTVSPropertyOp38
 70
     1
102
RTVSPropertyOp39
 70
     1
102
RTVSPropertyOp40
 70
     1
102
RTVSPropertyOp41
 70
     1
102
RTVSPropertyOp42
 70
     1
102
RTVSPropertyOp43
 70
     1
102
RTVSPropertyOp44
 70
     1
102
RTVSPropertyOp45
 70
     1
102
RTVSPropertyOp46
 70
     1
102
RTVSPropertyOp47
 70
     1
102
RTVSPropertyOp48
 70
     1
102
RTVSPropertyOp49
 70
     1
102
RTVSPropertyOp50
 70
     1
102
RTVSPropertyOp51
 70
     0
102
RTVSPropertyOp52
 70
     0
102
RTVSPropertyOp53
 70
     1
102
RTVSPropertyOp54
 70
     1
102
RTVSPropertyOp55
 70
     1
102
RTVSPropertyOp56
 70
     1
102
RTVSPropertyOp57
 70
     1
102
RTVSPropertyOp58
 70
     1
102
RTVSPropertyOp59
 70
     1
102
RTVSPropertyOp60
 70
     1
102
RTVSPropertyOp61
 70
     1
102
RTVSPropertyOp62
 70
     1
  0
XRECORD
  5
1667
102
{ACAD_REACTORS
330
1666
102
}
330
1666
100
AcDbXrecord
280
     1
102
RTVSPost2010Prop28
280
     0
102
RTVSPost2010PropOp28
 70
     1
102
RTVSPost2010Prop29
280
     1
102
RTVSPost2010PropOp29
 70
     1
102
RTVSPost2010Prop30
280
     1
102
RTVSPost2010PropOp30
 70
     1
102
RTVSPost2010Prop31
280
     0
102
RTVSPost2010PropOp31
 70
     1
102
RTVSPost2010Prop32
280
     0
102
RTVSPost2010PropOp32
 70
     1
102
RTVSPost2010Prop33
280
     0
102
RTVSPost2010PropOp33
 70
     1
102
RTVSPost2010Prop34
280
     0
102
RTVSPost2010PropOp34
 70
     1
102
RTVSPost2010Prop35
280
     0
102
RTVSPost2010PropOp35
 70
     1
102
RTVSPost2010Prop36
280
     0
102
RTVSPost2010PropOp36
 70
     1
102
RTVSPost2010Prop37
 90
       50
102
RTVSPost2010PropOp37
 70
     1
102
RTVSPost2010Prop38
140
0.0
102
RTVSPost2010PropOp38
 70
     1
102
RTVSPost2010Prop39
140
1.0
102
RTVSPost2010PropOp39
 70
     1
102
RTVSPost2010Prop40
 90
        0
102
RTVSPost2010PropOp40
 70
     1
102
RTVSPost2010Prop41ColorIndex
 90
       18
102
RTVSPost2010Prop41ColorRGB
 90
        0
102
RTVSPost2010PropOp41
 70
     1
102
RTVSPost2010Prop42
 90
       50
102
RTVSPost2010PropOp42
 70
     1
102
RTVSPost2010Prop43
 90
        3
102
RTVSPost2010PropOp43
 70
     1
102
RTVSPost2010Prop44ColorIndex
 90
        5
102
RTVSPost2010Prop44ColorRGB
 90
      255
102
RTVSPost2010PropOp44
 70
     1
102
RTVSPost2010Prop45
280
     0
102
RTVSPost2010PropOp45
 70
     1
102
RTVSPost2010Prop46
 90
       50
102
RTVSPost2010PropOp46
 70
     1
102
RTVSPost2010Prop47
 90
       50
102
RTVSPost2010PropOp47
 70
     1
102
RTVSPost2010Prop48
 90
       50
102
RTVSPost2010PropOp48
 70
     1
102
RTVSPost2010Prop49
280
     0
102
RTVSPost2010PropOp49
 70
     1
102
RTVSPost2010Prop50
 90
       50
102
RTVSPost2010PropOp50
 70
     1
102
RTVSPost2010Prop51ColorIndex
 90
      256
102
RTVSPost2010Prop51ColorRGB
 90
-16777216
102
RTVSPost2010PropOp51
 70
     0
102
RTVSPost2010Prop52
140
1.0
102
RTVSPost2010PropOp52
 70
     0
102
RTVSPost2010Prop53
 90
        2
102
RTVSPost2010PropOp53
 70
     1
102
RTVSPost2010Prop54
  1
strokes_ogs.tif
102
RTVSPost2010PropOp54
 70
     1
102
RTVSPost2010Prop55
280
     0
102
RTVSPost2010PropOp55
 70
     1
102
RTVSPost2010Prop56
140
1.0
102
RTVSPost2010PropOp56
 70
     1
102
RTVSPost2010Prop57
140
1.0
102
RTVSPost2010PropOp57
 70
     1
102
RTVSPropertyOp0
 70
     1
102
RTVSPropertyOp1
 70
     1
102
RTVSPropertyOp2
 70
     1
102
RTVSPropertyOp3
 70
     1
102
RTVSPropertyOp4
 70
     1
102
RTVSPropertyOp5
 70
     1
102
RTVSPropertyOp6
 70
     1
102
RTVSPropertyOp7
 70
     1
102
RTVSPropertyOp8
 70
     1
102
RTVSPropertyOp9
 70
     1
102
RTVSPropertyOp10
 70
     1
102
RTVSPropertyOp11
 70
     1
102
RTVSPropertyOp12
 70
     1
102
RTVSPropertyOp13
 70
     1
102
RTVSPropertyOp14
 70
     1
102
RTVSPropertyOp15
 70
     1
102
RTVSPropertyOp16
 70
     1
102
RTVSPropertyOp17
 70
     1
102
RTVSPropertyOp18
 70
     1
102
RTVSPropertyOp19
 70
     1
102
RTVSPropertyOp20
 70
     1
102
RTVSPropertyOp21
 70
     1
102
RTVSPropertyOp22
 70
     1
102
RTVSPropertyOp23
 70
     1
102
RTVSPropertyOp24
 70
     1
102
RTVSPropertyOp25
 70
     1
102
RTVSPropertyOp26
 70
     1
102
RTVSPropertyOp27
 70
     1
102
RTVSPropertyOp28
 70
     1
102
RTVSPropertyOp29
 70
     1
102
RTVSPropertyOp30
 70
     1
102
RTVSPropertyOp31
 70
     1
102
RTVSPropertyOp32
 70
     1
102
RTVSPropertyOp33
 70
     1
102
RTVSPropertyOp34
 70
     1
102
RTVSPropertyOp35
 70
     1
102
RTVSPropertyOp36
 70
     1
102
RTVSPropertyOp37
 70
     1
102
RTVSPropertyOp38
 70
     1
102
RTVSPropertyOp39
 70
     1
102
RTVSPropertyOp40
 70
     1
102
RTVSPropertyOp41
 70
     1
102
RTVSPropertyOp42
 70
     1
102
RTVSPropertyOp43
 70
     1
102
RTVSPropertyOp44
 70
     1
102
RTVSPropertyOp45
 70
     1
102
RTVSPropertyOp46
 70
     1
102
RTVSPropertyOp47
 70
     1
102
RTVSPropertyOp48
 70
     1
102
RTVSPropertyOp49
 70
     1
102
RTVSPropertyOp50
 70
     1
102
RTVSPropertyOp51
 70
     0
102
RTVSPropertyOp52
 70
     0
102
RTVSPropertyOp53
 70
     1
102
RTVSPropertyOp54
 70
     1
102
RTVSPropertyOp55
 70
     1
102
RTVSPropertyOp56
 70
     1
102
RTVSPropertyOp57
 70
     1
102
RTVSPropertyOp58
 70
     1
102
RTVSPropertyOp59
 70
     1
102
RTVSPropertyOp60
 70
     1
102
RTVSPropertyOp61
 70
     1
102
RTVSPropertyOp62
 70
     1
  0
XRECORD
  5
1665
102
{ACAD_REACTORS
330
1664
102
}
330
1664
100
AcDbXrecord
280
     1
102
RTVSPost2010Prop28
280
     0
102
RTVSPost2010PropOp28
 70
     1
102
RTVSPost2010Prop29
280
     1
102
RTVSPost2010PropOp29
 70
     1
102
RTVSPost2010Prop30
280
     1
102
RTVSPost2010PropOp30
 70
     1
102
RTVSPost2010Prop31
280
     0
102
RTVSPost2010PropOp31
 70
     1
102
RTVSPost2010Prop32
280
     0
102
RTVSPost2010PropOp32
 70
     1
102
RTVSPost2010Prop33
280
     0
102
RTVSPost2010PropOp33
 70
     1
102
RTVSPost2010Prop34
280
     0
102
RTVSPost2010PropOp34
 70
     1
102
RTVSPost2010Prop35
280
     0
102
RTVSPost2010PropOp35
 70
     1
102
RTVSPost2010Prop36
280
     0
102
RTVSPost2010PropOp36
 70
     1
102
RTVSPost2010Prop37
 90
       50
102
RTVSPost2010PropOp37
 70
     1
102
RTVSPost2010Prop38
140
0.0
102
RTVSPost2010PropOp38
 70
     1
102
RTVSPost2010Prop39
140
1.0
102
RTVSPost2010PropOp39
 70
     1
102
RTVSPost2010Prop40
 90
        0
102
RTVSPost2010PropOp40
 70
     1
102
RTVSPost2010Prop41ColorIndex
 90
       18
102
RTVSPost2010Prop41ColorRGB
 90
        0
102
RTVSPost2010PropOp41
 70
     1
102
RTVSPost2010Prop42
 90
       50
102
RTVSPost2010PropOp42
 70
     1
102
RTVSPost2010Prop43
 90
        3
102
RTVSPost2010PropOp43
 70
     1
102
RTVSPost2010Prop44ColorIndex
 90
        5
102
RTVSPost2010Prop44ColorRGB
 90
      255
102
RTVSPost2010PropOp44
 70
     1
102
RTVSPost2010Prop45
280
     0
102
RTVSPost2010PropOp45
 70
     1
102
RTVSPost2010Prop46
 90
       50
102
RTVSPost2010PropOp46
 70
     1
102
RTVSPost2010Prop47
 90
       50
102
RTVSPost2010PropOp47
 70
     1
102
RTVSPost2010Prop48
 90
       50
102
RTVSPost2010PropOp48
 70
     1
102
RTVSPost2010Prop49
280
     0
102
RTVSPost2010PropOp49
 70
     1
102
RTVSPost2010Prop50
 90
       50
102
RTVSPost2010PropOp50
 70
     1
102
RTVSPost2010Prop51ColorIndex
 90
      256
102
RTVSPost2010Prop51ColorRGB
 90
-16777216
102
RTVSPost2010PropOp51
 70
     0
102
RTVSPost2010Prop52
140
1.0
102
RTVSPost2010PropOp52
 70
     0
102
RTVSPost2010Prop53
 90
        2
102
RTVSPost2010PropOp53
 70
     1
102
RTVSPost2010Prop54
  1
strokes_ogs.tif
102
RTVSPost2010PropOp54
 70
     1
102
RTVSPost2010Prop55
280
     0
102
RTVSPost2010PropOp55
 70
     1
102
RTVSPost2010Prop56
140
1.0
102
RTVSPost2010PropOp56
 70
     1
102
RTVSPost2010Prop57
140
1.0
102
RTVSPost2010PropOp57
 70
     1
102
RTVSPropertyOp0
 70
     1
102
RTVSPropertyOp1
 70
     1
102
RTVSPropertyOp2
 70
     1
102
RTVSPropertyOp3
 70
     1
102
RTVSPropertyOp4
 70
     1
102
RTVSPropertyOp5
 70
     1
102
RTVSPropertyOp6
 70
     1
102
RTVSPropertyOp7
 70
     1
102
RTVSPropertyOp8
 70
     1
102
RTVSPropertyOp9
 70
     1
102
RTVSPropertyOp10
 70
     1
102
RTVSPropertyOp11
 70
     1
102
RTVSPropertyOp12
 70
     1
102
RTVSPropertyOp13
 70
     1
102
RTVSPropertyOp14
 70
     1
102
RTVSPropertyOp15
 70
     1
102
RTVSPropertyOp16
 70
     1
102
RTVSPropertyOp17
 70
     1
102
RTVSPropertyOp18
 70
     1
102
RTVSPropertyOp19
 70
     1
102
RTVSPropertyOp20
 70
     1
102
RTVSPropertyOp21
 70
     1
102
RTVSPropertyOp22
 70
     1
102
RTVSPropertyOp23
 70
     1
102
RTVSPropertyOp24
 70
     1
102
RTVSPropertyOp25
 70
     1
102
RTVSPropertyOp26
 70
     1
102
RTVSPropertyOp27
 70
     1
102
RTVSPropertyOp28
 70
     1
102
RTVSPropertyOp29
 70
     1
102
RTVSPropertyOp30
 70
     1
102
RTVSPropertyOp31
 70
     1
102
RTVSPropertyOp32
 70
     1
102
RTVSPropertyOp33
 70
     1
102
RTVSPropertyOp34
 70
     1
102
RTVSPropertyOp35
 70
     1
102
RTVSPropertyOp36
 70
     1
102
RTVSPropertyOp37
 70
     1
102
RTVSPropertyOp38
 70
     1
102
RTVSPropertyOp39
 70
     1
102
RTVSPropertyOp40
 70
     1
102
RTVSPropertyOp41
 70
     1
102
RTVSPropertyOp42
 70
     1
102
RTVSPropertyOp43
 70
     1
102
RTVSPropertyOp44
 70
     1
102
RTVSPropertyOp45
 70
     1
102
RTVSPropertyOp46
 70
     1
102
RTVSPropertyOp47
 70
     1
102
RTVSPropertyOp48
 70
     1
102
RTVSPropertyOp49
 70
     1
102
RTVSPropertyOp50
 70
     1
102
RTVSPropertyOp51
 70
     0
102
RTVSPropertyOp52
 70
     0
102
RTVSPropertyOp53
 70
     1
102
RTVSPropertyOp54
 70
     1
102
RTVSPropertyOp55
 70
     1
102
RTVSPropertyOp56
 70
     1
102
RTVSPropertyOp57
 70
     1
102
RTVSPropertyOp58
 70
     1
102
RTVSPropertyOp59
 70
     1
102
RTVSPropertyOp60
 70
     1
102
RTVSPropertyOp61
 70
     1
102
RTVSPropertyOp62
 70
     1
  0
XRECORD
  5
165F
102
{ACAD_REACTORS
330
165E
102
}
330
165E
100
AcDbXrecord
280
     1
102
RTVSPost2010Prop28
280
     0
102
RTVSPost2010PropOp28
 70
     1
102
RTVSPost2010Prop29
280
     1
102
RTVSPost2010PropOp29
 70
     1
102
RTVSPost2010Prop30
280
     1
102
RTVSPost2010PropOp30
 70
     1
102
RTVSPost2010Prop31
280
     0
102
RTVSPost2010PropOp31
 70
     1
102
RTVSPost2010Prop32
280
     0
102
RTVSPost2010PropOp32
 70
     1
102
RTVSPost2010Prop33
280
     0
102
RTVSPost2010PropOp33
 70
     1
102
RTVSPost2010Prop34
280
     0
102
RTVSPost2010PropOp34
 70
     1
102
RTVSPost2010Prop35
280
     0
102
RTVSPost2010PropOp35
 70
     1
102
RTVSPost2010Prop36
280
     0
102
RTVSPost2010PropOp36
 70
     1
102
RTVSPost2010Prop37
 90
       50
102
RTVSPost2010PropOp37
 70
     1
102
RTVSPost2010Prop38
140
0.0
102
RTVSPost2010PropOp38
 70
     1
102
RTVSPost2010Prop39
140
1.0
102
RTVSPost2010PropOp39
 70
     1
102
RTVSPost2010Prop40
 90
        0
102
RTVSPost2010PropOp40
 70
     1
102
RTVSPost2010Prop41ColorIndex
 90
       18
102
RTVSPost2010Prop41ColorRGB
 90
        0
102
RTVSPost2010PropOp41
 70
     1
102
RTVSPost2010Prop42
 90
       50
102
RTVSPost2010PropOp42
 70
     1
102
RTVSPost2010Prop43
 90
        3
102
RTVSPost2010PropOp43
 70
     1
102
RTVSPost2010Prop44ColorIndex
 90
        5
102
RTVSPost2010Prop44ColorRGB
 90
      255
102
RTVSPost2010PropOp44
 70
     1
102
RTVSPost2010Prop45
280
     0
102
RTVSPost2010PropOp45
 70
     1
102
RTVSPost2010Prop46
 90
       50
102
RTVSPost2010PropOp46
 70
     1
102
RTVSPost2010Prop47
 90
       50
102
RTVSPost2010PropOp47
 70
     1
102
RTVSPost2010Prop48
 90
       50
102
RTVSPost2010PropOp48
 70
     1
102
RTVSPost2010Prop49
280
     0
102
RTVSPost2010PropOp49
 70
     1
102
RTVSPost2010Prop50
 90
       50
102
RTVSPost2010PropOp50
 70
     1
102
RTVSPost2010Prop51ColorIndex
 90
      256
102
RTVSPost2010Prop51ColorRGB
 90
-16777216
102
RTVSPost2010PropOp51
 70
     0
102
RTVSPost2010Prop52
140
1.0
102
RTVSPost2010PropOp52
 70
     0
102
RTVSPost2010Prop53
 90
        2
102
RTVSPost2010PropOp53
 70
     1
102
RTVSPost2010Prop54
  1
strokes_ogs.tif
102
RTVSPost2010PropOp54
 70
     1
102
RTVSPost2010Prop55
280
     0
102
RTVSPost2010PropOp55
 70
     1
102
RTVSPost2010Prop56
140
1.0
102
RTVSPost2010PropOp56
 70
     1
102
RTVSPost2010Prop57
140
1.0
102
RTVSPost2010PropOp57
 70
     1
102
RTVSPropertyOp0
 70
     1
102
RTVSPropertyOp1
 70
     1
102
RTVSPropertyOp2
 70
     1
102
RTVSPropertyOp3
 70
     1
102
RTVSPropertyOp4
 70
     1
102
RTVSPropertyOp5
 70
     1
102
RTVSPropertyOp6
 70
     1
102
RTVSPropertyOp7
 70
     1
102
RTVSPropertyOp8
 70
     1
102
RTVSPropertyOp9
 70
     1
102
RTVSPropertyOp10
 70
     1
102
RTVSPropertyOp11
 70
     1
102
RTVSPropertyOp12
 70
     1
102
RTVSPropertyOp13
 70
     1
102
RTVSPropertyOp14
 70
     1
102
RTVSPropertyOp15
 70
     1
102
RTVSPropertyOp16
 70
     1
102
RTVSPropertyOp17
 70
     1
102
RTVSPropertyOp18
 70
     1
102
RTVSPropertyOp19
 70
     1
102
RTVSPropertyOp20
 70
     1
102
RTVSPropertyOp21
 70
     1
102
RTVSPropertyOp22
 70
     1
102
RTVSPropertyOp23
 70
     1
102
RTVSPropertyOp24
 70
     1
102
RTVSPropertyOp25
 70
     1
102
RTVSPropertyOp26
 70
     1
102
RTVSPropertyOp27
 70
     1
102
RTVSPropertyOp28
 70
     1
102
RTVSPropertyOp29
 70
     1
102
RTVSPropertyOp30
 70
     1
102
RTVSPropertyOp31
 70
     1
102
RTVSPropertyOp32
 70
     1
102
RTVSPropertyOp33
 70
     1
102
RTVSPropertyOp34
 70
     1
102
RTVSPropertyOp35
 70
     1
102
RTVSPropertyOp36
 70
     1
102
RTVSPropertyOp37
 70
     1
102
RTVSPropertyOp38
 70
     1
102
RTVSPropertyOp39
 70
     1
102
RTVSPropertyOp40
 70
     1
102
RTVSPropertyOp41
 70
     1
102
RTVSPropertyOp42
 70
     1
102
RTVSPropertyOp43
 70
     1
102
RTVSPropertyOp44
 70
     1
102
RTVSPropertyOp45
 70
     1
102
RTVSPropertyOp46
 70
     1
102
RTVSPropertyOp47
 70
     1
102
RTVSPropertyOp48
 70
     1
102
RTVSPropertyOp49
 70
     1
102
RTVSPropertyOp50
 70
     1
102
RTVSPropertyOp51
 70
     0
102
RTVSPropertyOp52
 70
     0
102
RTVSPropertyOp53
 70
     1
102
RTVSPropertyOp54
 70
     1
102
RTVSPropertyOp55
 70
     1
102
RTVSPropertyOp56
 70
     1
102
RTVSPropertyOp57
 70
     1
102
RTVSPropertyOp58
 70
     1
102
RTVSPropertyOp59
 70
     1
102
RTVSPropertyOp60
 70
     1
102
RTVSPropertyOp61
 70
     1
102
RTVSPropertyOp62
 70
     1
  0
XRECORD
  5
1661
102
{ACAD_REACTORS
330
1660
102
}
330
1660
100
AcDbXrecord
280
     1
102
RTVSPost2010Prop28
280
     0
102
RTVSPost2010PropOp28
 70
     1
102
RTVSPost2010Prop29
280
     1
102
RTVSPost2010PropOp29
 70
     1
102
RTVSPost2010Prop30
280
     1
102
RTVSPost2010PropOp30
 70
     1
102
RTVSPost2010Prop31
280
     0
102
RTVSPost2010PropOp31
 70
     1
102
RTVSPost2010Prop32
280
     0
102
RTVSPost2010PropOp32
 70
     1
102
RTVSPost2010Prop33
280
     0
102
RTVSPost2010PropOp33
 70
     1
102
RTVSPost2010Prop34
280
     0
102
RTVSPost2010PropOp34
 70
     1
102
RTVSPost2010Prop35
280
     0
102
RTVSPost2010PropOp35
 70
     1
102
RTVSPost2010Prop36
280
     0
102
RTVSPost2010PropOp36
 70
     1
102
RTVSPost2010Prop37
 90
       50
102
RTVSPost2010PropOp37
 70
     1
102
RTVSPost2010Prop38
140
0.0
102
RTVSPost2010PropOp38
 70
     1
102
RTVSPost2010Prop39
140
1.0
102
RTVSPost2010PropOp39
 70
     1
102
RTVSPost2010Prop40
 90
        0
102
RTVSPost2010PropOp40
 70
     1
102
RTVSPost2010Prop41ColorIndex
 90
       18
102
RTVSPost2010Prop41ColorRGB
 90
        0
102
RTVSPost2010PropOp41
 70
     1
102
RTVSPost2010Prop42
 90
       50
102
RTVSPost2010PropOp42
 70
     1
102
RTVSPost2010Prop43
 90
        3
102
RTVSPost2010PropOp43
 70
     1
102
RTVSPost2010Prop44ColorIndex
 90
        5
102
RTVSPost2010Prop44ColorRGB
 90
      255
102
RTVSPost2010PropOp44
 70
     1
102
RTVSPost2010Prop45
280
     0
102
RTVSPost2010PropOp45
 70
     1
102
RTVSPost2010Prop46
 90
       50
102
RTVSPost2010PropOp46
 70
     1
102
RTVSPost2010Prop47
 90
       50
102
RTVSPost2010PropOp47
 70
     1
102
RTVSPost2010Prop48
 90
       50
102
RTVSPost2010PropOp48
 70
     1
102
RTVSPost2010Prop49
280
     0
102
RTVSPost2010PropOp49
 70
     1
102
RTVSPost2010Prop50
 90
       50
102
RTVSPost2010PropOp50
 70
     1
102
RTVSPost2010Prop51ColorIndex
 90
      256
102
RTVSPost2010Prop51ColorRGB
 90
-16777216
102
RTVSPost2010PropOp51
 70
     0
102
RTVSPost2010Prop52
140
1.0
102
RTVSPost2010PropOp52
 70
     0
102
RTVSPost2010Prop53
 90
        2
102
RTVSPost2010PropOp53
 70
     1
102
RTVSPost2010Prop54
  1
strokes_ogs.tif
102
RTVSPost2010PropOp54
 70
     1
102
RTVSPost2010Prop55
280
     0
102
RTVSPost2010PropOp55
 70
     1
102
RTVSPost2010Prop56
140
1.0
102
RTVSPost2010PropOp56
 70
     1
102
RTVSPost2010Prop57
140
1.0
102
RTVSPost2010PropOp57
 70
     1
102
RTVSPropertyOp0
 70
     1
102
RTVSPropertyOp1
 70
     1
102
RTVSPropertyOp2
 70
     1
102
RTVSPropertyOp3
 70
     1
102
RTVSPropertyOp4
 70
     1
102
RTVSPropertyOp5
 70
     1
102
RTVSPropertyOp6
 70
     1
102
RTVSPropertyOp7
 70
     1
102
RTVSPropertyOp8
 70
     1
102
RTVSPropertyOp9
 70
     1
102
RTVSPropertyOp10
 70
     1
102
RTVSPropertyOp11
 70
     1
102
RTVSPropertyOp12
 70
     1
102
RTVSPropertyOp13
 70
     1
102
RTVSPropertyOp14
 70
     1
102
RTVSPropertyOp15
 70
     1
102
RTVSPropertyOp16
 70
     1
102
RTVSPropertyOp17
 70
     1
102
RTVSPropertyOp18
 70
     1
102
RTVSPropertyOp19
 70
     1
102
RTVSPropertyOp20
 70
     1
102
RTVSPropertyOp21
 70
     1
102
RTVSPropertyOp22
 70
     1
102
RTVSPropertyOp23
 70
     1
102
RTVSPropertyOp24
 70
     1
102
RTVSPropertyOp25
 70
     1
102
RTVSPropertyOp26
 70
     1
102
RTVSPropertyOp27
 70
     1
102
RTVSPropertyOp28
 70
     1
102
RTVSPropertyOp29
 70
     1
102
RTVSPropertyOp30
 70
     1
102
RTVSPropertyOp31
 70
     1
102
RTVSPropertyOp32
 70
     1
102
RTVSPropertyOp33
 70
     1
102
RTVSPropertyOp34
 70
     1
102
RTVSPropertyOp35
 70
     1
102
RTVSPropertyOp36
 70
     1
102
RTVSPropertyOp37
 70
     1
102
RTVSPropertyOp38
 70
     1
102
RTVSPropertyOp39
 70
     1
102
RTVSPropertyOp40
 70
     1
102
RTVSPropertyOp41
 70
     1
102
RTVSPropertyOp42
 70
     1
102
RTVSPropertyOp43
 70
     1
102
RTVSPropertyOp44
 70
     1
102
RTVSPropertyOp45
 70
     1
102
RTVSPropertyOp46
 70
     1
102
RTVSPropertyOp47
 70
     1
102
RTVSPropertyOp48
 70
     1
102
RTVSPropertyOp49
 70
     1
102
RTVSPropertyOp50
 70
     1
102
RTVSPropertyOp51
 70
     0
102
RTVSPropertyOp52
 70
     0
102
RTVSPropertyOp53
 70
     1
102
RTVSPropertyOp54
 70
     1
102
RTVSPropertyOp55
 70
     1
102
RTVSPropertyOp56
 70
     1
102
RTVSPropertyOp57
 70
     1
102
RTVSPropertyOp58
 70
     1
102
RTVSPropertyOp59
 70
     1
102
RTVSPropertyOp60
 70
     1
102
RTVSPropertyOp61
 70
     1
102
RTVSPropertyOp62
 70
     1
  0
XRECORD
  5
164A
102
{ACAD_REACTORS
330
1649
102
}
330
1649
100
AcDbXrecord
280
     1
102
RTVSPost2010Prop28
280
     0
102
RTVSPost2010PropOp28
 70
     1
102
RTVSPost2010Prop29
280
     1
102
RTVSPost2010PropOp29
 70
     1
102
RTVSPost2010Prop30
280
     1
102
RTVSPost2010PropOp30
 70
     1
102
RTVSPost2010Prop31
280
     0
102
RTVSPost2010PropOp31
 70
     1
102
RTVSPost2010Prop32
280
     0
102
RTVSPost2010PropOp32
 70
     1
102
RTVSPost2010Prop33
280
     0
102
RTVSPost2010PropOp33
 70
     1
102
RTVSPost2010Prop34
280
     0
102
RTVSPost2010PropOp34
 70
     1
102
RTVSPost2010Prop35
280
     0
102
RTVSPost2010PropOp35
 70
     1
102
RTVSPost2010Prop36
280
     0
102
RTVSPost2010PropOp36
 70
     1
102
RTVSPost2010Prop37
 90
       50
102
RTVSPost2010PropOp37
 70
     1
102
RTVSPost2010Prop38
140
0.0
102
RTVSPost2010PropOp38
 70
     1
102
RTVSPost2010Prop39
140
1.0
102
RTVSPost2010PropOp39
 70
     1
102
RTVSPost2010Prop40
 90
        0
102
RTVSPost2010PropOp40
 70
     1
102
RTVSPost2010Prop41ColorIndex
 90
       18
102
RTVSPost2010Prop41ColorRGB
 90
        0
102
RTVSPost2010PropOp41
 70
     1
102
RTVSPost2010Prop42
 90
       50
102
RTVSPost2010PropOp42
 70
     1
102
RTVSPost2010Prop43
 90
        3
102
RTVSPost2010PropOp43
 70
     1
102
RTVSPost2010Prop44ColorIndex
 90
        5
102
RTVSPost2010Prop44ColorRGB
 90
      255
102
RTVSPost2010PropOp44
 70
     1
102
RTVSPost2010Prop45
280
     0
102
RTVSPost2010PropOp45
 70
     1
102
RTVSPost2010Prop46
 90
       50
102
RTVSPost2010PropOp46
 70
     1
102
RTVSPost2010Prop47
 90
       50
102
RTVSPost2010PropOp47
 70
     1
102
RTVSPost2010Prop48
 90
       50
102
RTVSPost2010PropOp48
 70
     1
102
RTVSPost2010Prop49
280
     0
102
RTVSPost2010PropOp49
 70
     1
102
RTVSPost2010Prop50
 90
       50
102
RTVSPost2010PropOp50
 70
     1
102
RTVSPost2010Prop51ColorIndex
 90
      256
102
RTVSPost2010Prop51ColorRGB
 90
-16777216
102
RTVSPost2010PropOp51
 70
     0
102
RTVSPost2010Prop52
140
1.0
102
RTVSPost2010PropOp52
 70
     0
102
RTVSPost2010Prop53
 90
        2
102
RTVSPost2010PropOp53
 70
     1
102
RTVSPost2010Prop54
  1
strokes_ogs.tif
102
RTVSPost2010PropOp54
 70
     1
102
RTVSPost2010Prop55
280
     0
102
RTVSPost2010PropOp55
 70
     1
102
RTVSPost2010Prop56
140
1.0
102
RTVSPost2010PropOp56
 70
     1
102
RTVSPost2010Prop57
140
1.0
102
RTVSPost2010PropOp57
 70
     1
102
RTVSPropertyOp0
 70
     1
102
RTVSPropertyOp1
 70
     1
102
RTVSPropertyOp2
 70
     1
102
RTVSPropertyOp3
 70
     1
102
RTVSPropertyOp4
 70
     1
102
RTVSPropertyOp5
 70
     1
102
RTVSPropertyOp6
 70
     1
102
RTVSPropertyOp7
 70
     1
102
RTVSPropertyOp8
 70
     1
102
RTVSPropertyOp9
 70
     1
102
RTVSPropertyOp10
 70
     1
102
RTVSPropertyOp11
 70
     1
102
RTVSPropertyOp12
 70
     1
102
RTVSPropertyOp13
 70
     1
102
RTVSPropertyOp14
 70
     1
102
RTVSPropertyOp15
 70
     1
102
RTVSPropertyOp16
 70
     1
102
RTVSPropertyOp17
 70
     1
102
RTVSPropertyOp18
 70
     1
102
RTVSPropertyOp19
 70
     1
102
RTVSPropertyOp20
 70
     1
102
RTVSPropertyOp21
 70
     1
102
RTVSPropertyOp22
 70
     1
102
RTVSPropertyOp23
 70
     1
102
RTVSPropertyOp24
 70
     1
102
RTVSPropertyOp25
 70
     1
102
RTVSPropertyOp26
 70
     1
102
RTVSPropertyOp27
 70
     1
102
RTVSPropertyOp28
 70
     1
102
RTVSPropertyOp29
 70
     1
102
RTVSPropertyOp30
 70
     1
102
RTVSPropertyOp31
 70
     1
102
RTVSPropertyOp32
 70
     1
102
RTVSPropertyOp33
 70
     1
102
RTVSPropertyOp34
 70
     1
102
RTVSPropertyOp35
 70
     1
102
RTVSPropertyOp36
 70
     1
102
RTVSPropertyOp37
 70
     1
102
RTVSPropertyOp38
 70
     1
102
RTVSPropertyOp39
 70
     1
102
RTVSPropertyOp40
 70
     1
102
RTVSPropertyOp41
 70
     1
102
RTVSPropertyOp42
 70
     1
102
RTVSPropertyOp43
 70
     1
102
RTVSPropertyOp44
 70
     1
102
RTVSPropertyOp45
 70
     1
102
RTVSPropertyOp46
 70
     1
102
RTVSPropertyOp47
 70
     1
102
RTVSPropertyOp48
 70
     1
102
RTVSPropertyOp49
 70
     1
102
RTVSPropertyOp50
 70
     1
102
RTVSPropertyOp51
 70
     0
102
RTVSPropertyOp52
 70
     0
102
RTVSPropertyOp53
 70
     1
102
RTVSPropertyOp54
 70
     1
102
RTVSPropertyOp55
 70
     1
102
RTVSPropertyOp56
 70
     1
102
RTVSPropertyOp57
 70
     1
102
RTVSPropertyOp58
 70
     1
102
RTVSPropertyOp59
 70
     1
102
RTVSPropertyOp60
 70
     1
102
RTVSPropertyOp61
 70
     1
102
RTVSPropertyOp62
 70
     1
  0
XRECORD
  5
165B
102
{ACAD_REACTORS
330
165A
102
}
330
165A
100
AcDbXrecord
280
     1
102
RTVSPost2010Prop28
280
     0
102
RTVSPost2010PropOp28
 70
     1
102
RTVSPost2010Prop29
280
     1
102
RTVSPost2010PropOp29
 70
     1
102
RTVSPost2010Prop30
280
     1
102
RTVSPost2010PropOp30
 70
     1
102
RTVSPost2010Prop31
280
     0
102
RTVSPost2010PropOp31
 70
     1
102
RTVSPost2010Prop32
280
     0
102
RTVSPost2010PropOp32
 70
     1
102
RTVSPost2010Prop33
280
     0
102
RTVSPost2010PropOp33
 70
     1
102
RTVSPost2010Prop34
280
     0
102
RTVSPost2010PropOp34
 70
     1
102
RTVSPost2010Prop35
280
     0
102
RTVSPost2010PropOp35
 70
     1
102
RTVSPost2010Prop36
280
     0
102
RTVSPost2010PropOp36
 70
     1
102
RTVSPost2010Prop37
 90
       50
102
RTVSPost2010PropOp37
 70
     1
102
RTVSPost2010Prop38
140
0.0
102
RTVSPost2010PropOp38
 70
     1
102
RTVSPost2010Prop39
140
1.0
102
RTVSPost2010PropOp39
 70
     1
102
RTVSPost2010Prop40
 90
        0
102
RTVSPost2010PropOp40
 70
     1
102
RTVSPost2010Prop41ColorIndex
 90
       18
102
RTVSPost2010Prop41ColorRGB
 90
        0
102
RTVSPost2010PropOp41
 70
     1
102
RTVSPost2010Prop42
 90
       50
102
RTVSPost2010PropOp42
 70
     1
102
RTVSPost2010Prop43
 90
        3
102
RTVSPost2010PropOp43
 70
     1
102
RTVSPost2010Prop44ColorIndex
 90
        5
102
RTVSPost2010Prop44ColorRGB
 90
      255
102
RTVSPost2010PropOp44
 70
     1
102
RTVSPost2010Prop45
280
     0
102
RTVSPost2010PropOp45
 70
     1
102
RTVSPost2010Prop46
 90
       50
102
RTVSPost2010PropOp46
 70
     1
102
RTVSPost2010Prop47
 90
       50
102
RTVSPost2010PropOp47
 70
     1
102
RTVSPost2010Prop48
 90
       50
102
RTVSPost2010PropOp48
 70
     1
102
RTVSPost2010Prop49
280
     0
102
RTVSPost2010PropOp49
 70
     1
102
RTVSPost2010Prop50
 90
       50
102
RTVSPost2010PropOp50
 70
     1
102
RTVSPost2010Prop51ColorIndex
 90
      256
102
RTVSPost2010Prop51ColorRGB
 90
-16777216
102
RTVSPost2010PropOp51
 70
     0
102
RTVSPost2010Prop52
140
1.0
102
RTVSPost2010PropOp52
 70
     0
102
RTVSPost2010Prop53
 90
        2
102
RTVSPost2010PropOp53
 70
     1
102
RTVSPost2010Prop54
  1
strokes_ogs.tif
102
RTVSPost2010PropOp54
 70
     1
102
RTVSPost2010Prop55
280
     0
102
RTVSPost2010PropOp55
 70
     1
102
RTVSPost2010Prop56
140
1.0
102
RTVSPost2010PropOp56
 70
     1
102
RTVSPost2010Prop57
140
1.0
102
RTVSPost2010PropOp57
 70
     1
102
RTVSPropertyOp0
 70
     1
102
RTVSPropertyOp1
 70
     1
102
RTVSPropertyOp2
 70
     1
102
RTVSPropertyOp3
 70
     1
102
RTVSPropertyOp4
 70
     1
102
RTVSPropertyOp5
 70
     1
102
RTVSPropertyOp6
 70
     1
102
RTVSPropertyOp7
 70
     1
102
RTVSPropertyOp8
 70
     1
102
RTVSPropertyOp9
 70
     1
102
RTVSPropertyOp10
 70
     1
102
RTVSPropertyOp11
 70
     1
102
RTVSPropertyOp12
 70
     1
102
RTVSPropertyOp13
 70
     1
102
RTVSPropertyOp14
 70
     1
102
RTVSPropertyOp15
 70
     1
102
RTVSPropertyOp16
 70
     1
102
RTVSPropertyOp17
 70
     1
102
RTVSPropertyOp18
 70
     1
102
RTVSPropertyOp19
 70
     1
102
RTVSPropertyOp20
 70
     1
102
RTVSPropertyOp21
 70
     1
102
RTVSPropertyOp22
 70
     1
102
RTVSPropertyOp23
 70
     1
102
RTVSPropertyOp24
 70
     1
102
RTVSPropertyOp25
 70
     1
102
RTVSPropertyOp26
 70
     1
102
RTVSPropertyOp27
 70
     1
102
RTVSPropertyOp28
 70
     1
102
RTVSPropertyOp29
 70
     1
102
RTVSPropertyOp30
 70
     1
102
RTVSPropertyOp31
 70
     1
102
RTVSPropertyOp32
 70
     1
102
RTVSPropertyOp33
 70
     1
102
RTVSPropertyOp34
 70
     1
102
RTVSPropertyOp35
 70
     1
102
RTVSPropertyOp36
 70
     1
102
RTVSPropertyOp37
 70
     1
102
RTVSPropertyOp38
 70
     1
102
RTVSPropertyOp39
 70
     1
102
RTVSPropertyOp40
 70
     1
102
RTVSPropertyOp41
 70
     1
102
RTVSPropertyOp42
 70
     1
102
RTVSPropertyOp43
 70
     1
102
RTVSPropertyOp44
 70
     1
102
RTVSPropertyOp45
 70
     1
102
RTVSPropertyOp46
 70
     1
102
RTVSPropertyOp47
 70
     1
102
RTVSPropertyOp48
 70
     1
102
RTVSPropertyOp49
 70
     1
102
RTVSPropertyOp50
 70
     1
102
RTVSPropertyOp51
 70
     0
102
RTVSPropertyOp52
 70
     0
102
RTVSPropertyOp53
 70
     1
102
RTVSPropertyOp54
 70
     1
102
RTVSPropertyOp55
 70
     1
102
RTVSPropertyOp56
 70
     1
102
RTVSPropertyOp57
 70
     1
102
RTVSPropertyOp58
 70
     1
102
RTVSPropertyOp59
 70
     1
102
RTVSPropertyOp60
 70
     1
102
RTVSPropertyOp61
 70
     1
102
RTVSPropertyOp62
 70
     1
  0
XRECORD
  5
1663
102
{ACAD_REACTORS
330
1662
102
}
330
1662
100
AcDbXrecord
280
     1
102
RTVSPost2010Prop28
280
     0
102
RTVSPost2010PropOp28
 70
     1
102
RTVSPost2010Prop29
280
     1
102
RTVSPost2010PropOp29
 70
     1
102
RTVSPost2010Prop30
280
     1
102
RTVSPost2010PropOp30
 70
     1
102
RTVSPost2010Prop31
280
     0
102
RTVSPost2010PropOp31
 70
     1
102
RTVSPost2010Prop32
280
     0
102
RTVSPost2010PropOp32
 70
     1
102
RTVSPost2010Prop33
280
     0
102
RTVSPost2010PropOp33
 70
     1
102
RTVSPost2010Prop34
280
     0
102
RTVSPost2010PropOp34
 70
     1
102
RTVSPost2010Prop35
280
     0
102
RTVSPost2010PropOp35
 70
     1
102
RTVSPost2010Prop36
280
     0
102
RTVSPost2010PropOp36
 70
     1
102
RTVSPost2010Prop37
 90
       50
102
RTVSPost2010PropOp37
 70
     1
102
RTVSPost2010Prop38
140
0.0
102
RTVSPost2010PropOp38
 70
     1
102
RTVSPost2010Prop39
140
1.0
102
RTVSPost2010PropOp39
 70
     1
102
RTVSPost2010Prop40
 90
        0
102
RTVSPost2010PropOp40
 70
     1
102
RTVSPost2010Prop41ColorIndex
 90
       18
102
RTVSPost2010Prop41ColorRGB
 90
        0
102
RTVSPost2010PropOp41
 70
     1
102
RTVSPost2010Prop42
 90
       50
102
RTVSPost2010PropOp42
 70
     1
102
RTVSPost2010Prop43
 90
        3
102
RTVSPost2010PropOp43
 70
     1
102
RTVSPost2010Prop44ColorIndex
 90
        5
102
RTVSPost2010Prop44ColorRGB
 90
      255
102
RTVSPost2010PropOp44
 70
     1
102
RTVSPost2010Prop45
280
     0
102
RTVSPost2010PropOp45
 70
     1
102
RTVSPost2010Prop46
 90
       50
102
RTVSPost2010PropOp46
 70
     1
102
RTVSPost2010Prop47
 90
       50
102
RTVSPost2010PropOp47
 70
     1
102
RTVSPost2010Prop48
 90
       50
102
RTVSPost2010PropOp48
 70
     1
102
RTVSPost2010Prop49
280
     0
102
RTVSPost2010PropOp49
 70
     1
102
RTVSPost2010Prop50
 90
       50
102
RTVSPost2010PropOp50
 70
     1
102
RTVSPost2010Prop51ColorIndex
 90
      256
102
RTVSPost2010Prop51ColorRGB
 90
-16777216
102
RTVSPost2010PropOp51
 70
     0
102
RTVSPost2010Prop52
140
1.0
102
RTVSPost2010PropOp52
 70
     0
102
RTVSPost2010Prop53
 90
        2
102
RTVSPost2010PropOp53
 70
     1
102
RTVSPost2010Prop54
  1
strokes_ogs.tif
102
RTVSPost2010PropOp54
 70
     1
102
RTVSPost2010Prop55
280
     0
102
RTVSPost2010PropOp55
 70
     1
102
RTVSPost2010Prop56
140
1.0
102
RTVSPost2010PropOp56
 70
     1
102
RTVSPost2010Prop57
140
1.0
102
RTVSPost2010PropOp57
 70
     1
102
RTVSPropertyOp0
 70
     1
102
RTVSPropertyOp1
 70
     1
102
RTVSPropertyOp2
 70
     1
102
RTVSPropertyOp3
 70
     1
102
RTVSPropertyOp4
 70
     1
102
RTVSPropertyOp5
 70
     1
102
RTVSPropertyOp6
 70
     1
102
RTVSPropertyOp7
 70
     1
102
RTVSPropertyOp8
 70
     1
102
RTVSPropertyOp9
 70
     1
102
RTVSPropertyOp10
 70
     1
102
RTVSPropertyOp11
 70
     1
102
RTVSPropertyOp12
 70
     1
102
RTVSPropertyOp13
 70
     1
102
RTVSPropertyOp14
 70
     1
102
RTVSPropertyOp15
 70
     1
102
RTVSPropertyOp16
 70
     1
102
RTVSPropertyOp17
 70
     1
102
RTVSPropertyOp18
 70
     1
102
RTVSPropertyOp19
 70
     1
102
RTVSPropertyOp20
 70
     1
102
RTVSPropertyOp21
 70
     1
102
RTVSPropertyOp22
 70
     1
102
RTVSPropertyOp23
 70
     1
102
RTVSPropertyOp24
 70
     1
102
RTVSPropertyOp25
 70
     1
102
RTVSPropertyOp26
 70
     1
102
RTVSPropertyOp27
 70
     1
102
RTVSPropertyOp28
 70
     1
102
RTVSPropertyOp29
 70
     1
102
RTVSPropertyOp30
 70
     1
102
RTVSPropertyOp31
 70
     1
102
RTVSPropertyOp32
 70
     1
102
RTVSPropertyOp33
 70
     1
102
RTVSPropertyOp34
 70
     1
102
RTVSPropertyOp35
 70
     1
102
RTVSPropertyOp36
 70
     1
102
RTVSPropertyOp37
 70
     1
102
RTVSPropertyOp38
 70
     1
102
RTVSPropertyOp39
 70
     1
102
RTVSPropertyOp40
 70
     1
102
RTVSPropertyOp41
 70
     1
102
RTVSPropertyOp42
 70
     1
102
RTVSPropertyOp43
 70
     1
102
RTVSPropertyOp44
 70
     1
102
RTVSPropertyOp45
 70
     1
102
RTVSPropertyOp46
 70
     1
102
RTVSPropertyOp47
 70
     1
102
RTVSPropertyOp48
 70
     1
102
RTVSPropertyOp49
 70
     1
102
RTVSPropertyOp50
 70
     1
102
RTVSPropertyOp51
 70
     0
102
RTVSPropertyOp52
 70
     0
102
RTVSPropertyOp53
 70
     1
102
RTVSPropertyOp54
 70
     1
102
RTVSPropertyOp55
 70
     1
102
RTVSPropertyOp56
 70
     1
102
RTVSPropertyOp57
 70
     1
102
RTVSPropertyOp58
 70
     1
102
RTVSPropertyOp59
 70
     1
102
RTVSPropertyOp60
 70
     1
102
RTVSPropertyOp61
 70
     1
102
RTVSPropertyOp62
 70
     1
  0
ENDSEC
  0
EOF
