  0
SECTION
  2
HEADER
  9
$ACADVER
  1
AC1015
  9
$ACADMAINTVER
 70
    20
  9
$DWGCODEPAGE
  3
ANSI_1252
  9
$INSBASE
 10
0.0
 20
0.0
 30
0.0
  9
$EXTMIN
 10
4.151692411234055
 20
2.319213890842178
 30
-0.000000000000013
  9
$EXTMAX
 10
12.40284509397769
 20
7.569992084719697
 30
0.0000000000000023
  9
$LIMMIN
 10
0.0
 20
0.0
  9
$LIMMAX
 10
12.0
 20
9.0
  9
$ORTHOMODE
 70
     1
  9
$REGENMODE
 70
     1
  9
$FILLMODE
 70
     1
  9
$QTEXTMODE
 70
     0
  9
$MIRRTEXT
 70
     1
  9
$LTSCALE
 40
1.0
  9
$ATTMODE
 70
     1
  9
$TEXTSIZE
 40
0.2
  9
$TRACEWID
 40
0.05
  9
$TEXTSTYLE
  7
Standard
  9
$CLAYER
  8
4
  9
$CELTYPE
  6
ByLayer
  9
$CECOLOR
 62
   256
  9
$CELTSCALE
 40
1.0
  9
$DISPSILH
 70
     0
  9
$DIMSCALE
 40
1.0
  9
$DIMASZ
 40
0.18
  9
$DIMEXO
 40
0.0625
  9
$DIMDLI
 40
0.38
  9
$DIMRND
 40
0.0
  9
$DIMDLE
 40
0.0
  9
$DIMEXE
 40
0.18
  9
$DIMTP
 40
0.0
  9
$DIMTM
 40
0.0
  9
$DIMTXT
 40
0.18
  9
$DIMCEN
 40
0.09
  9
$DIMTSZ
 40
0.0
  9
$DIMTOL
 70
     0
  9
$DIMLIM
 70
     0
  9
$DIMTIH
 70
     1
  9
$DIMTOH
 70
     1
  9
$DIMSE1
 70
     0
  9
$DIMSE2
 70
     0
  9
$DIMTAD
 70
     0
  9
$DIMZIN
 70
     0
  9
$DIMBLK
  1

  9
$DIMASO
 70
     1
  9
$DIMSHO
 70
     1
  9
$DIMPOST
  1

  9
$DIMAPOST
  1

  9
$DIMALT
 70
     0
  9
$DIMALTD
 70
     2
  9
$DIMALTF
 40
25.4
  9
$DIMLFAC
 40
1.0
  9
$DIMTOFL
 70
     0
  9
$DIMTVP
 40
0.0
  9
$DIMTIX
 70
     0
  9
$DIMSOXD
 70
     0
  9
$DIMSAH
 70
     0
  9
$DIMBLK1
  1

  9
$DIMBLK2
  1

  9
$DIMSTYLE
  2
Standard
  9
$DIMCLRD
 70
     0
  9
$DIMCLRE
 70
     0
  9
$DIMCLRT
 70
     0
  9
$DIMTFAC
 40
1.0
  9
$DIMGAP
 40
0.09
  9
$DIMJUST
 70
     0
  9
$DIMSD1
 70
     0
  9
$DIMSD2
 70
     0
  9
$DIMTOLJ
 70
     1
  9
$DIMTZIN
 70
     0
  9
$DIMALTZ
 70
     0
  9
$DIMALTTZ
 70
     0
  9
$DIMUPT
 70
     0
  9
$DIMDEC
 70
     4
  9
$DIMTDEC
 70
     4
  9
$DIMALTU
 70
     2
  9
$DIMALTTD
 70
     2
  9
$DIMTXSTY
  7
Standard
  9
$DIMAUNIT
 70
     0
  9
$DIMADEC
 70
     0
  9
$DIMALTRND
 40
0.0
  9
$DIMAZIN
 70
     0
  9
$DIMDSEP
 70
    46
  9
$DIMATFIT
 70
     3
  9
$DIMFRAC
 70
     0
  9
$DIMLDRBLK
  1

  9
$DIMLUNIT
 70
     2
  9
$DIMLWD
 70
    -2
  9
$DIMLWE
 70
    -2
  9
$DIMTMOVE
 70
     0
  9
$LUNITS
 70
     2
  9
$LUPREC
 70
     4
  9
$SKETCHINC
 40
0.1
  9
$FILLETRAD
 40
0.5
  9
$AUNITS
 70
     0
  9
$AUPREC
 70
     0
  9
$MENU
  1
.
  9
$ELEVATION
 40
0.0
  9
$PELEVATION
 40
0.0
  9
$THICKNESS
 40
0.0
  9
$LIMCHECK
 70
     0
  9
$CHAMFERA
 40
0.5
  9
$CHAMFERB
 40
0.5
  9
$CHAMFERC
 40
1.0
  9
$CHAMFERD
 40
0.0
  9
$SKPOLY
 70
     0
  9
$TDCREATE
 40
2452994.421340741
  9
$TDUCREATE
 40
2452994.629674075
  9
$TDUPDATE
 40
2454728.584590567
  9
$TDUUPDATE
 40
2454728.792923901
  9
$TDINDWG
 40
0.4377664005
  9
$TDUSRTIMER
 40
0.4377664005
  9
$USRTIMER
 70
     1
  9
$ANGBASE
 50
0.0
  9
$ANGDIR
 70
     0
  9
$PDMODE
 70
     0
  9
$PDSIZE
 40
0.0
  9
$PLINEWID
 40
0.0
  9
$SPLFRAME
 70
     0
  9
$SPLINETYPE
 70
     6
  9
$SPLINESEGS
 70
     8
  9
$HANDSEED
  5
1662
  9
$SURFTAB1
 70
     6
  9
$SURFTAB2
 70
     6
  9
$SURFTYPE
 70
     6
  9
$SURFU
 70
     6
  9
$SURFV
 70
     6
  9
$UCSBASE
  2

  9
$UCSNAME
  2

  9
$UCSORG
 10
0.0
 20
0.0
 30
0.0
  9
$UCSXDIR
 10
1.0
 20
0.0
 30
0.0
  9
$UCSYDIR
 10
0.0
 20
1.0
 30
0.0
  9
$UCSORTHOREF
  2

  9
$UCSORTHOVIEW
 70
     0
  9
$UCSORGTOP
 10
0.0
 20
0.0
 30
0.0
  9
$UCSORGBOTTOM
 10
0.0
 20
0.0
 30
0.0
  9
$UCSORGLEFT
 10
0.0
 20
0.0
 30
0.0
  9
$UCSORGRIGHT
 10
0.0
 20
0.0
 30
0.0
  9
$UCSORGFRONT
 10
0.0
 20
0.0
 30
0.0
  9
$UCSORGBACK
 10
0.0
 20
0.0
 30
0.0
  9
$PUCSBASE
  2

  9
$PUCSNAME
  2

  9
$PUCSORG
 10
0.0
 20
0.0
 30
0.0
  9
$PUCSXDIR
 10
1.0
 20
0.0
 30
0.0
  9
$PUCSYDIR
 10
0.0
 20
1.0
 30
0.0
  9
$PUCSORTHOREF
  2

  9
$PUCSORTHOVIEW
 70
     0
  9
$PUCSORGTOP
 10
0.0
 20
0.0
 30
0.0
  9
$PUCSORGBOTTOM
 10
0.0
 20
0.0
 30
0.0
  9
$PUCSORGLEFT
 10
0.0
 20
0.0
 30
0.0
  9
$PUCSORGRIGHT
 10
0.0
 20
0.0
 30
0.0
  9
$PUCSORGFRONT
 10
0.0
 20
0.0
 30
0.0
  9
$PUCSORGBACK
 10
0.0
 20
0.0
 30
0.0
  9
$USERI1
 70
     0
  9
$USERI2
 70
     0
  9
$USERI3
 70
     0
  9
$USERI4
 70
     0
  9
$USERI5
 70
     0
  9
$USERR1
 40
0.0
  9
$USERR2
 40
0.0
  9
$USERR3
 40
0.0
  9
$USERR4
 40
0.0
  9
$USERR5
 40
0.0
  9
$WORLDVIEW
 70
     1
  9
$SHADEDGE
 70
     3
  9
$SHADEDIF
 70
    70
  9
$TILEMODE
 70
     1
  9
$MAXACTVP
 70
    64
  9
$PINSBASE
 10
0.0
 20
0.0
 30
0.0
  9
$PLIMCHECK
 70
     0
  9
$PEXTMIN
 10
1.000000000000000E+20
 20
1.000000000000000E+20
 30
1.000000000000000E+20
  9
$PEXTMAX
 10
-1.000000000000000E+20
 20
-1.000000000000000E+20
 30
-1.000000000000000E+20
  9
$PLIMMIN
 10
0.0
 20
0.0
  9
$PLIMMAX
 10
12.0
 20
9.0
  9
$UNITMODE
 70
     0
  9
$VISRETAIN
 70
     1
  9
$PLINEGEN
 70
     0
  9
$PSLTSCALE
 70
     1
  9
$TREEDEPTH
 70
  3020
  9
$CMLSTYLE
  2
Standard
  9
$CMLJUST
 70
     0
  9
$CMLSCALE
 40
1.0
  9
$PROXYGRAPHICS
 70
     1
  9
$MEASUREMENT
 70
     0
  9
$CELWEIGHT
370
    -1
  9
$ENDCAPS
280
     0
  9
$JOINSTYLE
280
     0
  9
$LWDISPLAY
290
     0
  9
$INSUNITS
 70
     1
  9
$HYPERLINKBASE
  1

  9
$STYLESHEET
  1
monochrome.ctb
  9
$XEDIT
290
     1
  9
$CEPSNTYPE
380
     0
  9
$PSTYLEMODE
290
     1
  9
$FINGERPRINTGUID
  2
{8AF59976-32CF-11D8-8CE1-F4C5890AA422}
  9
$VERSIONGUID
  2
{FEF848B9-D10C-4E8E-B75A-E8034E4FDA04}
  9
$EXTNAMES
290
     1
  9
$PSVPSCALE
 40
0.0
  9
$OLESTARTUP
290
     0
  0
ENDSEC
  0
SECTION
  2
CLASSES
  0
CLASS
  1
ACDBDICTIONARYWDFLT
  2
AcDbDictionaryWithDefault
  3
ObjectDBX Classes
 90
        0
280
     0
281
     0
  0
CLASS
  1
ACDBPLACEHOLDER
  2
AcDbPlaceHolder
  3
ObjectDBX Classes
 90
        0
280
     0
281
     0
  0
CLASS
  1
LAYOUT
  2
AcDbLayout
  3
ObjectDBX Classes
 90
        0
280
     0
281
     0
  0
CLASS
  1
DICTIONARYVAR
  2
AcDbDictionaryVar
  3
ObjectDBX Classes
 90
        0
280
     0
281
     0
  0
ENDSEC
  0
SECTION
  2
TABLES
  0
TABLE
  2
VPORT
  5
8
330
0
100
AcDbSymbolTable
 70
     4
  0
VPORT
  5
1658
330
8
100
AcDbSymbolTableRecord
100
AcDbViewportTableRecord
  2
*Active
 70
     0
 10
0.0
 20
0.0
 11
1.0
 21
1.0
 12
8.277268752605875
 22
4.944602987780937
 13
0.0
 23
0.0
 14
0.5
 24
0.5
 15
0.5
 25
0.5
 16
0.0
 26
0.0
 36
1.0
 17
0.0
 27
0.0
 37
0.0
 40
5.545471951024142
 41
1.495145631067961
 42
50.0
 43
0.0
 44
0.0
 50
0.0
 51
0.0
 71
     0
 72
   100
 73
     1
 74
     0
 75
     0
 76
     0
 77
     0
 78
     0
281
     0
 65
     1
110
0.0
120
0.0
130
0.0
111
1.0
121
0.0
131
0.0
112
0.0
122
1.0
132
0.0
 79
     0
146
0.0
  0
ENDTAB
  0
TABLE
  2
LTYPE
  5
5
330
0
100
AcDbSymbolTable
 70
     2
  0
LTYPE
  5
14
330
5
100
AcDbSymbolTableRecord
100
AcDbLinetypeTableRecord
  2
ByBlock
 70
     0
  3

 72
    65
 73
     0
 40
0.0
  0
LTYPE
  5
15
330
5
100
AcDbSymbolTableRecord
100
AcDbLinetypeTableRecord
  2
ByLayer
 70
     0
  3

 72
    65
 73
     0
 40
0.0
  0
LTYPE
  5
16
330
5
100
AcDbSymbolTableRecord
100
AcDbLinetypeTableRecord
  2
Continuous
 70
     0
  3
Solid line
 72
    65
 73
     0
 40
0.0
  0
LTYPE
  5
15D
330
5
100
AcDbSymbolTableRecord
100
AcDbLinetypeTableRecord
  2
HIDDEN
 70
     0
  3
_ _ _ _ _ _ _ _ _ _ _ _ _ _ _ _ _ _ _ _ _ _ _
 72
    65
 73
     2
 40
0.375
 49
0.25
 74
     0
 49
-0.125
 74
     0
  0
ENDTAB
  0
TABLE
  2
LAYER
  5
2
102
{ACAD_XDICTIONARY
360
15D5
102
}
330
0
100
AcDbSymbolTable
 70
     5
  0
LAYER
  5
10
330
2
100
AcDbSymbolTableRecord
100
AcDbLayerTableRecord
  2
0
 70
     0
 62
     7
  6
Continuous
370
    -3
390
F
  0
LAYER
  5
33
330
2
100
AcDbSymbolTableRecord
100
AcDbLayerTableRecord
  2
1
 70
     0
 62
     1
  6
Continuous
370
    -3
390
F
  0
LAYER
  5
34
330
2
100
AcDbSymbolTableRecord
100
AcDbLayerTableRecord
  2
4
 70
     0
 62
     4
  6
Continuous
370
    -3
390
F
  0
LAYER
  5
35
330
2
100
AcDbSymbolTableRecord
100
AcDbLayerTableRecord
  2
8
 70
     0
 62
     2
  6
Continuous
370
    -3
390
F
  0
LAYER
  5
15E
330
2
100
AcDbSymbolTableRecord
100
AcDbLayerTableRecord
  2
2
 70
     0
 62
     2
  6
HIDDEN
370
    -3
390
F
  0
ENDTAB
  0
TABLE
  2
STYLE
  5
3
330
0
100
AcDbSymbolTable
 70
     2
  0
STYLE
  5
11
330
3
100
AcDbSymbolTableRecord
100
AcDbTextStyleTableRecord
  2
Standard
 70
     0
 40
0.0
 41
1.0
 50
0.0
 71
     0
 42
0.2
  3
txt
  4

  0
STYLE
  5
36
330
3
100
AcDbSymbolTableRecord
100
AcDbTextStyleTableRecord
  2
ROMANS
 70
     0
 40
0.0
 41
1.0
 50
0.0
 71
     0
 42
0.07
  3
ROMANS
  4

  0
ENDTAB
  0
TABLE
  2
VIEW
  5
6
330
0
100
AcDbSymbolTable
 70
     0
  0
ENDTAB
  0
TABLE
  2
UCS
  5
7
330
0
100
AcDbSymbolTable
 70
     0
  0
ENDTAB
  0
TABLE
  2
APPID
  5
9
330
0
100
AcDbSymbolTable
 70
     1
  0
APPID
  5
12
330
9
100
AcDbSymbolTableRecord
100
AcDbRegAppTableRecord
  2
ACAD
 70
     0
  0
ENDTAB
  0
TABLE
  2
DIMSTYLE
  5
A
330
0
100
AcDbSymbolTable
 70
     1
100
AcDbDimStyleTable
 71
     0
  0
DIMSTYLE
105
27
330
A
100
AcDbSymbolTableRecord
100
AcDbDimStyleTableRecord
  2
Standard
 70
     0
340
11
  0
ENDTAB
  0
TABLE
  2
BLOCK_RECORD
  5
1
330
0
100
AcDbSymbolTable
 70
    11
  0
BLOCK_RECORD
  5
1F
330
1
100
AcDbSymbolTableRecord
100
AcDbBlockTableRecord
  2
*Model_Space
340
22
  0
BLOCK_RECORD
  5
1B
330
1
100
AcDbSymbolTableRecord
100
AcDbBlockTableRecord
  2
*Paper_Space
340
1E
  0
BLOCK_RECORD
  5
23
330
1
100
AcDbSymbolTableRecord
100
AcDbBlockTableRecord
  2
*Paper_Space0
340
26
  0
BLOCK_RECORD
  5
2B
330
1
100
AcDbSymbolTableRecord
100
AcDbBlockTableRecord
  2
ARRO
340
0
102
{BLKREFS
331
114F
331
11B9
331
11BA
331
11BB
331
11BC
331
11BD
331
11C1
331
11C2
331
11C6
331
11C7
331
1256
331
1257
331
1292
331
12E2
331
12E3
102
}
  0
BLOCK_RECORD
  5
FF
330
1
100
AcDbSymbolTableRecord
100
AcDbBlockTableRecord
  2
LE029
340
0
102
{BLKREFS
331
1216
331
1538
331
1539
331
153C
331
153D
331
1542
331
1543
331
154E
331
1553
331
157E
331
1584
331
158C
331
15A8
331
15B3
331
15BB
102
}
  0
BLOCK_RECORD
  5
112
330
1
100
AcDbSymbolTableRecord
100
AcDbBlockTableRecord
  2
TEMP3
340
0
102
{BLKREFS
331
1252
102
}
  0
BLOCK_RECORD
  5
150
330
1
100
AcDbSymbolTableRecord
100
AcDbBlockTableRecord
  2
ARRO2
340
0
102
{BLKREFS
331
12A1
102
}
  0
BLOCK_RECORD
  5
34F
330
1
100
AcDbSymbolTableRecord
100
AcDbBlockTableRecord
  2
FRACTION
340
0
102
{BLKREFS
331
1242
331
1247
331
160C
331
1615
102
}
  0
BLOCK_RECORD
  5
1147
330
1
100
AcDbSymbolTableRecord
100
AcDbBlockTableRecord
  2
Le1006
340
0
  0
BLOCK_RECORD
  5
1215
330
1
100
AcDbSymbolTableRecord
100
AcDbBlockTableRecord
  2
A1
340
0
102
{BLKREFS
331
121A
331
121B
331
121C
331
121D
331
121E
331
121F
331
1220
331
1221
331
1222
331
1223
331
1224
331
1225
331
1226
331
1227
331
1228
331
1229
331
122A
331
122B
331
122C
331
122D
331
122E
331
122F
331
1230
331
1231
331
1232
331
1233
331
1234
331
1235
331
1236
331
1237
331
1238
331
1239
331
123A
331
123B
331
123C
331
123D
331
123E
331
123F
102
}
  0
BLOCK_RECORD
  5
1219
330
1
100
AcDbSymbolTableRecord
100
AcDbBlockTableRecord
  2
Le1038
340
0
  0
BLOCK_RECORD
  5
15D7
330
1
100
AcDbSymbolTableRecord
100
AcDbBlockTableRecord
  2
HDV hooks
340
0
102
{BLKREFS
331
15EE
102
}
1001
ACAD
1000
DesignCenter Data
1002
{
1070
     1
1070
     1
1002
}
  0
BLOCK_RECORD
  5
160B
330
1
100
AcDbSymbolTableRecord
100
AcDbBlockTableRecord
  2
DIM
340
0
102
{BLKREFS
331
1613
331
161B
102
}
  0
ENDTAB
  0
ENDSEC
  0
SECTION
  2
BLOCKS
  0
BLOCK
  5
20
330
1F
100
AcDbEntity
  8
0
100
AcDbBlockBegin
  2
*Model_Space
 70
     0
 10
0.0
 20
0.0
 30
0.0
  3
*Model_Space
  1

  0
ENDBLK
  5
21
330
1F
100
AcDbEntity
  8
0
100
AcDbBlockEnd
  0
BLOCK
  5
1C
330
1B
100
AcDbEntity
 67
     1
  8
0
100
AcDbBlockBegin
  2
*Paper_Space
 70
     0
 10
0.0
 20
0.0
 30
0.0
  3
*Paper_Space
  1

  0
ENDBLK
  5
1D
330
1B
100
AcDbEntity
 67
     1
  8
0
100
AcDbBlockEnd
  0
BLOCK
  5
24
330
23
100
AcDbEntity
  8
0
100
AcDbBlockBegin
  2
*Paper_Space0
 70
     0
 10
0.0
 20
0.0
 30
0.0
  3
*Paper_Space0
  1

  0
ENDBLK
  5
25
330
23
100
AcDbEntity
  8
0
100
AcDbBlockEnd
  0
BLOCK
  5
31
330
2B
100
AcDbEntity
  8
8
100
AcDbBlockBegin
  2
ARRO
 70
     0
 10
0.0
 20
0.0
 30
0.0
  3
ARRO
  1

  0
LINE
  5
2C
330
2B
100
AcDbEntity
  8
4
100
AcDbLine
 10
0.1250000000000018
 20
0.0199999999999996
 30
0.0
 11
0.1250000000000018
 21
-0.0200000000000005
 31
0.0
  0
LINE
  5
2D
330
2B
100
AcDbEntity
  8
4
100
AcDbLine
 10
0.1250000000000018
 20
-0.0100000000000007
 30
0.0
 11
0.0000000000000009
 21
0.0
 31
0.0
  0
LINE
  5
2E
330
2B
100
AcDbEntity
  8
4
100
AcDbLine
 10
0.1250000000000018
 20
0.0099999999999989
 30
0.0
 11
0.0000000000000018
 21
0.0
 31
0.0
  0
LINE
  5
2F
330
2B
100
AcDbEntity
  8
4
100
AcDbLine
 10
0.0000000000000018
 20
0.0
 30
0.0
 11
0.1250000000000018
 21
-0.0200000000000005
 31
0.0
  0
LINE
  5
30
330
2B
100
AcDbEntity
  8
4
100
AcDbLine
 10
0.1250000000000018
 20
0.0199999999999996
 30
0.0
 11
0.0000000000000018
 21
0.0
 31
0.0
  0
ENDBLK
  5
32
330
2B
100
AcDbEntity
  8
8
100
AcDbBlockEnd
  0
BLOCK
  5
110
330
FF
100
AcDbEntity
  8
2
100
AcDbBlockBegin
  2
LE029
 70
     0
 10
0.0
 20
0.0
 30
0.0
  3
LE029
  1

  0
LINE
  5
100
330
FF
100
AcDbEntity
  8
4
100
AcDbLine
 10
0.0000000000000002
 20
0.0
 30
0.0
 11
0.0187500000000003
 21
0.0374999999999997
 31
0.0
  0
LINE
  5
101
330
FF
100
AcDbEntity
  8
4
100
AcDbLine
 10
0.0187500000000003
 20
0.0374999999999997
 30
0.0
 11
0.0375000000000003
 21
0.0
 31
0.0
  0
LINE
  5
102
330
FF
100
AcDbEntity
  8
4
100
AcDbLine
 10
0.0000000000000002
 20
0.0
 30
0.0
 11
0.0187500000000003
 21
-0.0374999999999997
 31
0.0
  0
LINE
  5
103
330
FF
100
AcDbEntity
  8
4
100
AcDbLine
 10
0.0187500000000003
 20
-0.0374999999999997
 30
0.0
 11
0.0375000000000003
 21
0.0
 31
0.0
  0
LINE
  5
104
330
FF
100
AcDbEntity
  8
4
100
AcDbLine
 10
0.0437500000000002
 20
-0.0954999999999995
 30
0.0
 11
0.0625000000000002
 21
-0.0579999999999998
 31
0.0
  0
LINE
  5
105
330
FF
100
AcDbEntity
  8
4
100
AcDbLine
 10
0.0250000000000001
 20
-0.0579999999999998
 30
0.0
 11
0.0437500000000002
 21
-0.0954999999999995
 31
0.0
  0
LINE
  5
106
330
FF
100
AcDbEntity
  8
4
100
AcDbLine
 10
0.0437500000000002
 20
-0.0205000000000002
 30
0.0
 11
0.0625000000000002
 21
-0.0579999999999998
 31
0.0
  0
LINE
  5
107
330
FF
100
AcDbEntity
  8
4
100
AcDbLine
 10
0.0250000000000001
 20
-0.0579999999999998
 30
0.0
 11
0.0437500000000002
 21
-0.0205000000000002
 31
0.0
  0
LINE
  5
108
330
FF
100
AcDbEntity
  8
4
100
AcDbLine
 10
0.2749999999999999
 20
-0.0579999999999998
 30
0.0
 11
0.29375
 21
-0.0205000000000002
 31
0.0
  0
LINE
  5
109
330
FF
100
AcDbEntity
  8
4
100
AcDbLine
 10
0.29375
 20
-0.0205000000000002
 30
0.0
 11
0.3125
 21
-0.0579999999999998
 31
0.0
  0
LINE
  5
10A
330
FF
100
AcDbEntity
  8
4
100
AcDbLine
 10
0.2749999999999999
 20
-0.0579999999999998
 30
0.0
 11
0.29375
 21
-0.0954999999999995
 31
0.0
  0
LINE
  5
10B
330
FF
100
AcDbEntity
  8
4
100
AcDbLine
 10
0.29375
 20
-0.0954999999999995
 30
0.0
 11
0.3125
 21
-0.0579999999999998
 31
0.0
  0
LINE
  5
10C
330
FF
100
AcDbEntity
  8
4
100
AcDbLine
 10
0.26875
 20
-0.0374999999999997
 30
0.0
 11
0.2875000000000001
 21
0.0
 31
0.0
  0
LINE
  5
10D
330
FF
100
AcDbEntity
  8
4
100
AcDbLine
 10
0.25
 20
0.0
 30
0.0
 11
0.26875
 21
-0.0374999999999997
 31
0.0
  0
LINE
  5
10E
330
FF
100
AcDbEntity
  8
4
100
AcDbLine
 10
0.26875
 20
0.0374999999999997
 30
0.0
 11
0.2875000000000001
 21
0.0
 31
0.0
  0
LINE
  5
10F
330
FF
100
AcDbEntity
  8
4
100
AcDbLine
 10
0.25
 20
0.0
 30
0.0
 11
0.26875
 21
0.0374999999999997
 31
0.0
  0
ENDBLK
  5
111
330
FF
100
AcDbEntity
  8
2
100
AcDbBlockEnd
  0
BLOCK
  5
115
330
112
100
AcDbEntity
  8
8
100
AcDbBlockBegin
  2
TEMP3
 70
     0
 10
0.0
 20
0.0
 30
0.0
  3
TEMP3
  1

  0
TEXT
  5
113
330
112
100
AcDbEntity
  8
8
100
AcDbText
 10
0.03
 20
0.0619999999999998
 30
0.0
 40
0.07
  1
HANDLE & P/A
 50
90.0
  7
ROMANS
100
AcDbText
  0
TEXT
  5
114
330
112
100
AcDbEntity
  8
8
100
AcDbText
 10
0.03
 20
-1.33310960351371
 30
0.0
 40
0.07
  1
LOCK ESCUTCHEON
 50
90.0
  7
ROMANS
 72
     2
 11
0.03
 21
-0.3264429368470441
 31
0.0
100
AcDbText
  0
ENDBLK
  5
116
330
112
100
AcDbEntity
  8
8
100
AcDbBlockEnd
  0
BLOCK
  5
15B
330
150
100
AcDbEntity
  8
2
100
AcDbBlockBegin
  2
ARRO2
 70
     0
 10
0.0
 20
0.0
 30
0.0
  3
ARRO2
  1

  0
LINE
  5
151
330
150
100
AcDbEntity
  8
4
100
AcDbLine
 10
-0.124999999999992
 20
-0.0200000000000005
 30
0.0
 11
0.000000000000008
 21
-0.0000000000000009
 31
0.0
  0
LINE
  5
152
330
150
100
AcDbEntity
  8
4
100
AcDbLine
 10
0.000000000000008
 20
-0.0000000000000009
 30
0.0
 11
-0.124999999999992
 21
0.0199999999999996
 31
0.0
  0
LINE
  5
153
330
150
100
AcDbEntity
  8
4
100
AcDbLine
 10
-0.124999999999992
 20
-0.0099999999999998
 30
0.0
 11
0.000000000000008
 21
-0.0000000000000009
 31
0.0
  0
LINE
  5
154
330
150
100
AcDbEntity
  8
4
100
AcDbLine
 10
-0.124999999999992
 20
0.0099999999999998
 30
0.0
 11
0.0000000000000089
 21
-0.0000000000000009
 31
0.0
  0
LINE
  5
155
330
150
100
AcDbEntity
  8
4
100
AcDbLine
 10
-0.124999999999992
 20
-0.0200000000000005
 30
0.0
 11
-0.124999999999992
 21
0.0199999999999996
 31
0.0
  0
LINE
  5
156
330
150
100
AcDbEntity
  8
4
100
AcDbLine
 10
0.1250000000000124
 20
0.0199999999999987
 30
0.0
 11
0.1250000000000124
 21
-0.0200000000000014
 31
0.0
  0
LINE
  5
157
330
150
100
AcDbEntity
  8
4
100
AcDbLine
 10
0.1250000000000124
 20
-0.0100000000000016
 30
0.0
 11
0.0000000000000115
 21
-0.0000000000000009
 31
0.0
  0
LINE
  5
158
330
150
100
AcDbEntity
  8
4
100
AcDbLine
 10
0.1250000000000124
 20
0.009999999999998
 30
0.0
 11
0.0000000000000124
 21
-0.0000000000000009
 31
0.0
  0
LINE
  5
159
330
150
100
AcDbEntity
  8
4
100
AcDbLine
 10
0.0000000000000124
 20
-0.0000000000000009
 30
0.0
 11
0.1250000000000124
 21
-0.0200000000000014
 31
0.0
  0
LINE
  5
15A
330
150
100
AcDbEntity
  8
4
100
AcDbLine
 10
0.1250000000000124
 20
0.0199999999999987
 30
0.0
 11
0.0000000000000124
 21
-0.0000000000000009
 31
0.0
  0
ENDBLK
  5
15C
330
150
100
AcDbEntity
  8
2
100
AcDbBlockEnd
  0
BLOCK
  5
353
330
34F
100
AcDbEntity
  8
4
100
AcDbBlockBegin
  2
FRACTION
 70
     2
 10
0.0
 20
0.0
 30
0.0
  3
FRACTION
  1

  0
ATTDEF
  5
350
330
34F
100
AcDbEntity
  8
8
100
AcDbText
 10
-0.0729108846144104
 20
0.0974999999999966
 30
0.0
 40
0.125
  1

 72
     2
 11
-0.0729108846144104
 21
0.0974999999999966
 31
0.0
100
AcDbAttributeDefinition
  3
ENTER WHOLE NUMBER
  2
A
 70
     0
  0
ATTDEF
  5
351
330
34F
100
AcDbEntity
  8
8
100
AcDbText
 10
0.0719999999999992
 20
0.1799999999999962
 30
0.0
 40
0.1
  1

 72
     1
 11
0.0719999999999992
 21
0.1799999999999962
 31
0.0
100
AcDbAttributeDefinition
  3
ENTER NUMERATOR
  2
B
 70
     0
  0
ATTDEF
  5
352
330
34F
100
AcDbEntity
  8
8
100
AcDbText
 10
0.0719999999999992
 20
0.0399999999999992
 30
0.0
 40
0.1
  1

 72
     1
 11
0.0719999999999992
 21
0.0399999999999992
 31
0.0
100
AcDbAttributeDefinition
  3
ENTER DENOMINATOR
  2
C
 70
     0
  0
ENDBLK
  5
354
330
34F
100
AcDbEntity
  8
4
100
AcDbBlockEnd
  0
BLOCK
  5
1212
330
1147
100
AcDbEntity
  8
0
100
AcDbBlockBegin
  2
Le1006
 70
     0
 10
0.0
 20
0.0
 30
0.0
  3
Le1006
  1

  0
TEXT
  5
1148
330
1147
100
AcDbEntity
  8
8
100
AcDbText
 10
5.2125
 20
0.9038482379456846
 30
0.0
 40
0.07
  1
DEPTH
  7
ROMANS
 72
     1
 11
5.3775
 21
0.9038482379456846
 31
0.0
100
AcDbText
  0
TEXT
  5
1149
330
1147
100
AcDbEntity
  8
8
100
AcDbText
 10
6.834999999999999
 20
0.9038482379456846
 30
0.0
 40
0.07
  1
DEPTH
  7
ROMANS
 72
     1
 11
7.0
 21
0.9038482379456846
 31
0.0
100
AcDbText
  0
TEXT
  5
114A
330
1147
100
AcDbEntity
  8
8
100
AcDbText
 10
6.899267058502116
 20
0.7466010068253098
 30
0.0
 40
0.1
  1
DR
  7
ROMANS
 72
     1
 11
7.001648010883068
 21
0.7466010068253098
 31
0.0
100
AcDbText
  0
TEXT
  5
114B
330
1147
100
AcDbEntity
  8
8
100
AcDbText
 10
5.794389324558379
 20
0.5620000000000003
 30
0.0
 40
0.1
  1
SECTIONS
  7
ROMANS
 72
     1
 11
6.146770276939331
 21
0.5620000000000003
 31
0.0
100
AcDbText
  0
TEXT
  5
114C
330
1147
100
AcDbEntity
  8
8
100
AcDbText
 10
5.302053163126957
 20
0.7466010068253098
 30
0.0
 40
0.1
  1
SR
  7
ROMANS
 72
     1
 11
5.399672210746004
 21
0.7466010068253098
 31
0.0
100
AcDbText
  0
LINE
  5
114D
330
1147
100
AcDbEntity
  8
4
100
AcDbLine
 10
5.628
 20
4.25
 30
0.0
 11
5.891731602665403
 21
4.25
 31
0.0
  0
LINE
  5
114E
330
1147
100
AcDbEntity
  8
4
100
AcDbLine
 10
5.93215881233783
 20
4.25
 30
0.0
 11
6.112622609161773
 21
4.25
 31
0.0
  0
INSERT
  5
114F
330
1147
100
AcDbEntity
  8
4
100
AcDbBlockReference
  2
ARRO
 10
5.93215881233783
 20
4.25
 30
0.0
  0
LINE
  5
1150
330
1147
100
AcDbEntity
  8
4
100
AcDbLine
 10
6.112622609161773
 20
4.25
 30
0.0
 11
6.112622609161773
 21
4.047012330209487
 31
0.0
  0
TEXT
  5
1151
330
1147
100
AcDbEntity
  8
8
100
AcDbText
 10
6.147622609161773
 20
2.671678996876154
 30
0.0
 40
0.07
  1
ANCHORING BY ERECTOR
 50
90.0
  7
ROMANS
 72
     2
 11
6.147622609161773
 21
3.985012330209487
 31
0.0
100
AcDbText
  0
TEXT
  5
1152
330
1147
100
AcDbEntity
  8
8
100
AcDbText
 10
4.500499999999999
 20
2.578333333333333
 30
0.0
 40
0.07
  1
LOCKER HEIGHT
 50
90.0
  7
ROMANS
 72
     1
 11
4.500499999999999
 21
3.0
 31
0.0
100
AcDbText
  0
TEXT
  5
1153
330
1147
100
AcDbEntity
  8
8
100
AcDbText
 10
1.344999999999998
 20
1.062
 30
0.0
 40
0.07
  1
LOCKER WIDTH - SEE SCHEDULE
  7
ROMANS
 72
     1
 11
2.249999999999999
 21
1.062
 31
0.0
100
AcDbText
  0
TEXT
  5
1154
330
1147
100
AcDbEntity
  8
8
100
AcDbText
 10
1.585714285714285
 20
0.5620000000000003
 30
0.0
 40
0.1
  1
FRONT ELEVATION
  7
ROMANS
 72
     1
 11
2.249999999999999
 21
0.5620000000000003
 31
0.0
100
AcDbText
  0
LINE
  5
1155
330
1147
100
AcDbEntity
  8
4
100
AcDbLine
 10
7.625
 20
0.9379999999999999
 30
0.0
 11
7.625
 21
1.125999999999999
 31
0.0
  0
LINE
  5
1156
330
1147
100
AcDbEntity
  8
4
100
AcDbLine
 10
6.375
 20
0.9379999999999999
 30
0.0
 11
6.375
 21
1.125999999999999
 31
0.0
  0
LINE
  5
1157
330
1147
100
AcDbEntity
  8
4
100
AcDbLine
 10
5.75
 20
0.9379999999999999
 30
0.0
 11
5.75
 21
1.125999999999999
 31
0.0
  0
LINE
  5
1158
330
1147
100
AcDbEntity
  8
4
100
AcDbLine
 10
5.69
 20
0.9379999999999999
 30
0.0
 11
5.69
 21
1.125999999999999
 31
0.0
  0
LINE
  5
1159
330
1147
100
AcDbEntity
  8
4
100
AcDbLine
 10
5.065
 20
0.9379999999999999
 30
0.0
 11
5.065
 21
1.125999999999999
 31
0.0
  0
LINE
  5
115A
330
1147
100
AcDbEntity
  8
1
100
AcDbLine
 10
5.75
 20
1.75
 30
0.0
 11
5.937999999999999
 21
1.937999999999999
 31
0.0
  0
LINE
  5
115B
330
1147
100
AcDbEntity
  8
1
100
AcDbLine
 10
5.75
 20
1.875
 30
0.0
 11
5.937999999999999
 21
2.062999999999999
 31
0.0
  0
LINE
  5
115C
330
1147
100
AcDbEntity
  8
1
100
AcDbLine
 10
5.203499999999999
 20
1.5625
 30
0.0
 11
5.188499999999999
 21
1.547499999999999
 31
0.0
  0
LINE
  5
115D
330
1147
100
AcDbEntity
  8
1
100
AcDbLine
 10
5.188499999999999
 20
1.547499999999999
 30
0.0
 11
5.090499999999999
 21
1.547499999999999
 31
0.0
  0
LINE
  5
115E
330
1147
100
AcDbEntity
  8
1
100
AcDbLine
 10
5.090499999999999
 20
1.547499999999999
 30
0.0
 11
5.090499999999999
 21
1.519253857562439
 31
0.0
  0
LINE
  5
115F
330
1147
100
AcDbEntity
  8
1
100
AcDbLine
 10
5.265499999999999
 20
1.500499999999999
 30
0.0
 11
5.203499999999999
 21
1.5625
 31
0.0
  0
LINE
  5
1160
330
1147
100
AcDbEntity
  8
1
100
AcDbLine
 10
5.630499999999999
 20
1.500499999999999
 30
0.0
 11
5.265499999999999
 21
1.500499999999999
 31
0.0
  0
LINE
  5
1161
330
1147
100
AcDbEntity
  8
1
100
AcDbLine
 10
5.630499999999999
 20
1.5625
 30
0.0
 11
5.630499999999999
 21
1.500499999999999
 31
0.0
  0
LINE
  5
1162
330
1147
100
AcDbEntity
  8
1
100
AcDbLine
 10
5.670499999999999
 20
1.5625
 30
0.0
 11
5.670499999999999
 21
1.500499999999999
 31
0.0
  0
LINE
  5
1163
330
1147
100
AcDbEntity
  8
1
100
AcDbLine
 10
5.065499999999999
 20
1.5625
 30
0.0
 11
5.173499999999998
 21
1.5625
 31
0.0
  0
LINE
  5
1164
330
1147
100
AcDbEntity
  8
1
100
AcDbLine
 10
5.065499999999999
 20
1.500499999999999
 30
0.0
 11
5.065499999999999
 21
1.5625
 31
0.0
  0
LINE
  5
1165
330
1147
100
AcDbEntity
  8
1
100
AcDbLine
 10
5.127499999999999
 20
1.500499999999999
 30
0.0
 11
5.065499999999999
 21
1.500499999999999
 31
0.0
  0
LINE
  5
1166
330
1147
100
AcDbEntity
  8
1
100
AcDbLine
 10
5.203499999999999
 20
1.5625
 30
0.0
 11
5.670499999999999
 21
1.5625
 31
0.0
  0
LINE
  5
1167
330
1147
100
AcDbEntity
  8
1
100
AcDbLine
 10
6.513499999999998
 20
1.5625
 30
0.0
 11
6.980499999999999
 21
1.5625
 31
0.0
  0
LINE
  5
1168
330
1147
100
AcDbEntity
  8
1
100
AcDbLine
 10
6.437499999999999
 20
1.500499999999999
 30
0.0
 11
6.375499999999998
 21
1.500499999999999
 31
0.0
  0
LINE
  5
1169
330
1147
100
AcDbEntity
  8
1
100
AcDbLine
 10
6.375499999999998
 20
1.500499999999999
 30
0.0
 11
6.375499999999998
 21
1.5625
 31
0.0
  0
LINE
  5
116A
330
1147
100
AcDbEntity
  8
1
100
AcDbLine
 10
6.375499999999998
 20
1.5625
 30
0.0
 11
6.483499999999998
 21
1.5625
 31
0.0
  0
LINE
  5
116B
330
1147
100
AcDbEntity
  8
1
100
AcDbLine
 10
6.980499999999999
 20
1.5625
 30
0.0
 11
6.980499999999999
 21
1.500499999999999
 31
0.0
  0
LINE
  5
116C
330
1147
100
AcDbEntity
  8
1
100
AcDbLine
 10
6.940499999999999
 20
1.5625
 30
0.0
 11
6.940499999999999
 21
1.500499999999999
 31
0.0
  0
LINE
  5
116D
330
1147
100
AcDbEntity
  8
1
100
AcDbLine
 10
6.940499999999999
 20
1.500499999999999
 30
0.0
 11
6.575499999999999
 21
1.500499999999999
 31
0.0
  0
LINE
  5
116E
330
1147
100
AcDbEntity
  8
1
100
AcDbLine
 10
6.575499999999999
 20
1.500499999999999
 30
0.0
 11
6.513499999999998
 21
1.5625
 31
0.0
  0
LINE
  5
116F
330
1147
100
AcDbEntity
  8
1
100
AcDbLine
 10
6.400499999999999
 20
1.547499999999999
 30
0.0
 11
6.400499999999999
 21
1.519253857562439
 31
0.0
  0
LINE
  5
1170
330
1147
100
AcDbEntity
  8
1
100
AcDbLine
 10
6.498499999999999
 20
1.547499999999999
 30
0.0
 11
6.400499999999999
 21
1.547499999999999
 31
0.0
  0
LINE
  5
1171
330
1147
100
AcDbEntity
  8
1
100
AcDbLine
 10
6.513499999999998
 20
1.5625
 30
0.0
 11
6.498499999999999
 21
1.547499999999999
 31
0.0
  0
LINE
  5
1172
330
1147
100
AcDbEntity
  8
1
100
AcDbLine
 10
7.486500000000001
 20
1.5625
 30
0.0
 11
7.5015
 21
1.547499999999999
 31
0.0
  0
LINE
  5
1173
330
1147
100
AcDbEntity
  8
1
100
AcDbLine
 10
7.5015
 20
1.547499999999999
 30
0.0
 11
7.5995
 21
1.547499999999999
 31
0.0
  0
LINE
  5
1174
330
1147
100
AcDbEntity
  8
1
100
AcDbLine
 10
7.5995
 20
1.547499999999999
 30
0.0
 11
7.5995
 21
1.519253857562439
 31
0.0
  0
LINE
  5
1175
330
1147
100
AcDbEntity
  8
1
100
AcDbLine
 10
7.4245
 20
1.500499999999999
 30
0.0
 11
7.486500000000001
 21
1.5625
 31
0.0
  0
LINE
  5
1176
330
1147
100
AcDbEntity
  8
1
100
AcDbLine
 10
7.0595
 20
1.500499999999999
 30
0.0
 11
7.4245
 21
1.500499999999999
 31
0.0
  0
LINE
  5
1177
330
1147
100
AcDbEntity
  8
1
100
AcDbLine
 10
7.0595
 20
1.5625
 30
0.0
 11
7.0595
 21
1.500499999999999
 31
0.0
  0
LINE
  5
1178
330
1147
100
AcDbEntity
  8
1
100
AcDbLine
 10
7.0195
 20
1.5625
 30
0.0
 11
7.0195
 21
1.500499999999999
 31
0.0
  0
LINE
  5
1179
330
1147
100
AcDbEntity
  8
1
100
AcDbLine
 10
7.624500000000001
 20
1.5625
 30
0.0
 11
7.516500000000001
 21
1.5625
 31
0.0
  0
LINE
  5
117A
330
1147
100
AcDbEntity
  8
1
100
AcDbLine
 10
7.624500000000001
 20
1.500499999999999
 30
0.0
 11
7.624500000000001
 21
1.5625
 31
0.0
  0
LINE
  5
117B
330
1147
100
AcDbEntity
  8
1
100
AcDbLine
 10
7.5625
 20
1.500499999999999
 30
0.0
 11
7.624500000000001
 21
1.500499999999999
 31
0.0
  0
LINE
  5
117C
330
1147
100
AcDbEntity
  8
1
100
AcDbLine
 10
7.486500000000001
 20
1.5625
 30
0.0
 11
7.0195
 21
1.5625
 31
0.0
  0
LINE
  5
117D
330
1147
100
AcDbEntity
  8
1
100
AcDbLine
 10
7.486500000000001
 20
4.5
 30
0.0
 11
7.0195
 21
4.5
 31
0.0
  0
LINE
  5
117E
330
1147
100
AcDbEntity
  8
1
100
AcDbLine
 10
7.5625
 20
4.437999999999999
 30
0.0
 11
7.624500000000001
 21
4.437999999999999
 31
0.0
  0
LINE
  5
117F
330
1147
100
AcDbEntity
  8
1
100
AcDbLine
 10
7.624500000000001
 20
4.437999999999999
 30
0.0
 11
7.624500000000001
 21
4.5
 31
0.0
  0
LINE
  5
1180
330
1147
100
AcDbEntity
  8
1
100
AcDbLine
 10
7.624500000000001
 20
4.5
 30
0.0
 11
7.516500000000001
 21
4.5
 31
0.0
  0
LINE
  5
1181
330
1147
100
AcDbEntity
  8
1
100
AcDbLine
 10
7.0195
 20
4.5
 30
0.0
 11
7.0195
 21
4.437999999999999
 31
0.0
  0
LINE
  5
1182
330
1147
100
AcDbEntity
  8
1
100
AcDbLine
 10
7.0595
 20
4.5
 30
0.0
 11
7.0595
 21
4.437999999999999
 31
0.0
  0
LINE
  5
1183
330
1147
100
AcDbEntity
  8
1
100
AcDbLine
 10
7.0595
 20
4.437999999999999
 30
0.0
 11
7.4245
 21
4.437999999999999
 31
0.0
  0
LINE
  5
1184
330
1147
100
AcDbEntity
  8
1
100
AcDbLine
 10
7.4245
 20
4.437999999999999
 30
0.0
 11
7.486500000000001
 21
4.5
 31
0.0
  0
LINE
  5
1185
330
1147
100
AcDbEntity
  8
1
100
AcDbLine
 10
7.5995
 20
4.484999999999999
 30
0.0
 11
7.5995
 21
4.456753857562439
 31
0.0
  0
LINE
  5
1186
330
1147
100
AcDbEntity
  8
1
100
AcDbLine
 10
7.5015
 20
4.484999999999999
 30
0.0
 11
7.5995
 21
4.484999999999999
 31
0.0
  0
LINE
  5
1187
330
1147
100
AcDbEntity
  8
1
100
AcDbLine
 10
7.486500000000001
 20
4.5
 30
0.0
 11
7.5015
 21
4.484999999999999
 31
0.0
  0
LINE
  5
1188
330
1147
100
AcDbEntity
  8
1
100
AcDbLine
 10
6.513499999999998
 20
4.5
 30
0.0
 11
6.498499999999999
 21
4.484999999999999
 31
0.0
  0
LINE
  5
1189
330
1147
100
AcDbEntity
  8
1
100
AcDbLine
 10
6.498499999999999
 20
4.484999999999999
 30
0.0
 11
6.400499999999999
 21
4.484999999999999
 31
0.0
  0
LINE
  5
118A
330
1147
100
AcDbEntity
  8
1
100
AcDbLine
 10
6.400499999999999
 20
4.484999999999999
 30
0.0
 11
6.400499999999999
 21
4.456753857562439
 31
0.0
  0
LINE
  5
118B
330
1147
100
AcDbEntity
  8
1
100
AcDbLine
 10
6.575499999999999
 20
4.437999999999999
 30
0.0
 11
6.513499999999998
 21
4.5
 31
0.0
  0
LINE
  5
118C
330
1147
100
AcDbEntity
  8
1
100
AcDbLine
 10
6.940499999999999
 20
4.437999999999999
 30
0.0
 11
6.575499999999999
 21
4.437999999999999
 31
0.0
  0
LINE
  5
118D
330
1147
100
AcDbEntity
  8
1
100
AcDbLine
 10
6.940499999999999
 20
4.5
 30
0.0
 11
6.940499999999999
 21
4.437999999999999
 31
0.0
  0
LINE
  5
118E
330
1147
100
AcDbEntity
  8
1
100
AcDbLine
 10
6.980499999999999
 20
4.5
 30
0.0
 11
6.980499999999999
 21
4.437999999999999
 31
0.0
  0
LINE
  5
118F
330
1147
100
AcDbEntity
  8
1
100
AcDbLine
 10
6.375499999999998
 20
4.5
 30
0.0
 11
6.483499999999998
 21
4.5
 31
0.0
  0
LINE
  5
1190
330
1147
100
AcDbEntity
  8
1
100
AcDbLine
 10
6.375499999999998
 20
4.437999999999999
 30
0.0
 11
6.375499999999998
 21
4.5
 31
0.0
  0
LINE
  5
1191
330
1147
100
AcDbEntity
  8
1
100
AcDbLine
 10
6.437499999999999
 20
4.437999999999999
 30
0.0
 11
6.375499999999998
 21
4.437999999999999
 31
0.0
  0
LINE
  5
1192
330
1147
100
AcDbEntity
  8
1
100
AcDbLine
 10
6.513499999999998
 20
4.5
 30
0.0
 11
6.980499999999999
 21
4.5
 31
0.0
  0
LINE
  5
1193
330
1147
100
AcDbEntity
  8
1
100
AcDbLine
 10
5.203499999999999
 20
4.5
 30
0.0
 11
5.670499999999999
 21
4.5
 31
0.0
  0
LINE
  5
1194
330
1147
100
AcDbEntity
  8
1
100
AcDbLine
 10
5.127499999999999
 20
4.437999999999999
 30
0.0
 11
5.065499999999999
 21
4.437999999999999
 31
0.0
  0
LINE
  5
1195
330
1147
100
AcDbEntity
  8
1
100
AcDbLine
 10
5.065499999999999
 20
4.437999999999999
 30
0.0
 11
5.065499999999999
 21
4.5
 31
0.0
  0
LINE
  5
1196
330
1147
100
AcDbEntity
  8
1
100
AcDbLine
 10
5.065499999999999
 20
4.5
 30
0.0
 11
5.173499999999998
 21
4.5
 31
0.0
  0
LINE
  5
1197
330
1147
100
AcDbEntity
  8
1
100
AcDbLine
 10
5.670499999999999
 20
4.5
 30
0.0
 11
5.670499999999999
 21
4.437999999999999
 31
0.0
  0
LINE
  5
1198
330
1147
100
AcDbEntity
  8
1
100
AcDbLine
 10
5.630499999999999
 20
4.5
 30
0.0
 11
5.630499999999999
 21
4.437999999999999
 31
0.0
  0
LINE
  5
1199
330
1147
100
AcDbEntity
  8
1
100
AcDbLine
 10
5.630499999999999
 20
4.437999999999999
 30
0.0
 11
5.265499999999999
 21
4.437999999999999
 31
0.0
  0
LINE
  5
119A
330
1147
100
AcDbEntity
  8
1
100
AcDbLine
 10
5.265499999999999
 20
4.437999999999999
 30
0.0
 11
5.203499999999999
 21
4.5
 31
0.0
  0
LINE
  5
119B
330
1147
100
AcDbEntity
  8
1
100
AcDbLine
 10
5.090499999999999
 20
4.484999999999999
 30
0.0
 11
5.090499999999999
 21
4.456753857562439
 31
0.0
  0
LINE
  5
119C
330
1147
100
AcDbEntity
  8
1
100
AcDbLine
 10
5.188499999999999
 20
4.484999999999999
 30
0.0
 11
5.090499999999999
 21
4.484999999999999
 31
0.0
  0
LINE
  5
119D
330
1147
100
AcDbEntity
  8
1
100
AcDbLine
 10
5.203499999999999
 20
4.5
 30
0.0
 11
5.188499999999999
 21
4.484999999999999
 31
0.0
  0
LINE
  5
119E
330
1147
100
AcDbEntity
  8
1
100
AcDbLine
 10
1.062
 20
1.562
 30
0.0
 11
1.562999999999999
 21
1.562
 31
0.0
  0
LINE
  5
119F
330
1147
100
AcDbEntity
  8
4
100
AcDbLine
 10
1.872866710308013
 20
1.373999999999999
 30
0.0
 11
1.934866710308013
 21
1.373999999999999
 31
0.0
  0
CIRCLE
  5
11A0
330
1147
100
AcDbEntity
  8
4
100
AcDbCircle
 10
2.028866710308013
 20
1.373999999999999
 30
0.0
 40
0.094
  0
LINE
  5
11A1
330
1147
100
AcDbEntity
  8
4
100
AcDbLine
 10
1.778866710308013
 20
1.467999999999999
 30
0.0
 11
1.778866710308013
 21
1.592999999999999
 31
0.0
  0
CIRCLE
  5
11A2
330
1147
100
AcDbEntity
  8
4
100
AcDbCircle
 10
1.778866710308013
 20
1.373999999999999
 30
0.0
 40
0.094
  0
CIRCLE
  5
11A3
330
1147
100
AcDbEntity
  8
4
100
AcDbCircle
 10
1.9375
 20
4.312
 30
0.0
 40
0.094
  0
LINE
  5
11A4
330
1147
100
AcDbEntity
  8
4
100
AcDbLine
 10
1.9375
 20
4.406
 30
0.0
 11
1.9375
 21
4.531
 31
0.0
  0
LINE
  5
11A5
330
1147
100
AcDbEntity
  8
1
100
AcDbLine
 10
2.499999999999999
 20
1.562
 30
0.0
 11
2.312
 21
1.562
 31
0.0
  0
LINE
  5
11A6
330
1147
100
AcDbEntity
  8
1
100
AcDbLine
 10
2.625
 20
4.438
 30
0.0
 11
2.813
 21
4.438
 31
0.0
  0
LINE
  5
11A7
330
1147
100
AcDbEntity
  8
1
100
AcDbLine
 10
2.875
 20
1.5
 30
0.0
 11
2.875
 21
4.5
 31
0.0
  0
LINE
  5
11A8
330
1147
100
AcDbEntity
  8
1
100
AcDbLine
 10
2.25
 20
1.5
 30
0.0
 11
2.25
 21
4.5
 31
0.0
  0
LINE
  5
11A9
330
1147
100
AcDbEntity
  8
1
100
AcDbLine
 10
1.625
 20
1.5
 30
0.0
 11
1.625
 21
4.5
 31
0.0
  0
LINE
  5
11AA
330
1147
100
AcDbEntity
  8
1
100
AcDbLine
 10
3.437999999999999
 20
1.562
 30
0.0
 11
2.937
 21
1.562
 31
0.0
  0
LINE
  5
11AB
330
1147
100
AcDbEntity
  8
1
100
AcDbLine
 10
3.438
 20
4.438
 30
0.0
 11
3.438
 21
3.03100587855713
 31
0.0
  0
LINE
  5
11AC
330
1147
100
AcDbEntity
  8
1
100
AcDbLine
 10
2.937
 20
4.438
 30
0.0
 11
3.438
 21
4.438
 31
0.0
  0
LINE
  5
11AD
330
1147
100
AcDbEntity
  8
1
100
AcDbLine
 10
2.937
 20
1.562
 30
0.0
 11
2.937
 21
2.96900587855713
 31
0.0
  0
LINE
  5
11AE
330
1147
100
AcDbEntity
  8
1
100
AcDbLine
 10
2.812999999999999
 20
1.562
 30
0.0
 11
2.625
 21
1.562
 31
0.0
  0
LINE
  5
11AF
330
1147
100
AcDbEntity
  8
1
100
AcDbLine
 10
2.813
 20
4.438
 30
0.0
 11
2.813
 21
3.03100587855713
 31
0.0
  0
LINE
  5
11B0
330
1147
100
AcDbEntity
  8
1
100
AcDbLine
 10
2.312
 20
4.438
 30
0.0
 11
2.5
 21
4.438
 31
0.0
  0
LINE
  5
11B1
330
1147
100
AcDbEntity
  8
1
100
AcDbLine
 10
2.312
 20
1.562
 30
0.0
 11
2.312
 21
2.96900587855713
 31
0.0
  0
LINE
  5
11B2
330
1147
100
AcDbEntity
  8
1
100
AcDbLine
 10
2.187999999999999
 20
1.562
 30
0.0
 11
1.687
 21
1.562
 31
0.0
  0
LINE
  5
11B3
330
1147
100
AcDbEntity
  8
1
100
AcDbLine
 10
2.188
 20
4.438
 30
0.0
 11
2.188
 21
3.03100587855713
 31
0.0
  0
LINE
  5
11B4
330
1147
100
AcDbEntity
  8
1
100
AcDbLine
 10
1.687
 20
4.438
 30
0.0
 11
2.188
 21
4.438
 31
0.0
  0
LINE
  5
11B5
330
1147
100
AcDbEntity
  8
1
100
AcDbLine
 10
1.687
 20
1.562
 30
0.0
 11
1.687
 21
2.96900587855713
 31
0.0
  0
LINE
  5
11B6
330
1147
100
AcDbEntity
  8
1
100
AcDbLine
 10
1.563
 20
4.438
 30
0.0
 11
1.562999999999999
 21
3.03100587855713
 31
0.0
  0
LINE
  5
11B7
330
1147
100
AcDbEntity
  8
1
100
AcDbLine
 10
1.062
 20
4.438
 30
0.0
 11
1.563
 21
4.438
 31
0.0
  0
LINE
  5
11B8
330
1147
100
AcDbEntity
  8
1
100
AcDbLine
 10
1.062
 20
1.562
 30
0.0
 11
1.062
 21
2.96900587855713
 31
0.0
  0
INSERT
  5
11B9
330
1147
100
AcDbEntity
  8
4
100
AcDbBlockReference
  2
ARRO
 10
7.625
 20
0.9999999999999998
 30
0.0
 50
180.0
  0
INSERT
  5
11BA
330
1147
100
AcDbEntity
  8
4
100
AcDbBlockReference
  2
ARRO
 10
6.375
 20
0.9999999999999998
 30
0.0
  0
INSERT
  5
11BB
330
1147
100
AcDbEntity
  8
4
100
AcDbBlockReference
  2
ARRO
 10
5.75
 20
0.9999999999999998
 30
0.0
  0
INSERT
  5
11BC
330
1147
100
AcDbEntity
  8
4
100
AcDbBlockReference
  2
ARRO
 10
5.69
 20
0.9999999999999998
 30
0.0
 50
180.0
  0
INSERT
  5
11BD
330
1147
100
AcDbEntity
  8
4
100
AcDbBlockReference
  2
ARRO
 10
5.065
 20
0.9999999999999998
 30
0.0
  0
LINE
  5
11BE
330
1147
100
AcDbEntity
  8
4
100
AcDbLine
 10
6.375
 20
0.9999999999999998
 30
0.0
 11
7.625
 21
0.9999999999999998
 31
0.0
  0
LINE
  5
11BF
330
1147
100
AcDbEntity
  8
4
100
AcDbLine
 10
5.75
 20
0.9999999999999998
 30
0.0
 11
6.0
 21
0.9999999999999998
 31
0.0
  0
LINE
  5
11C0
330
1147
100
AcDbEntity
  8
4
100
AcDbLine
 10
5.69
 20
0.9999999999999998
 30
0.0
 11
5.065
 21
0.9999999999999998
 31
0.0
  0
INSERT
  5
11C1
330
1147
100
AcDbEntity
  8
4
100
AcDbBlockReference
  2
ARRO
 10
4.5625
 20
1.5
 30
0.0
 50
90.0
  0
INSERT
  5
11C2
330
1147
100
AcDbEntity
  8
4
100
AcDbBlockReference
  2
ARRO
 10
4.5625
 20
4.5
 30
0.0
 50
270.0
  0
LINE
  5
11C3
330
1147
100
AcDbEntity
  8
4
100
AcDbLine
 10
5.0025
 20
4.5
 30
0.0
 11
4.5025
 21
4.5
 31
0.0
  0
LINE
  5
11C4
330
1147
100
AcDbEntity
  8
4
100
AcDbLine
 10
4.5625
 20
1.5
 30
0.0
 11
4.5625
 21
4.5
 31
0.0
  0
LINE
  5
11C5
330
1147
100
AcDbEntity
  8
4
100
AcDbLine
 10
5.0025
 20
1.5
 30
0.0
 11
4.5025
 21
1.5
 31
0.0
  0
INSERT
  5
11C6
330
1147
100
AcDbEntity
  8
4
100
AcDbBlockReference
  2
ARRO
 10
3.499999999999999
 20
0.9999999999999998
 30
0.0
 50
180.0
  0
INSERT
  5
11C7
330
1147
100
AcDbEntity
  8
4
100
AcDbBlockReference
  2
ARRO
 10
0.9999999999999998
 20
1.0
 30
0.0
  0
LINE
  5
11C8
330
1147
100
AcDbEntity
  8
4
100
AcDbLine
 10
3.499999999999999
 20
1.0
 30
0.0
 11
0.9999999999999998
 21
1.0
 31
0.0
  0
LINE
  5
11C9
330
1147
100
AcDbEntity
  8
4
100
AcDbLine
 10
3.499999999999999
 20
1.437999999999999
 30
0.0
 11
3.499999999999999
 21
0.9379999999999999
 31
0.0
  0
LINE
  5
11CA
330
1147
100
AcDbEntity
  8
4
100
AcDbLine
 10
1.0
 20
1.437999999999999
 30
0.0
 11
0.9999999999999998
 21
0.9379999999999999
 31
0.0
  0
LINE
  5
11CB
330
1147
100
AcDbEntity
  8
1
100
AcDbLine
 10
5.69
 20
1.5
 30
0.0
 11
5.69
 21
4.5
 31
0.0
  0
LINE
  5
11CC
330
1147
100
AcDbEntity
  8
1
100
AcDbLine
 10
5.75
 20
4.75
 30
0.0
 11
5.875
 21
4.875
 31
0.0
  0
LINE
  5
11CD
330
1147
100
AcDbEntity
  8
1
100
AcDbLine
 10
5.75
 20
4.625
 30
0.0
 11
5.937999999999999
 21
4.812999999999999
 31
0.0
  0
LINE
  5
11CE
330
1147
100
AcDbEntity
  8
1
100
AcDbLine
 10
5.75
 20
4.5
 30
0.0
 11
5.937999999999999
 21
4.687999999999999
 31
0.0
  0
LINE
  5
11CF
330
1147
100
AcDbEntity
  8
1
100
AcDbLine
 10
5.75
 20
4.375
 30
0.0
 11
5.937999999999999
 21
4.562999999999999
 31
0.0
  0
LINE
  5
11D0
330
1147
100
AcDbEntity
  8
1
100
AcDbLine
 10
5.75
 20
4.25
 30
0.0
 11
5.937999999999999
 21
4.437999999999999
 31
0.0
  0
LINE
  5
11D1
330
1147
100
AcDbEntity
  8
1
100
AcDbLine
 10
5.75
 20
4.125
 30
0.0
 11
5.937999999999999
 21
4.312999999999999
 31
0.0
  0
LINE
  5
11D2
330
1147
100
AcDbEntity
  8
1
100
AcDbLine
 10
5.75
 20
4.0
 30
0.0
 11
5.937999999999999
 21
4.187999999999999
 31
0.0
  0
LINE
  5
11D3
330
1147
100
AcDbEntity
  8
1
100
AcDbLine
 10
5.75
 20
3.875
 30
0.0
 11
5.937999999999999
 21
4.062999999999999
 31
0.0
  0
LINE
  5
11D4
330
1147
100
AcDbEntity
  8
1
100
AcDbLine
 10
5.75
 20
3.75
 30
0.0
 11
5.937999999999999
 21
3.937999999999999
 31
0.0
  0
LINE
  5
11D5
330
1147
100
AcDbEntity
  8
1
100
AcDbLine
 10
5.75
 20
3.625
 30
0.0
 11
5.937999999999999
 21
3.812999999999999
 31
0.0
  0
LINE
  5
11D6
330
1147
100
AcDbEntity
  8
1
100
AcDbLine
 10
5.75
 20
3.5
 30
0.0
 11
5.937999999999999
 21
3.687999999999999
 31
0.0
  0
LINE
  5
11D7
330
1147
100
AcDbEntity
  8
1
100
AcDbLine
 10
5.75
 20
3.375
 30
0.0
 11
5.937999999999999
 21
3.562999999999999
 31
0.0
  0
LINE
  5
11D8
330
1147
100
AcDbEntity
  8
1
100
AcDbLine
 10
5.75
 20
3.25
 30
0.0
 11
5.937999999999999
 21
3.437999999999999
 31
0.0
  0
LINE
  5
11D9
330
1147
100
AcDbEntity
  8
1
100
AcDbLine
 10
5.75
 20
3.125
 30
0.0
 11
5.937999999999999
 21
3.312999999999999
 31
0.0
  0
LINE
  5
11DA
330
1147
100
AcDbEntity
  8
1
100
AcDbLine
 10
5.75
 20
3.0
 30
0.0
 11
5.937999999999999
 21
3.187999999999999
 31
0.0
  0
LINE
  5
11DB
330
1147
100
AcDbEntity
  8
1
100
AcDbLine
 10
5.75
 20
2.875
 30
0.0
 11
5.937999999999999
 21
3.062999999999999
 31
0.0
  0
LINE
  5
11DC
330
1147
100
AcDbEntity
  8
1
100
AcDbLine
 10
5.75
 20
2.75
 30
0.0
 11
5.937999999999999
 21
2.937999999999999
 31
0.0
  0
LINE
  5
11DD
330
1147
100
AcDbEntity
  8
1
100
AcDbLine
 10
5.75
 20
2.625
 30
0.0
 11
5.937999999999999
 21
2.812999999999999
 31
0.0
  0
LINE
  5
11DE
330
1147
100
AcDbEntity
  8
1
100
AcDbLine
 10
5.75
 20
2.5
 30
0.0
 11
5.937999999999999
 21
2.687999999999999
 31
0.0
  0
LINE
  5
11DF
330
1147
100
AcDbEntity
  8
1
100
AcDbLine
 10
5.75
 20
2.375
 30
0.0
 11
5.937999999999999
 21
2.562999999999999
 31
0.0
  0
LINE
  5
11E0
330
1147
100
AcDbEntity
  8
1
100
AcDbLine
 10
5.75
 20
2.25
 30
0.0
 11
5.937999999999999
 21
2.437999999999999
 31
0.0
  0
LINE
  5
11E1
330
1147
100
AcDbEntity
  8
1
100
AcDbLine
 10
5.75
 20
2.125
 30
0.0
 11
5.937999999999999
 21
2.312999999999999
 31
0.0
  0
LINE
  5
11E2
330
1147
100
AcDbEntity
  8
1
100
AcDbLine
 10
5.75
 20
2.0
 30
0.0
 11
5.937999999999999
 21
2.187999999999999
 31
0.0
  0
LINE
  5
11E3
330
1147
100
AcDbEntity
  8
1
100
AcDbLine
 10
5.75
 20
1.625
 30
0.0
 11
5.937999999999999
 21
1.812999999999999
 31
0.0
  0
LINE
  5
11E4
330
1147
100
AcDbEntity
  8
1
100
AcDbLine
 10
5.75
 20
1.5
 30
0.0
 11
5.937999999999999
 21
1.687999999999999
 31
0.0
  0
LINE
  5
11E5
330
1147
100
AcDbEntity
  8
1
100
AcDbLine
 10
2.625
 20
2.379974179311579
 30
0.0
 11
2.624999999999999
 21
1.375
 31
0.0
  0
LINE
  5
11E6
330
1147
100
AcDbEntity
  8
1
100
AcDbLine
 10
2.625
 20
2.782474179311579
 30
0.0
 11
2.625
 21
2.469974179311579
 31
0.0
  0
LINE
  5
11E7
330
1147
100
AcDbEntity
  8
1
100
AcDbLine
 10
2.625
 20
3.625967704151865
 30
0.0
 11
2.625
 21
2.782474179311579
 31
0.0
  0
LINE
  5
11E8
330
1147
100
AcDbEntity
  8
1
100
AcDbLine
 10
2.58
 20
3.664974179311579
 30
0.0
 11
2.669999999999999
 21
3.574974179311579
 31
0.0
  0
LINE
  5
11E9
330
1147
100
AcDbEntity
  8
1
100
AcDbLine
 10
2.669999999999999
 20
3.664974179311579
 30
0.0
 11
2.58
 21
3.664974179311579
 31
0.0
  0
LINE
  5
11EA
330
1147
100
AcDbEntity
  8
1
100
AcDbLine
 10
2.58
 20
3.754974179311579
 30
0.0
 11
2.669999999999999
 21
3.664974179311579
 31
0.0
  0
LINE
  5
11EB
330
1147
100
AcDbEntity
  8
1
100
AcDbLine
 10
2.579999999999999
 20
2.424974179311579
 30
0.0
 11
2.669999999999999
 21
2.334974179311579
 31
0.0
  0
LINE
  5
11EC
330
1147
100
AcDbEntity
  8
1
100
AcDbLine
 10
2.669999999999999
 20
2.424974179311579
 30
0.0
 11
2.579999999999999
 21
2.424974179311579
 31
0.0
  0
LINE
  5
11ED
330
1147
100
AcDbEntity
  8
1
100
AcDbLine
 10
2.579999999999999
 20
2.514974179311579
 30
0.0
 11
2.669999999999999
 21
2.424974179311579
 31
0.0
  0
LINE
  5
11EE
330
1147
100
AcDbEntity
  8
1
100
AcDbLine
 10
2.499999999999999
 20
1.754974179311579
 30
0.0
 11
2.499999999999999
 21
1.375
 31
0.0
  0
LINE
  5
11EF
330
1147
100
AcDbEntity
  8
1
100
AcDbLine
 10
2.5
 20
2.469974179311579
 30
0.0
 11
2.499999999999999
 21
1.844974179311579
 31
0.0
  0
LINE
  5
11F0
330
1147
100
AcDbEntity
  8
1
100
AcDbLine
 10
2.5
 20
3.004974179311579
 30
0.0
 11
2.5
 21
2.469974179311579
 31
0.0
  0
LINE
  5
11F1
330
1147
100
AcDbEntity
  8
1
100
AcDbLine
 10
2.454999999999999
 20
1.889974179311579
 30
0.0
 11
2.544999999999999
 21
1.799974179311579
 31
0.0
  0
LINE
  5
11F2
330
1147
100
AcDbEntity
  8
1
100
AcDbLine
 10
2.544999999999999
 20
1.799974179311579
 30
0.0
 11
2.454999999999999
 21
1.799974179311579
 31
0.0
  0
LINE
  5
11F3
330
1147
100
AcDbEntity
  8
1
100
AcDbLine
 10
2.454999999999999
 20
1.799974179311579
 30
0.0
 11
2.544999999999999
 21
1.709974179311579
 31
0.0
  0
LINE
  5
11F4
330
1147
100
AcDbEntity
  8
1
100
AcDbLine
 10
2.454999999999999
 20
3.139974179311579
 30
0.0
 11
2.544999999999999
 21
3.049974179311579
 31
0.0
  0
LINE
  5
11F5
330
1147
100
AcDbEntity
  8
1
100
AcDbLine
 10
2.544999999999999
 20
3.049974179311579
 30
0.0
 11
2.454999999999999
 21
3.049974179311579
 31
0.0
  0
LINE
  5
11F6
330
1147
100
AcDbEntity
  8
1
100
AcDbLine
 10
2.454999999999999
 20
3.049974179311579
 30
0.0
 11
2.544999999999999
 21
2.959974179311579
 31
0.0
  0
LINE
  5
11F7
330
1147
100
AcDbEntity
  8
1
100
AcDbLine
 10
2.512196030826982
 20
4.242778148484597
 30
0.0
 11
2.512196030826982
 21
3.07567852914767
 31
0.0
  0
LINE
  5
11F8
330
1147
100
AcDbEntity
  8
1
100
AcDbLine
 10
2.455
 20
4.299974179311579
 30
0.0
 11
2.544999999999999
 21
4.209974179311579
 31
0.0
  0
LINE
  5
11F9
330
1147
100
AcDbEntity
  8
1
100
AcDbLine
 10
2.544999999999999
 20
4.299974179311579
 30
0.0
 11
2.455
 21
4.299974179311579
 31
0.0
  0
LINE
  5
11FA
330
1147
100
AcDbEntity
  8
1
100
AcDbLine
 10
2.455
 20
4.389974179311579
 30
0.0
 11
2.544999999999999
 21
4.299974179311579
 31
0.0
  0
LINE
  5
11FB
330
1147
100
AcDbEntity
  8
1
100
AcDbLine
 10
2.5
 20
4.625
 30
0.0
 11
2.5
 21
4.344974179311579
 31
0.0
  0
LINE
  5
11FC
330
1147
100
AcDbEntity
  8
1
100
AcDbLine
 10
2.625
 20
4.625
 30
0.0
 11
2.625
 21
3.709974179311579
 31
0.0
  0
CIRCLE
  5
11FD
330
1147
100
AcDbEntity
  8
1
100
AcDbCircle
 10
4.125
 20
0.5
 30
0.0
 40
0.1875
  0
LINE
  5
11FE
330
1147
100
AcDbEntity
  8
1
100
AcDbLine
 10
5.75
 20
1.5
 30
0.0
 11
5.75
 21
4.875
 31
0.0
  0
LINE
  5
11FF
330
1147
100
AcDbEntity
  8
1
100
AcDbLine
 10
7.0
 20
1.5
 30
0.0
 11
7.0
 21
4.5
 31
0.0
  0
LINE
  5
1200
330
1147
100
AcDbEntity
  8
1
100
AcDbLine
 10
3.499999999999999
 20
1.5
 30
0.0
 11
2.624999999999999
 21
1.5
 31
0.0
  0
LINE
  5
1201
330
1147
100
AcDbEntity
  8
1
100
AcDbLine
 10
3.5
 20
4.5
 30
0.0
 11
3.499999999999999
 21
1.5
 31
0.0
  0
LINE
  5
1202
330
1147
100
AcDbEntity
  8
1
100
AcDbLine
 10
2.625
 20
4.5
 30
0.0
 11
3.5
 21
4.5
 31
0.0
  0
LINE
  5
1203
330
1147
100
AcDbEntity
  8
1
100
AcDbLine
 10
1.0
 20
4.5
 30
0.0
 11
2.5
 21
4.5
 31
0.0
  0
LINE
  5
1204
330
1147
100
AcDbEntity
  8
1
100
AcDbLine
 10
1.0
 20
1.5
 30
0.0
 11
1.0
 21
4.5
 31
0.0
  0
LINE
  5
1205
330
1147
100
AcDbEntity
  8
1
100
AcDbLine
 10
1.0
 20
1.5
 30
0.0
 11
2.5
 21
1.5
 31
0.0
  0
LINE
  5
1206
330
1147
100
AcDbEntity
  8
1
100
AcDbLine
 10
0.0
 20
5.25
 30
0.0
 11
0.0
 21
0.0
 31
0.0
  0
LINE
  5
1207
330
1147
100
AcDbEntity
  8
1
100
AcDbLine
 10
8.25
 20
5.25
 30
0.0
 11
0.0
 21
5.25
 31
0.0
  0
LINE
  5
1208
330
1147
100
AcDbEntity
  8
1
100
AcDbLine
 10
8.25
 20
0.0
 30
0.0
 11
8.25
 21
5.25
 31
0.0
  0
LINE
  5
1209
330
1147
100
AcDbEntity
  8
1
100
AcDbLine
 10
0.0
 20
0.0
 30
0.0
 11
8.25
 21
0.0
 31
0.0
  0
LINE
  5
120A
330
1147
100
AcDbEntity
  8
1
100
AcDbLine
 10
1.062
 20
3.03100587855713
 30
0.0
 11
1.062
 21
4.438
 31
0.0
  0
LINE
  5
120B
330
1147
100
AcDbEntity
  8
1
100
AcDbLine
 10
1.562999999999999
 20
2.96900587855713
 30
0.0
 11
1.562999999999999
 21
1.562
 31
0.0
  0
LINE
  5
120C
330
1147
100
AcDbEntity
  8
1
100
AcDbLine
 10
1.687
 20
3.03100587855713
 30
0.0
 11
1.687
 21
4.438
 31
0.0
  0
LINE
  5
120D
330
1147
100
AcDbEntity
  8
1
100
AcDbLine
 10
2.187999999999999
 20
2.96900587855713
 30
0.0
 11
2.187999999999999
 21
1.562
 31
0.0
  0
LINE
  5
120E
330
1147
100
AcDbEntity
  8
1
100
AcDbLine
 10
2.312
 20
3.03100587855713
 30
0.0
 11
2.312
 21
4.438
 31
0.0
  0
LINE
  5
120F
330
1147
100
AcDbEntity
  8
1
100
AcDbLine
 10
2.812999999999999
 20
2.96900587855713
 30
0.0
 11
2.812999999999999
 21
1.562
 31
0.0
  0
LINE
  5
1210
330
1147
100
AcDbEntity
  8
1
100
AcDbLine
 10
2.937
 20
3.03100587855713
 30
0.0
 11
2.937
 21
4.438
 31
0.0
  0
LINE
  5
1211
330
1147
100
AcDbEntity
  8
1
100
AcDbLine
 10
3.437999999999999
 20
2.96900587855713
 30
0.0
 11
3.437999999999999
 21
1.562
 31
0.0
  0
ENDBLK
  5
1213
330
1147
100
AcDbEntity
  8
0
100
AcDbBlockEnd
  0
BLOCK
  5
1217
330
1215
100
AcDbEntity
  8
4
100
AcDbBlockBegin
  2
A1
 70
     0
 10
0.0
 20
0.0
 30
0.0
  3
A1
  1

  0
INSERT
  5
1216
330
1215
100
AcDbEntity
  8
2
100
AcDbBlockReference
  2
LE029
 10
-0.0187499999999998
 20
-0.0374999999999997
 30
0.0
  0
ENDBLK
  5
1218
330
1215
100
AcDbEntity
  8
4
100
AcDbBlockEnd
  0
BLOCK
  5
133C
330
1219
100
AcDbEntity
  8
0
100
AcDbBlockBegin
  2
Le1038
 70
     0
 10
0.0
 20
0.0
 30
0.0
  3
Le1038
  1

  0
INSERT
  5
121A
330
1219
100
AcDbEntity
  8
4
100
AcDbBlockReference
  2
A1
 10
7.407185503170871
 20
1.629287141945811
 30
0.0
 50
180.0
  0
INSERT
  5
121B
330
1219
100
AcDbEntity
  8
4
100
AcDbBlockReference
  2
A1
 10
6.86818550317087
 20
1.629287141945811
 30
0.0
 50
180.0
  0
INSERT
  5
121C
330
1219
100
AcDbEntity
  8
4
100
AcDbBlockReference
  2
A1
 10
7.407185503170871
 20
2.136425926908309
 30
0.0
 50
180.0
  0
INSERT
  5
121D
330
1219
100
AcDbEntity
  8
4
100
AcDbBlockReference
  2
A1
 10
6.86818550317087
 20
2.136425926908309
 30
0.0
 50
180.0
  0
INSERT
  5
121E
330
1219
100
AcDbEntity
  8
4
100
AcDbBlockReference
  2
A1
 10
7.407185503170871
 20
3.366107560992425
 30
0.0
 50
180.0
  0
INSERT
  5
121F
330
1219
100
AcDbEntity
  8
4
100
AcDbBlockReference
  2
A1
 10
6.86818550317087
 20
3.366107560992425
 30
0.0
 50
180.0
  0
INSERT
  5
1220
330
1219
100
AcDbEntity
  8
4
100
AcDbBlockReference
  2
A1
 10
7.407185503170871
 20
3.942818807359127
 30
0.0
 50
180.0
  0
INSERT
  5
1221
330
1219
100
AcDbEntity
  8
4
100
AcDbBlockReference
  2
A1
 10
6.86818550317087
 20
3.942818807359127
 30
0.0
 50
180.0
  0
INSERT
  5
1222
330
1219
100
AcDbEntity
  8
4
100
AcDbBlockReference
  2
A1
 10
7.132185503170872
 20
4.292103523037241
 30
0.0
  0
INSERT
  5
1223
330
1219
100
AcDbEntity
  8
4
100
AcDbBlockReference
  2
A1
 10
7.132185503170872
 20
3.773715382400034
 30
0.0
  0
INSERT
  5
1224
330
1219
100
AcDbEntity
  8
4
100
AcDbBlockReference
  2
A1
 10
7.132185503170872
 20
3.193215382400034
 30
0.0
  0
INSERT
  5
1225
330
1219
100
AcDbEntity
  8
4
100
AcDbBlockReference
  2
A1
 10
7.132185503170872
 20
2.848215382400034
 30
0.0
  0
INSERT
  5
1226
330
1219
100
AcDbEntity
  8
4
100
AcDbBlockReference
  2
A1
 10
7.132185503170872
 20
2.544033748315918
 30
0.0
  0
INSERT
  5
1227
330
1219
100
AcDbEntity
  8
4
100
AcDbBlockReference
  2
A1
 10
7.132185503170872
 20
1.978571857623926
 30
0.0
  0
INSERT
  5
1228
330
1219
100
AcDbEntity
  8
4
100
AcDbBlockReference
  2
A1
 10
6.593185503170872
 20
1.978571857623926
 30
0.0
  0
INSERT
  5
1229
330
1219
100
AcDbEntity
  8
4
100
AcDbBlockReference
  2
A1
 10
6.593185503170872
 20
2.544033748315918
 30
0.0
  0
INSERT
  5
122A
330
1219
100
AcDbEntity
  8
4
100
AcDbBlockReference
  2
A1
 10
6.593185503170872
 20
2.848215382400034
 30
0.0
  0
INSERT
  5
122B
330
1219
100
AcDbEntity
  8
4
100
AcDbBlockReference
  2
A1
 10
6.593185503170872
 20
3.193215382400034
 30
0.0
  0
INSERT
  5
122C
330
1219
100
AcDbEntity
  8
4
100
AcDbBlockReference
  2
A1
 10
6.593185503170872
 20
3.773715382400034
 30
0.0
  0
INSERT
  5
122D
330
1219
100
AcDbEntity
  8
4
100
AcDbBlockReference
  2
A1
 10
6.593185503170872
 20
4.292103523037241
 30
0.0
  0
INSERT
  5
122E
330
1219
100
AcDbEntity
  8
4
100
AcDbBlockReference
  2
A1
 10
5.558185503170871
 20
3.942818807359127
 30
0.0
 50
180.0
  0
INSERT
  5
122F
330
1219
100
AcDbEntity
  8
4
100
AcDbBlockReference
  2
A1
 10
5.558185503170871
 20
3.366107560992425
 30
0.0
 50
180.0
  0
INSERT
  5
1230
330
1219
100
AcDbEntity
  8
4
100
AcDbBlockReference
  2
A1
 10
5.558185503170871
 20
2.136425926908309
 30
0.0
 50
180.0
  0
INSERT
  5
1231
330
1219
100
AcDbEntity
  8
4
100
AcDbBlockReference
  2
A1
 10
5.558185503170871
 20
1.629287141945811
 30
0.0
 50
180.0
  0
INSERT
  5
1232
330
1219
100
AcDbEntity
  8
4
100
AcDbBlockReference
  2
A1
 10
5.283185503170872
 20
1.978571857623926
 30
0.0
  0
INSERT
  5
1233
330
1219
100
AcDbEntity
  8
4
100
AcDbBlockReference
  2
A1
 10
5.283185503170872
 20
2.544033748315918
 30
0.0
  0
INSERT
  5
1234
330
1219
100
AcDbEntity
  8
4
100
AcDbBlockReference
  2
A1
 10
5.283185503170872
 20
2.848215382400034
 30
0.0
  0
INSERT
  5
1235
330
1219
100
AcDbEntity
  8
4
100
AcDbBlockReference
  2
A1
 10
5.283185503170872
 20
3.193215382400034
 30
0.0
  0
INSERT
  5
1236
330
1219
100
AcDbEntity
  8
4
100
AcDbBlockReference
  2
A1
 10
5.283185503170872
 20
3.773715382400034
 30
0.0
  0
INSERT
  5
1237
330
1219
100
AcDbEntity
  8
4
100
AcDbBlockReference
  2
A1
 10
5.283185503170872
 20
4.292103523037241
 30
0.0
  0
INSERT
  5
1238
330
1219
100
AcDbEntity
  8
4
100
AcDbBlockReference
  2
A1
 10
1.450759789033287
 20
3.991895832264235
 30
0.0
 50
180.0
  0
INSERT
  5
1239
330
1219
100
AcDbEntity
  8
4
100
AcDbBlockReference
  2
A1
 10
1.450759789033287
 20
3.147171487963206
 30
0.0
 50
180.0
  0
INSERT
  5
123A
330
1219
100
AcDbEntity
  8
4
100
AcDbBlockReference
  2
A1
 10
1.450759789033287
 20
2.522895832264235
 30
0.0
 50
180.0
  0
INSERT
  5
123B
330
1219
100
AcDbEntity
  8
4
100
AcDbBlockReference
  2
A1
 10
1.450759789033287
 20
1.678171487963207
 30
0.0
 50
180.0
  0
INSERT
  5
123C
330
1219
100
AcDbEntity
  8
4
100
AcDbBlockReference
  2
A1
 10
1.175759789033288
 20
2.053671487963207
 30
0.0
  0
INSERT
  5
123D
330
1219
100
AcDbEntity
  8
4
100
AcDbBlockReference
  2
A1
 10
1.175759789033288
 20
2.898395832264235
 30
0.0
  0
INSERT
  5
123E
330
1219
100
AcDbEntity
  8
4
100
AcDbBlockReference
  2
A1
 10
1.175759789033289
 20
3.522671487963207
 30
0.0
  0
INSERT
  5
123F
330
1219
100
AcDbEntity
  8
4
100
AcDbBlockReference
  2
A1
 10
1.175759789033289
 20
4.367395832264235
 30
0.0
  0
TEXT
  5
1240
330
1219
100
AcDbEntity
  8
8
100
AcDbText
 10
4.500499999999999
 20
2.183308798544902
 30
0.0
 40
0.07
  1
60
 50
90.0
 72
     1
 11
4.500499999999999
 21
2.235808798544902
 31
0.0
100
AcDbText
  0
TEXT
  5
1241
330
1219
100
AcDbEntity
  8
8
100
AcDbText
 10
4.750499999999999
 20
1.408070940053863
 30
0.0
 40
0.07
  1
1
 50
90.0
 72
     1
 11
4.750499999999999
 21
1.41973760672053
 31
0.0
100
AcDbText
  0
INSERT
  5
1242
330
1219
100
AcDbEntity
  8
2
100
AcDbBlockReference
 66
     1
  2
FRACTION
 10
4.8125
 20
2.325225149398199
 30
0.0
 41
0.6
 42
0.6
 43
0.6
 50
90.0
  0
ATTRIB
  5
1243
330
1242
100
AcDbEntity
  8
8
100
AcDbText
 10
4.754000000000002
 20
2.156478618629552
 30
0.0
 40
0.075
  1
29
 50
90.0
 72
     2
 11
4.754000000000002
 21
2.281478618629552
 31
0.0
100
AcDbAttribute
  2
A
 70
     0
  0
ATTRIB
  5
1244
330
1242
100
AcDbEntity
  8
8
100
AcDbText
 10
4.704500000000002
 20
2.358425149398199
 30
0.0
 40
0.06
  1
1
 50
90.0
 72
     1
 11
4.704500000000002
 21
2.368425149398198
 31
0.0
100
AcDbAttribute
  2
B
 70
     0
  0
ATTRIB
  5
1245
330
1242
100
AcDbEntity
  8
8
100
AcDbText
 10
4.7885
 20
2.348425149398198
 30
0.0
 40
0.06
  1
2
 50
90.0
 72
     1
 11
4.7885
 21
2.368425149398198
 31
0.0
100
AcDbAttribute
  2
C
 70
     0
  0
SEQEND
  5
1246
330
1242
100
AcDbEntity
  8
2
  0
INSERT
  5
1247
330
1219
100
AcDbEntity
  8
2
100
AcDbBlockReference
 66
     1
  2
FRACTION
 10
4.8125
 20
3.759700361922398
 30
0.0
 41
0.6
 42
0.6
 43
0.6
 50
90.0
  0
ATTRIB
  5
1248
330
1247
100
AcDbEntity
  8
8
100
AcDbText
 10
4.754000000000002
 20
3.590953831153751
 30
0.0
 40
0.075
  1
29
 50
90.0
 72
     2
 11
4.754000000000002
 21
3.715953831153751
 31
0.0
100
AcDbAttribute
  2
A
 70
     0
  0
ATTRIB
  5
1249
330
1247
100
AcDbEntity
  8
8
100
AcDbText
 10
4.704500000000002
 20
3.792900361922398
 30
0.0
 40
0.06
  1
1
 50
90.0
 72
     1
 11
4.704500000000002
 21
3.802900361922397
 31
0.0
100
AcDbAttribute
  2
B
 70
     0
  0
ATTRIB
  5
124A
330
1247
100
AcDbEntity
  8
8
100
AcDbText
 10
4.7885
 20
3.782900361922397
 30
0.0
 40
0.06
  1
2
 50
90.0
 72
     1
 11
4.7885
 21
3.802900361922397
 31
0.0
100
AcDbAttribute
  2
C
 70
     0
  0
SEQEND
  5
124B
330
1247
100
AcDbEntity
  8
2
  0
CIRCLE
  5
124C
330
1219
100
AcDbEntity
  8
4
100
AcDbCircle
 10
1.207234055463451
 20
2.265483801611809
 30
0.0
 40
0.023
  0
LWPOLYLINE
  5
124D
330
1219
100
AcDbEntity
  8
4
100
AcDbPolyline
 90
        2
 70
     1
 43
0.01
 10
1.202234055463451
 20
2.317983801611808
 42
1.0
 10
1.212234055463451
 20
2.317983801611808
 42
1.0
  0
LWPOLYLINE
  5
124E
330
1219
100
AcDbEntity
  8
4
100
AcDbPolyline
 90
        2
 70
     1
 43
0.01
 10
1.202234055463451
 20
2.212983801611808
 42
1.0
 10
1.212234055463451
 20
2.212983801611808
 42
1.0
  0
CIRCLE
  5
124F
330
1219
100
AcDbEntity
  8
4
100
AcDbCircle
 10
1.207234055463451
 20
3.734483801611808
 30
0.0
 40
0.023
  0
LWPOLYLINE
  5
1250
330
1219
100
AcDbEntity
  8
4
100
AcDbPolyline
 90
        2
 70
     1
 43
0.01
 10
1.202234055463451
 20
3.786983801611808
 42
1.0
 10
1.212234055463451
 20
3.786983801611808
 42
1.0
  0
LWPOLYLINE
  5
1251
330
1219
100
AcDbEntity
  8
4
100
AcDbPolyline
 90
        2
 70
     1
 43
0.01
 10
1.202234055463451
 20
3.681983801611808
 42
1.0
 10
1.212234055463451
 20
3.681983801611808
 42
1.0
  0
INSERT
  5
1252
330
1219
100
AcDbEntity
  8
8
100
AcDbBlockReference
  2
TEMP3
 10
0.5859118825233172
 20
3.936828065315101
 30
0.0
  0
LINE
  5
1253
330
1219
100
AcDbEntity
  8
4
100
AcDbLine
 10
4.8125
 20
1.5
 30
0.0
 11
4.8125
 21
1.375
 31
0.0
  0
LINE
  5
1254
330
1219
100
AcDbEntity
  8
4
100
AcDbLine
 10
5.0025
 20
1.562
 30
0.0
 11
4.8125
 21
1.562
 31
0.0
  0
LINE
  5
1255
330
1219
100
AcDbEntity
  8
4
100
AcDbLine
 10
4.8125
 20
1.562
 30
0.0
 11
4.750499999999999
 21
1.562
 31
0.0
  0
INSERT
  5
1256
330
1219
100
AcDbEntity
  8
4
100
AcDbBlockReference
  2
ARRO
 10
4.8125
 20
1.562
 30
0.0
 50
90.0
  0
INSERT
  5
1257
330
1219
100
AcDbEntity
  8
4
100
AcDbBlockReference
  2
ARRO
 10
4.8125
 20
1.5
 30
0.0
 50
270.0
  0
LINE
  5
1258
330
1219
100
AcDbEntity
  8
4
100
AcDbLine
 10
5.0655
 20
1.594
 30
0.0
 11
5.1275
 21
1.594
 31
0.0
  0
LINE
  5
1259
330
1219
100
AcDbEntity
  8
4
100
AcDbLine
 10
6.375499999999999
 20
1.594
 30
0.0
 11
6.4375
 21
1.594
 31
0.0
  0
LINE
  5
125A
330
1219
100
AcDbEntity
  8
4
100
AcDbLine
 10
7.6245
 20
1.594
 30
0.0
 11
7.5625
 21
1.594
 31
0.0
  0
LINE
  5
125B
330
1219
100
AcDbEntity
  8
4
100
AcDbLine
 10
7.6245
 20
2.93700587855713
 30
0.0
 11
7.6245
 21
1.594
 31
0.0
  0
LINE
  5
125C
330
1219
100
AcDbEntity
  8
4
100
AcDbLine
 10
6.375499999999999
 20
2.93700587855713
 30
0.0
 11
6.375499999999999
 21
1.594
 31
0.0
  0
LINE
  5
125D
330
1219
100
AcDbEntity
  8
4
100
AcDbLine
 10
5.0655
 20
2.93700587855713
 30
0.0
 11
5.0655
 21
1.594
 31
0.0
  0
LINE
  5
125E
330
1219
100
AcDbEntity
  8
4
100
AcDbLine
 10
4.8125
 20
4.5
 30
0.0
 11
4.8125
 21
1.562
 31
0.0
  0
LINE
  5
125F
330
1219
100
AcDbEntity
  8
4
100
AcDbLine
 10
7.301520109897515
 20
2.91104618398978
 30
0.0
 11
7.301520109897515
 21
2.84904618398978
 31
0.0
  0
LINE
  5
1260
330
1219
100
AcDbEntity
  8
4
100
AcDbLine
 10
7.332520109897515
 20
2.91104618398978
 30
0.0
 11
7.270520109897516
 21
2.91104618398978
 31
0.0
  0
LINE
  5
1261
330
1219
100
AcDbEntity
  8
4
100
AcDbLine
 10
7.0195
 20
2.874046183989781
 30
0.0
 11
7.0195
 21
2.92404618398978
 31
0.0
  0
ARC
  5
1262
330
1219
100
AcDbEntity
  8
4
100
AcDbCircle
 10
7.0445
 20
2.874046183989781
 30
0.0
 40
0.025
100
AcDbArc
 50
180.0
 51
0.0
  0
ARC
  5
1263
330
1219
100
AcDbEntity
  8
4
100
AcDbCircle
 10
6.9555
 20
2.874046183989781
 30
0.0
 40
0.025
100
AcDbArc
 50
180.0
 51
0.0
  0
LINE
  5
1264
330
1219
100
AcDbEntity
  8
4
100
AcDbLine
 10
6.9805
 20
2.874046183989781
 30
0.0
 11
6.9805
 21
2.92404618398978
 31
0.0
  0
LINE
  5
1265
330
1219
100
AcDbEntity
  8
4
100
AcDbLine
 10
6.667479890102485
 20
2.91104618398978
 30
0.0
 11
6.729479890102484
 21
2.91104618398978
 31
0.0
  0
LINE
  5
1266
330
1219
100
AcDbEntity
  8
4
100
AcDbLine
 10
6.698479890102484
 20
2.91104618398978
 30
0.0
 11
6.698479890102484
 21
2.84904618398978
 31
0.0
  0
LINE
  5
1267
330
1219
100
AcDbEntity
  8
4
100
AcDbLine
 10
5.388479890102485
 20
2.91104618398978
 30
0.0
 11
5.388479890102485
 21
2.84904618398978
 31
0.0
  0
LINE
  5
1268
330
1219
100
AcDbEntity
  8
4
100
AcDbLine
 10
5.357479890102485
 20
2.91104618398978
 30
0.0
 11
5.419479890102484
 21
2.91104618398978
 31
0.0
  0
LINE
  5
1269
330
1219
100
AcDbEntity
  8
4
100
AcDbLine
 10
5.6705
 20
2.874046183989781
 30
0.0
 11
5.6705
 21
2.92404618398978
 31
0.0
  0
ARC
  5
126A
330
1219
100
AcDbEntity
  8
4
100
AcDbCircle
 10
5.645500000000001
 20
2.874046183989781
 30
0.0
 40
0.025
100
AcDbArc
 50
180.0
 51
0.0
  0
LINE
  5
126B
330
1219
100
AcDbEntity
  8
4
100
AcDbLine
 10
6.375499999999999
 20
2.93700587855713
 30
0.0
 11
6.437499999999999
 21
2.93700587855713
 31
0.0
  0
LINE
  5
126C
330
1219
100
AcDbEntity
  8
4
100
AcDbLine
 10
7.5625
 20
2.93700587855713
 30
0.0
 11
7.624499999999999
 21
2.93700587855713
 31
0.0
  0
LINE
  5
126D
330
1219
100
AcDbEntity
  8
4
100
AcDbLine
 10
7.5625
 20
3.062961724666486
 30
0.0
 11
7.624499999999999
 21
3.062961724666486
 31
0.0
  0
LINE
  5
126E
330
1219
100
AcDbEntity
  8
4
100
AcDbLine
 10
6.375499999999998
 20
3.062961724666486
 30
0.0
 11
6.437499999999999
 21
3.062961724666486
 31
0.0
  0
LINE
  5
126F
330
1219
100
AcDbEntity
  8
4
100
AcDbLine
 10
5.0655
 20
2.93700587855713
 30
0.0
 11
5.1275
 21
2.93700587855713
 31
0.0
  0
LINE
  5
1270
330
1219
100
AcDbEntity
  8
4
100
AcDbLine
 10
5.0655
 20
3.062961724666487
 30
0.0
 11
5.127499999999999
 21
3.062961724666487
 31
0.0
  0
LINE
  5
1271
330
1219
100
AcDbEntity
  8
4
100
AcDbLine
 10
7.486500000000001
 20
3.03100587855713
 30
0.0
 11
7.0195
 21
3.03100587855713
 31
0.0
  0
LINE
  5
1272
330
1219
100
AcDbEntity
  8
4
100
AcDbLine
 10
7.5625
 20
2.96900587855713
 30
0.0
 11
7.624500000000001
 21
2.96900587855713
 31
0.0
  0
LINE
  5
1273
330
1219
100
AcDbEntity
  8
4
100
AcDbLine
 10
7.624500000000001
 20
2.96900587855713
 30
0.0
 11
7.624500000000001
 21
3.03100587855713
 31
0.0
  0
LINE
  5
1274
330
1219
100
AcDbEntity
  8
4
100
AcDbLine
 10
7.624500000000001
 20
3.03100587855713
 30
0.0
 11
7.516500000000001
 21
3.03100587855713
 31
0.0
  0
LINE
  5
1275
330
1219
100
AcDbEntity
  8
4
100
AcDbLine
 10
7.0195
 20
3.03100587855713
 30
0.0
 11
7.0195
 21
2.96900587855713
 31
0.0
  0
LINE
  5
1276
330
1219
100
AcDbEntity
  8
4
100
AcDbLine
 10
7.0595
 20
3.03100587855713
 30
0.0
 11
7.0595
 21
2.96900587855713
 31
0.0
  0
LINE
  5
1277
330
1219
100
AcDbEntity
  8
4
100
AcDbLine
 10
7.0595
 20
2.96900587855713
 30
0.0
 11
7.4245
 21
2.96900587855713
 31
0.0
  0
LINE
  5
1278
330
1219
100
AcDbEntity
  8
4
100
AcDbLine
 10
7.4245
 20
2.96900587855713
 30
0.0
 11
7.486500000000001
 21
3.03100587855713
 31
0.0
  0
LINE
  5
1279
330
1219
100
AcDbEntity
  8
4
100
AcDbLine
 10
7.5995
 20
3.016005878557129
 30
0.0
 11
7.5995
 21
2.98775973611957
 31
0.0
  0
LINE
  5
127A
330
1219
100
AcDbEntity
  8
4
100
AcDbLine
 10
7.5015
 20
3.016005878557129
 30
0.0
 11
7.5995
 21
3.016005878557129
 31
0.0
  0
LINE
  5
127B
330
1219
100
AcDbEntity
  8
4
100
AcDbLine
 10
7.486500000000001
 20
3.03100587855713
 30
0.0
 11
7.5015
 21
3.016005878557129
 31
0.0
  0
LINE
  5
127C
330
1219
100
AcDbEntity
  8
4
100
AcDbLine
 10
6.513499999999998
 20
3.03100587855713
 30
0.0
 11
6.498499999999999
 21
3.016005878557129
 31
0.0
  0
LINE
  5
127D
330
1219
100
AcDbEntity
  8
4
100
AcDbLine
 10
6.498499999999999
 20
3.016005878557129
 30
0.0
 11
6.400499999999999
 21
3.016005878557129
 31
0.0
  0
LINE
  5
127E
330
1219
100
AcDbEntity
  8
4
100
AcDbLine
 10
6.400499999999999
 20
3.016005878557129
 30
0.0
 11
6.400499999999999
 21
2.98775973611957
 31
0.0
  0
LINE
  5
127F
330
1219
100
AcDbEntity
  8
4
100
AcDbLine
 10
6.575499999999999
 20
2.96900587855713
 30
0.0
 11
6.513499999999998
 21
3.03100587855713
 31
0.0
  0
LINE
  5
1280
330
1219
100
AcDbEntity
  8
4
100
AcDbLine
 10
6.940499999999999
 20
2.96900587855713
 30
0.0
 11
6.575499999999999
 21
2.96900587855713
 31
0.0
  0
LINE
  5
1281
330
1219
100
AcDbEntity
  8
4
100
AcDbLine
 10
6.940499999999999
 20
3.03100587855713
 30
0.0
 11
6.940499999999999
 21
2.96900587855713
 31
0.0
  0
LINE
  5
1282
330
1219
100
AcDbEntity
  8
4
100
AcDbLine
 10
6.980499999999999
 20
3.03100587855713
 30
0.0
 11
6.980499999999999
 21
2.96900587855713
 31
0.0
  0
LINE
  5
1283
330
1219
100
AcDbEntity
  8
4
100
AcDbLine
 10
6.375499999999998
 20
3.03100587855713
 30
0.0
 11
6.483499999999998
 21
3.03100587855713
 31
0.0
  0
LINE
  5
1284
330
1219
100
AcDbEntity
  8
4
100
AcDbLine
 10
6.375499999999998
 20
2.96900587855713
 30
0.0
 11
6.375499999999998
 21
3.03100587855713
 31
0.0
  0
LINE
  5
1285
330
1219
100
AcDbEntity
  8
4
100
AcDbLine
 10
6.437499999999999
 20
2.96900587855713
 30
0.0
 11
6.375499999999998
 21
2.96900587855713
 31
0.0
  0
LINE
  5
1286
330
1219
100
AcDbEntity
  8
4
100
AcDbLine
 10
6.513499999999998
 20
3.03100587855713
 30
0.0
 11
6.980499999999999
 21
3.03100587855713
 31
0.0
  0
LINE
  5
1287
330
1219
100
AcDbEntity
  8
4
100
AcDbLine
 10
5.203499999999999
 20
3.03100587855713
 30
0.0
 11
5.670499999999999
 21
3.03100587855713
 31
0.0
  0
LINE
  5
1288
330
1219
100
AcDbEntity
  8
4
100
AcDbLine
 10
5.127499999999999
 20
2.96900587855713
 30
0.0
 11
5.065499999999999
 21
2.96900587855713
 31
0.0
  0
LINE
  5
1289
330
1219
100
AcDbEntity
  8
4
100
AcDbLine
 10
5.065499999999999
 20
2.96900587855713
 30
0.0
 11
5.065499999999999
 21
3.03100587855713
 31
0.0
  0
LINE
  5
128A
330
1219
100
AcDbEntity
  8
4
100
AcDbLine
 10
5.065499999999999
 20
3.03100587855713
 30
0.0
 11
5.173499999999998
 21
3.03100587855713
 31
0.0
  0
LINE
  5
128B
330
1219
100
AcDbEntity
  8
4
100
AcDbLine
 10
5.670499999999999
 20
3.03100587855713
 30
0.0
 11
5.670499999999999
 21
2.96900587855713
 31
0.0
  0
LINE
  5
128C
330
1219
100
AcDbEntity
  8
4
100
AcDbLine
 10
5.630499999999999
 20
3.03100587855713
 30
0.0
 11
5.630499999999999
 21
2.96900587855713
 31
0.0
  0
LINE
  5
128D
330
1219
100
AcDbEntity
  8
4
100
AcDbLine
 10
5.630499999999999
 20
2.96900587855713
 30
0.0
 11
5.265499999999999
 21
2.96900587855713
 31
0.0
  0
LINE
  5
128E
330
1219
100
AcDbEntity
  8
4
100
AcDbLine
 10
5.265499999999999
 20
2.96900587855713
 30
0.0
 11
5.203499999999999
 21
3.03100587855713
 31
0.0
  0
LINE
  5
128F
330
1219
100
AcDbEntity
  8
4
100
AcDbLine
 10
5.090499999999999
 20
3.016005878557129
 30
0.0
 11
5.090499999999999
 21
2.98775973611957
 31
0.0
  0
LINE
  5
1290
330
1219
100
AcDbEntity
  8
4
100
AcDbLine
 10
5.188499999999999
 20
3.016005878557129
 30
0.0
 11
5.090499999999999
 21
3.016005878557129
 31
0.0
  0
LINE
  5
1291
330
1219
100
AcDbEntity
  8
4
100
AcDbLine
 10
5.203499999999999
 20
3.03100587855713
 30
0.0
 11
5.188499999999999
 21
3.016005878557129
 31
0.0
  0
INSERT
  5
1292
330
1219
100
AcDbEntity
  8
4
100
AcDbBlockReference
  2
ARRO
 10
4.8125
 20
4.5
 30
0.0
 50
270.0
  0
ARC
  5
1293
330
1219
100
AcDbEntity
  8
4
100
AcDbCircle
 10
5.645500000000001
 20
4.343000000000001
 30
0.0
 40
0.025
100
AcDbArc
 50
180.0
 51
0.0
  0
LINE
  5
1294
330
1219
100
AcDbEntity
  8
4
100
AcDbLine
 10
5.6705
 20
4.343000000000001
 30
0.0
 11
5.6705
 21
4.393
 31
0.0
  0
LINE
  5
1295
330
1219
100
AcDbEntity
  8
4
100
AcDbLine
 10
5.357479890102485
 20
4.379999999999999
 30
0.0
 11
5.419479890102484
 21
4.379999999999999
 31
0.0
  0
LINE
  5
1296
330
1219
100
AcDbEntity
  8
4
100
AcDbLine
 10
5.388479890102485
 20
4.379999999999999
 30
0.0
 11
5.388479890102485
 21
4.318
 31
0.0
  0
LINE
  5
1297
330
1219
100
AcDbEntity
  8
4
100
AcDbLine
 10
6.698479890102484
 20
4.379999999999999
 30
0.0
 11
6.698479890102484
 21
4.318
 31
0.0
  0
LINE
  5
1298
330
1219
100
AcDbEntity
  8
4
100
AcDbLine
 10
6.667479890102485
 20
4.379999999999999
 30
0.0
 11
6.729479890102484
 21
4.379999999999999
 31
0.0
  0
LINE
  5
1299
330
1219
100
AcDbEntity
  8
4
100
AcDbLine
 10
6.9805
 20
4.343000000000001
 30
0.0
 11
6.9805
 21
4.393
 31
0.0
  0
ARC
  5
129A
330
1219
100
AcDbEntity
  8
4
100
AcDbCircle
 10
6.9555
 20
4.343000000000001
 30
0.0
 40
0.025
100
AcDbArc
 50
180.0
 51
0.0
  0
ARC
  5
129B
330
1219
100
AcDbEntity
  8
4
100
AcDbCircle
 10
7.0445
 20
4.343000000000001
 30
0.0
 40
0.025
100
AcDbArc
 50
180.0
 51
0.0
  0
LINE
  5
129C
330
1219
100
AcDbEntity
  8
4
100
AcDbLine
 10
7.0195
 20
4.343000000000001
 30
0.0
 11
7.0195
 21
4.393
 31
0.0
  0
LINE
  5
129D
330
1219
100
AcDbEntity
  8
4
100
AcDbLine
 10
7.332520109897515
 20
4.379999999999999
 30
0.0
 11
7.270520109897516
 21
4.379999999999999
 31
0.0
  0
LINE
  5
129E
330
1219
100
AcDbEntity
  8
4
100
AcDbLine
 10
7.301520109897515
 20
4.379999999999999
 30
0.0
 11
7.301520109897515
 21
4.318
 31
0.0
  0
LINE
  5
129F
330
1219
100
AcDbEntity
  8
4
100
AcDbLine
 10
5.0025
 20
3.03100587855713
 30
0.0
 11
4.8125
 21
3.03100587855713
 31
0.0
  0
LINE
  5
12A0
330
1219
100
AcDbEntity
  8
4
100
AcDbLine
 10
4.8125
 20
3.03100587855713
 30
0.0
 11
4.750499999999999
 21
3.03100587855713
 31
0.0
  0
INSERT
  5
12A1
330
1219
100
AcDbEntity
  8
4
100
AcDbBlockReference
  2
ARRO2
 10
4.8125
 20
3.03100587855713
 30
0.0
 50
90.0
  0
LINE
  5
12A2
330
1219
100
AcDbEntity
  8
4
100
AcDbLine
 10
5.065499999999999
 20
4.406
 30
0.0
 11
5.127499999999999
 21
4.406
 31
0.0
  0
LINE
  5
12A3
330
1219
100
AcDbEntity
  8
4
100
AcDbLine
 10
6.375499999999998
 20
4.406
 30
0.0
 11
6.437499999999999
 21
4.406
 31
0.0
  0
LINE
  5
12A4
330
1219
100
AcDbEntity
  8
4
100
AcDbLine
 10
7.624500000000001
 20
4.406
 30
0.0
 11
7.5625
 21
4.406
 31
0.0
  0
LINE
  5
12A5
330
1219
100
AcDbEntity
  8
4
100
AcDbLine
 10
7.6245
 20
4.406
 30
0.0
 11
7.6245
 21
3.062961724666486
 31
0.0
  0
LINE
  5
12A6
330
1219
100
AcDbEntity
  8
4
100
AcDbLine
 10
6.375499999999999
 20
4.406
 30
0.0
 11
6.375499999999999
 21
3.062961724666486
 31
0.0
  0
LINE
  5
12A7
330
1219
100
AcDbEntity
  8
4
100
AcDbLine
 10
5.0655
 20
4.406
 30
0.0
 11
5.0655
 21
3.062961724666486
 31
0.0
  0
LINE
  5
12A8
330
1219
100
AcDbEntity
  8
4
100
AcDbLine
 10
1.113234055463451
 20
3.916467157252412
 30
0.0
 11
1.301234055463451
 21
3.916467157252412
 31
0.0
  0
LINE
  5
12A9
330
1219
100
AcDbEntity
  8
4
100
AcDbLine
 10
1.301234055463451
 20
3.916467157252412
 30
0.0
 11
1.269234055463451
 21
3.613967157252412
 31
0.0
  0
LINE
  5
12AA
330
1219
100
AcDbEntity
  8
4
100
AcDbLine
 10
1.113234055463451
 20
3.916467157252412
 30
0.0
 11
1.145234055463451
 21
3.613967157252412
 31
0.0
  0
LINE
  5
12AB
330
1219
100
AcDbEntity
  8
4
100
AcDbLine
 10
1.145234055463451
 20
3.613967157252412
 30
0.0
 11
1.269234055463451
 21
3.613967157252412
 31
0.0
  0
LINE
  5
12AC
330
1219
100
AcDbEntity
  8
4
100
AcDbLine
 10
1.129904527520149
 20
3.901467157252411
 30
0.0
 11
1.158730973801141
 21
3.628967157252412
 31
0.0
  0
LINE
  5
12AD
330
1219
100
AcDbEntity
  8
4
100
AcDbLine
 10
1.158730973801141
 20
3.628967157252411
 30
0.0
 11
1.255737137125761
 21
3.628967157252412
 31
0.0
  0
LINE
  5
12AE
330
1219
100
AcDbEntity
  8
4
100
AcDbLine
 10
1.284563583406752
 20
3.901467157252411
 30
0.0
 11
1.255737137125761
 21
3.628967157252412
 31
0.0
  0
LINE
  5
12AF
330
1219
100
AcDbEntity
  8
4
100
AcDbLine
 10
1.129904527520149
 20
3.901467157252411
 30
0.0
 11
1.284563583406752
 21
3.901467157252411
 31
0.0
  0
LINE
  5
12B0
330
1219
100
AcDbEntity
  8
4
100
AcDbLine
 10
1.222234055463451
 20
3.901467157252411
 30
0.0
 11
1.222234055463451
 21
3.854467157252411
 31
0.0
  0
LINE
  5
12B1
330
1219
100
AcDbEntity
  8
4
100
AcDbLine
 10
1.222234055463451
 20
3.854467157252411
 30
0.0
 11
1.192234055463451
 21
3.854467157252411
 31
0.0
  0
LINE
  5
12B2
330
1219
100
AcDbEntity
  8
4
100
AcDbLine
 10
1.192234055463451
 20
3.854467157252411
 30
0.0
 11
1.192234055463451
 21
3.901467157252411
 31
0.0
  0
ARC
  5
12B3
330
1219
100
AcDbEntity
  8
4
100
AcDbCircle
 10
3.412999999999999
 20
2.874046183989781
 30
0.0
 40
0.025
100
AcDbArc
 50
180.0
 51
0.0
  0
ARC
  5
12B4
330
1219
100
AcDbEntity
  8
4
100
AcDbCircle
 10
2.962
 20
2.874046183989781
 30
0.0
 40
0.025
100
AcDbArc
 50
180.0
 51
0.0
  0
ARC
  5
12B5
330
1219
100
AcDbEntity
  8
4
100
AcDbCircle
 10
2.787999999999999
 20
2.874046183989781
 30
0.0
 40
0.025
100
AcDbArc
 50
180.0
 51
0.0
  0
ARC
  5
12B6
330
1219
100
AcDbEntity
  8
4
100
AcDbCircle
 10
2.337
 20
2.874046183989781
 30
0.0
 40
0.025
100
AcDbArc
 50
180.0
 51
0.0
  0
ARC
  5
12B7
330
1219
100
AcDbEntity
  8
4
100
AcDbCircle
 10
2.163
 20
2.874046183989781
 30
0.0
 40
0.025
100
AcDbArc
 50
180.0
 51
0.0
  0
ARC
  5
12B8
330
1219
100
AcDbEntity
  8
4
100
AcDbCircle
 10
1.712
 20
2.874046183989781
 30
0.0
 40
0.025
100
AcDbArc
 50
180.0
 51
0.0
  0
LINE
  5
12B9
330
1219
100
AcDbEntity
  8
4
100
AcDbLine
 10
3.155
 20
2.91104618398978
 30
0.0
 11
3.217
 21
2.91104618398978
 31
0.0
  0
LINE
  5
12BA
330
1219
100
AcDbEntity
  8
4
100
AcDbLine
 10
3.217
 20
2.91104618398978
 30
0.0
 11
3.217
 21
2.84904618398978
 31
0.0
  0
LINE
  5
12BB
330
1219
100
AcDbEntity
  8
4
100
AcDbLine
 10
3.155
 20
2.91104618398978
 30
0.0
 11
3.155
 21
2.84904618398978
 31
0.0
  0
LINE
  5
12BC
330
1219
100
AcDbEntity
  8
4
100
AcDbLine
 10
1.905
 20
2.91104618398978
 30
0.0
 11
1.905
 21
2.84904618398978
 31
0.0
  0
LINE
  5
12BD
330
1219
100
AcDbEntity
  8
4
100
AcDbLine
 10
1.967
 20
2.91104618398978
 30
0.0
 11
1.967
 21
2.84904618398978
 31
0.0
  0
LINE
  5
12BE
330
1219
100
AcDbEntity
  8
4
100
AcDbLine
 10
1.905
 20
2.91104618398978
 30
0.0
 11
1.967
 21
2.91104618398978
 31
0.0
  0
LINE
  5
12BF
330
1219
100
AcDbEntity
  8
4
100
AcDbLine
 10
3.155
 20
4.379999999999999
 30
0.0
 11
3.155
 21
4.318
 31
0.0
  0
LINE
  5
12C0
330
1219
100
AcDbEntity
  8
4
100
AcDbLine
 10
3.217
 20
4.379999999999999
 30
0.0
 11
3.217
 21
4.318
 31
0.0
  0
LINE
  5
12C1
330
1219
100
AcDbEntity
  8
4
100
AcDbLine
 10
3.155
 20
4.379999999999999
 30
0.0
 11
3.217
 21
4.379999999999999
 31
0.0
  0
ARC
  5
12C2
330
1219
100
AcDbEntity
  8
4
100
AcDbCircle
 10
1.712
 20
4.343
 30
0.0
 40
0.025
100
AcDbArc
 50
180.0
 51
0.0
  0
ARC
  5
12C3
330
1219
100
AcDbEntity
  8
4
100
AcDbCircle
 10
2.163
 20
4.343
 30
0.0
 40
0.025
100
AcDbArc
 50
180.0
 51
0.0
  0
ARC
  5
12C4
330
1219
100
AcDbEntity
  8
4
100
AcDbCircle
 10
2.337
 20
4.343
 30
0.0
 40
0.025
100
AcDbArc
 50
180.0
 51
0.0
  0
ARC
  5
12C5
330
1219
100
AcDbEntity
  8
4
100
AcDbCircle
 10
2.787999999999999
 20
4.343
 30
0.0
 40
0.025
100
AcDbArc
 50
180.0
 51
0.0
  0
ARC
  5
12C6
330
1219
100
AcDbEntity
  8
4
100
AcDbCircle
 10
2.962
 20
4.343
 30
0.0
 40
0.025
100
AcDbArc
 50
180.0
 51
0.0
  0
ARC
  5
12C7
330
1219
100
AcDbEntity
  8
4
100
AcDbCircle
 10
3.412999999999999
 20
4.343
 30
0.0
 40
0.025
100
AcDbArc
 50
180.0
 51
0.0
  0
LINE
  5
12C8
330
1219
100
AcDbEntity
  8
4
100
AcDbLine
 10
2.625
 20
2.96900587855713
 30
0.0
 11
2.812999999999999
 21
2.96900587855713
 31
0.0
  0
LINE
  5
12C9
330
1219
100
AcDbEntity
  8
4
100
AcDbLine
 10
2.625
 20
3.03100587855713
 30
0.0
 11
2.812999999999999
 21
3.03100587855713
 31
0.0
  0
LINE
  5
12CA
330
1219
100
AcDbEntity
  8
4
100
AcDbLine
 10
2.937
 20
3.03100587855713
 30
0.0
 11
3.437999999999999
 21
3.03100587855713
 31
0.0
  0
LINE
  5
12CB
330
1219
100
AcDbEntity
  8
4
100
AcDbLine
 10
2.937
 20
2.96900587855713
 30
0.0
 11
3.437999999999999
 21
2.96900587855713
 31
0.0
  0
LINE
  5
12CC
330
1219
100
AcDbEntity
  8
4
100
AcDbLine
 10
2.312
 20
3.03100587855713
 30
0.0
 11
2.473968300754448
 21
3.03100587855713
 31
0.0
  0
LINE
  5
12CD
330
1219
100
AcDbEntity
  8
4
100
AcDbLine
 10
2.312
 20
2.96900587855713
 30
0.0
 11
2.499999999999999
 21
2.96900587855713
 31
0.0
  0
LINE
  5
12CE
330
1219
100
AcDbEntity
  8
4
100
AcDbLine
 10
1.687
 20
3.03100587855713
 30
0.0
 11
2.187999999999999
 21
3.03100587855713
 31
0.0
  0
LINE
  5
12CF
330
1219
100
AcDbEntity
  8
4
100
AcDbLine
 10
1.687
 20
2.96900587855713
 30
0.0
 11
2.187999999999999
 21
2.96900587855713
 31
0.0
  0
LINE
  5
12D0
330
1219
100
AcDbEntity
  8
4
100
AcDbLine
 10
1.062
 20
3.03100587855713
 30
0.0
 11
1.562999999999999
 21
3.03100587855713
 31
0.0
  0
LINE
  5
12D1
330
1219
100
AcDbEntity
  8
4
100
AcDbLine
 10
1.062
 20
2.96900587855713
 30
0.0
 11
1.562999999999999
 21
2.96900587855713
 31
0.0
  0
LINE
  5
12D2
330
1219
100
AcDbEntity
  8
4
100
AcDbLine
 10
1.540999999999999
 20
1.967961724666487
 30
0.0
 11
1.540999999999999
 21
1.842961724666487
 31
0.0
  0
LINE
  5
12D3
330
1219
100
AcDbEntity
  8
4
100
AcDbLine
 10
1.541
 20
2.68700587855713
 30
0.0
 11
1.541
 21
2.56200587855713
 31
0.0
  0
LINE
  5
12D4
330
1219
100
AcDbEntity
  8
4
100
AcDbLine
 10
1.530999999999999
 20
1.593961724666487
 30
0.0
 11
1.093999999999999
 21
1.593961724666486
 31
0.0
  0
LINE
  5
12D5
330
1219
100
AcDbEntity
  8
4
100
AcDbLine
 10
1.531
 20
2.93700587855713
 30
0.0
 11
1.530999999999999
 21
1.593961724666487
 31
0.0
  0
LINE
  5
12D6
330
1219
100
AcDbEntity
  8
4
100
AcDbLine
 10
1.094
 20
2.93700587855713
 30
0.0
 11
1.531
 21
2.93700587855713
 31
0.0
  0
LINE
  5
12D7
330
1219
100
AcDbEntity
  8
4
100
AcDbLine
 10
1.093999999999999
 20
1.593961724666486
 30
0.0
 11
1.094
 21
2.93700587855713
 31
0.0
  0
LINE
  5
12D8
330
1219
100
AcDbEntity
  8
4
100
AcDbLine
 10
1.094
 20
3.062961724666486
 30
0.0
 11
1.094
 21
4.40600587855713
 31
0.0
  0
LINE
  5
12D9
330
1219
100
AcDbEntity
  8
4
100
AcDbLine
 10
1.094
 20
4.40600587855713
 30
0.0
 11
1.531
 21
4.40600587855713
 31
0.0
  0
LINE
  5
12DA
330
1219
100
AcDbEntity
  8
4
100
AcDbLine
 10
1.531
 20
4.40600587855713
 30
0.0
 11
1.530999999999999
 21
3.062961724666487
 31
0.0
  0
LINE
  5
12DB
330
1219
100
AcDbEntity
  8
4
100
AcDbLine
 10
1.530999999999999
 20
3.062961724666487
 30
0.0
 11
1.094
 21
3.062961724666486
 31
0.0
  0
LINE
  5
12DC
330
1219
100
AcDbEntity
  8
4
100
AcDbLine
 10
1.541
 20
4.15600587855713
 30
0.0
 11
1.541
 21
4.03100587855713
 31
0.0
  0
LINE
  5
12DD
330
1219
100
AcDbEntity
  8
4
100
AcDbLine
 10
1.540999999999999
 20
3.436961724666486
 30
0.0
 11
1.540999999999999
 21
3.311961724666486
 31
0.0
  0
LINE
  5
12DE
330
1219
100
AcDbEntity
  8
4
100
AcDbLine
 10
0.9609118825233171
 20
3.874828065315101
 30
0.0
 11
0.5859118825233172
 21
3.874828065315101
 31
0.0
  0
LINE
  5
12DF
330
1219
100
AcDbEntity
  8
4
100
AcDbLine
 10
0.5859118825233172
 20
3.874828065315101
 30
0.0
 11
0.5859118825233172
 21
3.936828065315101
 31
0.0
  0
LINE
  5
12E0
330
1219
100
AcDbEntity
  8
4
100
AcDbLine
 10
0.9609118825233171
 20
3.734483801611808
 30
0.0
 11
0.5859118825233172
 21
3.734483801611808
 31
0.0
  0
LINE
  5
12E1
330
1219
100
AcDbEntity
  8
4
100
AcDbLine
 10
0.5859118825233172
 20
3.734483801611808
 30
0.0
 11
0.5859118825233172
 21
3.672483801611809
 31
0.0
  0
INSERT
  5
12E2
330
1219
100
AcDbEntity
  8
4
100
AcDbBlockReference
  2
ARRO
 10
0.9609118825233171
 20
3.874828065315101
 30
0.0
 50
180.0
  0
INSERT
  5
12E3
330
1219
100
AcDbEntity
  8
4
100
AcDbBlockReference
  2
ARRO
 10
0.9609118825233171
 20
3.734483801611808
 30
0.0
 50
180.0
  0
LINE
  5
12E4
330
1219
100
AcDbEntity
  8
4
100
AcDbLine
 10
1.192234055463451
 20
2.385467157252412
 30
0.0
 11
1.192234055463451
 21
2.432467157252411
 31
0.0
  0
LINE
  5
12E5
330
1219
100
AcDbEntity
  8
4
100
AcDbLine
 10
1.222234055463451
 20
2.385467157252412
 30
0.0
 11
1.192234055463451
 21
2.385467157252412
 31
0.0
  0
LINE
  5
12E6
330
1219
100
AcDbEntity
  8
4
100
AcDbLine
 10
1.222234055463451
 20
2.432467157252411
 30
0.0
 11
1.222234055463451
 21
2.385467157252412
 31
0.0
  0
LINE
  5
12E7
330
1219
100
AcDbEntity
  8
4
100
AcDbLine
 10
1.129904527520149
 20
2.432467157252411
 30
0.0
 11
1.284563583406752
 21
2.432467157252411
 31
0.0
  0
LINE
  5
12E8
330
1219
100
AcDbEntity
  8
4
100
AcDbLine
 10
1.284563583406752
 20
2.432467157252411
 30
0.0
 11
1.255737137125761
 21
2.159967157252412
 31
0.0
  0
LINE
  5
12E9
330
1219
100
AcDbEntity
  8
4
100
AcDbLine
 10
1.158730973801141
 20
2.159967157252411
 30
0.0
 11
1.255737137125761
 21
2.159967157252412
 31
0.0
  0
LINE
  5
12EA
330
1219
100
AcDbEntity
  8
4
100
AcDbLine
 10
1.129904527520149
 20
2.432467157252411
 30
0.0
 11
1.158730973801141
 21
2.159967157252412
 31
0.0
  0
LINE
  5
12EB
330
1219
100
AcDbEntity
  8
4
100
AcDbLine
 10
1.145234055463451
 20
2.144967157252412
 30
0.0
 11
1.269234055463451
 21
2.144967157252412
 31
0.0
  0
LINE
  5
12EC
330
1219
100
AcDbEntity
  8
4
100
AcDbLine
 10
1.113234055463451
 20
2.447467157252412
 30
0.0
 11
1.145234055463451
 21
2.144967157252412
 31
0.0
  0
LINE
  5
12ED
330
1219
100
AcDbEntity
  8
4
100
AcDbLine
 10
1.301234055463451
 20
2.447467157252412
 30
0.0
 11
1.269234055463451
 21
2.144967157252412
 31
0.0
  0
LINE
  5
12EE
330
1219
100
AcDbEntity
  8
4
100
AcDbLine
 10
1.113234055463451
 20
2.447467157252412
 30
0.0
 11
1.301234055463451
 21
2.447467157252412
 31
0.0
  0
LINE
  5
12EF
330
1219
100
AcDbEntity
  8
2
100
AcDbLine
 10
1.175759789033289
 20
4.367395832264235
 30
0.0
 11
1.425759789033288
 21
4.367395832264234
 31
0.0
  0
LINE
  5
12F0
330
1219
100
AcDbEntity
  8
2
100
AcDbLine
 10
1.200759789033287
 20
3.991895832264235
 30
0.0
 11
1.450759789033287
 21
3.991895832264235
 31
0.0
  0
LINE
  5
12F1
330
1219
100
AcDbEntity
  8
2
100
AcDbLine
 10
1.157009789033288
 20
4.329895832264234
 30
0.0
 11
1.157009789033288
 21
4.087395832264235
 31
0.0
  0
LINE
  5
12F2
330
1219
100
AcDbEntity
  8
2
100
AcDbLine
 10
1.469509789033288
 20
4.271895832264235
 30
0.0
 11
1.469509789033288
 21
4.029395832264235
 31
0.0
  0
LINE
  5
12F3
330
1219
100
AcDbEntity
  8
2
100
AcDbLine
 10
1.469509789033288
 20
3.427171487963206
 30
0.0
 11
1.469509789033288
 21
3.184671487963206
 31
0.0
  0
LINE
  5
12F4
330
1219
100
AcDbEntity
  8
2
100
AcDbLine
 10
1.157009789033288
 20
3.485171487963206
 30
0.0
 11
1.157009789033288
 21
3.242671487963206
 31
0.0
  0
LINE
  5
12F5
330
1219
100
AcDbEntity
  8
2
100
AcDbLine
 10
1.200759789033287
 20
3.147171487963206
 30
0.0
 11
1.450759789033287
 21
3.147171487963206
 31
0.0
  0
LINE
  5
12F6
330
1219
100
AcDbEntity
  8
2
100
AcDbLine
 10
1.175759789033289
 20
3.522671487963207
 30
0.0
 11
1.425759789033288
 21
3.522671487963206
 31
0.0
  0
LINE
  5
12F7
330
1219
100
AcDbEntity
  8
2
100
AcDbLine
 10
1.175759789033288
 20
2.053671487963207
 30
0.0
 11
1.425759789033288
 21
2.053671487963206
 31
0.0
  0
LINE
  5
12F8
330
1219
100
AcDbEntity
  8
2
100
AcDbLine
 10
1.200759789033287
 20
1.678171487963207
 30
0.0
 11
1.450759789033287
 21
1.678171487963207
 31
0.0
  0
LINE
  5
12F9
330
1219
100
AcDbEntity
  8
2
100
AcDbLine
 10
1.157009789033288
 20
2.016171487963206
 30
0.0
 11
1.157009789033288
 21
1.773671487963206
 31
0.0
  0
LINE
  5
12FA
330
1219
100
AcDbEntity
  8
2
100
AcDbLine
 10
1.469509789033288
 20
1.958171487963206
 30
0.0
 11
1.469509789033288
 21
1.715671487963207
 31
0.0
  0
LINE
  5
12FB
330
1219
100
AcDbEntity
  8
2
100
AcDbLine
 10
1.469509789033288
 20
2.802895832264235
 30
0.0
 11
1.469509789033288
 21
2.560395832264235
 31
0.0
  0
LINE
  5
12FC
330
1219
100
AcDbEntity
  8
2
100
AcDbLine
 10
1.157009789033288
 20
2.860895832264235
 30
0.0
 11
1.157009789033288
 21
2.618395832264235
 31
0.0
  0
LINE
  5
12FD
330
1219
100
AcDbEntity
  8
2
100
AcDbLine
 10
1.200759789033287
 20
2.522895832264235
 30
0.0
 11
1.450759789033287
 21
2.522895832264235
 31
0.0
  0
LINE
  5
12FE
330
1219
100
AcDbEntity
  8
2
100
AcDbLine
 10
1.175759789033288
 20
2.898395832264235
 30
0.0
 11
1.425759789033288
 21
2.898395832264234
 31
0.0
  0
TEXT
  5
12FF
330
1219
100
AcDbEntity
  8
8
100
AcDbText
 10
1.502976190476189
 20
0.094
 30
0.0
 40
0.125
  1
HEAVY DUTY VENTILATED LOCKER - 60" DOUBLE TIER
  7
ROMANS
 72
     1
 11
4.125
 21
0.094
 31
0.0
100
AcDbText
  0
LINE
  5
1300
330
1219
100
AcDbEntity
  8
2
100
AcDbLine
 10
7.425935503170872
 20
2.448533748315918
 30
0.0
 11
7.425935503170872
 21
2.173925926908309
 31
0.0
  0
LINE
  5
1301
330
1219
100
AcDbEntity
  8
2
100
AcDbLine
 10
7.113435503170872
 20
2.506533748315918
 30
0.0
 11
7.113435503170872
 21
2.231925926908309
 31
0.0
  0
LINE
  5
1302
330
1219
100
AcDbEntity
  8
2
100
AcDbLine
 10
7.157185503170871
 20
2.136425926908309
 30
0.0
 11
7.407185503170871
 21
2.136425926908309
 31
0.0
  0
LINE
  5
1303
330
1219
100
AcDbEntity
  8
2
100
AcDbLine
 10
7.132185503170872
 20
2.544033748315918
 30
0.0
 11
7.382185503170871
 21
2.544033748315917
 31
0.0
  0
LINE
  5
1304
330
1219
100
AcDbEntity
  8
2
100
AcDbLine
 10
6.886935503170871
 20
2.448533748315918
 30
0.0
 11
6.886935503170871
 21
2.173925926908309
 31
0.0
  0
LINE
  5
1305
330
1219
100
AcDbEntity
  8
2
100
AcDbLine
 10
6.574435503170871
 20
2.506533748315918
 30
0.0
 11
6.574435503170871
 21
2.231925926908309
 31
0.0
  0
LINE
  5
1306
330
1219
100
AcDbEntity
  8
2
100
AcDbLine
 10
6.61818550317087
 20
2.136425926908309
 30
0.0
 11
6.86818550317087
 21
2.136425926908309
 31
0.0
  0
LINE
  5
1307
330
1219
100
AcDbEntity
  8
2
100
AcDbLine
 10
6.593185503170872
 20
2.544033748315918
 30
0.0
 11
6.843185503170871
 21
2.544033748315917
 31
0.0
  0
LINE
  5
1308
330
1219
100
AcDbEntity
  8
2
100
AcDbLine
 10
5.283185503170872
 20
2.544033748315918
 30
0.0
 11
5.533185503170871
 21
2.544033748315917
 31
0.0
  0
LINE
  5
1309
330
1219
100
AcDbEntity
  8
2
100
AcDbLine
 10
5.308185503170871
 20
2.136425926908309
 30
0.0
 11
5.558185503170871
 21
2.136425926908309
 31
0.0
  0
LINE
  5
130A
330
1219
100
AcDbEntity
  8
2
100
AcDbLine
 10
5.264435503170871
 20
2.506533748315918
 30
0.0
 11
5.264435503170871
 21
2.231925926908309
 31
0.0
  0
LINE
  5
130B
330
1219
100
AcDbEntity
  8
2
100
AcDbLine
 10
5.576935503170871
 20
2.448533748315918
 30
0.0
 11
5.576935503170871
 21
2.173925926908309
 31
0.0
  0
LINE
  5
130C
330
1219
100
AcDbEntity
  8
2
100
AcDbLine
 10
5.576935503170871
 20
1.883071857623925
 30
0.0
 11
5.576935503170871
 21
1.66678714194581
 31
0.0
  0
LINE
  5
130D
330
1219
100
AcDbEntity
  8
2
100
AcDbLine
 10
5.264435503170871
 20
1.941071857623925
 30
0.0
 11
5.264435503170871
 21
1.72478714194581
 31
0.0
  0
LINE
  5
130E
330
1219
100
AcDbEntity
  8
2
100
AcDbLine
 10
5.308185503170871
 20
1.629287141945811
 30
0.0
 11
5.558185503170871
 21
1.629287141945811
 31
0.0
  0
LINE
  5
130F
330
1219
100
AcDbEntity
  8
2
100
AcDbLine
 10
5.283185503170872
 20
1.978571857623926
 30
0.0
 11
5.533185503170871
 21
1.978571857623925
 31
0.0
  0
LINE
  5
1310
330
1219
100
AcDbEntity
  8
2
100
AcDbLine
 10
6.593185503170872
 20
1.978571857623926
 30
0.0
 11
6.843185503170871
 21
1.978571857623925
 31
0.0
  0
LINE
  5
1311
330
1219
100
AcDbEntity
  8
2
100
AcDbLine
 10
6.61818550317087
 20
1.629287141945811
 30
0.0
 11
6.86818550317087
 21
1.629287141945811
 31
0.0
  0
LINE
  5
1312
330
1219
100
AcDbEntity
  8
2
100
AcDbLine
 10
6.574435503170871
 20
1.941071857623925
 30
0.0
 11
6.574435503170871
 21
1.72478714194581
 31
0.0
  0
LINE
  5
1313
330
1219
100
AcDbEntity
  8
2
100
AcDbLine
 10
6.886935503170871
 20
1.883071857623925
 30
0.0
 11
6.886935503170871
 21
1.66678714194581
 31
0.0
  0
LINE
  5
1314
330
1219
100
AcDbEntity
  8
2
100
AcDbLine
 10
7.132185503170872
 20
1.978571857623926
 30
0.0
 11
7.382185503170871
 21
1.978571857623925
 31
0.0
  0
LINE
  5
1315
330
1219
100
AcDbEntity
  8
2
100
AcDbLine
 10
7.157185503170871
 20
1.629287141945811
 30
0.0
 11
7.407185503170871
 21
1.629287141945811
 31
0.0
  0
LINE
  5
1316
330
1219
100
AcDbEntity
  8
2
100
AcDbLine
 10
7.113435503170872
 20
1.941071857623925
 30
0.0
 11
7.113435503170872
 21
1.72478714194581
 31
0.0
  0
LINE
  5
1317
330
1219
100
AcDbEntity
  8
2
100
AcDbLine
 10
7.425935503170872
 20
1.883071857623925
 30
0.0
 11
7.425935503170872
 21
1.66678714194581
 31
0.0
  0
LINE
  5
1318
330
1219
100
AcDbEntity
  8
2
100
AcDbLine
 10
7.425935503170872
 20
4.196603523037241
 30
0.0
 11
7.425935503170872
 21
3.980318807359126
 31
0.0
  0
LINE
  5
1319
330
1219
100
AcDbEntity
  8
2
100
AcDbLine
 10
7.113435503170872
 20
4.254603523037241
 30
0.0
 11
7.113435503170872
 21
4.038318807359126
 31
0.0
  0
LINE
  5
131A
330
1219
100
AcDbEntity
  8
2
100
AcDbLine
 10
7.157185503170871
 20
3.942818807359127
 30
0.0
 11
7.407185503170871
 21
3.942818807359127
 31
0.0
  0
LINE
  5
131B
330
1219
100
AcDbEntity
  8
2
100
AcDbLine
 10
7.132185503170872
 20
4.292103523037241
 30
0.0
 11
7.382185503170871
 21
4.292103523037241
 31
0.0
  0
LINE
  5
131C
330
1219
100
AcDbEntity
  8
2
100
AcDbLine
 10
6.886935503170871
 20
4.196603523037241
 30
0.0
 11
6.886935503170871
 21
3.980318807359126
 31
0.0
  0
LINE
  5
131D
330
1219
100
AcDbEntity
  8
2
100
AcDbLine
 10
6.574435503170871
 20
4.254603523037241
 30
0.0
 11
6.574435503170871
 21
4.038318807359126
 31
0.0
  0
LINE
  5
131E
330
1219
100
AcDbEntity
  8
2
100
AcDbLine
 10
6.61818550317087
 20
3.942818807359127
 30
0.0
 11
6.86818550317087
 21
3.942818807359127
 31
0.0
  0
LINE
  5
131F
330
1219
100
AcDbEntity
  8
2
100
AcDbLine
 10
6.593185503170872
 20
4.292103523037241
 30
0.0
 11
6.843185503170871
 21
4.292103523037241
 31
0.0
  0
LINE
  5
1320
330
1219
100
AcDbEntity
  8
2
100
AcDbLine
 10
5.283185503170872
 20
4.292103523037241
 30
0.0
 11
5.533185503170871
 21
4.292103523037241
 31
0.0
  0
LINE
  5
1321
330
1219
100
AcDbEntity
  8
2
100
AcDbLine
 10
5.308185503170871
 20
3.942818807359127
 30
0.0
 11
5.558185503170871
 21
3.942818807359127
 31
0.0
  0
LINE
  5
1322
330
1219
100
AcDbEntity
  8
2
100
AcDbLine
 10
5.264435503170871
 20
4.254603523037241
 30
0.0
 11
5.264435503170871
 21
4.038318807359126
 31
0.0
  0
LINE
  5
1323
330
1219
100
AcDbEntity
  8
2
100
AcDbLine
 10
5.576935503170871
 20
4.196603523037241
 30
0.0
 11
5.576935503170871
 21
3.980318807359126
 31
0.0
  0
LINE
  5
1324
330
1219
100
AcDbEntity
  8
2
100
AcDbLine
 10
5.576935503170871
 20
3.678215382400034
 30
0.0
 11
5.576935503170871
 21
3.403607560992425
 31
0.0
  0
LINE
  5
1325
330
1219
100
AcDbEntity
  8
2
100
AcDbLine
 10
5.264435503170871
 20
3.736215382400033
 30
0.0
 11
5.264435503170871
 21
3.461607560992424
 31
0.0
  0
LINE
  5
1326
330
1219
100
AcDbEntity
  8
2
100
AcDbLine
 10
5.308185503170871
 20
3.366107560992425
 30
0.0
 11
5.558185503170871
 21
3.366107560992425
 31
0.0
  0
LINE
  5
1327
330
1219
100
AcDbEntity
  8
2
100
AcDbLine
 10
5.283185503170872
 20
3.773715382400034
 30
0.0
 11
5.533185503170871
 21
3.773715382400033
 31
0.0
  0
LINE
  5
1328
330
1219
100
AcDbEntity
  8
2
100
AcDbLine
 10
6.593185503170872
 20
3.773715382400034
 30
0.0
 11
6.843185503170871
 21
3.773715382400033
 31
0.0
  0
LINE
  5
1329
330
1219
100
AcDbEntity
  8
2
100
AcDbLine
 10
6.61818550317087
 20
3.366107560992425
 30
0.0
 11
6.86818550317087
 21
3.366107560992425
 31
0.0
  0
LINE
  5
132A
330
1219
100
AcDbEntity
  8
2
100
AcDbLine
 10
6.574435503170871
 20
3.736215382400033
 30
0.0
 11
6.574435503170871
 21
3.461607560992424
 31
0.0
  0
LINE
  5
132B
330
1219
100
AcDbEntity
  8
2
100
AcDbLine
 10
6.886935503170871
 20
3.678215382400034
 30
0.0
 11
6.886935503170871
 21
3.403607560992425
 31
0.0
  0
LINE
  5
132C
330
1219
100
AcDbEntity
  8
2
100
AcDbLine
 10
7.132185503170872
 20
3.773715382400034
 30
0.0
 11
7.382185503170871
 21
3.773715382400033
 31
0.0
  0
LINE
  5
132D
330
1219
100
AcDbEntity
  8
2
100
AcDbLine
 10
7.157185503170871
 20
3.366107560992425
 30
0.0
 11
7.407185503170871
 21
3.366107560992425
 31
0.0
  0
LINE
  5
132E
330
1219
100
AcDbEntity
  8
2
100
AcDbLine
 10
7.113435503170872
 20
3.736215382400033
 30
0.0
 11
7.113435503170872
 21
3.461607560992424
 31
0.0
  0
LINE
  5
132F
330
1219
100
AcDbEntity
  8
2
100
AcDbLine
 10
7.425935503170872
 20
3.678215382400034
 30
0.0
 11
7.425935503170872
 21
3.403607560992425
 31
0.0
  0
LINE
  5
1330
330
1219
100
AcDbEntity
  8
2
100
AcDbLine
 10
5.283185503170872
 20
2.848215382400034
 30
0.0
 11
5.533185503170871
 21
2.848215382400033
 31
0.0
  0
LINE
  5
1331
330
1219
100
AcDbEntity
  8
2
100
AcDbLine
 10
6.593185503170872
 20
2.848215382400034
 30
0.0
 11
6.843185503170871
 21
2.848215382400033
 31
0.0
  0
LINE
  5
1332
330
1219
100
AcDbEntity
  8
2
100
AcDbLine
 10
7.132185503170872
 20
2.848215382400034
 30
0.0
 11
7.382185503170871
 21
2.848215382400033
 31
0.0
  0
LINE
  5
1333
330
1219
100
AcDbEntity
  8
2
100
AcDbLine
 10
7.132185503170872
 20
3.193215382400034
 30
0.0
 11
7.382185503170871
 21
3.193215382400033
 31
0.0
  0
LINE
  5
1334
330
1219
100
AcDbEntity
  8
2
100
AcDbLine
 10
6.593185503170872
 20
3.193215382400034
 30
0.0
 11
6.843185503170871
 21
3.193215382400033
 31
0.0
  0
LINE
  5
1335
330
1219
100
AcDbEntity
  8
2
100
AcDbLine
 10
5.283185503170872
 20
3.193215382400034
 30
0.0
 11
5.533185503170871
 21
3.193215382400033
 31
0.0
  0
LINE
  5
1336
330
1219
100
AcDbEntity
  8
2
100
AcDbLine
 10
5.308185503170872
 20
3.060215382400035
 30
0.0
 11
5.558185503170871
 21
3.060215382400033
 31
0.0
  0
LINE
  5
1337
330
1219
100
AcDbEntity
  8
2
100
AcDbLine
 10
5.308185503170872
 20
2.715215382400034
 30
0.0
 11
5.558185503170871
 21
2.715215382400033
 31
0.0
  0
LINE
  5
1338
330
1219
100
AcDbEntity
  8
2
100
AcDbLine
 10
6.618185503170872
 20
3.060215382400035
 30
0.0
 11
6.868185503170871
 21
3.060215382400033
 31
0.0
  0
LINE
  5
1339
330
1219
100
AcDbEntity
  8
2
100
AcDbLine
 10
6.618185503170872
 20
2.715215382400034
 30
0.0
 11
6.868185503170871
 21
2.715215382400033
 31
0.0
  0
LINE
  5
133A
330
1219
100
AcDbEntity
  8
2
100
AcDbLine
 10
7.157185503170872
 20
2.715215382400033
 30
0.0
 11
7.407185503170871
 21
2.715215382400032
 31
0.0
  0
LINE
  5
133B
330
1219
100
AcDbEntity
  8
2
100
AcDbLine
 10
7.157185503170872
 20
3.060215382400034
 30
0.0
 11
7.407185503170871
 21
3.060215382400032
 31
0.0
  0
ENDBLK
  5
133D
330
1219
100
AcDbEntity
  8
0
100
AcDbBlockEnd
  0
BLOCK
  5
15EB
330
15D7
100
AcDbEntity
  8
0
100
AcDbBlockBegin
  2
HDV hooks
 70
     0
 10
0.0
 20
0.0
 30
0.0
  3
HDV hooks
  1

  0
ARC
  5
15D8
330
15D7
100
AcDbEntity
  8
4
100
AcDbCircle
 10
0.0477506151055565
 20
-0.094959694567347
 30
0.0
 40
0.025
100
AcDbArc
 50
180.0
 51
0.0
  0
LINE
  5
15D9
330
15D7
100
AcDbEntity
  8
4
100
AcDbLine
 10
0.0227506151055561
 20
-0.094959694567347
 30
0.0
 11
0.0227506151055561
 21
0.0
 31
0.0
  0
LINE
  5
15DA
330
15D7
100
AcDbEntity
  8
4
100
AcDbLine
 10
0.218
 20
0.0005777676988341
 30
0.0
 11
0.218
 21
-0.1199596945673473
 31
0.0
  0
LINE
  5
15DB
330
15D7
100
AcDbEntity
  8
4
100
AcDbLine
 10
0.2799999999999976
 20
0.0008254941851167
 30
0.0
 11
0.2799999999999976
 21
-0.1199596945673473
 31
0.0
  0
LINE
  5
15DC
330
15D7
100
AcDbEntity
  8
4
100
AcDbLine
 10
0.4869331585908921
 20
-0.094959694567347
 30
0.0
 11
0.4869331585908921
 21
0.0
 31
0.0
  0
ARC
  5
15DD
330
15D7
100
AcDbEntity
  8
4
100
AcDbCircle
 10
0.4619430241573639
 20
-0.094959694567347
 30
0.0
 40
0.025
100
AcDbArc
 50
180.0
 51
0.0
  0
ARC
  5
15DE
330
15D7
100
AcDbEntity
  8
4
100
AcDbCircle
 10
0.6714820743968737
 20
-0.094959694567347
 30
0.0
 40
0.025
100
AcDbArc
 50
180.0
 51
0.0
  0
LINE
  5
15DF
330
15D7
100
AcDbEntity
  8
4
100
AcDbLine
 10
0.6464820743968734
 20
-0.094959694567347
 30
0.0
 11
0.6464820743968734
 21
0.0
 31
0.0
  0
LINE
  5
15E0
330
15D7
100
AcDbEntity
  8
4
100
AcDbLine
 10
1.110664617882209
 20
-0.094959694567347
 30
0.0
 11
1.110664617882209
 21
0.0
 31
0.0
  0
ARC
  5
15E1
330
15D7
100
AcDbEntity
  8
4
100
AcDbCircle
 10
1.085674483448681
 20
-0.094959694567347
 30
0.0
 40
0.025
100
AcDbArc
 50
180.0
 51
0.0
  0
ARC
  5
15E2
330
15D7
100
AcDbEntity
  8
4
100
AcDbCircle
 10
1.290857194253597
 20
-0.094959694567347
 30
0.0
 40
0.025
100
AcDbArc
 50
180.0
 51
0.0
  0
LINE
  5
15E3
330
15D7
100
AcDbEntity
  8
4
100
AcDbLine
 10
1.265857194253596
 20
-0.094959694567347
 30
0.0
 11
1.265857194253596
 21
0.0
 31
0.0
  0
LINE
  5
15E4
330
15D7
100
AcDbEntity
  8
4
100
AcDbLine
 10
1.523106579148038
 20
0.0008254941851167
 30
0.0
 11
1.523106579148038
 21
-0.1199596945673473
 31
0.0
  0
LINE
  5
15E5
330
15D7
100
AcDbEntity
  8
4
100
AcDbLine
 10
1.46110657914804
 20
0.0005777676988341
 30
0.0
 11
1.46110657914804
 21
-0.1199596945673473
 31
0.0
  0
ARC
  5
15E6
330
15D7
100
AcDbEntity
  8
4
100
AcDbCircle
 10
1.705049603305404
 20
-0.094959694567347
 30
0.0
 40
0.025
100
AcDbArc
 50
180.0
 51
0.0
  0
LINE
  5
15E7
330
15D7
100
AcDbEntity
  8
4
100
AcDbLine
 10
1.730039737738932
 20
-0.094959694567347
 30
0.0
 11
1.730039737738932
 21
0.0
 31
0.0
  0
LINE
  5
15E8
330
15D7
100
AcDbEntity
  8
4
100
AcDbLine
 10
3.733499999999998
 20
0.0619999999999994
 30
0.0
 11
3.733499999999998
 21
-0.1198201480656689
 31
0.0
  0
LINE
  5
15E9
330
15D7
100
AcDbEntity
  8
4
100
AcDbLine
 10
3.954876537991797
 20
-0.094959694567347
 30
0.0
 11
3.954876537991797
 21
0.0619999999999994
 31
0.0
  0
ARC
  5
15EA
330
15D7
100
AcDbEntity
  8
4
100
AcDbCircle
 10
3.929886403558269
 20
-0.094959694567347
 30
0.0
 40
0.025
100
AcDbArc
 50
180.0
 51
0.0
  0
ENDBLK
  5
15EC
330
15D7
100
AcDbEntity
  8
0
100
AcDbBlockEnd
  0
BLOCK
  5
1611
330
160B
100
AcDbEntity
  8
0
100
AcDbBlockBegin
  2
DIM
 70
     0
 10
0.0
 20
0.0
 30
0.0
  3
DIM
  1

  0
INSERT
  5
160C
330
160B
100
AcDbEntity
  8
2
100
AcDbBlockReference
 66
     1
  2
FRACTION
 10
0.0910971415869488
 20
0.0573912812813484
 30
0.0
 41
0.6000000000000001
 42
0.6000000000000001
 43
0.6
 50
90.0
  0
ATTRIB
  5
160D
330
160C
100
AcDbEntity
  8
8
100
AcDbText
 10
0.032597141586951
 20
-0.111355249487298
 30
0.0
 40
0.075
  1
29
 50
90.0
 72
     2
 11
0.0325971415869511
 21
0.013644750512702
 31
0.0
100
AcDbAttribute
  2
A
 70
     0
  0
ATTRIB
  5
160E
330
160C
100
AcDbEntity
  8
8
100
AcDbText
 10
-0.0169028584130491
 20
0.0905912812813481
 30
0.0
 40
0.06
  1
1
 50
90.0
 72
     1
 11
-0.0169028584130491
 21
0.1005912812813481
 31
0.0
100
AcDbAttribute
  2
B
 70
     0
  0
ATTRIB
  5
160F
330
160C
100
AcDbEntity
  8
8
100
AcDbText
 10
0.0670971415869497
 20
0.0805912812813481
 30
0.0
 40
0.06
  1
2
 50
90.0
 72
     1
 11
0.0670971415869497
 21
0.1005912812813481
 31
0.0
100
AcDbAttribute
  2
C
 70
     0
  0
SEQEND
  5
1610
330
160C
100
AcDbEntity
  8
2
  0
ENDBLK
  5
1612
330
160B
100
AcDbEntity
  8
0
100
AcDbBlockEnd
  0
ENDSEC
  0
SECTION
  2
ENTITIES
  0
LINE
  5
1346
330
1F
100
AcDbEntity
  8
4
100
AcDbLine
 10
8.964966470789804
 20
3.819788161730185
 30
0.0
 11
8.964966470789804
 21
3.569788161730185
 31
0.0
  0
TEXT
  5
136E
330
1F
100
AcDbEntity
  8
8
100
AcDbText
 10
8.902966470789802
 20
3.560791421154225
 30
0.0
 40
0.07
  1
1
 50
90.0
 72
     1
 11
8.902966470789802
 21
3.572458087820892
 31
0.0
100
AcDbText
  0
CIRCLE
  5
1379
330
1F
100
AcDbEntity
  8
4
100
AcDbCircle
 10
5.359700526253255
 20
4.585271963341996
 30
0.0
 40
0.023
  0
CIRCLE
  5
137C
330
1F
100
AcDbEntity
  8
4
100
AcDbCircle
 10
5.359700526253255
 20
6.054271963341996
 30
0.0
 40
0.023
  0
LINE
  5
1380
330
1F
100
AcDbEntity
  8
4
100
AcDbLine
 10
8.964966470789804
 20
3.819788161730187
 30
0.0
 11
8.964966470789804
 21
3.694788161730187
 31
0.0
  0
LINE
  5
1381
330
1F
100
AcDbEntity
  8
4
100
AcDbLine
 10
9.154966470789805
 20
3.881788161730187
 30
0.0
 11
8.964966470789804
 21
3.881788161730187
 31
0.0
  0
LINE
  5
1382
330
1F
100
AcDbEntity
  8
4
100
AcDbLine
 10
8.964966470789804
 20
3.881788161730187
 30
0.0
 11
8.902966470789802
 21
3.881788161730187
 31
0.0
  0
LINE
  5
1385
330
1F
100
AcDbEntity
  8
4
100
AcDbLine
 10
9.217966470789804
 20
3.913788161730188
 30
0.0
 11
9.279966470789805
 21
3.913788161730188
 31
0.0
  0
LINE
  5
1386
330
1F
100
AcDbEntity
  8
4
100
AcDbLine
 10
10.5279664707898
 20
3.913788161730188
 30
0.0
 11
10.5899664707898
 21
3.913788161730188
 31
0.0
  0
LINE
  5
1387
330
1F
100
AcDbEntity
  8
4
100
AcDbLine
 10
11.8089664707898
 20
3.913788161730188
 30
0.0
 11
11.7469664707898
 21
3.913788161730188
 31
0.0
  0
LINE
  5
1388
330
1F
100
AcDbEntity
  8
4
100
AcDbLine
 10
11.8089664707898
 20
5.256794040287317
 30
0.0
 11
11.8089664707898
 21
3.913788161730188
 31
0.0
  0
LINE
  5
1389
330
1F
100
AcDbEntity
  8
4
100
AcDbLine
 10
10.5279664707898
 20
5.256794040287317
 30
0.0
 11
10.5279664707898
 21
3.913788161730188
 31
0.0
  0
LINE
  5
138A
330
1F
100
AcDbEntity
  8
4
100
AcDbLine
 10
9.217966470789804
 20
5.256794040287317
 30
0.0
 11
9.217966470789804
 21
3.913788161730188
 31
0.0
  0
LINE
  5
138B
330
1F
100
AcDbEntity
  8
4
100
AcDbLine
 10
8.964966470789804
 20
6.819788161730187
 30
0.0
 11
8.964966470789804
 21
3.881788161730187
 31
0.0
  0
LINE
  5
1398
330
1F
100
AcDbEntity
  8
4
100
AcDbLine
 10
10.5279664707898
 20
5.256794040287317
 30
0.0
 11
10.5899664707898
 21
5.256794040287317
 31
0.0
  0
LINE
  5
1399
330
1F
100
AcDbEntity
  8
4
100
AcDbLine
 10
11.7469664707898
 20
5.256794040287317
 30
0.0
 11
11.8089664707898
 21
5.256794040287317
 31
0.0
  0
LINE
  5
139A
330
1F
100
AcDbEntity
  8
4
100
AcDbLine
 10
11.7469664707898
 20
5.382749886396673
 30
0.0
 11
11.8089664707898
 21
5.382749886396673
 31
0.0
  0
LINE
  5
139B
330
1F
100
AcDbEntity
  8
4
100
AcDbLine
 10
10.5279664707898
 20
5.382749886396673
 30
0.0
 11
10.5899664707898
 21
5.382749886396673
 31
0.0
  0
LINE
  5
139C
330
1F
100
AcDbEntity
  8
4
100
AcDbLine
 10
9.217966470789804
 20
5.256794040287317
 30
0.0
 11
9.279966470789805
 21
5.256794040287317
 31
0.0
  0
LINE
  5
139D
330
1F
100
AcDbEntity
  8
4
100
AcDbLine
 10
9.217966470789804
 20
5.382749886396674
 30
0.0
 11
9.279966470789803
 21
5.382749886396674
 31
0.0
  0
LINE
  5
139E
330
1F
100
AcDbEntity
  8
4
100
AcDbLine
 10
11.6709664707898
 20
5.350794040287317
 30
0.0
 11
11.2039664707898
 21
5.350794040287317
 31
0.0
  0
LINE
  5
139F
330
1F
100
AcDbEntity
  8
4
100
AcDbLine
 10
11.7469664707898
 20
5.288794040287317
 30
0.0
 11
11.8089664707898
 21
5.288794040287317
 31
0.0
  0
LINE
  5
13A0
330
1F
100
AcDbEntity
  8
4
100
AcDbLine
 10
11.8089664707898
 20
5.288794040287317
 30
0.0
 11
11.8089664707898
 21
5.350794040287317
 31
0.0
  0
LINE
  5
13A1
330
1F
100
AcDbEntity
  8
4
100
AcDbLine
 10
11.8089664707898
 20
5.350794040287317
 30
0.0
 11
11.7009664707898
 21
5.350794040287317
 31
0.0
  0
LINE
  5
13A2
330
1F
100
AcDbEntity
  8
4
100
AcDbLine
 10
11.2039664707898
 20
5.350794040287317
 30
0.0
 11
11.2039664707898
 21
5.288794040287317
 31
0.0
  0
LINE
  5
13A3
330
1F
100
AcDbEntity
  8
4
100
AcDbLine
 10
11.2439664707898
 20
5.350794040287317
 30
0.0
 11
11.2439664707898
 21
5.288794040287317
 31
0.0
  0
LINE
  5
13A4
330
1F
100
AcDbEntity
  8
4
100
AcDbLine
 10
11.2439664707898
 20
5.288794040287317
 30
0.0
 11
11.6089664707898
 21
5.288794040287317
 31
0.0
  0
LINE
  5
13A5
330
1F
100
AcDbEntity
  8
4
100
AcDbLine
 10
11.6089664707898
 20
5.288794040287317
 30
0.0
 11
11.6709664707898
 21
5.350794040287317
 31
0.0
  0
LINE
  5
13A6
330
1F
100
AcDbEntity
  8
4
100
AcDbLine
 10
11.7839664707898
 20
5.335794040287317
 30
0.0
 11
11.7839664707898
 21
5.307547897849757
 31
0.0
  0
LINE
  5
13A7
330
1F
100
AcDbEntity
  8
4
100
AcDbLine
 10
11.6859664707898
 20
5.335794040287317
 30
0.0
 11
11.7839664707898
 21
5.335794040287317
 31
0.0
  0
LINE
  5
13A8
330
1F
100
AcDbEntity
  8
4
100
AcDbLine
 10
11.6709664707898
 20
5.350794040287317
 30
0.0
 11
11.6859664707898
 21
5.335794040287317
 31
0.0
  0
LINE
  5
13A9
330
1F
100
AcDbEntity
  8
4
100
AcDbLine
 10
10.6659664707898
 20
5.350794040287317
 30
0.0
 11
10.6509664707898
 21
5.335794040287317
 31
0.0
  0
LINE
  5
13AA
330
1F
100
AcDbEntity
  8
4
100
AcDbLine
 10
10.6509664707898
 20
5.335794040287317
 30
0.0
 11
10.5529664707898
 21
5.335794040287317
 31
0.0
  0
LINE
  5
13AB
330
1F
100
AcDbEntity
  8
4
100
AcDbLine
 10
10.5529664707898
 20
5.335794040287317
 30
0.0
 11
10.5529664707898
 21
5.307547897849757
 31
0.0
  0
LINE
  5
13AC
330
1F
100
AcDbEntity
  8
4
100
AcDbLine
 10
10.7279664707898
 20
5.288794040287317
 30
0.0
 11
10.6659664707898
 21
5.350794040287317
 31
0.0
  0
LINE
  5
13AD
330
1F
100
AcDbEntity
  8
4
100
AcDbLine
 10
11.0929664707898
 20
5.288794040287317
 30
0.0
 11
10.7279664707898
 21
5.288794040287317
 31
0.0
  0
LINE
  5
13AE
330
1F
100
AcDbEntity
  8
4
100
AcDbLine
 10
11.0929664707898
 20
5.350794040287317
 30
0.0
 11
11.0929664707898
 21
5.288794040287317
 31
0.0
  0
LINE
  5
13AF
330
1F
100
AcDbEntity
  8
4
100
AcDbLine
 10
11.1329664707898
 20
5.350794040287317
 30
0.0
 11
11.1329664707898
 21
5.288794040287317
 31
0.0
  0
LINE
  5
13B0
330
1F
100
AcDbEntity
  8
4
100
AcDbLine
 10
10.5279664707898
 20
5.350794040287317
 30
0.0
 11
10.6359664707898
 21
5.350794040287317
 31
0.0
  0
LINE
  5
13B1
330
1F
100
AcDbEntity
  8
4
100
AcDbLine
 10
10.5279664707898
 20
5.288794040287317
 30
0.0
 11
10.5279664707898
 21
5.350794040287317
 31
0.0
  0
LINE
  5
13B2
330
1F
100
AcDbEntity
  8
4
100
AcDbLine
 10
10.5899664707898
 20
5.288794040287317
 30
0.0
 11
10.5279664707898
 21
5.288794040287317
 31
0.0
  0
LINE
  5
13B3
330
1F
100
AcDbEntity
  8
4
100
AcDbLine
 10
10.6659664707898
 20
5.350794040287317
 30
0.0
 11
11.1329664707898
 21
5.350794040287317
 31
0.0
  0
LINE
  5
13B4
330
1F
100
AcDbEntity
  8
4
100
AcDbLine
 10
9.355966470789802
 20
5.350794040287317
 30
0.0
 11
9.822966470789804
 21
5.350794040287317
 31
0.0
  0
LINE
  5
13B5
330
1F
100
AcDbEntity
  8
4
100
AcDbLine
 10
9.279966470789803
 20
5.288794040287317
 30
0.0
 11
9.217966470789804
 21
5.288794040287317
 31
0.0
  0
LINE
  5
13B6
330
1F
100
AcDbEntity
  8
4
100
AcDbLine
 10
9.217966470789804
 20
5.288794040287317
 30
0.0
 11
9.217966470789804
 21
5.350794040287317
 31
0.0
  0
LINE
  5
13B7
330
1F
100
AcDbEntity
  8
4
100
AcDbLine
 10
9.217966470789804
 20
5.350794040287317
 30
0.0
 11
9.325966470789802
 21
5.350794040287317
 31
0.0
  0
LINE
  5
13B8
330
1F
100
AcDbEntity
  8
4
100
AcDbLine
 10
9.822966470789804
 20
5.350794040287317
 30
0.0
 11
9.822966470789804
 21
5.288794040287317
 31
0.0
  0
LINE
  5
13B9
330
1F
100
AcDbEntity
  8
4
100
AcDbLine
 10
9.782966470789803
 20
5.350794040287317
 30
0.0
 11
9.782966470789803
 21
5.288794040287317
 31
0.0
  0
LINE
  5
13BA
330
1F
100
AcDbEntity
  8
4
100
AcDbLine
 10
9.782966470789803
 20
5.288794040287317
 30
0.0
 11
9.417966470789803
 21
5.288794040287317
 31
0.0
  0
LINE
  5
13BB
330
1F
100
AcDbEntity
  8
4
100
AcDbLine
 10
9.417966470789803
 20
5.288794040287317
 30
0.0
 11
9.355966470789802
 21
5.350794040287317
 31
0.0
  0
LINE
  5
13BC
330
1F
100
AcDbEntity
  8
4
100
AcDbLine
 10
9.242966470789802
 20
5.335794040287317
 30
0.0
 11
9.242966470789802
 21
5.307547897849757
 31
0.0
  0
LINE
  5
13BD
330
1F
100
AcDbEntity
  8
4
100
AcDbLine
 10
9.340966470789803
 20
5.335794040287317
 30
0.0
 11
9.242966470789802
 21
5.335794040287317
 31
0.0
  0
LINE
  5
13BE
330
1F
100
AcDbEntity
  8
4
100
AcDbLine
 10
9.355966470789802
 20
5.350794040287317
 30
0.0
 11
9.340966470789803
 21
5.335794040287317
 31
0.0
  0
LINE
  5
13CC
330
1F
100
AcDbEntity
  8
4
100
AcDbLine
 10
9.154966470789805
 20
5.350794040287317
 30
0.0
 11
8.964966470789804
 21
5.350794040287317
 31
0.0
  0
LINE
  5
13CD
330
1F
100
AcDbEntity
  8
4
100
AcDbLine
 10
8.964966470789804
 20
5.350794040287317
 30
0.0
 11
8.902966470789802
 21
5.350794040287317
 31
0.0
  0
LINE
  5
13CF
330
1F
100
AcDbEntity
  8
4
100
AcDbLine
 10
9.217966470789804
 20
6.725788161730188
 30
0.0
 11
9.279966470789803
 21
6.725788161730188
 31
0.0
  0
LINE
  5
13D0
330
1F
100
AcDbEntity
  8
4
100
AcDbLine
 10
10.5279664707898
 20
6.725788161730188
 30
0.0
 11
10.5899664707898
 21
6.725788161730188
 31
0.0
  0
LINE
  5
13D1
330
1F
100
AcDbEntity
  8
4
100
AcDbLine
 10
11.8089664707898
 20
6.725788161730188
 30
0.0
 11
11.7469664707898
 21
6.725788161730188
 31
0.0
  0
LINE
  5
13D2
330
1F
100
AcDbEntity
  8
4
100
AcDbLine
 10
11.8089664707898
 20
6.725788161730188
 30
0.0
 11
11.8089664707898
 21
5.382749886396673
 31
0.0
  0
LINE
  5
13D3
330
1F
100
AcDbEntity
  8
4
100
AcDbLine
 10
10.5279664707898
 20
6.725788161730188
 30
0.0
 11
10.5279664707898
 21
5.382749886396673
 31
0.0
  0
LINE
  5
13D4
330
1F
100
AcDbEntity
  8
4
100
AcDbLine
 10
9.217966470789804
 20
6.725788161730188
 30
0.0
 11
9.217966470789804
 21
5.382749886396673
 31
0.0
  0
LINE
  5
13D5
330
1F
100
AcDbEntity
  8
4
100
AcDbLine
 10
5.265700526253255
 20
6.2362553189826
 30
0.0
 11
5.453700526253255
 21
6.2362553189826
 31
0.0
  0
LINE
  5
13D6
330
1F
100
AcDbEntity
  8
4
100
AcDbLine
 10
5.453700526253255
 20
6.2362553189826
 30
0.0
 11
5.421700526253255
 21
5.9337553189826
 31
0.0
  0
LINE
  5
13D7
330
1F
100
AcDbEntity
  8
4
100
AcDbLine
 10
5.265700526253255
 20
6.2362553189826
 30
0.0
 11
5.297700526253255
 21
5.9337553189826
 31
0.0
  0
LINE
  5
13D8
330
1F
100
AcDbEntity
  8
4
100
AcDbLine
 10
5.297700526253255
 20
5.9337553189826
 30
0.0
 11
5.421700526253255
 21
5.9337553189826
 31
0.0
  0
LINE
  5
13D9
330
1F
100
AcDbEntity
  8
4
100
AcDbLine
 10
5.282370998309954
 20
6.221255318982599
 30
0.0
 11
5.311197444590945
 21
5.9487553189826
 31
0.0
  0
LINE
  5
13DA
330
1F
100
AcDbEntity
  8
4
100
AcDbLine
 10
5.311197444590945
 20
5.948755318982598
 30
0.0
 11
5.408203607915565
 21
5.9487553189826
 31
0.0
  0
LINE
  5
13DB
330
1F
100
AcDbEntity
  8
4
100
AcDbLine
 10
5.437030054196556
 20
6.221255318982599
 30
0.0
 11
5.408203607915565
 21
5.9487553189826
 31
0.0
  0
LINE
  5
13DC
330
1F
100
AcDbEntity
  8
4
100
AcDbLine
 10
5.282370998309954
 20
6.221255318982599
 30
0.0
 11
5.437030054196556
 21
6.221255318982599
 31
0.0
  0
LINE
  5
13DD
330
1F
100
AcDbEntity
  8
4
100
AcDbLine
 10
5.374700526253255
 20
6.221255318982599
 30
0.0
 11
5.374700526253255
 21
6.174255318982599
 31
0.0
  0
LINE
  5
13DE
330
1F
100
AcDbEntity
  8
4
100
AcDbLine
 10
5.374700526253255
 20
6.174255318982599
 30
0.0
 11
5.344700526253255
 21
6.174255318982599
 31
0.0
  0
LINE
  5
13DF
330
1F
100
AcDbEntity
  8
4
100
AcDbLine
 10
5.344700526253255
 20
6.174255318982599
 30
0.0
 11
5.344700526253255
 21
6.221255318982599
 31
0.0
  0
LINE
  5
13F5
330
1F
100
AcDbEntity
  8
4
100
AcDbLine
 10
6.777466470789804
 20
5.288794040287317
 30
0.0
 11
6.965466470789803
 21
5.288794040287317
 31
0.0
  0
LINE
  5
13F6
330
1F
100
AcDbEntity
  8
4
100
AcDbLine
 10
6.777466470789804
 20
5.350794040287317
 30
0.0
 11
6.965466470789803
 21
5.350794040287317
 31
0.0
  0
LINE
  5
13F7
330
1F
100
AcDbEntity
  8
4
100
AcDbLine
 10
7.089466470789804
 20
5.350794040287317
 30
0.0
 11
7.590466470789803
 21
5.350794040287317
 31
0.0
  0
LINE
  5
13F8
330
1F
100
AcDbEntity
  8
4
100
AcDbLine
 10
7.089466470789804
 20
5.288794040287317
 30
0.0
 11
7.590466470789803
 21
5.288794040287317
 31
0.0
  0
LINE
  5
13F9
330
1F
100
AcDbEntity
  8
4
100
AcDbLine
 10
6.464466470789804
 20
5.350794040287317
 30
0.0
 11
6.626434771544252
 21
5.350794040287317
 31
0.0
  0
LINE
  5
13FA
330
1F
100
AcDbEntity
  8
4
100
AcDbLine
 10
6.464466470789804
 20
5.288794040287317
 30
0.0
 11
6.652466470789804
 21
5.288794040287317
 31
0.0
  0
LINE
  5
13FB
330
1F
100
AcDbEntity
  8
4
100
AcDbLine
 10
5.839466470789804
 20
5.350794040287317
 30
0.0
 11
6.340466470789803
 21
5.350794040287317
 31
0.0
  0
LINE
  5
13FC
330
1F
100
AcDbEntity
  8
4
100
AcDbLine
 10
5.839466470789804
 20
5.288794040287317
 30
0.0
 11
6.340466470789803
 21
5.288794040287317
 31
0.0
  0
LINE
  5
13FD
330
1F
100
AcDbEntity
  8
4
100
AcDbLine
 10
5.214466470789804
 20
5.350794040287317
 30
0.0
 11
5.715466470789803
 21
5.350794040287317
 31
0.0
  0
LINE
  5
13FE
330
1F
100
AcDbEntity
  8
4
100
AcDbLine
 10
5.214466470789804
 20
5.288794040287317
 30
0.0
 11
5.715466470789803
 21
5.288794040287317
 31
0.0
  0
LINE
  5
13FF
330
1F
100
AcDbEntity
  8
4
100
AcDbLine
 10
5.693466470789803
 20
4.287749886396674
 30
0.0
 11
5.693466470789803
 21
4.162749886396674
 31
0.0
  0
LINE
  5
1400
330
1F
100
AcDbEntity
  8
4
100
AcDbLine
 10
5.693466470789804
 20
5.006794040287317
 30
0.0
 11
5.693466470789804
 21
4.881794040287317
 31
0.0
  0
LINE
  5
1401
330
1F
100
AcDbEntity
  8
4
100
AcDbLine
 10
5.683466470789803
 20
3.913749886396674
 30
0.0
 11
5.246466470789803
 21
3.913749886396674
 31
0.0
  0
LINE
  5
1402
330
1F
100
AcDbEntity
  8
4
100
AcDbLine
 10
5.683466470789804
 20
5.256794040287317
 30
0.0
 11
5.683466470789803
 21
3.913749886396674
 31
0.0
  0
LINE
  5
1403
330
1F
100
AcDbEntity
  8
4
100
AcDbLine
 10
5.246466470789804
 20
5.256794040287317
 30
0.0
 11
5.683466470789804
 21
5.256794040287317
 31
0.0
  0
LINE
  5
1404
330
1F
100
AcDbEntity
  8
4
100
AcDbLine
 10
5.246466470789803
 20
3.913749886396674
 30
0.0
 11
5.246466470789804
 21
5.256794040287317
 31
0.0
  0
LINE
  5
1405
330
1F
100
AcDbEntity
  8
4
100
AcDbLine
 10
5.246466470789804
 20
5.382749886396673
 30
0.0
 11
5.246466470789804
 21
6.725794040287317
 31
0.0
  0
LINE
  5
1406
330
1F
100
AcDbEntity
  8
4
100
AcDbLine
 10
5.246466470789804
 20
6.725794040287317
 30
0.0
 11
5.683466470789804
 21
6.725794040287317
 31
0.0
  0
LINE
  5
1407
330
1F
100
AcDbEntity
  8
4
100
AcDbLine
 10
5.683466470789804
 20
6.725794040287317
 30
0.0
 11
5.683466470789803
 21
5.382749886396674
 31
0.0
  0
LINE
  5
1408
330
1F
100
AcDbEntity
  8
4
100
AcDbLine
 10
5.683466470789803
 20
5.382749886396674
 30
0.0
 11
5.246466470789804
 21
5.382749886396673
 31
0.0
  0
LINE
  5
1409
330
1F
100
AcDbEntity
  8
4
100
AcDbLine
 10
5.693466470789804
 20
6.475794040287317
 30
0.0
 11
5.693466470789804
 21
6.350794040287317
 31
0.0
  0
LINE
  5
140A
330
1F
100
AcDbEntity
  8
4
100
AcDbLine
 10
5.693466470789804
 20
5.756749886396674
 30
0.0
 11
5.693466470789804
 21
5.631749886396674
 31
0.0
  0
LINE
  5
140B
330
1F
100
AcDbEntity
  8
4
100
AcDbLine
 10
5.11337835331312
 20
6.194616227045289
 30
0.0
 11
4.73837835331312
 21
6.194616227045289
 31
0.0
  0
LINE
  5
140C
330
1F
100
AcDbEntity
  8
4
100
AcDbLine
 10
4.73837835331312
 20
6.194616227045289
 30
0.0
 11
4.73837835331312
 21
6.256616227045288
 31
0.0
  0
LINE
  5
140D
330
1F
100
AcDbEntity
  8
4
100
AcDbLine
 10
5.11337835331312
 20
6.054271963341996
 30
0.0
 11
4.73837835331312
 21
6.054271963341996
 31
0.0
  0
LINE
  5
140E
330
1F
100
AcDbEntity
  8
4
100
AcDbLine
 10
4.73837835331312
 20
6.054271963341996
 30
0.0
 11
4.73837835331312
 21
5.992271963341996
 31
0.0
  0
LINE
  5
1411
330
1F
100
AcDbEntity
  8
4
100
AcDbLine
 10
5.344700526253255
 20
4.705255318982599
 30
0.0
 11
5.344700526253255
 21
4.752255318982599
 31
0.0
  0
LINE
  5
1412
330
1F
100
AcDbEntity
  8
4
100
AcDbLine
 10
5.374700526253255
 20
4.705255318982599
 30
0.0
 11
5.344700526253255
 21
4.705255318982599
 31
0.0
  0
LINE
  5
1413
330
1F
100
AcDbEntity
  8
4
100
AcDbLine
 10
5.374700526253255
 20
4.752255318982599
 30
0.0
 11
5.374700526253255
 21
4.705255318982599
 31
0.0
  0
LINE
  5
1414
330
1F
100
AcDbEntity
  8
4
100
AcDbLine
 10
5.282370998309954
 20
4.752255318982599
 30
0.0
 11
5.437030054196556
 21
4.752255318982599
 31
0.0
  0
LINE
  5
1415
330
1F
100
AcDbEntity
  8
4
100
AcDbLine
 10
5.437030054196556
 20
4.752255318982599
 30
0.0
 11
5.408203607915565
 21
4.4797553189826
 31
0.0
  0
LINE
  5
1416
330
1F
100
AcDbEntity
  8
4
100
AcDbLine
 10
5.311197444590945
 20
4.479755318982599
 30
0.0
 11
5.408203607915565
 21
4.4797553189826
 31
0.0
  0
LINE
  5
1417
330
1F
100
AcDbEntity
  8
4
100
AcDbLine
 10
5.282370998309954
 20
4.752255318982599
 30
0.0
 11
5.311197444590945
 21
4.4797553189826
 31
0.0
  0
LINE
  5
1418
330
1F
100
AcDbEntity
  8
4
100
AcDbLine
 10
5.297700526253255
 20
4.464755318982599
 30
0.0
 11
5.421700526253255
 21
4.464755318982599
 31
0.0
  0
LINE
  5
1419
330
1F
100
AcDbEntity
  8
4
100
AcDbLine
 10
5.265700526253255
 20
4.767255318982599
 30
0.0
 11
5.297700526253255
 21
4.464755318982599
 31
0.0
  0
LINE
  5
141A
330
1F
100
AcDbEntity
  8
4
100
AcDbLine
 10
5.453700526253255
 20
4.767255318982599
 30
0.0
 11
5.421700526253255
 21
4.464755318982599
 31
0.0
  0
LINE
  5
141B
330
1F
100
AcDbEntity
  8
4
100
AcDbLine
 10
5.265700526253255
 20
4.767255318982599
 30
0.0
 11
5.453700526253255
 21
4.767255318982599
 31
0.0
  0
LINE
  5
141C
330
1F
100
AcDbEntity
  8
2
100
AcDbLine
 10
5.328226259823093
 20
6.687183993994422
 30
0.0
 11
5.578226259823091
 21
6.687183993994421
 31
0.0
  0
LINE
  5
141D
330
1F
100
AcDbEntity
  8
2
100
AcDbLine
 10
5.353226259823092
 20
6.311683993994423
 30
0.0
 11
5.603226259823092
 21
6.311683993994423
 31
0.0
  0
LINE
  5
141E
330
1F
100
AcDbEntity
  8
2
100
AcDbLine
 10
5.309476259823092
 20
6.649683993994422
 30
0.0
 11
5.309476259823092
 21
6.407183993994422
 31
0.0
  0
LINE
  5
141F
330
1F
100
AcDbEntity
  8
2
100
AcDbLine
 10
5.621976259823092
 20
6.591683993994422
 30
0.0
 11
5.621976259823092
 21
6.349183993994422
 31
0.0
  0
LINE
  5
1420
330
1F
100
AcDbEntity
  8
2
100
AcDbLine
 10
5.621976259823092
 20
5.746959649693394
 30
0.0
 11
5.621976259823092
 21
5.504459649693394
 31
0.0
  0
LINE
  5
1421
330
1F
100
AcDbEntity
  8
2
100
AcDbLine
 10
5.309476259823092
 20
5.804959649693394
 30
0.0
 11
5.309476259823092
 21
5.562459649693394
 31
0.0
  0
LINE
  5
1422
330
1F
100
AcDbEntity
  8
2
100
AcDbLine
 10
5.353226259823092
 20
5.466959649693394
 30
0.0
 11
5.603226259823092
 21
5.466959649693394
 31
0.0
  0
LINE
  5
1423
330
1F
100
AcDbEntity
  8
2
100
AcDbLine
 10
5.328226259823093
 20
5.842459649693394
 30
0.0
 11
5.578226259823091
 21
5.842459649693394
 31
0.0
  0
LINE
  5
1424
330
1F
100
AcDbEntity
  8
2
100
AcDbLine
 10
5.328226259823091
 20
4.373459649693394
 30
0.0
 11
5.578226259823091
 21
4.373459649693393
 31
0.0
  0
LINE
  5
1425
330
1F
100
AcDbEntity
  8
2
100
AcDbLine
 10
5.353226259823092
 20
3.997959649693394
 30
0.0
 11
5.603226259823092
 21
3.997959649693394
 31
0.0
  0
LINE
  5
1426
330
1F
100
AcDbEntity
  8
2
100
AcDbLine
 10
5.309476259823092
 20
4.335959649693394
 30
0.0
 11
5.309476259823092
 21
4.093459649693394
 31
0.0
  0
LINE
  5
1427
330
1F
100
AcDbEntity
  8
2
100
AcDbLine
 10
5.621976259823092
 20
4.277959649693394
 30
0.0
 11
5.621976259823092
 21
4.035459649693394
 31
0.0
  0
LINE
  5
1428
330
1F
100
AcDbEntity
  8
2
100
AcDbLine
 10
5.621976259823092
 20
5.122683993994423
 30
0.0
 11
5.621976259823092
 21
4.880183993994423
 31
0.0
  0
LINE
  5
1429
330
1F
100
AcDbEntity
  8
2
100
AcDbLine
 10
5.309476259823092
 20
5.180683993994422
 30
0.0
 11
5.309476259823092
 21
4.938183993994423
 31
0.0
  0
LINE
  5
142A
330
1F
100
AcDbEntity
  8
2
100
AcDbLine
 10
5.353226259823092
 20
4.842683993994422
 30
0.0
 11
5.603226259823092
 21
4.842683993994422
 31
0.0
  0
LINE
  5
142B
330
1F
100
AcDbEntity
  8
2
100
AcDbLine
 10
5.328226259823091
 20
5.218183993994422
 30
0.0
 11
5.578226259823091
 21
5.218183993994422
 31
0.0
  0
TEXT
  5
142C
330
1F
100
AcDbEntity
  8
8
100
AcDbText
 10
5.661395042218375
 20
2.413788161730187
 30
0.0
 40
0.125
  1
ALL WELDED VENTILATED LOCKER - 60" DOUBLE TIER
  7
ROMANS
 72
     1
 11
8.277466470789804
 21
2.413788161730187
 31
0.0
100
AcDbText
  0
LINE
  5
143B
330
1F
100
AcDbEntity
  8
2
100
AcDbLine
 10
9.460651973960676
 20
3.949075303675998
 30
0.0
 11
9.710651973960676
 21
3.949075303675998
 31
0.0
  0
LINE
  5
143E
330
1F
100
AcDbEntity
  8
2
100
AcDbLine
 10
10.77065197396067
 20
3.949075303675998
 30
0.0
 11
11.02065197396067
 21
3.949075303675998
 31
0.0
  0
LINE
  5
1442
330
1F
100
AcDbEntity
  8
2
100
AcDbLine
 10
11.34165197396067
 20
3.949075303675999
 30
0.0
 11
11.59165197396067
 21
3.949075303675999
 31
0.0
  0
LINE
  5
1446
330
1F
100
AcDbEntity
  8
2
100
AcDbLine
 10
11.29790197396068
 20
6.574391684767428
 30
0.0
 11
11.29790197396068
 21
4.044575303675998
 31
0.0
  0
LINE
  5
1448
330
1F
100
AcDbEntity
  8
2
100
AcDbLine
 10
11.31665197396068
 20
6.611891684767429
 30
0.0
 11
11.56665197396067
 21
6.611891684767428
 31
0.0
  0
LINE
  5
1449
330
1F
100
AcDbEntity
  8
2
100
AcDbLine
 10
11.03940197396067
 20
6.516391684767429
 30
0.0
 11
11.03940197396067
 21
3.986575303675998
 31
0.0
  0
LINE
  5
144A
330
1F
100
AcDbEntity
  8
2
100
AcDbLine
 10
10.72690197396067
 20
6.574391684767428
 30
0.0
 11
10.72690197396067
 21
4.044575303675998
 31
0.0
  0
LINE
  5
144C
330
1F
100
AcDbEntity
  8
2
100
AcDbLine
 10
10.74565197396067
 20
6.611891684767429
 30
0.0
 11
10.99565197396067
 21
6.611891684767428
 31
0.0
  0
LINE
  5
144D
330
1F
100
AcDbEntity
  8
2
100
AcDbLine
 10
9.435651973960677
 20
6.611891684767429
 30
0.0
 11
9.685651973960675
 21
6.611891684767428
 31
0.0
  0
LINE
  5
144F
330
1F
100
AcDbEntity
  8
2
100
AcDbLine
 10
9.416901973960676
 20
6.574391684767428
 30
0.0
 11
9.416901973960676
 21
4.044575303675998
 31
0.0
  0
LINE
  5
1450
330
1F
100
AcDbEntity
  8
2
100
AcDbLine
 10
9.729401973960676
 20
6.516391684767429
 30
0.0
 11
9.729401973960676
 21
3.986575303675998
 31
0.0
  0
TEXT
  5
1469
330
1F
100
AcDbEntity
  8
8
100
AcDbText
 10
9.364966470789806
 20
3.223636399675871
 30
0.0
 40
0.07
  1
DEPTH
  7
ROMANS
 72
     1
 11
9.529966470789805
 21
3.223636399675871
 31
0.0
100
AcDbText
  0
TEXT
  5
146A
330
1F
100
AcDbEntity
  8
8
100
AcDbText
 10
10.9874664707898
 20
3.223636399675871
 30
0.0
 40
0.07
  1
DEPTH
  7
ROMANS
 72
     1
 11
11.1524664707898
 21
3.223636399675871
 31
0.0
100
AcDbText
  0
TEXT
  5
146B
330
1F
100
AcDbEntity
  8
8
100
AcDbText
 10
10.43030495786335
 20
3.066389168555497
 30
0.0
 40
0.1
  1
SR BACK TO BACK
  7
ROMANS
 72
     1
 11
11.15411448167287
 21
3.066389168555497
 31
0.0
100
AcDbText
  0
TEXT
  5
146C
330
1F
100
AcDbEntity
  8
8
100
AcDbText
 10
9.946855795348183
 20
2.881788161730187
 30
0.0
 40
0.1
  1
SECTIONS
  7
ROMANS
 72
     1
 11
10.29923674772913
 21
2.881788161730187
 31
0.0
100
AcDbText
  0
TEXT
  5
146D
330
1F
100
AcDbEntity
  8
8
100
AcDbText
 10
9.45451963391676
 20
3.066389168555497
 30
0.0
 40
0.1
  1
SR
  7
ROMANS
 72
     1
 11
9.552138681535808
 21
3.066389168555497
 31
0.0
100
AcDbText
  0
LINE
  5
146E
330
1F
100
AcDbEntity
  8
4
100
AcDbLine
 10
9.780466470789804
 20
6.569788161730187
 30
0.0
 11
10.04419807345521
 21
6.569788161730187
 31
0.0
  0
LINE
  5
146F
330
1F
100
AcDbEntity
  8
4
100
AcDbLine
 10
10.08462528312763
 20
6.569788161730187
 30
0.0
 11
10.26508907995157
 21
6.569788161730187
 31
0.0
  0
LINE
  5
1471
330
1F
100
AcDbEntity
  8
4
100
AcDbLine
 10
10.26508907995157
 20
6.569788161730187
 30
0.0
 11
10.26508907995157
 21
6.366800491939675
 31
0.0
  0
TEXT
  5
1472
330
1F
100
AcDbEntity
  8
8
100
AcDbText
 10
10.30008907995157
 20
4.991467158606341
 30
0.0
 40
0.07
  1
ANCHORING BY ERECTOR
 50
90.0
  7
ROMANS
 72
     2
 11
10.30008907995157
 21
6.304800491939674
 31
0.0
100
AcDbText
  0
TEXT
  5
1473
330
1F
100
AcDbEntity
  8
8
100
AcDbText
 10
8.652966470789802
 20
4.75812149506352
 30
0.0
 40
0.07
  1
  LOCKER HEIGHT
 50
90.0
  7
ROMANS
 72
     1
 11
8.652966470789802
 21
5.319788161730187
 31
0.0
100
AcDbText
  0
TEXT
  5
1474
330
1F
100
AcDbEntity
  8
8
100
AcDbText
 10
5.497466470789802
 20
3.381788161730187
 30
0.0
 40
0.07
  1
LOCKER WIDTH - SEE SCHEDULE
  7
ROMANS
 72
     1
 11
6.402466470789804
 21
3.381788161730187
 31
0.0
100
AcDbText
  0
TEXT
  5
1475
330
1F
100
AcDbEntity
  8
8
100
AcDbText
 10
5.73818075650409
 20
2.881788161730187
 30
0.0
 40
0.1
  1
FRONT ELEVATION
  7
ROMANS
 72
     1
 11
6.402466470789804
 21
2.881788161730187
 31
0.0
100
AcDbText
  0
LINE
  5
1476
330
1F
100
AcDbEntity
  8
4
100
AcDbLine
 10
11.8094664707898
 20
3.257788161730187
 30
0.0
 11
11.8094664707898
 21
3.445788161730187
 31
0.0
  0
LINE
  5
1477
330
1F
100
AcDbEntity
  8
4
100
AcDbLine
 10
10.5274664707898
 20
3.257788161730187
 30
0.0
 11
10.5274664707898
 21
3.445788161730187
 31
0.0
  0
LINE
  5
1478
330
1F
100
AcDbEntity
  8
4
100
AcDbLine
 10
9.902466470789804
 20
3.257788161730187
 30
0.0
 11
9.902466470789804
 21
3.445788161730187
 31
0.0
  0
LINE
  5
1479
330
1F
100
AcDbEntity
  8
4
100
AcDbLine
 10
9.842466470789805
 20
3.257788161730187
 30
0.0
 11
9.842466470789805
 21
3.445788161730187
 31
0.0
  0
LINE
  5
147A
330
1F
100
AcDbEntity
  8
4
100
AcDbLine
 10
9.217466470789805
 20
3.257788161730187
 30
0.0
 11
9.217466470789805
 21
3.445788161730187
 31
0.0
  0
LINE
  5
147B
330
1F
100
AcDbEntity
  8
1
100
AcDbLine
 10
9.902466470789804
 20
4.069788161730187
 30
0.0
 11
10.0904664707898
 21
4.257788161730187
 31
0.0
  0
LINE
  5
147C
330
1F
100
AcDbEntity
  8
1
100
AcDbLine
 10
9.902466470789804
 20
4.194788161730187
 30
0.0
 11
10.0904664707898
 21
4.382788161730187
 31
0.0
  0
LINE
  5
147D
330
1F
100
AcDbEntity
  8
1
100
AcDbLine
 10
9.355966470789802
 20
3.882288161730187
 30
0.0
 11
9.340966470789803
 21
3.867288161730186
 31
0.0
  0
LINE
  5
147E
330
1F
100
AcDbEntity
  8
1
100
AcDbLine
 10
9.340966470789803
 20
3.867288161730186
 30
0.0
 11
9.242966470789802
 21
3.867288161730186
 31
0.0
  0
LINE
  5
147F
330
1F
100
AcDbEntity
  8
1
100
AcDbLine
 10
9.242966470789802
 20
3.867288161730186
 30
0.0
 11
9.242966470789802
 21
3.839042019292627
 31
0.0
  0
LINE
  5
1480
330
1F
100
AcDbEntity
  8
1
100
AcDbLine
 10
9.417966470789803
 20
3.820288161730187
 30
0.0
 11
9.355966470789802
 21
3.882288161730187
 31
0.0
  0
LINE
  5
1481
330
1F
100
AcDbEntity
  8
1
100
AcDbLine
 10
9.782966470789803
 20
3.820288161730187
 30
0.0
 11
9.417966470789803
 21
3.820288161730187
 31
0.0
  0
LINE
  5
1482
330
1F
100
AcDbEntity
  8
1
100
AcDbLine
 10
9.782966470789803
 20
3.882288161730187
 30
0.0
 11
9.782966470789803
 21
3.820288161730187
 31
0.0
  0
LINE
  5
1483
330
1F
100
AcDbEntity
  8
1
100
AcDbLine
 10
9.822966470789804
 20
3.882288161730187
 30
0.0
 11
9.822966470789804
 21
3.820288161730187
 31
0.0
  0
LINE
  5
1484
330
1F
100
AcDbEntity
  8
1
100
AcDbLine
 10
9.217966470789804
 20
3.882288161730187
 30
0.0
 11
9.325966470789802
 21
3.882288161730187
 31
0.0
  0
LINE
  5
1485
330
1F
100
AcDbEntity
  8
1
100
AcDbLine
 10
9.217966470789804
 20
3.820288161730187
 30
0.0
 11
9.217966470789804
 21
3.882288161730187
 31
0.0
  0
LINE
  5
1486
330
1F
100
AcDbEntity
  8
1
100
AcDbLine
 10
9.279966470789803
 20
3.820288161730187
 30
0.0
 11
9.217966470789804
 21
3.820288161730187
 31
0.0
  0
LINE
  5
1487
330
1F
100
AcDbEntity
  8
1
100
AcDbLine
 10
9.355966470789802
 20
3.882288161730187
 30
0.0
 11
9.822966470789804
 21
3.882288161730187
 31
0.0
  0
LINE
  5
1488
330
1F
100
AcDbEntity
  8
1
100
AcDbLine
 10
10.6659664707898
 20
3.882288161730187
 30
0.0
 11
11.1329664707898
 21
3.882288161730187
 31
0.0
  0
LINE
  5
1489
330
1F
100
AcDbEntity
  8
1
100
AcDbLine
 10
10.5899664707898
 20
3.820288161730187
 30
0.0
 11
10.5279664707898
 21
3.820288161730187
 31
0.0
  0
LINE
  5
148A
330
1F
100
AcDbEntity
  8
1
100
AcDbLine
 10
10.5279664707898
 20
3.820288161730187
 30
0.0
 11
10.5279664707898
 21
3.882288161730187
 31
0.0
  0
LINE
  5
148B
330
1F
100
AcDbEntity
  8
1
100
AcDbLine
 10
10.5279664707898
 20
3.882288161730187
 30
0.0
 11
10.6359664707898
 21
3.882288161730187
 31
0.0
  0
LINE
  5
148C
330
1F
100
AcDbEntity
  8
1
100
AcDbLine
 10
11.1329664707898
 20
3.882288161730187
 30
0.0
 11
11.1329664707898
 21
3.820288161730187
 31
0.0
  0
LINE
  5
148D
330
1F
100
AcDbEntity
  8
1
100
AcDbLine
 10
11.0929664707898
 20
3.882288161730187
 30
0.0
 11
11.0929664707898
 21
3.820288161730187
 31
0.0
  0
LINE
  5
148E
330
1F
100
AcDbEntity
  8
1
100
AcDbLine
 10
11.0929664707898
 20
3.820288161730187
 30
0.0
 11
10.7279664707898
 21
3.820288161730187
 31
0.0
  0
LINE
  5
148F
330
1F
100
AcDbEntity
  8
1
100
AcDbLine
 10
10.7279664707898
 20
3.820288161730187
 30
0.0
 11
10.6659664707898
 21
3.882288161730187
 31
0.0
  0
LINE
  5
1490
330
1F
100
AcDbEntity
  8
1
100
AcDbLine
 10
10.5529664707898
 20
3.867288161730186
 30
0.0
 11
10.5529664707898
 21
3.839042019292627
 31
0.0
  0
LINE
  5
1491
330
1F
100
AcDbEntity
  8
1
100
AcDbLine
 10
10.6509664707898
 20
3.867288161730186
 30
0.0
 11
10.5529664707898
 21
3.867288161730186
 31
0.0
  0
LINE
  5
1492
330
1F
100
AcDbEntity
  8
1
100
AcDbLine
 10
10.6659664707898
 20
3.882288161730187
 30
0.0
 11
10.6509664707898
 21
3.867288161730186
 31
0.0
  0
LINE
  5
1493
330
1F
100
AcDbEntity
  8
1
100
AcDbLine
 10
11.6709664707898
 20
3.882288161730187
 30
0.0
 11
11.6859664707898
 21
3.867288161730186
 31
0.0
  0
LINE
  5
1494
330
1F
100
AcDbEntity
  8
1
100
AcDbLine
 10
11.6859664707898
 20
3.867288161730186
 30
0.0
 11
11.7839664707898
 21
3.867288161730186
 31
0.0
  0
LINE
  5
1495
330
1F
100
AcDbEntity
  8
1
100
AcDbLine
 10
11.7839664707898
 20
3.867288161730186
 30
0.0
 11
11.7839664707898
 21
3.839042019292627
 31
0.0
  0
LINE
  5
1496
330
1F
100
AcDbEntity
  8
1
100
AcDbLine
 10
11.6089664707898
 20
3.820288161730187
 30
0.0
 11
11.6709664707898
 21
3.882288161730187
 31
0.0
  0
LINE
  5
1497
330
1F
100
AcDbEntity
  8
1
100
AcDbLine
 10
11.2439664707898
 20
3.820288161730187
 30
0.0
 11
11.6089664707898
 21
3.820288161730187
 31
0.0
  0
LINE
  5
1498
330
1F
100
AcDbEntity
  8
1
100
AcDbLine
 10
11.2439664707898
 20
3.882288161730187
 30
0.0
 11
11.2439664707898
 21
3.820288161730187
 31
0.0
  0
LINE
  5
1499
330
1F
100
AcDbEntity
  8
1
100
AcDbLine
 10
11.2039664707898
 20
3.882288161730187
 30
0.0
 11
11.2039664707898
 21
3.820288161730187
 31
0.0
  0
LINE
  5
149A
330
1F
100
AcDbEntity
  8
1
100
AcDbLine
 10
11.8089664707898
 20
3.882288161730187
 30
0.0
 11
11.7009664707898
 21
3.882288161730187
 31
0.0
  0
LINE
  5
149B
330
1F
100
AcDbEntity
  8
1
100
AcDbLine
 10
11.8089664707898
 20
3.820288161730187
 30
0.0
 11
11.8089664707898
 21
3.882288161730187
 31
0.0
  0
LINE
  5
149C
330
1F
100
AcDbEntity
  8
1
100
AcDbLine
 10
11.7469664707898
 20
3.820288161730187
 30
0.0
 11
11.8089664707898
 21
3.820288161730187
 31
0.0
  0
LINE
  5
149D
330
1F
100
AcDbEntity
  8
1
100
AcDbLine
 10
11.6709664707898
 20
3.882288161730187
 30
0.0
 11
11.2039664707898
 21
3.882288161730187
 31
0.0
  0
LINE
  5
149E
330
1F
100
AcDbEntity
  8
1
100
AcDbLine
 10
11.6709664707898
 20
6.819788161730187
 30
0.0
 11
11.2039664707898
 21
6.819788161730187
 31
0.0
  0
LINE
  5
149F
330
1F
100
AcDbEntity
  8
1
100
AcDbLine
 10
11.7469664707898
 20
6.757788161730187
 30
0.0
 11
11.8089664707898
 21
6.757788161730187
 31
0.0
  0
LINE
  5
14A0
330
1F
100
AcDbEntity
  8
1
100
AcDbLine
 10
11.8089664707898
 20
6.757788161730187
 30
0.0
 11
11.8089664707898
 21
6.819788161730187
 31
0.0
  0
LINE
  5
14A1
330
1F
100
AcDbEntity
  8
1
100
AcDbLine
 10
11.8089664707898
 20
6.819788161730187
 30
0.0
 11
11.7009664707898
 21
6.819788161730187
 31
0.0
  0
LINE
  5
14A2
330
1F
100
AcDbEntity
  8
1
100
AcDbLine
 10
11.2039664707898
 20
6.819788161730187
 30
0.0
 11
11.2039664707898
 21
6.757788161730187
 31
0.0
  0
LINE
  5
14A3
330
1F
100
AcDbEntity
  8
1
100
AcDbLine
 10
11.2439664707898
 20
6.819788161730187
 30
0.0
 11
11.2439664707898
 21
6.757788161730187
 31
0.0
  0
LINE
  5
14A4
330
1F
100
AcDbEntity
  8
1
100
AcDbLine
 10
11.2439664707898
 20
6.757788161730187
 30
0.0
 11
11.6089664707898
 21
6.757788161730187
 31
0.0
  0
LINE
  5
14A5
330
1F
100
AcDbEntity
  8
1
100
AcDbLine
 10
11.6089664707898
 20
6.757788161730187
 30
0.0
 11
11.6709664707898
 21
6.819788161730187
 31
0.0
  0
LINE
  5
14A6
330
1F
100
AcDbEntity
  8
1
100
AcDbLine
 10
11.7839664707898
 20
6.804788161730186
 30
0.0
 11
11.7839664707898
 21
6.776542019292627
 31
0.0
  0
LINE
  5
14A7
330
1F
100
AcDbEntity
  8
1
100
AcDbLine
 10
11.6859664707898
 20
6.804788161730186
 30
0.0
 11
11.7839664707898
 21
6.804788161730186
 31
0.0
  0
LINE
  5
14A8
330
1F
100
AcDbEntity
  8
1
100
AcDbLine
 10
11.6709664707898
 20
6.819788161730187
 30
0.0
 11
11.6859664707898
 21
6.804788161730186
 31
0.0
  0
LINE
  5
14A9
330
1F
100
AcDbEntity
  8
1
100
AcDbLine
 10
10.6659664707898
 20
6.819788161730187
 30
0.0
 11
10.6509664707898
 21
6.804788161730186
 31
0.0
  0
LINE
  5
14AA
330
1F
100
AcDbEntity
  8
1
100
AcDbLine
 10
10.6509664707898
 20
6.804788161730186
 30
0.0
 11
10.5529664707898
 21
6.804788161730186
 31
0.0
  0
LINE
  5
14AB
330
1F
100
AcDbEntity
  8
1
100
AcDbLine
 10
10.5529664707898
 20
6.804788161730186
 30
0.0
 11
10.5529664707898
 21
6.776542019292627
 31
0.0
  0
LINE
  5
14AC
330
1F
100
AcDbEntity
  8
1
100
AcDbLine
 10
10.7279664707898
 20
6.757788161730187
 30
0.0
 11
10.6659664707898
 21
6.819788161730187
 31
0.0
  0
LINE
  5
14AD
330
1F
100
AcDbEntity
  8
1
100
AcDbLine
 10
11.0929664707898
 20
6.757788161730187
 30
0.0
 11
10.7279664707898
 21
6.757788161730187
 31
0.0
  0
LINE
  5
14AE
330
1F
100
AcDbEntity
  8
1
100
AcDbLine
 10
11.0929664707898
 20
6.819788161730187
 30
0.0
 11
11.0929664707898
 21
6.757788161730187
 31
0.0
  0
LINE
  5
14AF
330
1F
100
AcDbEntity
  8
1
100
AcDbLine
 10
11.1329664707898
 20
6.819788161730187
 30
0.0
 11
11.1329664707898
 21
6.757788161730187
 31
0.0
  0
LINE
  5
14B0
330
1F
100
AcDbEntity
  8
1
100
AcDbLine
 10
10.5279664707898
 20
6.819788161730187
 30
0.0
 11
10.6359664707898
 21
6.819788161730187
 31
0.0
  0
LINE
  5
14B1
330
1F
100
AcDbEntity
  8
1
100
AcDbLine
 10
10.5279664707898
 20
6.757788161730187
 30
0.0
 11
10.5279664707898
 21
6.819788161730187
 31
0.0
  0
LINE
  5
14B2
330
1F
100
AcDbEntity
  8
1
100
AcDbLine
 10
10.5899664707898
 20
6.757788161730187
 30
0.0
 11
10.5279664707898
 21
6.757788161730187
 31
0.0
  0
LINE
  5
14B3
330
1F
100
AcDbEntity
  8
1
100
AcDbLine
 10
10.6659664707898
 20
6.819788161730187
 30
0.0
 11
11.1329664707898
 21
6.819788161730187
 31
0.0
  0
LINE
  5
14B4
330
1F
100
AcDbEntity
  8
1
100
AcDbLine
 10
9.355966470789802
 20
6.819788161730187
 30
0.0
 11
9.822966470789804
 21
6.819788161730187
 31
0.0
  0
LINE
  5
14B5
330
1F
100
AcDbEntity
  8
1
100
AcDbLine
 10
9.279966470789803
 20
6.757788161730187
 30
0.0
 11
9.217966470789804
 21
6.757788161730187
 31
0.0
  0
LINE
  5
14B6
330
1F
100
AcDbEntity
  8
1
100
AcDbLine
 10
9.217966470789804
 20
6.757788161730187
 30
0.0
 11
9.217966470789804
 21
6.819788161730187
 31
0.0
  0
LINE
  5
14B7
330
1F
100
AcDbEntity
  8
1
100
AcDbLine
 10
9.217966470789804
 20
6.819788161730187
 30
0.0
 11
9.325966470789802
 21
6.819788161730187
 31
0.0
  0
LINE
  5
14B8
330
1F
100
AcDbEntity
  8
1
100
AcDbLine
 10
9.822966470789804
 20
6.819788161730187
 30
0.0
 11
9.822966470789804
 21
6.757788161730187
 31
0.0
  0
LINE
  5
14B9
330
1F
100
AcDbEntity
  8
1
100
AcDbLine
 10
9.782966470789803
 20
6.819788161730187
 30
0.0
 11
9.782966470789803
 21
6.757788161730187
 31
0.0
  0
LINE
  5
14BA
330
1F
100
AcDbEntity
  8
1
100
AcDbLine
 10
9.782966470789803
 20
6.757788161730187
 30
0.0
 11
9.417966470789803
 21
6.757788161730187
 31
0.0
  0
LINE
  5
14BB
330
1F
100
AcDbEntity
  8
1
100
AcDbLine
 10
9.417966470789803
 20
6.757788161730187
 30
0.0
 11
9.355966470789802
 21
6.819788161730187
 31
0.0
  0
LINE
  5
14BC
330
1F
100
AcDbEntity
  8
1
100
AcDbLine
 10
9.242966470789802
 20
6.804788161730186
 30
0.0
 11
9.242966470789802
 21
6.776542019292627
 31
0.0
  0
LINE
  5
14BD
330
1F
100
AcDbEntity
  8
1
100
AcDbLine
 10
9.340966470789803
 20
6.804788161730186
 30
0.0
 11
9.242966470789802
 21
6.804788161730186
 31
0.0
  0
LINE
  5
14BE
330
1F
100
AcDbEntity
  8
1
100
AcDbLine
 10
9.355966470789802
 20
6.819788161730187
 30
0.0
 11
9.340966470789803
 21
6.804788161730186
 31
0.0
  0
LINE
  5
14BF
330
1F
100
AcDbEntity
  8
1
100
AcDbLine
 10
5.214466470789804
 20
3.881788161730187
 30
0.0
 11
5.715466470789803
 21
3.881788161730187
 31
0.0
  0
LINE
  5
14C0
330
1F
100
AcDbEntity
  8
4
100
AcDbLine
 10
6.025333181097817
 20
3.693788161730187
 30
0.0
 11
6.087333181097816
 21
3.693788161730187
 31
0.0
  0
CIRCLE
  5
14C1
330
1F
100
AcDbEntity
  8
4
100
AcDbCircle
 10
6.181333181097817
 20
3.693788161730187
 30
0.0
 40
0.094
  0
LINE
  5
14C2
330
1F
100
AcDbEntity
  8
4
100
AcDbLine
 10
5.931333181097817
 20
3.787788161730187
 30
0.0
 11
5.931333181097817
 21
3.912788161730187
 31
0.0
  0
CIRCLE
  5
14C3
330
1F
100
AcDbEntity
  8
4
100
AcDbCircle
 10
5.931333181097817
 20
3.693788161730187
 30
0.0
 40
0.094
  0
CIRCLE
  5
14C4
330
1F
100
AcDbEntity
  8
4
100
AcDbCircle
 10
6.089966470789804
 20
6.631788161730187
 30
0.0
 40
0.094
  0
LINE
  5
14C5
330
1F
100
AcDbEntity
  8
4
100
AcDbLine
 10
6.089966470789804
 20
6.725788161730188
 30
0.0
 11
6.089966470789804
 21
6.850788161730188
 31
0.0
  0
LINE
  5
14C6
330
1F
100
AcDbEntity
  8
1
100
AcDbLine
 10
6.652466470789803
 20
3.881788161730187
 30
0.0
 11
6.464466470789804
 21
3.881788161730187
 31
0.0
  0
LINE
  5
14C7
330
1F
100
AcDbEntity
  8
1
100
AcDbLine
 10
6.777466470789804
 20
6.757788161730188
 30
0.0
 11
6.965466470789804
 21
6.757788161730188
 31
0.0
  0
LINE
  5
14C8
330
1F
100
AcDbEntity
  8
1
100
AcDbLine
 10
7.027466470789804
 20
3.819788161730187
 30
0.0
 11
7.027466470789804
 21
6.819788161730187
 31
0.0
  0
LINE
  5
14C9
330
1F
100
AcDbEntity
  8
1
100
AcDbLine
 10
6.402466470789804
 20
3.819788161730187
 30
0.0
 11
6.402466470789804
 21
6.819788161730187
 31
0.0
  0
LINE
  5
14CA
330
1F
100
AcDbEntity
  8
1
100
AcDbLine
 10
5.777466470789804
 20
3.819788161730187
 30
0.0
 11
5.777466470789804
 21
6.819788161730187
 31
0.0
  0
LINE
  5
14CB
330
1F
100
AcDbEntity
  8
1
100
AcDbLine
 10
7.590466470789803
 20
3.881788161730187
 30
0.0
 11
7.089466470789804
 21
3.881788161730187
 31
0.0
  0
LINE
  5
14CC
330
1F
100
AcDbEntity
  8
1
100
AcDbLine
 10
7.590466470789804
 20
6.757788161730188
 30
0.0
 11
7.590466470789804
 21
5.350794040287317
 31
0.0
  0
LINE
  5
14CD
330
1F
100
AcDbEntity
  8
1
100
AcDbLine
 10
7.089466470789804
 20
6.757788161730188
 30
0.0
 11
7.590466470789804
 21
6.757788161730188
 31
0.0
  0
LINE
  5
14CE
330
1F
100
AcDbEntity
  8
1
100
AcDbLine
 10
7.089466470789804
 20
3.881788161730187
 30
0.0
 11
7.089466470789804
 21
5.288794040287317
 31
0.0
  0
LINE
  5
14CF
330
1F
100
AcDbEntity
  8
1
100
AcDbLine
 10
6.965466470789803
 20
3.881788161730187
 30
0.0
 11
6.777466470789804
 21
3.881788161730187
 31
0.0
  0
LINE
  5
14D0
330
1F
100
AcDbEntity
  8
1
100
AcDbLine
 10
6.965466470789804
 20
6.757788161730188
 30
0.0
 11
6.965466470789804
 21
5.350794040287317
 31
0.0
  0
LINE
  5
14D1
330
1F
100
AcDbEntity
  8
1
100
AcDbLine
 10
6.464466470789804
 20
6.757788161730188
 30
0.0
 11
6.652466470789804
 21
6.757788161730188
 31
0.0
  0
LINE
  5
14D2
330
1F
100
AcDbEntity
  8
1
100
AcDbLine
 10
6.464466470789804
 20
3.881788161730187
 30
0.0
 11
6.464466470789804
 21
5.288794040287317
 31
0.0
  0
LINE
  5
14D3
330
1F
100
AcDbEntity
  8
1
100
AcDbLine
 10
6.340466470789803
 20
3.881788161730187
 30
0.0
 11
5.839466470789804
 21
3.881788161730187
 31
0.0
  0
LINE
  5
14D4
330
1F
100
AcDbEntity
  8
1
100
AcDbLine
 10
6.340466470789804
 20
6.757788161730188
 30
0.0
 11
6.340466470789804
 21
5.350794040287317
 31
0.0
  0
LINE
  5
14D5
330
1F
100
AcDbEntity
  8
1
100
AcDbLine
 10
5.839466470789804
 20
6.757788161730188
 30
0.0
 11
6.340466470789804
 21
6.757788161730188
 31
0.0
  0
LINE
  5
14D6
330
1F
100
AcDbEntity
  8
1
100
AcDbLine
 10
5.839466470789804
 20
3.881788161730187
 30
0.0
 11
5.839466470789804
 21
5.288794040287317
 31
0.0
  0
LINE
  5
14D7
330
1F
100
AcDbEntity
  8
1
100
AcDbLine
 10
5.715466470789804
 20
6.757788161730188
 30
0.0
 11
5.715466470789803
 21
5.350794040287317
 31
0.0
  0
LINE
  5
14D8
330
1F
100
AcDbEntity
  8
1
100
AcDbLine
 10
5.214466470789804
 20
6.757788161730188
 30
0.0
 11
5.715466470789804
 21
6.757788161730188
 31
0.0
  0
LINE
  5
14D9
330
1F
100
AcDbEntity
  8
1
100
AcDbLine
 10
5.214466470789804
 20
3.881788161730187
 30
0.0
 11
5.214466470789804
 21
5.288794040287317
 31
0.0
  0
LINE
  5
14DF
330
1F
100
AcDbEntity
  8
4
100
AcDbLine
 10
10.5274664707898
 20
3.319788161730187
 30
0.0
 11
11.7774664707898
 21
3.319788161730187
 31
0.0
  0
LINE
  5
14E0
330
1F
100
AcDbEntity
  8
4
100
AcDbLine
 10
9.902466470789804
 20
3.319788161730187
 30
0.0
 11
10.1524664707898
 21
3.319788161730187
 31
0.0
  0
LINE
  5
14E1
330
1F
100
AcDbEntity
  8
4
100
AcDbLine
 10
9.842466470789805
 20
3.319788161730187
 30
0.0
 11
9.217466470789805
 21
3.319788161730187
 31
0.0
  0
LINE
  5
14E4
330
1F
100
AcDbEntity
  8
4
100
AcDbLine
 10
9.154966470789805
 20
6.819788161730187
 30
0.0
 11
8.654966470789805
 21
6.819788161730187
 31
0.0
  0
LINE
  5
14E5
330
1F
100
AcDbEntity
  8
4
100
AcDbLine
 10
8.714966470789804
 20
3.819788161730187
 30
0.0
 11
8.714966470789804
 21
6.819788161730187
 31
0.0
  0
LINE
  5
14E6
330
1F
100
AcDbEntity
  8
4
100
AcDbLine
 10
9.154966470789805
 20
3.819788161730187
 30
0.0
 11
8.654966470789805
 21
3.819788161730187
 31
0.0
  0
LINE
  5
14E9
330
1F
100
AcDbEntity
  8
4
100
AcDbLine
 10
7.652466470789804
 20
3.319788161730187
 30
0.0
 11
5.152466470789804
 21
3.319788161730187
 31
0.0
  0
LINE
  5
14EA
330
1F
100
AcDbEntity
  8
4
100
AcDbLine
 10
7.652466470789804
 20
3.757788161730187
 30
0.0
 11
7.652466470789804
 21
3.257788161730187
 31
0.0
  0
LINE
  5
14EB
330
1F
100
AcDbEntity
  8
4
100
AcDbLine
 10
5.152466470789804
 20
3.757788161730187
 30
0.0
 11
5.152466470789804
 21
3.257788161730187
 31
0.0
  0
LINE
  5
14EC
330
1F
100
AcDbEntity
  8
1
100
AcDbLine
 10
9.842466470789805
 20
3.819788161730187
 30
0.0
 11
9.842466470789805
 21
6.819788161730187
 31
0.0
  0
LINE
  5
14ED
330
1F
100
AcDbEntity
  8
1
100
AcDbLine
 10
9.902466470789804
 20
7.069788161730187
 30
0.0
 11
10.0274664707898
 21
7.194788161730187
 31
0.0
  0
LINE
  5
14EE
330
1F
100
AcDbEntity
  8
1
100
AcDbLine
 10
9.902466470789804
 20
6.944788161730187
 30
0.0
 11
10.0904664707898
 21
7.132788161730187
 31
0.0
  0
LINE
  5
14EF
330
1F
100
AcDbEntity
  8
1
100
AcDbLine
 10
9.902466470789804
 20
6.819788161730187
 30
0.0
 11
10.0904664707898
 21
7.007788161730187
 31
0.0
  0
LINE
  5
14F0
330
1F
100
AcDbEntity
  8
1
100
AcDbLine
 10
9.902466470789804
 20
6.694788161730187
 30
0.0
 11
10.0904664707898
 21
6.882788161730187
 31
0.0
  0
LINE
  5
14F1
330
1F
100
AcDbEntity
  8
1
100
AcDbLine
 10
9.902466470789804
 20
6.569788161730187
 30
0.0
 11
10.0904664707898
 21
6.757788161730187
 31
0.0
  0
LINE
  5
14F2
330
1F
100
AcDbEntity
  8
1
100
AcDbLine
 10
9.902466470789804
 20
6.444788161730187
 30
0.0
 11
10.0904664707898
 21
6.632788161730187
 31
0.0
  0
LINE
  5
14F3
330
1F
100
AcDbEntity
  8
1
100
AcDbLine
 10
9.902466470789804
 20
6.319788161730187
 30
0.0
 11
10.0904664707898
 21
6.507788161730187
 31
0.0
  0
LINE
  5
14F4
330
1F
100
AcDbEntity
  8
1
100
AcDbLine
 10
9.902466470789804
 20
6.194788161730187
 30
0.0
 11
10.0904664707898
 21
6.382788161730187
 31
0.0
  0
LINE
  5
14F5
330
1F
100
AcDbEntity
  8
1
100
AcDbLine
 10
9.902466470789804
 20
6.069788161730187
 30
0.0
 11
10.0904664707898
 21
6.257788161730187
 31
0.0
  0
LINE
  5
14F6
330
1F
100
AcDbEntity
  8
1
100
AcDbLine
 10
9.902466470789804
 20
5.944788161730187
 30
0.0
 11
10.0904664707898
 21
6.132788161730187
 31
0.0
  0
LINE
  5
14F7
330
1F
100
AcDbEntity
  8
1
100
AcDbLine
 10
9.902466470789804
 20
5.819788161730187
 30
0.0
 11
10.0904664707898
 21
6.007788161730187
 31
0.0
  0
LINE
  5
14F8
330
1F
100
AcDbEntity
  8
1
100
AcDbLine
 10
9.902466470789804
 20
5.694788161730187
 30
0.0
 11
10.0904664707898
 21
5.882788161730187
 31
0.0
  0
LINE
  5
14F9
330
1F
100
AcDbEntity
  8
1
100
AcDbLine
 10
9.902466470789804
 20
5.569788161730187
 30
0.0
 11
10.0904664707898
 21
5.757788161730187
 31
0.0
  0
LINE
  5
14FA
330
1F
100
AcDbEntity
  8
1
100
AcDbLine
 10
9.902466470789804
 20
5.444788161730187
 30
0.0
 11
10.0904664707898
 21
5.632788161730187
 31
0.0
  0
LINE
  5
14FB
330
1F
100
AcDbEntity
  8
1
100
AcDbLine
 10
9.902466470789804
 20
5.319788161730187
 30
0.0
 11
10.0904664707898
 21
5.507788161730187
 31
0.0
  0
LINE
  5
14FC
330
1F
100
AcDbEntity
  8
1
100
AcDbLine
 10
9.902466470789804
 20
5.194788161730187
 30
0.0
 11
10.0904664707898
 21
5.382788161730187
 31
0.0
  0
LINE
  5
14FD
330
1F
100
AcDbEntity
  8
1
100
AcDbLine
 10
9.902466470789804
 20
5.069788161730187
 30
0.0
 11
10.0904664707898
 21
5.257788161730187
 31
0.0
  0
LINE
  5
14FE
330
1F
100
AcDbEntity
  8
1
100
AcDbLine
 10
9.902466470789804
 20
4.944788161730187
 30
0.0
 11
10.0904664707898
 21
5.132788161730187
 31
0.0
  0
LINE
  5
14FF
330
1F
100
AcDbEntity
  8
1
100
AcDbLine
 10
9.902466470789804
 20
4.819788161730187
 30
0.0
 11
10.0904664707898
 21
5.007788161730187
 31
0.0
  0
LINE
  5
1500
330
1F
100
AcDbEntity
  8
1
100
AcDbLine
 10
9.902466470789804
 20
4.694788161730187
 30
0.0
 11
10.0904664707898
 21
4.882788161730187
 31
0.0
  0
LINE
  5
1501
330
1F
100
AcDbEntity
  8
1
100
AcDbLine
 10
9.902466470789804
 20
4.569788161730187
 30
0.0
 11
10.0904664707898
 21
4.757788161730187
 31
0.0
  0
LINE
  5
1502
330
1F
100
AcDbEntity
  8
1
100
AcDbLine
 10
9.902466470789804
 20
4.444788161730187
 30
0.0
 11
10.0904664707898
 21
4.632788161730187
 31
0.0
  0
LINE
  5
1503
330
1F
100
AcDbEntity
  8
1
100
AcDbLine
 10
9.902466470789804
 20
4.319788161730187
 30
0.0
 11
10.0904664707898
 21
4.507788161730187
 31
0.0
  0
LINE
  5
1504
330
1F
100
AcDbEntity
  8
1
100
AcDbLine
 10
9.902466470789804
 20
3.944788161730187
 30
0.0
 11
10.0904664707898
 21
4.132788161730187
 31
0.0
  0
LINE
  5
1505
330
1F
100
AcDbEntity
  8
1
100
AcDbLine
 10
9.902466470789804
 20
3.819788161730187
 30
0.0
 11
10.0904664707898
 21
4.007788161730187
 31
0.0
  0
LINE
  5
1506
330
1F
100
AcDbEntity
  8
1
100
AcDbLine
 10
6.777466470789804
 20
4.699762341041767
 30
0.0
 11
6.777466470789804
 21
3.694788161730187
 31
0.0
  0
LINE
  5
1507
330
1F
100
AcDbEntity
  8
1
100
AcDbLine
 10
6.777466470789804
 20
5.102262341041766
 30
0.0
 11
6.777466470789804
 21
4.789762341041766
 31
0.0
  0
LINE
  5
1508
330
1F
100
AcDbEntity
  8
1
100
AcDbLine
 10
6.777466470789804
 20
5.945755865882053
 30
0.0
 11
6.777466470789804
 21
5.102262341041766
 31
0.0
  0
LINE
  5
1509
330
1F
100
AcDbEntity
  8
1
100
AcDbLine
 10
6.732466470789804
 20
5.984762341041767
 30
0.0
 11
6.822466470789803
 21
5.894762341041767
 31
0.0
  0
LINE
  5
150A
330
1F
100
AcDbEntity
  8
1
100
AcDbLine
 10
6.822466470789803
 20
5.984762341041767
 30
0.0
 11
6.732466470789804
 21
5.984762341041767
 31
0.0
  0
LINE
  5
150B
330
1F
100
AcDbEntity
  8
1
100
AcDbLine
 10
6.732466470789804
 20
6.074762341041767
 30
0.0
 11
6.822466470789803
 21
5.984762341041767
 31
0.0
  0
LINE
  5
150C
330
1F
100
AcDbEntity
  8
1
100
AcDbLine
 10
6.732466470789804
 20
4.744762341041766
 30
0.0
 11
6.822466470789803
 21
4.654762341041767
 31
0.0
  0
LINE
  5
150D
330
1F
100
AcDbEntity
  8
1
100
AcDbLine
 10
6.822466470789803
 20
4.744762341041766
 30
0.0
 11
6.732466470789804
 21
4.744762341041766
 31
0.0
  0
LINE
  5
150E
330
1F
100
AcDbEntity
  8
1
100
AcDbLine
 10
6.732466470789804
 20
4.834762341041766
 30
0.0
 11
6.822466470789803
 21
4.744762341041766
 31
0.0
  0
LINE
  5
150F
330
1F
100
AcDbEntity
  8
1
100
AcDbLine
 10
6.652466470789804
 20
4.074762341041767
 30
0.0
 11
6.652466470789804
 21
3.694788161730187
 31
0.0
  0
LINE
  5
1510
330
1F
100
AcDbEntity
  8
1
100
AcDbLine
 10
6.652466470789804
 20
4.789762341041766
 30
0.0
 11
6.652466470789804
 21
4.164762341041766
 31
0.0
  0
LINE
  5
1511
330
1F
100
AcDbEntity
  8
1
100
AcDbLine
 10
6.652466470789804
 20
5.324762341041767
 30
0.0
 11
6.652466470789804
 21
4.789762341041766
 31
0.0
  0
LINE
  5
1512
330
1F
100
AcDbEntity
  8
1
100
AcDbLine
 10
6.607466470789804
 20
4.209762341041766
 30
0.0
 11
6.697466470789803
 21
4.119762341041766
 31
0.0
  0
LINE
  5
1513
330
1F
100
AcDbEntity
  8
1
100
AcDbLine
 10
6.697466470789803
 20
4.119762341041766
 30
0.0
 11
6.607466470789804
 21
4.119762341041766
 31
0.0
  0
LINE
  5
1514
330
1F
100
AcDbEntity
  8
1
100
AcDbLine
 10
6.607466470789804
 20
4.119762341041766
 30
0.0
 11
6.697466470789803
 21
4.029762341041767
 31
0.0
  0
LINE
  5
1515
330
1F
100
AcDbEntity
  8
1
100
AcDbLine
 10
6.607466470789804
 20
5.459762341041766
 30
0.0
 11
6.697466470789803
 21
5.369762341041766
 31
0.0
  0
LINE
  5
1516
330
1F
100
AcDbEntity
  8
1
100
AcDbLine
 10
6.697466470789803
 20
5.369762341041766
 30
0.0
 11
6.607466470789804
 21
5.369762341041766
 31
0.0
  0
LINE
  5
1517
330
1F
100
AcDbEntity
  8
1
100
AcDbLine
 10
6.607466470789804
 20
5.369762341041766
 30
0.0
 11
6.697466470789803
 21
5.279762341041767
 31
0.0
  0
LINE
  5
1518
330
1F
100
AcDbEntity
  8
1
100
AcDbLine
 10
6.664662501616786
 20
6.562566310214784
 30
0.0
 11
6.664662501616786
 21
5.395466690877857
 31
0.0
  0
LINE
  5
1519
330
1F
100
AcDbEntity
  8
1
100
AcDbLine
 10
6.607466470789804
 20
6.619762341041766
 30
0.0
 11
6.697466470789803
 21
6.529762341041767
 31
0.0
  0
LINE
  5
151A
330
1F
100
AcDbEntity
  8
1
100
AcDbLine
 10
6.697466470789803
 20
6.619762341041766
 30
0.0
 11
6.607466470789804
 21
6.619762341041766
 31
0.0
  0
LINE
  5
151B
330
1F
100
AcDbEntity
  8
1
100
AcDbLine
 10
6.607466470789804
 20
6.709762341041766
 30
0.0
 11
6.697466470789803
 21
6.619762341041766
 31
0.0
  0
LINE
  5
151C
330
1F
100
AcDbEntity
  8
1
100
AcDbLine
 10
6.652466470789804
 20
6.944788161730187
 30
0.0
 11
6.652466470789804
 21
6.664762341041766
 31
0.0
  0
LINE
  5
151D
330
1F
100
AcDbEntity
  8
1
100
AcDbLine
 10
6.777466470789804
 20
6.944788161730187
 30
0.0
 11
6.777466470789804
 21
6.029762341041767
 31
0.0
  0
CIRCLE
  5
151E
330
1F
100
AcDbEntity
  8
1
100
AcDbCircle
 10
8.277466470789804
 20
2.819788161730187
 30
0.0
 40
0.1875
  0
LINE
  5
151F
330
1F
100
AcDbEntity
  8
1
100
AcDbLine
 10
9.902466470789804
 20
3.819788161730187
 30
0.0
 11
9.902466470789804
 21
7.194788161730187
 31
0.0
  0
LINE
  5
1520
330
1F
100
AcDbEntity
  8
1
100
AcDbLine
 10
11.1524664707898
 20
3.819788161730187
 30
0.0
 11
11.1524664707898
 21
6.819788161730187
 31
0.0
  0
LINE
  5
1521
330
1F
100
AcDbEntity
  8
1
100
AcDbLine
 10
7.652466470789804
 20
3.819788161730187
 30
0.0
 11
6.777466470789804
 21
3.819788161730187
 31
0.0
  0
LINE
  5
1522
330
1F
100
AcDbEntity
  8
1
100
AcDbLine
 10
7.652466470789804
 20
6.819788161730187
 30
0.0
 11
7.652466470789804
 21
3.819788161730187
 31
0.0
  0
LINE
  5
1523
330
1F
100
AcDbEntity
  8
1
100
AcDbLine
 10
6.777466470789804
 20
6.819788161730187
 30
0.0
 11
7.652466470789804
 21
6.819788161730187
 31
0.0
  0
LINE
  5
1524
330
1F
100
AcDbEntity
  8
1
100
AcDbLine
 10
5.152466470789804
 20
6.819788161730187
 30
0.0
 11
6.652466470789804
 21
6.819788161730187
 31
0.0
  0
LINE
  5
1525
330
1F
100
AcDbEntity
  8
1
100
AcDbLine
 10
5.152466470789804
 20
3.819788161730187
 30
0.0
 11
5.152466470789804
 21
6.819788161730187
 31
0.0
  0
LINE
  5
1526
330
1F
100
AcDbEntity
  8
1
100
AcDbLine
 10
5.152466470789804
 20
3.819788161730187
 30
0.0
 11
6.652466470789804
 21
3.819788161730187
 31
0.0
  0
LINE
  5
1527
330
1F
100
AcDbEntity
  8
1
100
AcDbLine
 10
4.152466470789804
 20
7.569788161730187
 30
0.0
 11
4.152466470789804
 21
2.319788161730187
 31
0.0
  0
LINE
  5
1528
330
1F
100
AcDbEntity
  8
1
100
AcDbLine
 10
12.4024664707898
 20
7.569788161730187
 30
0.0
 11
4.152466470789804
 21
7.569788161730187
 31
0.0
  0
LINE
  5
1529
330
1F
100
AcDbEntity
  8
1
100
AcDbLine
 10
12.4024664707898
 20
2.319788161730187
 30
0.0
 11
12.4024664707898
 21
7.569788161730187
 31
0.0
  0
LINE
  5
152A
330
1F
100
AcDbEntity
  8
1
100
AcDbLine
 10
4.152466470789804
 20
2.319788161730187
 30
0.0
 11
12.4024664707898
 21
2.319788161730187
 31
0.0
  0
LINE
  5
152B
330
1F
100
AcDbEntity
  8
1
100
AcDbLine
 10
5.214466470789804
 20
5.350794040287317
 30
0.0
 11
5.214466470789804
 21
6.757788161730188
 31
0.0
  0
LINE
  5
152C
330
1F
100
AcDbEntity
  8
1
100
AcDbLine
 10
5.715466470789803
 20
5.288794040287317
 30
0.0
 11
5.715466470789803
 21
3.881788161730187
 31
0.0
  0
LINE
  5
152D
330
1F
100
AcDbEntity
  8
1
100
AcDbLine
 10
5.839466470789804
 20
5.350794040287317
 30
0.0
 11
5.839466470789804
 21
6.757788161730188
 31
0.0
  0
LINE
  5
152E
330
1F
100
AcDbEntity
  8
1
100
AcDbLine
 10
6.340466470789803
 20
5.288794040287317
 30
0.0
 11
6.340466470789803
 21
3.881788161730187
 31
0.0
  0
LINE
  5
152F
330
1F
100
AcDbEntity
  8
1
100
AcDbLine
 10
6.464466470789804
 20
5.350794040287318
 30
0.0
 11
6.464466470789804
 21
6.757788161730188
 31
0.0
  0
LINE
  5
1530
330
1F
100
AcDbEntity
  8
1
100
AcDbLine
 10
6.965466470789803
 20
5.288794040287317
 30
0.0
 11
6.965466470789803
 21
3.881788161730187
 31
0.0
  0
LINE
  5
1531
330
1F
100
AcDbEntity
  8
1
100
AcDbLine
 10
7.089466470789804
 20
5.350794040287317
 30
0.0
 11
7.089466470789804
 21
6.757788161730188
 31
0.0
  0
LINE
  5
1532
330
1F
100
AcDbEntity
  8
1
100
AcDbLine
 10
7.590466470789803
 20
5.288794040287317
 30
0.0
 11
7.590466470789803
 21
3.881788161730187
 31
0.0
  0
LINE
  5
1533
330
1F
100
AcDbEntity
  8
4
100
AcDbLine
 10
5.277466470789805
 20
3.339788161730187
 30
0.0
 11
5.277466470789805
 21
3.299788161730187
 31
0.0
  0
LINE
  5
1534
330
1F
100
AcDbEntity
  8
4
100
AcDbLine
 10
5.277466470789805
 20
3.309788161730187
 30
0.0
 11
5.152466470789804
 21
3.319788161730187
 31
0.0
  0
LINE
  5
1535
330
1F
100
AcDbEntity
  8
4
100
AcDbLine
 10
5.277466470789805
 20
3.329788161730186
 30
0.0
 11
5.152466470789805
 21
3.319788161730187
 31
0.0
  0
LINE
  5
1536
330
1F
100
AcDbEntity
  8
4
100
AcDbLine
 10
5.152466470789805
 20
3.319788161730187
 30
0.0
 11
5.277466470789805
 21
3.299788161730187
 31
0.0
  0
LINE
  5
1537
330
1F
100
AcDbEntity
  8
4
100
AcDbLine
 10
5.277466470789805
 20
3.339788161730187
 30
0.0
 11
5.152466470789805
 21
3.319788161730187
 31
0.0
  0
INSERT
  5
1538
330
1F
100
AcDbEntity
  8
2
100
AcDbBlockReference
  2
LE029
 10
5.621976259823092
 20
4.035459649693393
 30
0.0
 50
180.0
  0
INSERT
  5
1539
330
1F
100
AcDbEntity
  8
2
100
AcDbBlockReference
  2
LE029
 10
5.309476259823092
 20
4.335959649693394
 30
0.0
  0
TEXT
  5
153A
330
1F
100
AcDbEntity
  8
8
100
AcDbText
 10
4.768378353313121
 20
6.318616227045287
 30
0.0
 40
0.07
  1
HANDLE & P/A
 50
90.0
  7
ROMANS
100
AcDbText
  0
TEXT
  5
153B
330
1F
100
AcDbEntity
  8
8
100
AcDbText
 10
4.768378353313121
 20
4.923506623531577
 30
0.0
 40
0.07
  1
LOCK ESCUTCHEON
 50
90.0
  7
ROMANS
 72
     2
 11
4.768378353313121
 21
5.930173290198244
 31
0.0
100
AcDbText
  0
INSERT
  5
153C
330
1F
100
AcDbEntity
  8
2
100
AcDbBlockReference
  2
LE029
 10
5.309476259823092
 20
5.180683993994422
 30
0.0
  0
INSERT
  5
153D
330
1F
100
AcDbEntity
  8
2
100
AcDbBlockReference
  2
LE029
 10
5.621976259823092
 20
4.880183993994422
 30
0.0
 50
180.0
  0
ARC
  5
153E
330
1F
100
AcDbEntity
  8
4
100
AcDbCircle
 10
5.359700526253255
 20
4.532771963341996
 30
0.0
 40
0.0049999999999999
100
AcDbArc
 50
180.0
 51
0.0
  0
ARC
  5
153F
330
1F
100
AcDbEntity
  8
4
100
AcDbCircle
 10
5.359700526253255
 20
4.532771963341996
 30
0.0
 40
0.0049999999999999
100
AcDbArc
 50
0.0
 51
180.0
  0
ARC
  5
1540
330
1F
100
AcDbEntity
  8
4
100
AcDbCircle
 10
5.359700526253255
 20
4.637771963341996
 30
0.0
 40
0.0049999999999999
100
AcDbArc
 50
180.0
 51
0.0
  0
ARC
  5
1541
330
1F
100
AcDbEntity
  8
4
100
AcDbCircle
 10
5.359700526253255
 20
4.637771963341996
 30
0.0
 40
0.0049999999999999
100
AcDbArc
 50
0.0
 51
180.0
  0
INSERT
  5
1542
330
1F
100
AcDbEntity
  8
2
100
AcDbBlockReference
  2
LE029
 10
5.621976259823092
 20
5.504459649693393
 30
0.0
 50
180.0
  0
INSERT
  5
1543
330
1F
100
AcDbEntity
  8
2
100
AcDbBlockReference
  2
LE029
 10
5.309476259823093
 20
5.804959649693394
 30
0.0
  0
LINE
  5
1544
330
1F
100
AcDbEntity
  8
4
100
AcDbLine
 10
4.988378353313119
 20
6.034271963341996
 30
0.0
 11
4.988378353313119
 21
6.074271963341996
 31
0.0
  0
LINE
  5
1545
330
1F
100
AcDbEntity
  8
4
100
AcDbLine
 10
4.988378353313119
 20
6.064271963341997
 30
0.0
 11
5.11337835331312
 21
6.054271963341996
 31
0.0
  0
LINE
  5
1546
330
1F
100
AcDbEntity
  8
4
100
AcDbLine
 10
4.988378353313119
 20
6.044271963341997
 30
0.0
 11
5.113378353313119
 21
6.054271963341996
 31
0.0
  0
LINE
  5
1547
330
1F
100
AcDbEntity
  8
4
100
AcDbLine
 10
5.113378353313119
 20
6.054271963341996
 30
0.0
 11
4.988378353313119
 21
6.074271963341996
 31
0.0
  0
LINE
  5
1548
330
1F
100
AcDbEntity
  8
4
100
AcDbLine
 10
4.988378353313119
 20
6.034271963341996
 30
0.0
 11
5.113378353313119
 21
6.054271963341996
 31
0.0
  0
LINE
  5
1549
330
1F
100
AcDbEntity
  8
4
100
AcDbLine
 10
4.988378353313119
 20
6.174616227045289
 30
0.0
 11
4.988378353313119
 21
6.214616227045289
 31
0.0
  0
LINE
  5
154A
330
1F
100
AcDbEntity
  8
4
100
AcDbLine
 10
4.988378353313119
 20
6.204616227045289
 30
0.0
 11
5.11337835331312
 21
6.194616227045289
 31
0.0
  0
LINE
  5
154B
330
1F
100
AcDbEntity
  8
4
100
AcDbLine
 10
4.988378353313119
 20
6.18461622704529
 30
0.0
 11
5.113378353313119
 21
6.194616227045289
 31
0.0
  0
LINE
  5
154C
330
1F
100
AcDbEntity
  8
4
100
AcDbLine
 10
5.113378353313119
 20
6.194616227045289
 30
0.0
 11
4.988378353313119
 21
6.214616227045289
 31
0.0
  0
LINE
  5
154D
330
1F
100
AcDbEntity
  8
4
100
AcDbLine
 10
4.988378353313119
 20
6.174616227045289
 30
0.0
 11
5.113378353313119
 21
6.194616227045289
 31
0.0
  0
INSERT
  5
154E
330
1F
100
AcDbEntity
  8
2
100
AcDbBlockReference
  2
LE029
 10
5.309476259823093
 20
6.649683993994423
 30
0.0
  0
ARC
  5
154F
330
1F
100
AcDbEntity
  8
4
100
AcDbCircle
 10
5.359700526253255
 20
6.001771963341996
 30
0.0
 40
0.0049999999999999
100
AcDbArc
 50
180.0
 51
0.0
  0
ARC
  5
1550
330
1F
100
AcDbEntity
  8
4
100
AcDbCircle
 10
5.359700526253255
 20
6.001771963341996
 30
0.0
 40
0.0049999999999999
100
AcDbArc
 50
0.0
 51
180.0
  0
ARC
  5
1551
330
1F
100
AcDbEntity
  8
4
100
AcDbCircle
 10
5.359700526253255
 20
6.106771963341996
 30
0.0
 40
0.0049999999999999
100
AcDbArc
 50
180.0
 51
0.0
  0
ARC
  5
1552
330
1F
100
AcDbEntity
  8
4
100
AcDbCircle
 10
5.359700526253255
 20
6.106771963341996
 30
0.0
 40
0.0049999999999999
100
AcDbArc
 50
0.0
 51
180.0
  0
INSERT
  5
1553
330
1F
100
AcDbEntity
  8
2
100
AcDbBlockReference
  2
LE029
 10
5.621976259823092
 20
6.349183993994422
 30
0.0
 50
180.0
  0
LINE
  5
155A
330
1F
100
AcDbEntity
  8
4
100
AcDbLine
 10
7.527466470789802
 20
3.299788161730187
 30
0.0
 11
7.527466470789802
 21
3.339788161730187
 31
0.0
  0
LINE
  5
155B
330
1F
100
AcDbEntity
  8
4
100
AcDbLine
 10
7.527466470789802
 20
3.329788161730188
 30
0.0
 11
7.652466470789803
 21
3.319788161730187
 31
0.0
  0
LINE
  5
155C
330
1F
100
AcDbEntity
  8
4
100
AcDbLine
 10
7.527466470789802
 20
3.309788161730188
 30
0.0
 11
7.652466470789802
 21
3.319788161730187
 31
0.0
  0
LINE
  5
155D
330
1F
100
AcDbEntity
  8
4
100
AcDbLine
 10
7.652466470789802
 20
3.319788161730187
 30
0.0
 11
7.527466470789802
 21
3.339788161730187
 31
0.0
  0
LINE
  5
155E
330
1F
100
AcDbEntity
  8
4
100
AcDbLine
 10
7.527466470789802
 20
3.299788161730187
 30
0.0
 11
7.652466470789802
 21
3.319788161730187
 31
0.0
  0
LINE
  5
155F
330
1F
100
AcDbEntity
  8
4
100
AcDbLine
 10
8.984966470789803
 20
3.694788161730185
 30
0.0
 11
8.944966470789802
 21
3.694788161730185
 31
0.0
  0
LINE
  5
1560
330
1F
100
AcDbEntity
  8
4
100
AcDbLine
 10
8.954966470789802
 20
3.694788161730185
 30
0.0
 11
8.964966470789804
 21
3.819788161730186
 31
0.0
  0
LINE
  5
1561
330
1F
100
AcDbEntity
  8
4
100
AcDbLine
 10
8.974966470789802
 20
3.694788161730185
 30
0.0
 11
8.964966470789804
 21
3.819788161730185
 31
0.0
  0
LINE
  5
1562
330
1F
100
AcDbEntity
  8
4
100
AcDbLine
 10
8.964966470789804
 20
3.819788161730185
 30
0.0
 11
8.944966470789802
 21
3.694788161730185
 31
0.0
  0
LINE
  5
1563
330
1F
100
AcDbEntity
  8
4
100
AcDbLine
 10
8.984966470789803
 20
3.694788161730185
 30
0.0
 11
8.964966470789804
 21
3.819788161730185
 31
0.0
  0
LINE
  5
1564
330
1F
100
AcDbEntity
  8
4
100
AcDbLine
 10
8.694966470789804
 20
3.944788161730189
 30
0.0
 11
8.734966470789805
 21
3.944788161730189
 31
0.0
  0
LINE
  5
1565
330
1F
100
AcDbEntity
  8
4
100
AcDbLine
 10
8.724966470789805
 20
3.944788161730189
 30
0.0
 11
8.714966470789804
 21
3.819788161730188
 31
0.0
  0
LINE
  5
1566
330
1F
100
AcDbEntity
  8
4
100
AcDbLine
 10
8.704966470789806
 20
3.944788161730189
 30
0.0
 11
8.714966470789804
 21
3.819788161730189
 31
0.0
  0
LINE
  5
1567
330
1F
100
AcDbEntity
  8
4
100
AcDbLine
 10
8.714966470789804
 20
3.819788161730189
 30
0.0
 11
8.734966470789805
 21
3.944788161730189
 31
0.0
  0
LINE
  5
1568
330
1F
100
AcDbEntity
  8
4
100
AcDbLine
 10
8.694966470789804
 20
3.944788161730189
 30
0.0
 11
8.714966470789804
 21
3.819788161730189
 31
0.0
  0
LINE
  5
1569
330
1F
100
AcDbEntity
  8
4
100
AcDbLine
 10
8.944966470789804
 20
4.006788161730189
 30
0.0
 11
8.984966470789805
 21
4.006788161730189
 31
0.0
  0
LINE
  5
156A
330
1F
100
AcDbEntity
  8
4
100
AcDbLine
 10
8.974966470789805
 20
4.006788161730189
 30
0.0
 11
8.964966470789804
 21
3.881788161730188
 31
0.0
  0
LINE
  5
156B
330
1F
100
AcDbEntity
  8
4
100
AcDbLine
 10
8.954966470789806
 20
4.006788161730189
 30
0.0
 11
8.964966470789804
 21
3.881788161730189
 31
0.0
  0
LINE
  5
156C
330
1F
100
AcDbEntity
  8
4
100
AcDbLine
 10
8.964966470789804
 20
3.881788161730189
 30
0.0
 11
8.984966470789805
 21
4.006788161730189
 31
0.0
  0
LINE
  5
156D
330
1F
100
AcDbEntity
  8
4
100
AcDbLine
 10
8.944966470789804
 20
4.006788161730189
 30
0.0
 11
8.964966470789804
 21
3.881788161730189
 31
0.0
  0
LINE
  5
156E
330
1F
100
AcDbEntity
  8
4
100
AcDbLine
 10
9.342466470789807
 20
3.339788161730186
 30
0.0
 11
9.342466470789807
 21
3.299788161730186
 31
0.0
  0
LINE
  5
156F
330
1F
100
AcDbEntity
  8
4
100
AcDbLine
 10
9.342466470789807
 20
3.309788161730186
 30
0.0
 11
9.217466470789805
 21
3.319788161730187
 31
0.0
  0
LINE
  5
1570
330
1F
100
AcDbEntity
  8
4
100
AcDbLine
 10
9.342466470789807
 20
3.329788161730186
 30
0.0
 11
9.217466470789807
 21
3.319788161730187
 31
0.0
  0
LINE
  5
1571
330
1F
100
AcDbEntity
  8
4
100
AcDbLine
 10
9.217466470789807
 20
3.319788161730187
 30
0.0
 11
9.342466470789807
 21
3.299788161730186
 31
0.0
  0
LINE
  5
1572
330
1F
100
AcDbEntity
  8
4
100
AcDbLine
 10
9.342466470789807
 20
3.339788161730186
 30
0.0
 11
9.217466470789807
 21
3.319788161730187
 31
0.0
  0
LINE
  5
1573
330
1F
100
AcDbEntity
  8
4
100
AcDbLine
 10
9.717466470789803
 20
3.299788161730187
 30
0.0
 11
9.717466470789803
 21
3.339788161730187
 31
0.0
  0
LINE
  5
1574
330
1F
100
AcDbEntity
  8
4
100
AcDbLine
 10
9.717466470789803
 20
3.329788161730188
 30
0.0
 11
9.842466470789805
 21
3.319788161730187
 31
0.0
  0
LINE
  5
1575
330
1F
100
AcDbEntity
  8
4
100
AcDbLine
 10
9.717466470789803
 20
3.309788161730188
 30
0.0
 11
9.842466470789803
 21
3.319788161730187
 31
0.0
  0
LINE
  5
1576
330
1F
100
AcDbEntity
  8
4
100
AcDbLine
 10
9.842466470789803
 20
3.319788161730187
 30
0.0
 11
9.717466470789803
 21
3.339788161730187
 31
0.0
  0
LINE
  5
1577
330
1F
100
AcDbEntity
  8
4
100
AcDbLine
 10
9.717466470789803
 20
3.299788161730187
 30
0.0
 11
9.842466470789803
 21
3.319788161730187
 31
0.0
  0
LINE
  5
1578
330
1F
100
AcDbEntity
  8
4
100
AcDbLine
 10
10.0274664707898
 20
3.339788161730186
 30
0.0
 11
10.0274664707898
 21
3.299788161730186
 31
0.0
  0
LINE
  5
1579
330
1F
100
AcDbEntity
  8
4
100
AcDbLine
 10
10.0274664707898
 20
3.309788161730186
 30
0.0
 11
9.902466470789804
 21
3.319788161730187
 31
0.0
  0
LINE
  5
157A
330
1F
100
AcDbEntity
  8
4
100
AcDbLine
 10
10.0274664707898
 20
3.329788161730186
 30
0.0
 11
9.902466470789805
 21
3.319788161730187
 31
0.0
  0
LINE
  5
157B
330
1F
100
AcDbEntity
  8
4
100
AcDbLine
 10
9.902466470789805
 20
3.319788161730187
 30
0.0
 11
10.0274664707898
 21
3.299788161730186
 31
0.0
  0
LINE
  5
157C
330
1F
100
AcDbEntity
  8
4
100
AcDbLine
 10
10.0274664707898
 20
3.339788161730186
 30
0.0
 11
9.902466470789805
 21
3.319788161730187
 31
0.0
  0
INSERT
  5
157E
330
1F
100
AcDbEntity
  8
2
100
AcDbBlockReference
  2
LE029
 10
9.729401973960676
 20
3.986575303675998
 30
0.0
 50
180.0
  0
LINE
  5
157F
330
1F
100
AcDbEntity
  8
4
100
AcDbLine
 10
10.6524664707898
 20
3.339788161730186
 30
0.0
 11
10.6524664707898
 21
3.299788161730186
 31
0.0
  0
LINE
  5
1580
330
1F
100
AcDbEntity
  8
4
100
AcDbLine
 10
10.6524664707898
 20
3.309788161730186
 30
0.0
 11
10.5274664707898
 21
3.319788161730187
 31
0.0
  0
LINE
  5
1581
330
1F
100
AcDbEntity
  8
4
100
AcDbLine
 10
10.6524664707898
 20
3.329788161730186
 30
0.0
 11
10.5274664707898
 21
3.319788161730187
 31
0.0
  0
LINE
  5
1582
330
1F
100
AcDbEntity
  8
4
100
AcDbLine
 10
10.5274664707898
 20
3.319788161730187
 30
0.0
 11
10.6524664707898
 21
3.299788161730186
 31
0.0
  0
LINE
  5
1583
330
1F
100
AcDbEntity
  8
4
100
AcDbLine
 10
10.6524664707898
 20
3.339788161730186
 30
0.0
 11
10.5274664707898
 21
3.319788161730187
 31
0.0
  0
INSERT
  5
1584
330
1F
100
AcDbEntity
  8
2
100
AcDbBlockReference
  2
LE029
 10
11.03940197396067
 20
3.986575303675998
 30
0.0
 50
180.0
  0
LINE
  5
1586
330
1F
100
AcDbEntity
  8
4
100
AcDbLine
 10
11.6844664707898
 20
3.299788161730187
 30
0.0
 11
11.6844664707898
 21
3.339788161730187
 31
0.0
  0
LINE
  5
1587
330
1F
100
AcDbEntity
  8
4
100
AcDbLine
 10
11.6844664707898
 20
3.329788161730188
 30
0.0
 11
11.8094664707898
 21
3.319788161730187
 31
0.0
  0
LINE
  5
1588
330
1F
100
AcDbEntity
  8
4
100
AcDbLine
 10
11.6844664707898
 20
3.309788161730188
 30
0.0
 11
11.8094664707898
 21
3.319788161730187
 31
0.0
  0
LINE
  5
1589
330
1F
100
AcDbEntity
  8
4
100
AcDbLine
 10
11.8094664707898
 20
3.319788161730187
 30
0.0
 11
11.6844664707898
 21
3.339788161730187
 31
0.0
  0
LINE
  5
158A
330
1F
100
AcDbEntity
  8
4
100
AcDbLine
 10
11.6844664707898
 20
3.299788161730187
 30
0.0
 11
11.8094664707898
 21
3.319788161730187
 31
0.0
  0
INSERT
  5
158C
330
1F
100
AcDbEntity
  8
2
100
AcDbBlockReference
  2
LE029
 10
11.61040197396068
 20
3.986575303675999
 30
0.0
 50
180.0
  0
LINE
  5
158D
330
1F
100
AcDbEntity
  8
4
100
AcDbLine
 10
8.984966470789803
 20
5.225794040287325
 30
0.0
 11
8.964966470789805
 21
5.350794040287325
 31
0.0
  0
LINE
  5
158E
330
1F
100
AcDbEntity
  8
4
100
AcDbLine
 10
8.964966470789805
 20
5.350794040287325
 30
0.0
 11
8.944966470789804
 21
5.225794040287325
 31
0.0
  0
LINE
  5
158F
330
1F
100
AcDbEntity
  8
4
100
AcDbLine
 10
8.974966470789803
 20
5.225794040287325
 30
0.0
 11
8.964966470789805
 21
5.350794040287325
 31
0.0
  0
LINE
  5
1590
330
1F
100
AcDbEntity
  8
4
100
AcDbLine
 10
8.954966470789804
 20
5.225794040287325
 30
0.0
 11
8.964966470789805
 21
5.350794040287326
 31
0.0
  0
LINE
  5
1591
330
1F
100
AcDbEntity
  8
4
100
AcDbLine
 10
8.984966470789803
 20
5.225794040287325
 30
0.0
 11
8.944966470789804
 21
5.225794040287325
 31
0.0
  0
LINE
  5
1592
330
1F
100
AcDbEntity
  8
4
100
AcDbLine
 10
8.944966470789806
 20
5.47579404028733
 30
0.0
 11
8.984966470789805
 21
5.47579404028733
 31
0.0
  0
LINE
  5
1593
330
1F
100
AcDbEntity
  8
4
100
AcDbLine
 10
8.974966470789805
 20
5.47579404028733
 30
0.0
 11
8.964966470789805
 21
5.350794040287329
 31
0.0
  0
LINE
  5
1594
330
1F
100
AcDbEntity
  8
4
100
AcDbLine
 10
8.954966470789806
 20
5.47579404028733
 30
0.0
 11
8.964966470789805
 21
5.35079404028733
 31
0.0
  0
LINE
  5
1595
330
1F
100
AcDbEntity
  8
4
100
AcDbLine
 10
8.964966470789805
 20
5.35079404028733
 30
0.0
 11
8.984966470789805
 21
5.47579404028733
 31
0.0
  0
LINE
  5
1596
330
1F
100
AcDbEntity
  8
4
100
AcDbLine
 10
8.944966470789806
 20
5.47579404028733
 30
0.0
 11
8.964966470789805
 21
5.35079404028733
 31
0.0
  0
LINE
  5
159E
330
1F
100
AcDbEntity
  8
4
100
AcDbLine
 10
8.734966470789803
 20
6.694788161730185
 30
0.0
 11
8.694966470789802
 21
6.694788161730185
 31
0.0
  0
LINE
  5
159F
330
1F
100
AcDbEntity
  8
4
100
AcDbLine
 10
8.704966470789802
 20
6.694788161730185
 30
0.0
 11
8.714966470789804
 21
6.819788161730186
 31
0.0
  0
LINE
  5
15A0
330
1F
100
AcDbEntity
  8
4
100
AcDbLine
 10
8.724966470789802
 20
6.694788161730185
 30
0.0
 11
8.714966470789804
 21
6.819788161730185
 31
0.0
  0
LINE
  5
15A1
330
1F
100
AcDbEntity
  8
4
100
AcDbLine
 10
8.714966470789804
 20
6.819788161730185
 30
0.0
 11
8.694966470789802
 21
6.694788161730185
 31
0.0
  0
LINE
  5
15A2
330
1F
100
AcDbEntity
  8
4
100
AcDbLine
 10
8.734966470789803
 20
6.694788161730185
 30
0.0
 11
8.714966470789804
 21
6.819788161730185
 31
0.0
  0
LINE
  5
15A3
330
1F
100
AcDbEntity
  8
4
100
AcDbLine
 10
8.984966470789803
 20
6.694788161730185
 30
0.0
 11
8.944966470789802
 21
6.694788161730185
 31
0.0
  0
LINE
  5
15A4
330
1F
100
AcDbEntity
  8
4
100
AcDbLine
 10
8.954966470789802
 20
6.694788161730185
 30
0.0
 11
8.964966470789804
 21
6.819788161730186
 31
0.0
  0
LINE
  5
15A5
330
1F
100
AcDbEntity
  8
4
100
AcDbLine
 10
8.974966470789802
 20
6.694788161730185
 30
0.0
 11
8.964966470789804
 21
6.819788161730185
 31
0.0
  0
LINE
  5
15A6
330
1F
100
AcDbEntity
  8
4
100
AcDbLine
 10
8.964966470789804
 20
6.819788161730185
 30
0.0
 11
8.944966470789802
 21
6.694788161730185
 31
0.0
  0
LINE
  5
15A7
330
1F
100
AcDbEntity
  8
4
100
AcDbLine
 10
8.984966470789803
 20
6.694788161730185
 30
0.0
 11
8.964966470789804
 21
6.819788161730185
 31
0.0
  0
INSERT
  5
15A8
330
1F
100
AcDbEntity
  8
2
100
AcDbBlockReference
  2
LE029
 10
9.416901973960676
 20
6.574391684767429
 30
0.0
  0
INSERT
  5
15B3
330
1F
100
AcDbEntity
  8
2
100
AcDbBlockReference
  2
LE029
 10
10.72690197396067
 20
6.574391684767429
 30
0.0
  0
LINE
  5
15B4
330
1F
100
AcDbEntity
  8
4
100
AcDbLine
 10
10.20962528312763
 20
6.589788161730186
 30
0.0
 11
10.20962528312763
 21
6.549788161730186
 31
0.0
  0
LINE
  5
15B5
330
1F
100
AcDbEntity
  8
4
100
AcDbLine
 10
10.20962528312763
 20
6.559788161730186
 30
0.0
 11
10.08462528312763
 21
6.569788161730187
 31
0.0
  0
LINE
  5
15B6
330
1F
100
AcDbEntity
  8
4
100
AcDbLine
 10
10.20962528312763
 20
6.579788161730186
 30
0.0
 11
10.08462528312763
 21
6.569788161730187
 31
0.0
  0
LINE
  5
15B7
330
1F
100
AcDbEntity
  8
4
100
AcDbLine
 10
10.08462528312763
 20
6.569788161730187
 30
0.0
 11
10.20962528312763
 21
6.549788161730186
 31
0.0
  0
LINE
  5
15B8
330
1F
100
AcDbEntity
  8
4
100
AcDbLine
 10
10.20962528312763
 20
6.589788161730186
 30
0.0
 11
10.08462528312763
 21
6.569788161730187
 31
0.0
  0
INSERT
  5
15BB
330
1F
100
AcDbEntity
  8
2
100
AcDbBlockReference
  2
LE029
 10
11.29790197396068
 20
6.574391684767429
 30
0.0
  0
INSERT
  5
15EE
330
1F
100
AcDbEntity
  8
4
100
AcDbBlockReference
  2
HDV hooks
 10
5.839466470789804
 20
5.288794040287317
 30
0.0
  0
ARC
  5
15EF
330
1F
100
AcDbEntity
  8
4
100
AcDbCircle
 10
5.88721708589536
 20
6.662828467162841
 30
0.0
 40
0.025
100
AcDbArc
 50
180.0
 51
0.0
  0
LINE
  5
15F0
330
1F
100
AcDbEntity
  8
4
100
AcDbLine
 10
5.86221708589536
 20
6.662828467162841
 30
0.0
 11
5.86221708589536
 21
6.757788161730188
 31
0.0
  0
LINE
  5
15F1
330
1F
100
AcDbEntity
  8
4
100
AcDbLine
 10
6.057466470789804
 20
6.758365929429022
 30
0.0
 11
6.057466470789804
 21
6.63782846716284
 31
0.0
  0
LINE
  5
15F2
330
1F
100
AcDbEntity
  8
4
100
AcDbLine
 10
6.119466470789801
 20
6.758613655915304
 30
0.0
 11
6.119466470789801
 21
6.63782846716284
 31
0.0
  0
LINE
  5
15F3
330
1F
100
AcDbEntity
  8
4
100
AcDbLine
 10
6.326399629380696
 20
6.662828467162841
 30
0.0
 11
6.326399629380696
 21
6.757788161730188
 31
0.0
  0
ARC
  5
15F4
330
1F
100
AcDbEntity
  8
4
100
AcDbCircle
 10
6.301409494947168
 20
6.662828467162841
 30
0.0
 40
0.025
100
AcDbArc
 50
180.0
 51
0.0
  0
ARC
  5
15F5
330
1F
100
AcDbEntity
  8
4
100
AcDbCircle
 10
6.510948545186677
 20
6.662828467162841
 30
0.0
 40
0.025
100
AcDbArc
 50
180.0
 51
0.0
  0
LINE
  5
15F6
330
1F
100
AcDbEntity
  8
4
100
AcDbLine
 10
6.485948545186677
 20
6.662828467162841
 30
0.0
 11
6.485948545186677
 21
6.757788161730188
 31
0.0
  0
LINE
  5
15F7
330
1F
100
AcDbEntity
  8
4
100
AcDbLine
 10
6.950131088672013
 20
6.662828467162841
 30
0.0
 11
6.950131088672013
 21
6.757788161730188
 31
0.0
  0
ARC
  5
15F8
330
1F
100
AcDbEntity
  8
4
100
AcDbCircle
 10
6.925140954238485
 20
6.662828467162841
 30
0.0
 40
0.025
100
AcDbArc
 50
180.0
 51
0.0
  0
ARC
  5
15F9
330
1F
100
AcDbEntity
  8
4
100
AcDbCircle
 10
7.130323665043401
 20
6.662828467162841
 30
0.0
 40
0.025
100
AcDbArc
 50
180.0
 51
0.0
  0
LINE
  5
15FA
330
1F
100
AcDbEntity
  8
4
100
AcDbLine
 10
7.105323665043401
 20
6.662828467162841
 30
0.0
 11
7.105323665043401
 21
6.757788161730188
 31
0.0
  0
LINE
  5
15FB
330
1F
100
AcDbEntity
  8
4
100
AcDbLine
 10
7.362573049937842
 20
6.758613655915304
 30
0.0
 11
7.362573049937842
 21
6.63782846716284
 31
0.0
  0
LINE
  5
15FC
330
1F
100
AcDbEntity
  8
4
100
AcDbLine
 10
7.300573049937844
 20
6.758365929429022
 30
0.0
 11
7.300573049937844
 21
6.63782846716284
 31
0.0
  0
ARC
  5
15FD
330
1F
100
AcDbEntity
  8
4
100
AcDbCircle
 10
7.544516074095208
 20
6.662828467162841
 30
0.0
 40
0.025
100
AcDbArc
 50
180.0
 51
0.0
  0
LINE
  5
15FE
330
1F
100
AcDbEntity
  8
4
100
AcDbLine
 10
7.569506208528737
 20
6.662828467162841
 30
0.0
 11
7.569506208528737
 21
6.757788161730188
 31
0.0
  0
LINE
  5
15FF
330
1F
100
AcDbEntity
  8
4
100
AcDbLine
 10
9.572966470789802
 20
6.819788161730187
 30
0.0
 11
9.572966470789802
 21
6.637968013664519
 31
0.0
  0
LINE
  5
1600
330
1F
100
AcDbEntity
  8
4
100
AcDbLine
 10
9.794343008781602
 20
6.662828467162841
 30
0.0
 11
9.794343008781602
 21
6.819788161730187
 31
0.0
  0
ARC
  5
1601
330
1F
100
AcDbEntity
  8
4
100
AcDbCircle
 10
9.769352874348072
 20
6.662828467162841
 30
0.0
 40
0.025
100
AcDbArc
 50
180.0
 51
0.0
  0
ARC
  5
1602
330
1F
100
AcDbEntity
  8
4
100
AcDbCircle
 10
11.07935287434807
 20
6.662828467162841
 30
0.0
 40
0.025
100
AcDbArc
 50
180.0
 51
0.0
  0
LINE
  5
1603
330
1F
100
AcDbEntity
  8
4
100
AcDbLine
 10
11.1043430087816
 20
6.662828467162841
 30
0.0
 11
11.1043430087816
 21
6.819788161730187
 31
0.0
  0
LINE
  5
1604
330
1F
100
AcDbEntity
  8
4
100
AcDbLine
 10
10.8829664707898
 20
6.819788161730187
 30
0.0
 11
10.8829664707898
 21
6.637968013664519
 31
0.0
  0
LINE
  5
1605
330
1F
100
AcDbEntity
  8
2
100
AcDbLine
 10
11.61040197396068
 20
6.516391684767429
 30
0.0
 11
11.61040197396068
 21
3.986575303675999
 31
0.0
  0
LINE
  5
1608
330
1F
100
AcDbEntity
  8
1
100
AcDbLine
 10
11.1844664707898
 20
3.819788161730187
 30
0.0
 11
11.1844664707898
 21
6.819788161730187
 31
0.0
  0
INSERT
  5
1613
330
1F
100
AcDbEntity
  8
4
100
AcDbBlockReference
  2
DIM
 10
8.854132674196664
 20
4.688429398774506
 30
0.0
  0
INSERT
  5
1615
330
1F
100
AcDbEntity
  8
2
100
AcDbBlockReference
 66
     1
  2
FRACTION
 10
8.715162478941127
 20
4.853605054559229
 30
0.0
 41
0.5999999999999997
 42
0.5999999999999997
 43
0.6
 50
90.0
  0
ATTRIB
  5
1616
330
1615
100
AcDbEntity
  8
8
100
AcDbText
 10
8.656662478941131
 20
4.697358523790582
 30
0.0
 40
0.075
  1
60
 50
90.0
 72
     2
 11
8.656662478941131
 21
4.809858523790582
 31
0.0
100
AcDbAttribute
  2
A
 70
     0
  0
ATTRIB
  5
1617
330
1615
100
AcDbEntity
  8
8
100
AcDbText
 10
8.60716247894113
 20
4.866805054559228
 30
0.0
 40
0.06
  1
 
 50
90.0
 72
     1
 11
8.60716247894113
 21
4.896805054559228
 31
0.0
100
AcDbAttribute
  2
B
 70
     0
  0
ATTRIB
  5
1618
330
1615
100
AcDbEntity
  8
8
100
AcDbText
 10
8.69116247894113
 20
4.866805054559228
 30
0.0
 40
0.06
  1
 
 50
90.0
 72
     1
 11
8.69116247894113
 21
4.896805054559228
 31
0.0
100
AcDbAttribute
  2
C
 70
     0
  0
SEQEND
  5
1619
330
1615
100
AcDbEntity
  8
2
  0
INSERT
  5
161B
330
1F
100
AcDbEntity
  8
4
100
AcDbBlockReference
  2
DIM
 10
8.854132674196664
 20
6.072462092529052
 30
0.0
  0
LINE
  5
161C
330
1F
100
AcDbEntity
  8
4
100
AcDbLine
 10
11.23170924016926
 20
6.662828467162841
 30
0.0
 11
11.23170924016926
 21
6.819788161730187
 31
0.0
  0
ARC
  5
161D
330
1F
100
AcDbEntity
  8
4
100
AcDbCircle
 10
11.25669937460279
 20
6.662828467162841
 30
0.0
 40
0.025
100
AcDbArc
 50
180.0
 51
360.0
  0
LINE
  5
161E
330
1F
100
AcDbEntity
  8
4
100
AcDbLine
 10
11.45308577816106
 20
6.819788161730187
 30
0.0
 11
11.45308577816106
 21
6.637968013664519
 31
0.0
  0
LINE
  5
161F
330
1F
100
AcDbEntity
  8
4
100
AcDbLine
 10
10.8829664707898
 20
5.350794040287317
 30
0.0
 11
10.8829664707898
 21
5.168973892221648
 31
0.0
  0
LINE
  5
1620
330
1F
100
AcDbEntity
  8
4
100
AcDbLine
 10
11.1043430087816
 20
5.19383434571997
 30
0.0
 11
11.1043430087816
 21
5.350794040287317
 31
0.0
  0
ARC
  5
1621
330
1F
100
AcDbEntity
  8
4
100
AcDbCircle
 10
11.07935287434807
 20
5.19383434571997
 30
0.0
 40
0.025
100
AcDbArc
 50
180.0
 51
0.0
  0
LINE
  5
1622
330
1F
100
AcDbEntity
  8
4
100
AcDbLine
 10
11.23170924016926
 20
5.19383434571997
 30
0.0
 11
11.23170924016926
 21
5.350794040287317
 31
0.0
  0
ARC
  5
1623
330
1F
100
AcDbEntity
  8
4
100
AcDbCircle
 10
11.25669937460279
 20
5.19383434571997
 30
0.0
 40
0.025
100
AcDbArc
 50
180.0
 51
360.0
  0
LINE
  5
1624
330
1F
100
AcDbEntity
  8
4
100
AcDbLine
 10
11.45308577816106
 20
5.350794040287317
 30
0.0
 11
11.45308577816106
 21
5.168973892221648
 31
0.0
  0
ENDSEC
  0
SECTION
  2
OBJECTS
  0
DICTIONARY
  5
C
330
0
100
AcDbDictionary
281
     1
  3
ACAD_COLOR
350
15C2
  3
ACAD_GROUP
350
D
  3
ACAD_LAYOUT
350
1A
  3
ACAD_MATERIAL
350
15C1
  3
ACAD_MLINESTYLE
350
17
  3
ACAD_PLOTSETTINGS
350
19
  3
ACAD_PLOTSTYLENAME
350
E
  3
ACDBHEADERROUNDTRIPXREC
350
1659
  3
AcDbVariableDictionary
350
1646
  0
DICTIONARY
  5
15D5
330
2
100
AcDbDictionary
280
     1
281
     1
  3
ACAD_LAYERSTATES
360
15D6
  0
DICTIONARY
  5
15C2
102
{ACAD_REACTORS
330
C
102
}
330
C
100
AcDbDictionary
281
     1
  0
DICTIONARY
  5
D
102
{ACAD_REACTORS
330
C
102
}
330
C
100
AcDbDictionary
281
     1
  0
DICTIONARY
  5
1A
102
{ACAD_REACTORS
330
C
102
}
330
C
100
AcDbDictionary
281
     1
  3
Layout1
350
1E
  3
Layout2
350
26
  3
Model
350
22
  0
DICTIONARY
  5
15C1
102
{ACAD_REACTORS
330
C
102
}
330
C
100
AcDbDictionary
281
     1
  0
DICTIONARY
  5
17
102
{ACAD_REACTORS
330
C
102
}
330
C
100
AcDbDictionary
281
     1
  3
Standard
350
18
  0
DICTIONARY
  5
19
102
{ACAD_REACTORS
330
C
102
}
330
C
100
AcDbDictionary
281
     1
  0
ACDBDICTIONARYWDFLT
  5
E
102
{ACAD_REACTORS
330
C
102
}
330
C
100
AcDbDictionary
281
     1
  3
Normal
350
F
100
AcDbDictionaryWithDefault
340
F
  0
DICTIONARY
  5
1659
102
{ACAD_REACTORS
330
C
102
}
330
C
100
AcDbDictionary
281
     1
  3
COLORDICT
350
165B
  3
MATERIALDICT
350
165A
  0
DICTIONARY
  5
1646
102
{ACAD_REACTORS
330
C
102
}
330
C
100
AcDbDictionary
281
     1
  3
DIMASSOC
350
1647
  3
PROJECTNAME
350
1648
  0
DICTIONARY
  5
15D6
102
{ACAD_REACTORS
330
15D5
102
}
330
15D5
100
AcDbDictionary
281
     1
  0
LAYOUT
  5
1E
102
{ACAD_XDICTIONARY
360
165C
102
}
102
{ACAD_REACTORS
330
1A
102
}
330
1A
100
AcDbPlotSettings
  1

  2
Lexmark 2050 ColorFine 2
  4

  6

 40
0.0
 41
0.0
 42
0.0
 43
0.0
 44
0.0
 45
0.0
 46
0.0
 47
0.0
 48
0.0
 49
0.0
140
0.0
141
0.0
142
1.0
143
1.0
 70
   688
 72
     0
 73
     0
 74
     5
  7
monochrome.ctb
 75
    16
147
1.0
148
0.0
149
0.0
100
AcDbLayout
  1
Layout1
 70
     1
 71
     1
 10
0.0
 20
0.0
 11
12.0
 21
9.0
 12
0.0
 22
0.0
 32
0.0
 14
1.000000000000000E+20
 24
1.000000000000000E+20
 34
1.000000000000000E+20
 15
-1.000000000000000E+20
 25
-1.000000000000000E+20
 35
-1.000000000000000E+20
146
0.0
 13
0.0
 23
0.0
 33
0.0
 16
1.0
 26
0.0
 36
0.0
 17
0.0
 27
1.0
 37
0.0
 76
     0
330
1B
  0
LAYOUT
  5
26
102
{ACAD_XDICTIONARY
360
1660
102
}
102
{ACAD_REACTORS
330
1A
102
}
330
1A
100
AcDbPlotSettings
  1

  2
Lexmark 2050 ColorFine 2
  4

  6

 40
0.0
 41
0.0
 42
0.0
 43
0.0
 44
0.0
 45
0.0
 46
0.0
 47
0.0
 48
0.0
 49
0.0
140
0.0
141
0.0
142
1.0
143
1.0
 70
   688
 72
     0
 73
     0
 74
     5
  7
monochrome.ctb
 75
    16
147
1.0
148
0.0
149
0.0
100
AcDbLayout
  1
Layout2
 70
     1
 71
     2
 10
0.0
 20
0.0
 11
12.0
 21
9.0
 12
0.0
 22
0.0
 32
0.0
 14
0.0
 24
0.0
 34
0.0
 15
0.0
 25
0.0
 35
0.0
146
0.0
 13
0.0
 23
0.0
 33
0.0
 16
1.0
 26
0.0
 36
0.0
 17
0.0
 27
1.0
 37
0.0
 76
     0
330
23
  0
LAYOUT
  5
22
102
{ACAD_XDICTIONARY
360
165E
102
}
102
{ACAD_REACTORS
330
1A
102
}
330
1A
100
AcDbPlotSettings
  1

  2
none_device
  4
Letter_(8.50_x_11.00_Inches)
  6

 40
6.349999904632568
 41
6.349999904632568
 42
6.350006103515625
 43
6.350006103515625
 44
215.8999938964844
 45
279.3999938964844
 46
0.0
 47
0.0
 48
0.0
 49
0.0
140
0.0
141
0.0
142
1.0
143
1.0
 70
 11952
 72
     0
 73
     1
 74
     0
  7
monochrome.ctb
 75
     0
147
1.0
148
-142.8521698518319
149
-58.20485304114621
100
AcDbLayout
  1
Model
 70
     1
 71
     0
 10
0.0
 20
0.0
 11
12.0
 21
9.0
 12
0.0
 22
0.0
 32
0.0
 14
0.0
 24
0.0
 34
0.0
 15
0.0
 25
0.0
 35
0.0
146
0.0
 13
0.0
 23
0.0
 33
0.0
 16
1.0
 26
0.0
 36
0.0
 17
0.0
 27
1.0
 37
0.0
 76
     0
330
1F
  0
MLINESTYLE
  5
18
102
{ACAD_REACTORS
330
17
102
}
330
17
100
AcDbMlineStyle
  2
STANDARD
 70
     0
  3

 62
   256
 51
90.0
 52
90.0
 71
     2
 49
0.5
 62
   256
  6
BYLAYER
 49
-0.5
 62
   256
  6
BYLAYER
  0
ACDBPLACEHOLDER
  5
F
102
{ACAD_REACTORS
330
E
102
}
330
E
  0
XRECORD
  5
165B
102
{ACAD_REACTORS
330
1659
102
}
330
1659
100
AcDbXrecord
280
     1
340
15C2
  0
XRECORD
  5
165A
102
{ACAD_REACTORS
330
1659
102
}
330
1659
100
AcDbXrecord
280
     1
340
15C1
  0
DICTIONARYVAR
  5
1647
102
{ACAD_REACTORS
330
1646
102
}
330
1646
100
DictionaryVariables
280
     0
  1
1
  0
DICTIONARYVAR
  5
1648
102
{ACAD_REACTORS
330
1646
102
}
330
1646
100
DictionaryVariables
280
     0
  1

  0
DICTIONARY
  5
165C
330
1E
100
AcDbDictionary
280
     1
281
     1
  3
ACAD_XREC_ROUNDTRIP
360
165D
  0
DICTIONARY
  5
1660
330
26
100
AcDbDictionary
280
     1
281
     1
  3
ACAD_XREC_ROUNDTRIP
360
1661
  0
DICTIONARY
  5
165E
330
22
100
AcDbDictionary
280
     1
281
     1
  3
ACAD_XREC_ROUNDTRIP
360
165F
  0
XRECORD
  5
165D
102
{ACAD_REACTORS
330
165C
102
}
330
165C
100
AcDbXrecord
280
     1
102
SHADEPLOT
 70
     0
102
SHADEPLOTRESLEVEL
 70
     2
102
SHADEPLOTCUSTOMDPI
 70
   300
  0
XRECORD
  5
1661
102
{ACAD_REACTORS
330
1660
102
}
330
1660
100
AcDbXrecord
280
     1
102
SHADEPLOT
 70
     0
102
SHADEPLOTRESLEVEL
 70
     2
102
SHADEPLOTCUSTOMDPI
 70
   300
  0
XRECORD
  5
165F
102
{ACAD_REACTORS
330
165E
102
}
330
165E
100
AcDbXrecord
280
     1
102
SHADEPLOT
 70
     0
102
SHADEPLOTRESLEVEL
 70
     2
102
SHADEPLOTCUSTOMDPI
 70
   300
  0
ENDSEC
  0
EOF
