  0
SECTION
  2
HEADER
  9
$ACADVER
  1
AC1018
  9
$ACADMAINTVER
 70
   104
  9
$DWGCODEPAGE
  3
ANSI_1252
  9
$LASTSAVEDBY
  1
TFassnacht
  9
$INSBASE
 10
0.0
 20
0.0
 30
0.0
  9
$EXTMIN
 10
-0.0000154820445459
 20
-0.0000825835013529
 30
0.0
  9
$EXTMAX
 10
198.0015843580768
 20
126.0009354966023
 30
0.0
  9
$LIMMIN
 10
0.0
 20
0.0
  9
$LIMMAX
 10
17.0
 20
11.0
  9
$ORTHOMODE
 70
     1
  9
$REGENMODE
 70
     1
  9
$FILLMODE
 70
     1
  9
$QTEXTMODE
 70
     0
  9
$MIRRTEXT
 70
     0
  9
$LTSCALE
 40
1.0
  9
$ATTMODE
 70
     2
  9
$TEXTSIZE
 40
0.085
  9
$TRACEWID
 40
0.05
  9
$TEXTSTYLE
  7
STANDARD
  9
$CLAYER
  8
0
  9
$CELTYPE
  6
BYLAYER
  9
$CECOLOR
 62
   256
  9
$CELTSCALE
 40
1.0
  9
$DISPSILH
 70
     0
  9
$DIMSCALE
 40
1.0
  9
$DIMASZ
 40
0.1328125
  9
$DIMEXO
 40
0.0859375
  9
$DIMDLI
 40
0.171875
  9
$DIMRND
 40
0.0
  9
$DIMDLE
 40
0.0
  9
$DIMEXE
 40
0.0234375
  9
$DIMTP
 40
0.0
  9
$DIMTM
 40
0.0
  9
$DIMTXT
 40
0.109375
  9
$DIMCEN
 40
0.04296875
  9
$DIMTSZ
 40
0.0
  9
$DIMTOL
 70
     0
  9
$DIMLIM
 70
     0
  9
$DIMTIH
 70
     0
  9
$DIMTOH
 70
     0
  9
$DIMSE1
 70
     0
  9
$DIMSE2
 70
     0
  9
$DIMTAD
 70
     1
  9
$DIMZIN
 70
     0
  9
$DIMBLK
  1

  9
$DIMASO
 70
     1
  9
$DIMSHO
 70
     1
  9
$DIMPOST
  1

  9
$DIMAPOST
  1

  9
$DIMALT
 70
     0
  9
$DIMALTD
 70
     2
  9
$DIMALTF
 40
25.4
  9
$DIMLFAC
 40
48.0000768
  9
$DIMTOFL
 70
     0
  9
$DIMTVP
 40
0.0
  9
$DIMTIX
 70
     0
  9
$DIMSOXD
 70
     0
  9
$DIMSAH
 70
     0
  9
$DIMBLK1
  1

  9
$DIMBLK2
  1

  9
$DIMSTYLE
  2
Q_SCALE_FULLDIM
  9
$DIMCLRD
 70
     4
  9
$DIMCLRE
 70
     4
  9
$DIMCLRT
 70
     4
  9
$DIMTFAC
 40
1.0
  9
$DIMGAP
 40
0.04296875
  9
$DIMJUST
 70
     0
  9
$DIMSD1
 70
     0
  9
$DIMSD2
 70
     0
  9
$DIMTOLJ
 70
     1
  9
$DIMTZIN
 70
     0
  9
$DIMALTZ
 70
     0
  9
$DIMALTTZ
 70
     0
  9
$DIMUPT
 70
     0
  9
$DIMDEC
 70
     4
  9
$DIMTDEC
 70
     4
  9
$DIMALTU
 70
     2
  9
$DIMALTTD
 70
     2
  9
$DIMTXSTY
  7
STANDARD
  9
$DIMAUNIT
 70
     0
  9
$DIMADEC
 70
     0
  9
$DIMALTRND
 40
0.0
  9
$DIMAZIN
 70
     0
  9
$DIMDSEP
 70
    46
  9
$DIMATFIT
 70
     3
  9
$DIMFRAC
 70
     0
  9
$DIMLDRBLK
  1

  9
$DIMLUNIT
 70
     4
  9
$DIMLWD
 70
    -2
  9
$DIMLWE
 70
    -2
  9
$DIMTMOVE
 70
     0
  9
$LUNITS
 70
     5
  9
$LUPREC
 70
     8
  9
$SKETCHINC
 40
0.1
  9
$FILLETRAD
 40
0.0
  9
$AUNITS
 70
     0
  9
$AUPREC
 70
     0
  9
$MENU
  1
C:\ACADR13\WIN\SUPPORT\REPUBLIC
  9
$ELEVATION
 40
0.0
  9
$PELEVATION
 40
0.0
  9
$THICKNESS
 40
0.0
  9
$LIMCHECK
 70
     0
  9
$CHAMFERA
 40
0.0
  9
$CHAMFERB
 40
0.0
  9
$CHAMFERC
 40
0.0
  9
$CHAMFERD
 40
0.0
  9
$SKPOLY
 70
     0
  9
$TDCREATE
 40
2450834.604276620
  9
$TDUCREATE
 40
2450834.770943287
  9
$TDUPDATE
 40
2460202.429177790
  9
$TDUUPDATE
 40
2460202.595844456
  9
$TDINDWG
 40
3.9085761111
  9
$TDUSRTIMER
 40
3.9085761111
  9
$USRTIMER
 70
     1
  9
$ANGBASE
 50
0.0
  9
$ANGDIR
 70
     0
  9
$PDMODE
 70
     0
  9
$PDSIZE
 40
0.0
  9
$PLINEWID
 40
0.0
  9
$SPLFRAME
 70
     0
  9
$SPLINETYPE
 70
     6
  9
$SPLINESEGS
 70
     8
  9
$HANDSEED
  5
207E7
  9
$SURFTAB1
 70
     6
  9
$SURFTAB2
 70
     6
  9
$SURFTYPE
 70
     6
  9
$SURFU
 70
     6
  9
$SURFV
 70
     6
  9
$UCSBASE
  2

  9
$UCSNAME
  2

  9
$UCSORG
 10
0.0
 20
0.0
 30
0.0
  9
$UCSXDIR
 10
1.0
 20
0.0
 30
0.0
  9
$UCSYDIR
 10
0.0
 20
1.0
 30
0.0
  9
$UCSORTHOREF
  2

  9
$UCSORTHOVIEW
 70
     0
  9
$UCSORGTOP
 10
0.0
 20
0.0
 30
0.0
  9
$UCSORGBOTTOM
 10
0.0
 20
0.0
 30
0.0
  9
$UCSORGLEFT
 10
0.0
 20
0.0
 30
0.0
  9
$UCSORGRIGHT
 10
0.0
 20
0.0
 30
0.0
  9
$UCSORGFRONT
 10
0.0
 20
0.0
 30
0.0
  9
$UCSORGBACK
 10
0.0
 20
0.0
 30
0.0
  9
$PUCSBASE
  2

  9
$PUCSNAME
  2

  9
$PUCSORG
 10
0.0
 20
0.0
 30
0.0
  9
$PUCSXDIR
 10
1.0
 20
0.0
 30
0.0
  9
$PUCSYDIR
 10
0.0
 20
1.0
 30
0.0
  9
$PUCSORTHOREF
  2

  9
$PUCSORTHOVIEW
 70
     0
  9
$PUCSORGTOP
 10
0.0
 20
0.0
 30
0.0
  9
$PUCSORGBOTTOM
 10
0.0
 20
0.0
 30
0.0
  9
$PUCSORGLEFT
 10
0.0
 20
0.0
 30
0.0
  9
$PUCSORGRIGHT
 10
0.0
 20
0.0
 30
0.0
  9
$PUCSORGFRONT
 10
0.0
 20
0.0
 30
0.0
  9
$PUCSORGBACK
 10
0.0
 20
0.0
 30
0.0
  9
$USERI1
 70
     0
  9
$USERI2
 70
     0
  9
$USERI3
 70
     0
  9
$USERI4
 70
     0
  9
$USERI5
 70
     0
  9
$USERR1
 40
0.0
  9
$USERR2
 40
0.0
  9
$USERR3
 40
0.0
  9
$USERR4
 40
0.0
  9
$USERR5
 40
0.0
  9
$WORLDVIEW
 70
     1
  9
$SHADEDGE
 70
     3
  9
$SHADEDIF
 70
    70
  9
$TILEMODE
 70
     1
  9
$MAXACTVP
 70
    16
  9
$PINSBASE
 10
0.0
 20
0.0
 30
0.0
  9
$PLIMCHECK
 70
     0
  9
$PEXTMIN
 10
1.000000000000000E+20
 20
1.000000000000000E+20
 30
1.000000000000000E+20
  9
$PEXTMAX
 10
-1.000000000000000E+20
 20
-1.000000000000000E+20
 30
-1.000000000000000E+20
  9
$PLIMMIN
 10
0.0
 20
0.0
  9
$PLIMMAX
 10
12.0
 20
9.0
  9
$UNITMODE
 70
     0
  9
$VISRETAIN
 70
     0
  9
$PLINEGEN
 70
     0
  9
$PSLTSCALE
 70
     1
  9
$TREEDEPTH
 70
  3020
  9
$CMLSTYLE
  2
STANDARD
  9
$CMLJUST
 70
     0
  9
$CMLSCALE
 40
1.0
  9
$PROXYGRAPHICS
 70
     1
  9
$MEASUREMENT
 70
     0
  9
$CELWEIGHT
370
    -1
  9
$ENDCAPS
280
     0
  9
$JOINSTYLE
280
     0
  9
$LWDISPLAY
290
     0
  9
$INSUNITS
 70
     0
  9
$HYPERLINKBASE
  1

  9
$STYLESHEET
  1
monochrome.ctb
  9
$XEDIT
290
     1
  9
$CEPSNTYPE
380
     0
  9
$PSTYLEMODE
290
     1
  9
$FINGERPRINTGUID
  2
{8006B5C0-AD62-11D3-96B1-005004D188FB}
  9
$VERSIONGUID
  2
{BE1CC087-9705-41BF-B21D-66768BBC3533}
  9
$EXTNAMES
290
     1
  9
$PSVPSCALE
 40
0.0
  9
$OLESTARTUP
290
     0
  9
$SORTENTS
280
    96
  9
$INDEXCTL
280
     0
  9
$HIDETEXT
280
     0
  9
$XCLIPFRAME
290
     0
  9
$HALOGAP
280
     0
  9
$OBSCOLOR
 70
   257
  9
$OBSLTYPE
280
     0
  9
$INTERSECTIONDISPLAY
280
     0
  9
$INTERSECTIONCOLOR
 70
   257
  9
$DIMASSOC
280
     1
  9
$PROJECTNAME
  1

  0
ENDSEC
  0
SECTION
  2
CLASSES
  0
CLASS
  1
ACDBDICTIONARYWDFLT
  2
AcDbDictionaryWithDefault
  3
ObjectDBX Classes
 90
        0
 91
        1
280
     0
281
     0
  0
CLASS
  1
PLOTSETTINGS
  2
AcDbPlotSettings
  3
ObjectDBX Classes
 90
        0
 91
        2
280
     0
281
     0
  0
CLASS
  1
IMAGEDEF
  2
AcDbRasterImageDef
  3
ISM
 90
        0
 91
        1
280
     0
281
     0
  0
CLASS
  1
DICTIONARYVAR
  2
AcDbDictionaryVar
  3
ObjectDBX Classes
 90
        0
 91
        6
280
     0
281
     0
  0
CLASS
  1
MATERIAL
  2
AcDbMaterial
  3
ObjectDBX Classes
 90
     1153
 91
        3
280
     0
281
     0
  0
CLASS
  1
VISUALSTYLE
  2
AcDbVisualStyle
  3
ObjectDBX Classes
 90
     4095
 91
       26
280
     0
281
     0
  0
CLASS
  1
TABLESTYLE
  2
AcDbTableStyle
  3
ObjectDBX Classes
 90
     4095
 91
        1
280
     0
281
     0
  0
CLASS
  1
SORTENTSTABLE
  2
AcDbSortentsTable
  3
ObjectDBX Classes
 90
        0
 91
        3
280
     0
281
     0
  0
CLASS
  1
SCALE
  2
AcDbScale
  3
ObjectDBX Classes
 90
     1153
 91
       33
280
     0
281
     0
  0
CLASS
  1
MLEADERSTYLE
  2
AcDbMLeaderStyle
  3
ACDB_MLEADERSTYLE_CLASS
 90
     4095
 91
        1
280
     0
281
     0
  0
CLASS
  1
CELLSTYLEMAP
  2
AcDbCellStyleMap
  3
ObjectDBX Classes
 90
     1152
 91
        2
280
     0
281
     0
  0
CLASS
  1
AEC_REFEDIT_STATUS_TRACKER
  2
AecDbRefEditStatusTracker
  3
AecArchBase70|Product Desc: Autodesk Architectural Desktop 2007 |Company: Autodesk,Inc. |WEB Address: www.autodesk.com
 90
      129
 91
        0
280
     0
281
     0
  0
CLASS
  1
NPOCOLLECTION
  2
AcDbImpNonPersistentObjectsCollection
  3
ObjectDBX Classes
 90
     1153
 91
        0
280
     0
281
     0
  0
CLASS
  1
ACDBSECTIONVIEWSTYLE
  2
AcDbSectionViewStyle
  3
ObjectDBX Classes
 90
     1025
 91
        1
280
     0
281
     0
  0
CLASS
  1
ACDBDETAILVIEWSTYLE
  2
AcDbDetailViewStyle
  3
ObjectDBX Classes
 90
     1025
 91
        1
280
     0
281
     0
  0
CLASS
  1
LSINTERNALCOMPONENT
  2
AcDbLSInternalComponent
  3
AcDgnLS
 90
        0
 91
       76
280
     0
281
     0
  0
ENDSEC
  0
SECTION
  2
TABLES
  0
TABLE
  2
VPORT
  5
8
102
{ACAD_XDICTIONARY
360
1857C
102
}
330
0
100
AcDbSymbolTable
 70
     1
  0
VPORT
  5
18345
330
8
100
AcDbSymbolTableRecord
100
AcDbViewportTableRecord
  2
*Active
 70
     0
 10
0.0
 20
0.0
 11
1.0
 21
1.0
 12
99.00079134765043
 22
63.00242036549099
 13
0.0
 23
0.0
 14
1.0
 24
1.0
 15
0.0
 25
0.0
 16
0.0
 26
0.0
 36
1.0
 17
0.0
 27
0.0
 37
0.0
 40
127.2224822188921
 41
2.13301282051282
 42
50.0
 43
0.0
 44
0.0
 50
0.0
 51
0.0
 71
     0
 72
   100
 73
     1
 74
     0
 75
     0
 76
     0
 77
     0
 78
     0
281
     0
 65
     1
110
0.0
120
0.0
130
0.0
111
1.0
121
0.0
131
0.0
112
0.0
122
1.0
132
0.0
 79
     0
146
0.0
1001
ACAD_NAV_VCDISPLAY
1070
     3
  0
ENDTAB
  0
TABLE
  2
LTYPE
  5
5
330
0
100
AcDbSymbolTable
 70
     5
  0
LTYPE
  5
14
330
5
100
AcDbSymbolTableRecord
100
AcDbLinetypeTableRecord
  2
BYBLOCK
 70
     0
  3

 72
    65
 73
     0
 40
0.0
  0
LTYPE
  5
15
330
5
100
AcDbSymbolTableRecord
100
AcDbLinetypeTableRecord
  2
BYLAYER
 70
     0
  3

 72
    65
 73
     0
 40
0.0
  0
LTYPE
  5
16
330
5
100
AcDbSymbolTableRecord
100
AcDbLinetypeTableRecord
  2
CONTINUOUS
 70
     0
  3
Solid line
 72
    65
 73
     0
 40
0.0
  0
LTYPE
  5
19547
330
5
100
AcDbSymbolTableRecord
100
AcDbLinetypeTableRecord
  2
PHANTOM2
 70
     0
  3
Phantom (.5x) ___ _ _ ___ _ _ ___ _ _ ___ _ _
 72
    65
 73
     6
 40
1.25
 49
0.625
 74
     0
 49
-0.125
 74
     0
 49
0.125
 74
     0
 49
-0.125
 74
     0
 49
0.125
 74
     0
 49
-0.125
 74
     0
  0
LTYPE
  5
1E739
330
5
100
AcDbSymbolTableRecord
100
AcDbLinetypeTableRecord
  2
DASHED2
 70
     0
  3
Dashed (.5x) _ _ _ _ _ _ _ _ _ _ _ _ _ _ _ _ _
 72
    65
 73
     2
 40
0.375
 49
0.25
 74
     0
 49
-0.125
 74
     0
  0
LTYPE
  5
1E73A
330
5
100
AcDbSymbolTableRecord
100
AcDbLinetypeTableRecord
  2
HS
 70
     0
  3
HEAVY_SOLID
 72
    65
 73
     0
 40
0.0
  0
LTYPE
  5
202A1
330
5
100
AcDbSymbolTableRecord
100
AcDbLinetypeTableRecord
  2
HIDDEN
 70
     0
  3
Hidden __ __ __ __ __ __ __ __ __ __ __ __ __ _
 72
    65
 73
     2
 40
0.375
 49
0.25
 74
     0
 49
-0.125
 74
     0
  0
ENDTAB
  0
TABLE
  2
LAYER
  5
2
102
{ACAD_XDICTIONARY
360
18C2C
102
}
330
0
100
AcDbSymbolTable
 70
    20
  0
LAYER
  5
F
102
{ACAD_XDICTIONARY
360
18BD0
102
}
330
2
100
AcDbSymbolTableRecord
100
AcDbLayerTableRecord
  2
0
 70
     0
 62
     7
  6
CONTINUOUS
370
    -3
390
5D95
  0
LAYER
  5
36
102
{ACAD_XDICTIONARY
360
18BD2
102
}
330
2
100
AcDbSymbolTableRecord
100
AcDbLayerTableRecord
  2
TEXT
 70
     0
 62
     2
  6
CONTINUOUS
370
    -3
390
5D95
  0
LAYER
  5
14178
102
{ACAD_XDICTIONARY
360
18BD6
102
}
330
2
100
AcDbSymbolTableRecord
100
AcDbLayerTableRecord
  2
locker
 70
     0
 62
     1
  6
CONTINUOUS
370
    -3
390
5D95
  0
LAYER
  5
19CB4
330
2
100
AcDbSymbolTableRecord
100
AcDbLayerTableRecord
  2
Defpoints
 70
     0
 62
     7
  6
CONTINUOUS
290
     0
370
    -3
390
5D95
  0
LAYER
  5
1A808
102
{ACAD_XDICTIONARY
360
1A809
102
}
330
2
100
AcDbSymbolTableRecord
100
AcDbLayerTableRecord
  2
border1
 70
     0
 62
     1
  6
CONTINUOUS
370
    -3
390
5D95
  0
LAYER
  5
1A80A
102
{ACAD_XDICTIONARY
360
1A80B
102
}
330
2
100
AcDbSymbolTableRecord
100
AcDbLayerTableRecord
  2
dim
 70
     0
 62
     4
  6
CONTINUOUS
370
    -3
390
5D95
  0
LAYER
  5
1A80C
102
{ACAD_XDICTIONARY
360
1A80D
102
}
330
2
100
AcDbSymbolTableRecord
100
AcDbLayerTableRecord
  2
wall
 70
     0
 62
    42
  6
CONTINUOUS
370
    -3
390
5D95
  0
LAYER
  5
1A80E
102
{ACAD_XDICTIONARY
360
1A80F
102
}
330
2
100
AcDbSymbolTableRecord
100
AcDbLayerTableRecord
  2
diamonds
 70
     0
 62
     6
  6
CONTINUOUS
370
    15
390
5D95
  0
LAYER
  5
1A812
330
2
100
AcDbSymbolTableRecord
100
AcDbLayerTableRecord
  2
elevation text
 70
     0
 62
     7
  6
CONTINUOUS
370
    -3
390
5D95
1001
AcAecLayerStandard
1000

1000

1001
AcCmTransparency
1071
        0
  0
LAYER
  5
1E73B
102
{ACAD_XDICTIONARY
360
1E73C
102
}
330
2
100
AcDbSymbolTableRecord
100
AcDbLayerTableRecord
  2
frame
 70
     0
 62
     1
  6
CONTINUOUS
370
    -3
390
5D95
  0
LAYER
  5
1E73D
330
2
100
AcDbSymbolTableRecord
100
AcDbLayerTableRecord
  2
top
 70
     0
 62
     6
  6
CONTINUOUS
370
    35
390
5D95
  0
LAYER
  5
1E73E
330
2
100
AcDbSymbolTableRecord
100
AcDbLayerTableRecord
  2
door
 70
     0
 62
     3
  6
CONTINUOUS
370
    -3
390
5D95
  0
LAYER
  5
1E73F
102
{ACAD_XDICTIONARY
360
1E740
102
}
330
2
100
AcDbSymbolTableRecord
100
AcDbLayerTableRecord
  2
ELEVATION
 70
     0
 62
     3
  6
CONTINUOUS
370
    -3
390
5D95
  0
LAYER
  5
1E741
102
{ACAD_XDICTIONARY
360
1E742
102
}
330
2
100
AcDbSymbolTableRecord
100
AcDbLayerTableRecord
  2
ELEV HIDDEN
 70
     0
 62
     1
  6
DASHED2
370
    -3
390
5D95
  0
LAYER
  5
1E743
330
2
100
AcDbSymbolTableRecord
100
AcDbLayerTableRecord
  2
HANDLE
 70
     0
 62
     5
  6
CONTINUOUS
370
    -3
390
5D95
  0
LAYER
  5
1E744
102
{ACAD_XDICTIONARY
360
1E745
102
}
330
2
100
AcDbSymbolTableRecord
100
AcDbLayerTableRecord
  2
OBJECT
 70
     0
 62
     3
  6
CONTINUOUS
370
    -3
390
5D95
  0
LAYER
  5
1E746
102
{ACAD_XDICTIONARY
360
1E747
102
}
330
2
100
AcDbSymbolTableRecord
100
AcDbLayerTableRecord
  2
0 OBJECT BORDER
 70
     0
 62
     1
  6
CONTINUOUS
370
    -3
390
5D95
  0
LAYER
  5
1E748
102
{ACAD_XDICTIONARY
360
1E749
102
}
330
2
100
AcDbSymbolTableRecord
100
AcDbLayerTableRecord
  2
0 DIAMONDS
 70
     0
 62
     3
  6
CONTINUOUS
370
    -3
390
5D95
  0
LAYER
  5
1EFB8
102
{ACAD_XDICTIONARY
360
1EFB9
102
}
330
2
100
AcDbSymbolTableRecord
100
AcDbLayerTableRecord
  2
coat rod
 70
     0
 62
     4
  6
CONTINUOUS
370
    -3
390
5D95
  0
LAYER
  5
202A2
102
{ACAD_XDICTIONARY
360
202A3
102
}
330
2
100
AcDbSymbolTableRecord
100
AcDbLayerTableRecord
  2
HIDDEN
 70
     0
 62
     2
  6
HIDDEN
370
    15
390
5D95
  0
ENDTAB
  0
TABLE
  2
STYLE
  5
3
330
0
100
AcDbSymbolTable
 70
     3
  0
STYLE
  5
10
330
3
100
AcDbSymbolTableRecord
100
AcDbTextStyleTableRecord
  2
STANDARD
 70
     0
 40
0.0
 41
1.0
 50
0.0
 71
     0
 42
0.085
  3
txt
  4

  0
STYLE
  5
14154
330
3
100
AcDbSymbolTableRecord
100
AcDbTextStyleTableRecord
  2
ROMANS
 70
     0
 40
0.0
 41
1.0
 50
0.0
 71
     0
 42
0.085
  3
romans
  4

  0
STYLE
  5
1E74A
330
3
100
AcDbSymbolTableRecord
100
AcDbTextStyleTableRecord
  2
ELEVATION
 70
     0
 40
1.5
 41
1.0
 50
0.0
 71
     0
 42
1.5
  3
SIMPLEX.shx
  4

  0
ENDTAB
  0
TABLE
  2
VIEW
  5
6
330
0
100
AcDbSymbolTable
 70
     0
  0
ENDTAB
  0
TABLE
  2
UCS
  5
7
330
0
100
AcDbSymbolTable
 70
     0
  0
ENDTAB
  0
TABLE
  2
APPID
  5
9
330
0
100
AcDbSymbolTable
 70
     9
  0
APPID
  5
11
330
9
100
AcDbSymbolTableRecord
100
AcDbRegAppTableRecord
  2
ACAD
 70
     0
  0
APPID
  5
18543
330
9
100
AcDbSymbolTableRecord
100
AcDbRegAppTableRecord
  2
ACAD_EXEMPT_FROM_CAD_STANDARDS
 70
     0
  0
APPID
  5
1857B
330
9
100
AcDbSymbolTableRecord
100
AcDbRegAppTableRecord
  2
ACAD_PSEXT
 70
     0
  0
APPID
  5
1953B
330
9
100
AcDbSymbolTableRecord
100
AcDbRegAppTableRecord
  2
ACAD_MLEADERVER
 70
     0
  0
APPID
  5
19557
330
9
100
AcDbSymbolTableRecord
100
AcDbRegAppTableRecord
  2
ACAD_NAV_VCDISPLAY
 70
     0
  0
APPID
  5
1A813
330
9
100
AcDbSymbolTableRecord
100
AcDbRegAppTableRecord
  2
AcAecLayerStandard
 70
     0
  0
APPID
  5
1A814
330
9
100
AcDbSymbolTableRecord
100
AcDbRegAppTableRecord
  2
AcCmTransparency
 70
     0
  0
APPID
  5
1E74D
330
9
100
AcDbSymbolTableRecord
100
AcDbRegAppTableRecord
  2
ACAD_DSTYLE_DIMJAG
 70
     0
  0
APPID
  5
1E74E
330
9
100
AcDbSymbolTableRecord
100
AcDbRegAppTableRecord
  2
ACAD_DSTYLE_DIMTALN
 70
     0
  0
ENDTAB
  0
TABLE
  2
DIMSTYLE
  5
A
330
0
100
AcDbSymbolTable
 70
     2
100
AcDbDimStyleTable
 71
     1
340
E4
  0
DIMSTYLE
105
E4
330
A
100
AcDbSymbolTableRecord
100
AcDbDimStyleTableRecord
  2
Q_SCALE_FULLDIM
 70
     0
 41
0.1328125
 42
0.0859375
 43
0.171875
 44
0.0234375
 73
     0
 74
     0
 77
     1
140
0.109375
141
0.04296875
144
48.0000768
147
0.04296875
176
     4
177
     4
178
     4
277
     4
340
10
  0
DIMSTYLE
105
18C2B
330
A
100
AcDbSymbolTableRecord
100
AcDbDimStyleTableRecord
  2
Standard
 70
     0
340
10
  0
ENDTAB
  0
TABLE
  2
BLOCK_RECORD
  5
1
330
0
100
AcDbSymbolTable
 70
     3
  0
BLOCK_RECORD
  5
1A
102
{ACAD_XDICTIONARY
360
183EF
102
}
330
1
100
AcDbSymbolTableRecord
100
AcDbBlockTableRecord
  2
*MODEL_SPACE
340
5D98
  0
BLOCK_RECORD
  5
17
330
1
100
AcDbSymbolTableRecord
100
AcDbBlockTableRecord
  2
*PAPER_SPACE
340
5D99
  0
BLOCK_RECORD
  5
1E707
102
{ACAD_XDICTIONARY
360
1E708
102
}
330
1
100
AcDbSymbolTableRecord
100
AcDbBlockTableRecord
  2
A$C0da8e90c
340
0
102
{BLKREFS
331
20515
331
20528
102
}
1001
ACAD
1000
DesignCenter Data
1002
{
1070
     1
1070
     1
1002
}
  0
BLOCK_RECORD
  5
1E72C
102
{ACAD_XDICTIONARY
360
1E72D
102
}
330
1
100
AcDbSymbolTableRecord
100
AcDbBlockTableRecord
  2
A$C6895fdcc
340
0
102
{BLKREFS
331
205F0
331
205F1
331
205F2
331
205F3
331
205F4
331
205F5
331
205F6
331
205F7
331
205F8
331
205F9
331
205FA
331
205FB
331
205FC
331
205FD
331
205FE
331
20699
331
2069A
331
2069B
331
2069C
331
2069D
331
2069E
331
2069F
331
206A0
331
206A1
331
206A2
331
206A3
331
206A4
331
206A5
331
206A6
331
206A7
331
206A8
331
206A9
331
206AA
331
206AB
331
206AC
331
206AD
331
206AE
331
206AF
331
206B0
331
206B1
331
20707
331
20708
331
20709
331
2070A
331
2070B
331
2070C
331
2070D
331
2070E
331
2070F
331
20710
331
20711
331
20712
331
20713
331
20714
331
20715
331
20716
331
20717
331
20718
331
20719
331
2071A
331
2071B
331
2071C
331
2071D
331
2071E
331
2071F
331
20720
331
20721
331
20722
331
20723
331
20724
331
20725
331
20726
331
20727
331
20728
331
20729
331
2072A
331
2072B
331
2072C
331
2072D
331
2072E
331
2072F
331
20730
331
20731
331
20732
331
20733
331
20734
331
20735
331
20736
331
20737
331
20738
331
20739
331
2073A
331
2073B
331
2073C
331
2073D
331
2073E
331
2073F
331
20740
331
20741
331
20742
331
20743
331
20744
331
20745
331
20746
331
20747
331
20748
331
20749
331
2074A
331
2074B
331
2074C
331
2074D
331
2074E
331
205B7
331
205B8
331
205B9
331
205BA
331
205BB
331
205BC
331
205BD
331
205BE
331
205BF
331
205C0
331
205C1
331
205C2
331
205C3
331
205C4
331
205C5
331
205C6
331
205C7
331
205C8
331
205C9
331
205CA
331
205CB
331
205CC
331
205CD
331
205CE
331
205CF
331
205D0
331
205D1
331
205D2
331
205D3
331
205D4
331
205D5
331
205D6
331
205D7
331
205D8
331
205D9
331
205DA
331
205DB
331
205DC
331
205DD
331
205DE
331
205DF
331
205E0
331
205E1
331
205E2
331
205E3
331
205E4
331
205E5
331
205E6
331
205E7
331
205E8
331
205E9
331
205EA
331
205EB
331
205EC
331
205ED
331
205EE
331
205EF
102
}
  0
BLOCK_RECORD
  5
1EFAB
330
1
100
AcDbSymbolTableRecord
100
AcDbBlockTableRecord
  2
ARRO2
340
0
102
{BLKREFS
331
206C4
102
}
  0
ENDTAB
  0
ENDSEC
  0
SECTION
  2
BLOCKS
  0
BLOCK
  5
1B
330
1A
100
AcDbEntity
  8
0
100
AcDbBlockBegin
  2
*MODEL_SPACE
 70
     0
 10
0.0
 20
0.0
 30
0.0
  3
*MODEL_SPACE
  1

  0
ENDBLK
  5
1C
330
1A
100
AcDbEntity
  8
0
100
AcDbBlockEnd
  0
BLOCK
  5
18
330
17
100
AcDbEntity
 67
     1
  8
0
100
AcDbBlockBegin
  2
*PAPER_SPACE
 70
     0
 10
0.0
 20
0.0
 30
0.0
  3
*PAPER_SPACE
  1

  0
ENDBLK
  5
19
330
17
100
AcDbEntity
 67
     1
  8
0
100
AcDbBlockEnd
  0
BLOCK
  5
1E70A
330
1E707
100
AcDbEntity
  8
0
100
AcDbBlockBegin
  2
A$C0da8e90c
 70
     0
 10
0.0
 20
0.0
 30
0.0
  3
A$C0da8e90c
  1

  0
LINE
  5
1E70B
330
1E707
100
AcDbEntity
  8
HANDLE
100
AcDbLine
 10
-1.193640979519827
 20
4.734373926643332
 30
0.0
 11
2.306359020480172
 21
4.734373926643332
 31
0.0
  0
LINE
  5
1E70C
330
1E707
100
AcDbEntity
  8
HANDLE
100
AcDbLine
 10
-1.326697382190772
 20
4.984373926643332
 30
0.0
 11
2.439415423151118
 21
4.984373926643332
 31
0.0
  0
ARC
  5
1E70D
330
1E707
100
AcDbEntity
  8
HANDLE
100
AcDbCircle
 10
2.439415423151118
 20
4.859373926643332
 30
0.0
 40
0.125
100
AcDbArc
 50
356.4236656250027
 51
90.0
  0
ARC
  5
1E70E
330
1E707
100
AcDbEntity
  8
HANDLE
100
AcDbCircle
 10
-1.326697382190772
 20
4.859373926643332
 30
0.0
 40
0.125
100
AcDbArc
 50
90.0
 51
183.5763343749973
  0
LINE
  5
1E70F
330
1E707
100
AcDbEntity
  8
HANDLE
100
AcDbLine
 10
-0.8811409795198272
 20
-0.265626073356664
 30
0.0
 11
1.993859020480172
 21
-0.265626073356664
 31
0.0
  0
LINE
  5
1E710
330
1E707
100
AcDbEntity
  8
HANDLE
100
AcDbLine
 10
-0.9985723821907726
 20
-0.515626073356664
 30
0.0
 11
2.111290423151118
 21
-0.515626073356664
 31
0.0
  0
ARC
  5
1E711
330
1E707
100
AcDbEntity
  8
HANDLE
100
AcDbCircle
 10
2.111290423151118
 20
-0.390626073356664
 30
0.0
 40
0.125
100
AcDbArc
 50
270.0
 51
356.4236656250027
  0
LINE
  5
1E712
330
1E707
100
AcDbEntity
  8
HANDLE
100
AcDbLine
 10
2.306359020480172
 20
4.734373926643332
 30
0.0
 11
1.993859020480172
 21
-0.265626073356664
 31
0.0
  0
LINE
  5
1E713
330
1E707
100
AcDbEntity
  8
HANDLE
100
AcDbLine
 10
2.564171995461478
 20
4.851576640873933
 30
0.0
 11
2.236046995461478
 21
-0.3984233591260633
 31
0.0
  0
LINE
  5
1E714
330
1E707
100
AcDbEntity
  8
HANDLE
100
AcDbLine
 10
-0.8811409795198272
 20
-0.265626073356664
 30
0.0
 11
-1.193640979519827
 21
4.734373926643332
 31
0.0
  0
LINE
  5
1E715
330
1E707
100
AcDbEntity
  8
HANDLE
100
AcDbLine
 10
-1.123328954501133
 20
-0.3984233591260633
 30
0.0
 11
-1.451453954501133
 21
4.851576640873933
 31
0.0
  0
ARC
  5
1E716
330
1E707
100
AcDbEntity
  8
HANDLE
100
AcDbCircle
 10
-0.9985723821907726
 20
-0.390626073356664
 30
0.0
 40
0.125
100
AcDbArc
 50
183.5763343749973
 51
270.0
  0
LINE
  5
1E717
330
1E707
100
AcDbEntity
  8
HANDLE
100
AcDbLine
 10
-1.193640979519827
 20
4.734373926643332
 30
0.0
 11
-1.417800786960228
 21
4.944961131524742
 31
0.0
  0
LINE
  5
1E718
330
1E707
100
AcDbEntity
  8
HANDLE
100
AcDbLine
 10
2.306359020480172
 20
4.734373926643332
 30
0.0
 11
2.530518827920573
 21
4.944961131524742
 31
0.0
  0
LINE
  5
1E719
330
1E707
100
AcDbEntity
  8
HANDLE
100
AcDbLine
 10
1.993859020480172
 20
-0.265626073356664
 30
0.0
 11
2.196877628032538
 21
-0.4817294781261197
 31
0.0
  0
LINE
  5
1E71A
330
1E707
100
AcDbEntity
  8
HANDLE
100
AcDbLine
 10
-0.8811409795198272
 20
-0.265626073356664
 30
0.0
 11
-1.084159587072193
 21
-0.4817294781261197
 31
0.0
  0
LINE
  5
1E71B
330
1E707
100
AcDbEntity
  8
HANDLE
100
AcDbLine
 10
0.4063590204801671
 20
4.67287392664333
 30
0.0
 11
0.4063590204801671
 21
3.826873926643333
 31
0.0
  0
LINE
  5
1E71C
330
1E707
100
AcDbEntity
  8
HANDLE
100
AcDbLine
 10
0.2753590204801668
 20
4.732873926643332
 30
0.0
 11
0.2753590204801668
 21
4.734373926643332
 31
0.0
  0
ARC
  5
1E71D
330
1E707
100
AcDbEntity
  8
HANDLE
100
AcDbCircle
 10
0.3053590204801679
 20
4.732873926643332
 30
0.0
 40
0.03
100
AcDbArc
 50
180.0
 51
270.0
  0
LINE
  5
1E71E
330
1E707
100
AcDbEntity
  8
HANDLE
100
AcDbLine
 10
0.7063590204801642
 20
4.67287392664333
 30
0.0
 11
0.7063590204801784
 21
3.826873926643333
 31
0.0
  0
LINE
  5
1E71F
330
1E707
100
AcDbEntity
  8
HANDLE
100
AcDbLine
 10
0.8373590204801786
 20
4.732873926643332
 30
0.0
 11
0.8373590204801786
 21
4.734373926643332
 31
0.0
  0
ARC
  5
1E720
330
1E707
100
AcDbEntity
  8
HANDLE
100
AcDbCircle
 10
0.8073590204801774
 20
4.732873926643332
 30
0.0
 40
0.03
100
AcDbArc
 50
270.0
 51
0.0
  0
ARC
  5
1E721
330
1E707
100
AcDbEntity
  8
HANDLE
100
AcDbCircle
 10
0.6763590204801773
 20
3.826873926643333
 30
0.0
 40
0.03
100
AcDbArc
 50
270.0
 51
0.0
  0
LINE
  5
1E722
330
1E707
100
AcDbEntity
  8
HANDLE
100
AcDbLine
 10
0.4363590204801682
 20
3.796873926643332
 30
0.0
 11
0.6763590204801773
 21
3.796873926643332
 31
0.0
  0
ARC
  5
1E723
330
1E707
100
AcDbEntity
  8
HANDLE
100
AcDbCircle
 10
0.4363590204801682
 20
3.826873926643333
 30
0.0
 40
0.03
100
AcDbArc
 50
180.0
 51
270.0
  0
LINE
  5
1E724
330
1E707
100
AcDbEntity
  8
HANDLE
100
AcDbLine
 10
0.3053590204801679
 20
4.702873926643331
 30
0.0
 11
0.3763590204801659
 21
4.702873926643331
 31
0.0
  0
ARC
  5
1E725
330
1E707
100
AcDbEntity
  8
HANDLE
100
AcDbCircle
 10
0.3763590204801659
 20
4.67287392664333
 30
0.0
 40
0.03
100
AcDbArc
 50
0.0
 51
90.0
  0
LINE
  5
1E726
330
1E707
100
AcDbEntity
  8
HANDLE
100
AcDbLine
 10
0.7363590204801654
 20
4.702873926643331
 30
0.0
 11
0.8073590204801774
 21
4.702873926643331
 31
0.0
  0
ARC
  5
1E727
330
1E707
100
AcDbEntity
  8
HANDLE
100
AcDbCircle
 10
0.7363590204801654
 20
4.67287392664333
 30
0.0
 40
0.03
100
AcDbArc
 50
90.0000000000004
 51
180.0000000000004
  0
CIRCLE
  5
1E728
330
1E707
100
AcDbEntity
  8
HANDLE
100
AcDbCircle
 10
0.5563590204801728
 20
2.92587392664333
 30
0.0
 40
0.109375
  0
CIRCLE
  5
1E729
330
1E707
100
AcDbEntity
  8
HANDLE
100
AcDbCircle
 10
0.5563590204801728
 20
1.832873926643333
 30
0.0
 40
0.328125
  0
CIRCLE
  5
1E72A
330
1E707
100
AcDbEntity
  8
HANDLE
100
AcDbCircle
 10
0.5563590204801728
 20
0.7398739266433303
 30
0.0
 40
0.109375
  0
ENDBLK
  5
1E72B
330
1E707
100
AcDbEntity
  8
0
100
AcDbBlockEnd
  0
BLOCK
  5
1E72F
330
1E72C
100
AcDbEntity
  8
0
100
AcDbBlockBegin
  2
A$C6895fdcc
 70
     0
 10
0.0
 20
0.0
 30
0.0
  3
A$C6895fdcc
  1

  0
LINE
  5
1E730
330
1E72C
100
AcDbEntity
  8
0 DIAMONDS
  6
HS
100
AcDbLine
 10
0.0493175358351437
 20
-0.4993160339145107
 30
0.0
 11
0.2376805279272958
 21
-0.1171560233942728
 31
0.0
  0
LINE
  5
1E731
330
1E72C
100
AcDbEntity
  8
0 DIAMONDS
  6
HS
100
AcDbLine
 10
-0.2376957833475899
 20
-0.1171615137482149
 30
0.0
 11
-0.0493344904461992
 21
-0.4993181026238745
 31
0.0
  0
LINE
  5
1E732
330
1E72C
100
AcDbEntity
  8
0 DIAMONDS
  6
HS
100
AcDbLine
 10
-0.2377137994262739
 20
0.1171702978554094
 30
0.0
 11
-0.0493502209792496
 21
0.4993257693549822
 31
0.0
  0
LINE
  5
1E733
330
1E72C
100
AcDbEntity
  8
0 DIAMONDS
  6
HS
100
AcDbLine
 10
0.04933636347414
 20
0.4993074427929969
 30
0.0
 11
0.2376951826445293
 21
0.1171538946400688
 31
0.0
  0
ARC
  5
1E734
330
1E72C
100
AcDbEntity
  8
0 DIAMONDS
  6
HS
100
AcDbCircle
 10
0.0
 20
0.0
 30
0.0
 40
0.2649999856948853
100
AcDbArc
 50
153.7617513501023
 51
206.2382450074554
  0
ARC
  5
1E735
330
1E72C
100
AcDbEntity
  8
0 DIAMONDS
  6
HS
100
AcDbCircle
 10
0.0
 20
0.4749984741210938
 30
0.0
 40
0.0549999997019768
100
AcDbArc
 50
26.23804875311714
 51
153.7619562559177
  0
ARC
  5
1E736
330
1E72C
100
AcDbEntity
  8
0 DIAMONDS
  6
HS
100
AcDbCircle
 10
0.0
 20
-0.4749984741210938
 30
0.0
 40
0.0549999997019768
100
AcDbArc
 50
206.2380437440823
 51
333.7619512468829
  0
ARC
  5
1E737
330
1E72C
100
AcDbEntity
  8
0 DIAMONDS
  6
HS
100
AcDbCircle
 10
0.0
 20
0.0
 30
0.0
 40
0.2649999856948853
100
AcDbArc
 50
333.7617531715091
 51
26.2382468284909
  0
ENDBLK
  5
1E738
330
1E72C
100
AcDbEntity
  8
0
100
AcDbBlockEnd
  0
BLOCK
  5
1EFAC
330
1EFAB
100
AcDbEntity
  8
0
100
AcDbBlockBegin
  2
ARRO2
 70
     0
 10
0.0
 20
0.0
 30
0.0
  3
ARRO2
  1

  0
LINE
  5
1EFAD
330
1EFAB
100
AcDbEntity
  8
coat rod
100
AcDbLine
 10
-0.124999999999992
 20
-0.0200000000000005
 30
0.0
 11
0.000000000000008
 21
-0.0000000000000009
 31
0.0
  0
LINE
  5
1EFAE
330
1EFAB
100
AcDbEntity
  8
coat rod
100
AcDbLine
 10
0.000000000000008
 20
-0.0000000000000009
 30
0.0
 11
-0.124999999999992
 21
0.0199999999999996
 31
0.0
  0
LINE
  5
1EFAF
330
1EFAB
100
AcDbEntity
  8
coat rod
100
AcDbLine
 10
-0.124999999999992
 20
-0.0099999999999998
 30
0.0
 11
0.000000000000008
 21
-0.0000000000000009
 31
0.0
  0
LINE
  5
1EFB0
330
1EFAB
100
AcDbEntity
  8
coat rod
100
AcDbLine
 10
-0.124999999999992
 20
0.0099999999999998
 30
0.0
 11
0.0000000000000089
 21
-0.0000000000000009
 31
0.0
  0
LINE
  5
1EFB1
330
1EFAB
100
AcDbEntity
  8
coat rod
100
AcDbLine
 10
-0.124999999999992
 20
-0.0200000000000005
 30
0.0
 11
-0.124999999999992
 21
0.0199999999999996
 31
0.0
  0
LINE
  5
1EFB2
330
1EFAB
100
AcDbEntity
  8
coat rod
100
AcDbLine
 10
0.1250000000000124
 20
0.0199999999999987
 30
0.0
 11
0.1250000000000124
 21
-0.0200000000000014
 31
0.0
  0
LINE
  5
1EFB3
330
1EFAB
100
AcDbEntity
  8
coat rod
100
AcDbLine
 10
0.1250000000000124
 20
-0.0100000000000016
 30
0.0
 11
0.0000000000000115
 21
-0.0000000000000009
 31
0.0
  0
LINE
  5
1EFB4
330
1EFAB
100
AcDbEntity
  8
coat rod
100
AcDbLine
 10
0.1250000000000124
 20
0.009999999999998
 30
0.0
 11
0.0000000000000124
 21
-0.0000000000000009
 31
0.0
  0
LINE
  5
1EFB5
330
1EFAB
100
AcDbEntity
  8
coat rod
100
AcDbLine
 10
0.0000000000000124
 20
-0.0000000000000009
 30
0.0
 11
0.1250000000000124
 21
-0.0200000000000014
 31
0.0
  0
LINE
  5
1EFB6
330
1EFAB
100
AcDbEntity
  8
coat rod
100
AcDbLine
 10
0.1250000000000124
 20
0.0199999999999987
 30
0.0
 11
0.0000000000000124
 21
-0.0000000000000009
 31
0.0
  0
ENDBLK
  5
1EFB7
330
1EFAB
100
AcDbEntity
  8
0
100
AcDbBlockEnd
  0
ENDSEC
  0
SECTION
  2
ENTITIES
  0
TEXT
  5
16791
330
1A
100
AcDbEntity
  8
TEXT
100
AcDbText
 10
8.224565459720466
 20
15.70316061444471
 30
0.0
 40
0.125
  1

100
AcDbText
  0
TEXT
  5
17A1C
330
1A
100
AcDbEntity
  8
locker
100
AcDbText
 10
27.151014806888
 20
31.71777575150072
 30
0.0
 40
0.085
  1
 
 72
     1
 11
27.19351480688799
 21
31.71777575150072
 31
0.0
100
AcDbText
  0
LWPOLYLINE
  5
20502
330
1A
100
AcDbEntity
  8
border1
100
AcDbPolyline
 90
        4
 70
     1
 43
0.0
 10
-0.0000154820445459
 20
126.0009354966023
 10
198.0015843580768
 20
126.0009354966023
 10
198.0015843580768
 20
-0.0000825835013529
 10
-0.0000154820445459
 20
-0.0000825835013529
  0
LINE
  5
20503
330
1A
100
AcDbEntity
  8
ELEVATION
100
AcDbLine
 10
49.20812761589331
 20
33.99119511337813
 30
0.0
 11
49.70809708341403
 21
33.99119511337813
 31
0.0
  0
LINE
  5
20504
330
1A
100
AcDbEntity
  8
ELEVATION
100
AcDbLine
 10
72.20809668108268
 20
33.99119511337813
 30
0.0
 11
72.70813481315418
 21
33.99119511337813
 31
0.0
  0
LINE
  5
20505
330
1A
100
AcDbEntity
  8
ELEVATION
100
AcDbLine
 10
72.20809668108268
 20
90.61619306819375
 30
0.0
 11
72.70813481315418
 21
90.61619306819375
 31
0.0
  0
LINE
  5
20506
330
1A
100
AcDbEntity
  8
ELEVATION
100
AcDbLine
 10
49.20812761589331
 20
90.61619306819375
 30
0.0
 11
49.70809708341403
 21
90.61619306819375
 31
0.0
  0
LINE
  5
20507
330
1A
100
AcDbEntity
  8
ELEVATION
100
AcDbLine
 10
50.03629073678894
 20
33.42869513014193
 30
0.0
 11
71.91129035680933
 21
33.42869513014193
 31
0.0
  0
LINE
  5
20508
330
1A
100
AcDbEntity
  8
ELEVATION
100
AcDbLine
 10
50.03629073678894
 20
91.24119305143176
 30
0.0
 11
71.91129035680933
 21
91.24119305143176
 31
0.0
  0
LINE
  5
20509
330
1A
100
AcDbEntity
  8
ELEVATION
100
AcDbLine
 10
50.03629073678894
 20
33.42869513014193
 30
0.0
 11
50.03629073678894
 21
91.24119305143176
 31
0.0
  0
LINE
  5
2050A
330
1A
100
AcDbEntity
  8
ELEVATION
100
AcDbLine
 10
71.91129035680933
 20
33.42869513014193
 30
0.0
 11
71.91129035680933
 21
91.24119305143176
 31
0.0
  0
ARC
  5
2050B
330
1A
100
AcDbEntity
  8
ELEVATION
100
AcDbCircle
 10
49.70816574796481
 20
33.741187491436
 30
0.0
 40
0.25
100
AcDbArc
 50
0.0
 51
89.99998201364064
  0
ARC
  5
2050C
330
1A
100
AcDbEntity
  8
ELEVATION
100
AcDbCircle
 10
49.2081962804441
 20
33.741187491436
 30
0.0
 40
0.25
100
AcDbArc
 50
89.99998201364064
 51
180.0000186693157
  0
ARC
  5
2050D
330
1A
100
AcDbEntity
  8
ELEVATION
100
AcDbCircle
 10
72.70815770133777
 20
33.741187491436
 30
0.0
 40
0.25
100
AcDbArc
 50
0.0
 51
89.99998201364064
  0
ARC
  5
2050E
330
1A
100
AcDbEntity
  8
ELEVATION
100
AcDbCircle
 10
72.20816534563346
 20
33.741187491436
 30
0.0
 40
0.25
100
AcDbArc
 50
89.99998201364064
 51
180.0000186693157
  0
ARC
  5
2050F
330
1A
100
AcDbEntity
  8
ELEVATION
100
AcDbCircle
 10
72.70815770133777
 20
90.8662235783213
 30
0.0
 40
0.25
100
AcDbArc
 50
270.0000179859425
 51
0.0
  0
ARC
  5
20510
330
1A
100
AcDbEntity
  8
ELEVATION
100
AcDbCircle
 10
72.20816534563346
 20
90.8662235783213
 30
0.0
 40
0.25
100
AcDbArc
 50
180.0000223118192
 51
270.0000589670775
  0
ARC
  5
20511
330
1A
100
AcDbEntity
  8
ELEVATION
100
AcDbCircle
 10
49.70816574796481
 20
90.8662235783213
 30
0.0
 40
0.25
100
AcDbArc
 50
270.0000179859425
 51
0.0
  0
ARC
  5
20512
330
1A
100
AcDbEntity
  8
ELEVATION
100
AcDbCircle
 10
49.2081962804441
 20
90.8662235783213
 30
0.0
 40
0.25
100
AcDbArc
 50
180.0000223118192
 51
270.0000589670775
  0
LWPOLYLINE
  5
20513
330
1A
100
AcDbEntity
  8
ELEVATION
100
AcDbPolyline
 90
        4
 70
     1
 43
0.0
 10
48.95809710576577
 20
32.30369516366955
 10
72.95809710576577
 20
32.30369516366955
 10
72.95809710576577
 20
92.30369516366954
 10
48.95809710576577
 20
92.30369516366954
  0
LWPOLYLINE
  5
20514
330
1A
100
AcDbEntity
  8
ELEVATION
100
AcDbPolyline
 90
        4
 70
     1
 43
0.0
 10
49.95809710576577
 20
33.30369516366955
 10
71.95809710576577
 20
33.30369516366955
 10
71.95809710576577
 20
91.30369516366954
 10
49.95809710576577
 20
91.30369516366954
  0
INSERT
  5
20515
330
1A
100
AcDbEntity
  8
OBJECT
100
AcDbBlockReference
  2
A$C0da8e90c
 10
53.13004073678894
 20
63.25707239642543
 30
0.0
  0
LINE
  5
20516
330
1A
100
AcDbEntity
  8
ELEVATION
100
AcDbLine
 10
73.20812761589332
 20
33.99119511337813
 30
0.0
 11
73.70809708341403
 21
33.99119511337813
 31
0.0
  0
LINE
  5
20517
330
1A
100
AcDbEntity
  8
ELEVATION
100
AcDbLine
 10
96.20809668108268
 20
33.99119511337813
 30
0.0
 11
96.70813481315418
 21
33.99119511337813
 31
0.0
  0
LINE
  5
20518
330
1A
100
AcDbEntity
  8
ELEVATION
100
AcDbLine
 10
96.20809668108268
 20
90.61619306819375
 30
0.0
 11
96.70813481315418
 21
90.61619306819375
 31
0.0
  0
LINE
  5
20519
330
1A
100
AcDbEntity
  8
ELEVATION
100
AcDbLine
 10
73.20812761589332
 20
90.61619306819375
 30
0.0
 11
73.70809708341403
 21
90.61619306819375
 31
0.0
  0
LINE
  5
2051A
330
1A
100
AcDbEntity
  8
ELEVATION
100
AcDbLine
 10
74.03629073678894
 20
33.42869513014193
 30
0.0
 11
95.91129035680934
 21
33.42869513014193
 31
0.0
  0
LINE
  5
2051B
330
1A
100
AcDbEntity
  8
ELEVATION
100
AcDbLine
 10
74.03629073678894
 20
91.24119305143176
 30
0.0
 11
95.91129035680934
 21
91.24119305143176
 31
0.0
  0
LINE
  5
2051C
330
1A
100
AcDbEntity
  8
ELEVATION
100
AcDbLine
 10
74.03629073678894
 20
33.42869513014193
 30
0.0
 11
74.03629073678894
 21
91.24119305143176
 31
0.0
  0
LINE
  5
2051D
330
1A
100
AcDbEntity
  8
ELEVATION
100
AcDbLine
 10
95.91129035680934
 20
33.42869513014193
 30
0.0
 11
95.91129035680934
 21
91.24119305143176
 31
0.0
  0
ARC
  5
2051E
330
1A
100
AcDbEntity
  8
ELEVATION
100
AcDbCircle
 10
73.70816574796482
 20
33.741187491436
 30
0.0
 40
0.25
100
AcDbArc
 50
0.0
 51
89.99998201364064
  0
ARC
  5
2051F
330
1A
100
AcDbEntity
  8
ELEVATION
100
AcDbCircle
 10
73.2081962804441
 20
33.741187491436
 30
0.0
 40
0.25
100
AcDbArc
 50
89.99998201364064
 51
180.0000186693157
  0
ARC
  5
20520
330
1A
100
AcDbEntity
  8
ELEVATION
100
AcDbCircle
 10
96.70815770133778
 20
33.741187491436
 30
0.0
 40
0.25
100
AcDbArc
 50
0.0
 51
89.99998201364064
  0
ARC
  5
20521
330
1A
100
AcDbEntity
  8
ELEVATION
100
AcDbCircle
 10
96.20816534563346
 20
33.741187491436
 30
0.0
 40
0.25
100
AcDbArc
 50
89.99998201364064
 51
180.0000186693157
  0
ARC
  5
20522
330
1A
100
AcDbEntity
  8
ELEVATION
100
AcDbCircle
 10
96.70815770133778
 20
90.8662235783213
 30
0.0
 40
0.25
100
AcDbArc
 50
270.0000179859425
 51
0.0
  0
ARC
  5
20523
330
1A
100
AcDbEntity
  8
ELEVATION
100
AcDbCircle
 10
96.20816534563346
 20
90.8662235783213
 30
0.0
 40
0.25
100
AcDbArc
 50
180.0000223118192
 51
270.0000589670775
  0
ARC
  5
20524
330
1A
100
AcDbEntity
  8
ELEVATION
100
AcDbCircle
 10
73.70816574796482
 20
90.8662235783213
 30
0.0
 40
0.25
100
AcDbArc
 50
270.0000179859425
 51
0.0
  0
ARC
  5
20525
330
1A
100
AcDbEntity
  8
ELEVATION
100
AcDbCircle
 10
73.2081962804441
 20
90.8662235783213
 30
0.0
 40
0.25
100
AcDbArc
 50
180.0000223118192
 51
270.0000589670775
  0
LWPOLYLINE
  5
20526
330
1A
100
AcDbEntity
  8
ELEVATION
100
AcDbPolyline
 90
        4
 70
     1
 43
0.0
 10
72.95809710576577
 20
32.30369516366955
 10
96.95809710576577
 20
32.30369516366955
 10
96.95809710576577
 20
92.30369516366954
 10
72.95809710576577
 20
92.30369516366954
  0
LWPOLYLINE
  5
20527
330
1A
100
AcDbEntity
  8
ELEVATION
100
AcDbPolyline
 90
        4
 70
     1
 43
0.0
 10
73.95809710576577
 20
33.30369516366955
 10
95.95809710576578
 20
33.30369516366955
 10
95.95809710576578
 20
91.30369516366954
 10
73.95809710576577
 20
91.30369516366954
  0
INSERT
  5
20528
330
1A
100
AcDbEntity
  8
OBJECT
100
AcDbBlockReference
  2
A$C0da8e90c
 10
77.13004073678894
 20
63.25707239642543
 30
0.0
  0
LINE
  5
20529
330
1A
100
AcDbEntity
  8
ELEVATION
100
AcDbLine
 10
97.20812761589332
 20
33.99119511337813
 30
0.0
 11
97.70809708341403
 21
33.99119511337813
 31
0.0
  0
LINE
  5
2052A
330
1A
100
AcDbEntity
  8
ELEVATION
100
AcDbLine
 10
120.2080966810826
 20
33.99119511337813
 30
0.0
 11
120.7081348131541
 21
33.99119511337813
 31
0.0
  0
LINE
  5
2052B
330
1A
100
AcDbEntity
  8
ELEVATION
100
AcDbLine
 10
120.2080966810826
 20
90.61619306819375
 30
0.0
 11
120.7081348131541
 21
90.61619306819375
 31
0.0
  0
LINE
  5
2052C
330
1A
100
AcDbEntity
  8
ELEVATION
100
AcDbLine
 10
97.20812761589332
 20
90.61619306819375
 30
0.0
 11
97.70809708341403
 21
90.61619306819375
 31
0.0
  0
ARC
  5
2052D
330
1A
100
AcDbEntity
  8
ELEVATION
100
AcDbCircle
 10
97.70816574796482
 20
33.741187491436
 30
0.0
 40
0.25
100
AcDbArc
 50
0.0
 51
89.99998201364064
  0
ARC
  5
2052E
330
1A
100
AcDbEntity
  8
ELEVATION
100
AcDbCircle
 10
97.20819628044409
 20
33.741187491436
 30
0.0
 40
0.25
100
AcDbArc
 50
89.99998201364064
 51
180.0000186693157
  0
ARC
  5
2052F
330
1A
100
AcDbEntity
  8
ELEVATION
100
AcDbCircle
 10
120.7081577013378
 20
33.741187491436
 30
0.0
 40
0.25
100
AcDbArc
 50
0.0
 51
89.99998201364064
  0
ARC
  5
20530
330
1A
100
AcDbEntity
  8
ELEVATION
100
AcDbCircle
 10
120.2081653456334
 20
33.741187491436
 30
0.0
 40
0.25
100
AcDbArc
 50
89.99998201364064
 51
180.0000186693157
  0
ARC
  5
20531
330
1A
100
AcDbEntity
  8
ELEVATION
100
AcDbCircle
 10
120.7081577013378
 20
90.8662235783213
 30
0.0
 40
0.25
100
AcDbArc
 50
270.0000179859425
 51
0.0
  0
ARC
  5
20532
330
1A
100
AcDbEntity
  8
ELEVATION
100
AcDbCircle
 10
120.2081653456334
 20
90.8662235783213
 30
0.0
 40
0.25
100
AcDbArc
 50
180.0000223118192
 51
270.0000589670775
  0
ARC
  5
20533
330
1A
100
AcDbEntity
  8
ELEVATION
100
AcDbCircle
 10
97.70816574796482
 20
90.8662235783213
 30
0.0
 40
0.25
100
AcDbArc
 50
270.0000179859425
 51
0.0
  0
ARC
  5
20534
330
1A
100
AcDbEntity
  8
ELEVATION
100
AcDbCircle
 10
97.20819628044409
 20
90.8662235783213
 30
0.0
 40
0.25
100
AcDbArc
 50
180.0000223118192
 51
270.0000589670775
  0
LWPOLYLINE
  5
20535
330
1A
100
AcDbEntity
  8
ELEVATION
100
AcDbPolyline
 90
        4
 70
     1
 43
0.0
 10
96.95809710576577
 20
32.30369516366955
 10
120.9580971057657
 20
32.30369516366955
 10
120.9580971057657
 20
92.30369516366954
 10
96.95809710576577
 20
92.30369516366954
  0
LWPOLYLINE
  5
20536
330
1A
100
AcDbEntity
  8
ELEVATION
100
AcDbPolyline
 90
        4
 70
     1
 43
0.0
 10
97.95809710576577
 20
33.30369516366955
 10
119.9580971057657
 20
33.30369516366955
 10
119.9580971057657
 20
91.30369516366954
 10
97.95809710576577
 20
91.30369516366954
  0
LINE
  5
20537
330
1A
100
AcDbEntity
  8
top
100
AcDbLine
 10
119.9580971057657
 20
80.30369428368613
 30
0.0
 11
97.95809710576577
 21
80.30369428368613
 31
0.0
  0
LINE
  5
20538
330
1A
100
AcDbEntity
  8
top
100
AcDbLine
 10
119.9580971057657
 20
79.30529473364913
 30
0.0
 11
97.95809710576577
 21
79.30529473364913
 31
0.0
  0
LINE
  5
20539
330
1A
100
AcDbEntity
  8
ELEV HIDDEN
100
AcDbLine
 10
97.15273834735127
 20
78.50157619070706
 30
0.0
 11
96.95818879260333
 21
78.50157619070706
 31
0.0
  0
LINE
  5
2053A
330
1A
100
AcDbEntity
  8
ELEV HIDDEN
100
AcDbLine
 10
97.15269257098407
 20
76.83540802747121
 30
0.0
 11
97.15269257098407
 21
78.50153041433987
 31
0.0
  0
LINE
  5
2053B
330
1A
100
AcDbEntity
  8
ELEV HIDDEN
100
AcDbLine
 10
97.28507782094675
 20
76.30838472774667
 30
0.0
 11
97.28507782094675
 21
76.6865203976322
 31
0.0
  0
LINE
  5
2053C
330
1A
100
AcDbEntity
  8
ELEVATION
100
AcDbLine
 10
99.11785975403473
 20
76.73086593922926
 30
0.0
 11
98.89320731914631
 21
76.76249230429857
 31
0.0
  0
LINE
  5
2053D
330
1A
100
AcDbEntity
  8
ELEVATION
100
AcDbLine
 10
98.85615243062057
 20
76.50001949585385
 30
0.0
 11
98.78060823250416
 21
76.14917374023026
 31
0.0
  0
LINE
  5
2053E
330
1A
100
AcDbEntity
  8
ELEVATION
100
AcDbLine
 10
99.08084688560485
 20
76.46841317407234
 30
0.0
 11
99.0026438992718
 21
76.10287514024093
 31
0.0
  0
ARC
  5
2053F
330
1A
100
AcDbEntity
  8
ELEV HIDDEN
100
AcDbCircle
 10
97.30389190730058
 20
76.83666687753248
 30
0.0
 40
0.1512499853596096
100
AcDbArc
 50
179.5523425716557
 51
262.8209545920916
  0
ARC
  5
20540
330
1A
100
AcDbEntity
  8
ELEV HIDDEN
100
AcDbCircle
 10
98.04125760797615
 20
76.30845339229745
 30
0.0
 40
0.9831249718926855
100
AcDbArc
 50
180.0000478113242
 51
265.1494548733024
  0
ARC
  5
20541
330
1A
100
AcDbEntity
  8
ELEV HIDDEN
100
AcDbCircle
 10
98.04125760797615
 20
76.30845339229745
 30
0.0
 40
0.7562499715015301
100
AcDbArc
 50
179.9999658490541
 51
263.6891057871726
  0
ARC
  5
20542
330
1A
100
AcDbEntity
  8
ELEVATION
100
AcDbCircle
 10
99.0221077984752
 20
76.61044007763303
 30
0.0
 40
0.1535922131361898
100
AcDbArc
 50
292.488861612087
 51
51.49507242701283
  0
ARC
  5
20543
330
1A
100
AcDbEntity
  8
ELEVATION
100
AcDbCircle
 10
98.95188685329777
 20
76.62028199628366
 30
0.0
 40
0.1535922131361898
100
AcDbArc
 50
112.5049995271877
 51
231.5111727765856
  0
ARC
  5
20544
330
1A
100
AcDbEntity
  8
ELEVATION
100
AcDbCircle
 10
98.04125760797615
 20
76.30845339229745
 30
0.0
 40
0.7562499715015301
100
AcDbArc
 50
263.6891057871726
 51
347.8381018708311
  0
ARC
  5
20545
330
1A
100
AcDbEntity
  8
ELEVATION
100
AcDbCircle
 10
98.04125760797615
 20
76.30845339229745
 30
0.0
 40
0.9831249718926855
100
AcDbArc
 50
265.1494548733024
 51
347.9298859531442
  0
LINE
  5
20546
330
1A
100
AcDbEntity
  8
ELEV HIDDEN
100
AcDbLine
 10
120.7634558641803
 20
78.50157619070706
 30
0.0
 11
120.9580054189282
 21
78.50157619070706
 31
0.0
  0
LINE
  5
20547
330
1A
100
AcDbEntity
  8
ELEV HIDDEN
100
AcDbLine
 10
120.7635016405474
 20
76.83540802747121
 30
0.0
 11
120.7635016405474
 21
78.50153041433987
 31
0.0
  0
LINE
  5
20548
330
1A
100
AcDbEntity
  8
ELEV HIDDEN
100
AcDbLine
 10
120.6311163905848
 20
76.30838472774667
 30
0.0
 11
120.6311163905848
 21
76.6865203976322
 31
0.0
  0
LINE
  5
20549
330
1A
100
AcDbEntity
  8
ELEVATION
100
AcDbLine
 10
118.7983344574968
 20
76.73086593922926
 30
0.0
 11
119.0229868923852
 21
76.76249230429857
 31
0.0
  0
LINE
  5
2054A
330
1A
100
AcDbEntity
  8
ELEVATION
100
AcDbLine
 10
119.060041780911
 20
76.50001949585385
 30
0.0
 11
119.1355859790274
 21
76.14917374023026
 31
0.0
  0
LINE
  5
2054B
330
1A
100
AcDbEntity
  8
ELEVATION
100
AcDbLine
 10
118.8353473259267
 20
76.46841317407234
 30
0.0
 11
118.9135503122597
 21
76.10287514024093
 31
0.0
  0
ARC
  5
2054C
330
1A
100
AcDbEntity
  8
ELEV HIDDEN
100
AcDbCircle
 10
120.612302304231
 20
76.83666687753248
 30
0.0
 40
0.1512499853596096
100
AcDbArc
 50
277.1790454074948
 51
0.4476574283442726
  0
ARC
  5
2054D
330
1A
100
AcDbEntity
  8
ELEV HIDDEN
100
AcDbCircle
 10
119.8749366035554
 20
76.30845339229745
 30
0.0
 40
0.9831249718926855
100
AcDbArc
 50
274.8505451271129
 51
359.9999521886758
  0
ARC
  5
2054E
330
1A
100
AcDbEntity
  8
ELEV HIDDEN
100
AcDbCircle
 10
119.8749366035554
 20
76.30845339229745
 30
0.0
 40
0.7562499715015301
100
AcDbArc
 50
276.3108942132417
 51
0.0000341509458501
  0
ARC
  5
2054F
330
1A
100
AcDbEntity
  8
ELEVATION
100
AcDbCircle
 10
118.8940864130563
 20
76.61044007763303
 30
0.0
 40
0.1535922131361898
100
AcDbArc
 50
128.5049275729871
 51
247.5111383879129
  0
ARC
  5
20550
330
1A
100
AcDbEntity
  8
ELEVATION
100
AcDbCircle
 10
118.9643073582337
 20
76.62028199628366
 30
0.0
 40
0.1535922131361898
100
AcDbArc
 50
308.4888272234145
 51
67.49500047238723
  0
ARC
  5
20551
330
1A
100
AcDbEntity
  8
ELEVATION
100
AcDbCircle
 10
119.8749366035554
 20
76.30845339229745
 30
0.0
 40
0.7562499715015301
100
AcDbArc
 50
192.161898129067
 51
276.3108942132417
  0
ARC
  5
20552
330
1A
100
AcDbEntity
  8
ELEVATION
100
AcDbCircle
 10
119.8749366035554
 20
76.30845339229745
 30
0.0
 40
0.9831249718926855
100
AcDbArc
 50
192.0701140469577
 51
274.8505451271129
  0
ARC
  5
20553
330
1A
100
AcDbEntity
  8
ELEVATION
100
AcDbCircle
 10
110.8517280307715
 20
77.83019712136047
 30
0.0
 40
0.1535922131361898
100
AcDbArc
 50
112.5049635552304
 51
231.5111197291055
  0
ARC
  5
20554
330
1A
100
AcDbEntity
  8
ELEVATION
100
AcDbCircle
 10
110.9219489759489
 20
77.82040097907338
 30
0.0
 40
0.1535922131361898
100
AcDbArc
 50
292.4888802811068
 51
51.4950706056664
  0
ARC
  5
20555
330
1A
100
AcDbEntity
  8
ELEVATION
100
AcDbCircle
 10
109.9412361145514
 20
77.51836851737244
 30
0.0
 40
0.7562499715015301
100
AcDbArc
 50
179.9999640278024
 51
347.8380385779381
  0
ARC
  5
20556
330
1A
100
AcDbEntity
  8
ELEVATION
100
AcDbCircle
 10
109.9412361145514
 20
77.51836851737244
 30
0.0
 40
0.9831249718926855
100
AcDbArc
 50
180.0000359720934
 51
347.9298741138383
  0
ARC
  5
20557
330
1A
100
AcDbEntity
  8
ELEVATION
100
AcDbCircle
 10
107.0643746280257
 20
77.83019712136047
 30
0.0
 40
0.1535922131361898
100
AcDbArc
 50
308.4888340534527
 51
67.49500047238723
  0
ARC
  5
20558
330
1A
100
AcDbEntity
  8
ELEVATION
100
AcDbCircle
 10
106.9941536828482
 20
77.82040097907338
 30
0.0
 40
0.1535922131361898
100
AcDbArc
 50
128.5049275729871
 51
247.5111383879129
  0
ARC
  5
20559
330
1A
100
AcDbEntity
  8
ELEVATION
100
AcDbCircle
 10
107.9749580969801
 20
77.51836851737244
 30
0.0
 40
0.7562499715015301
100
AcDbArc
 50
192.1619254498943
 51
0.0000359720933958
  0
ARC
  5
2055A
330
1A
100
AcDbEntity
  8
ELEVATION
100
AcDbCircle
 10
107.9749580969801
 20
77.51836851737244
 30
0.0
 40
0.9831249718926855
100
AcDbArc
 50
192.0701277073997
 51
359.9999640278024
  0
ARC
  5
2055B
330
1A
100
AcDbEntity
  8
ELEVATION
100
AcDbCircle
 10
108.712323797663
 20
78.04662777897283
 30
0.0
 40
0.1512499853596096
100
AcDbArc
 50
277.1790385775369
 51
0.4476591359436744
  0
ARC
  5
2055C
330
1A
100
AcDbEntity
  8
ELEVATION
100
AcDbCircle
 10
109.2039161902357
 20
78.04662777897283
 30
0.0
 40
0.1512499853596096
100
AcDbArc
 50
179.5523407503488
 51
262.8209800921308
  0
ARC
  5
2055D
330
1A
100
AcDbEntity
  8
ELEV HIDDEN
100
AcDbCircle
 10
109.0904365793612
 20
79.91924735207067
 30
0.0
 40
0.1323437539534642
100
AcDbArc
 50
89.99998201364064
 51
179.9999640278024
  0
ARC
  5
2055E
330
1A
100
AcDbEntity
  8
ELEV HIDDEN
100
AcDbCircle
 10
108.8257576321703
 20
79.91924735207067
 30
0.0
 40
0.1323437539534642
100
AcDbArc
 50
0.0
 51
89.99998201364064
  0
ARC
  5
2055F
330
1A
100
AcDbEntity
  8
ELEV HIDDEN
100
AcDbCircle
 10
108.8257576321703
 20
79.91924735207067
 30
0.0
 40
0.0378124963399024
100
AcDbArc
 50
0.0
 51
89.99998201364064
  0
ARC
  5
20560
330
1A
100
AcDbEntity
  8
ELEV HIDDEN
100
AcDbCircle
 10
109.0904365793612
 20
79.91924735207067
 30
0.0
 40
0.0378124963399024
100
AcDbArc
 50
89.99998201364064
 51
179.9999640278024
  0
ARC
  5
20561
330
1A
100
AcDbEntity
  8
ELEVATION
100
AcDbCircle
 10
108.8784920055986
 20
76.90963440465385
 30
0.0
 40
0.1512499853596096
100
AcDbArc
 50
192.9718766023021
 51
257.0276855821467
  0
ARC
  5
20562
330
1A
100
AcDbEntity
  8
ELEVATION
100
AcDbCircle
 10
109.0374733241042
 20
76.90963440465385
 30
0.0
 40
0.1512499853596096
100
AcDbArc
 50
282.9723503898188
 51
347.0281662000227
  0
ARC
  5
20563
330
1A
100
AcDbEntity
  8
ELEVATION
100
AcDbCircle
 10
108.9666572861752
 20
76.61538392514194
 30
0.0
 40
0.1803770309574297
100
AcDbArc
 50
305.5025524050591
 51
54.49744759494091
  0
ARC
  5
20564
330
1A
100
AcDbEntity
  8
ELEVATION
100
AcDbCircle
 10
108.9492622671605
 20
76.61538392514194
 30
0.0
 40
0.1803770309574297
100
AcDbArc
 50
125.5025403382986
 51
234.4974423588557
  0
ARC
  5
20565
330
1A
100
AcDbEntity
  8
ELEVATION
100
AcDbCircle
 10
108.9580513293986
 20
75.43883977075347
 30
0.0
 40
0.1134375001955777
100
AcDbArc
 50
180.0000359720934
 51
0.0
  0
LINE
  5
20566
330
1A
100
AcDbEntity
  8
ELEV HIDDEN
100
AcDbLine
 10
109.0526710775593
 20
79.36498711468266
 30
0.0
 11
109.0526710775593
 21
79.91924735207067
 31
0.0
  0
LINE
  5
20567
330
1A
100
AcDbEntity
  8
ELEV HIDDEN
100
AcDbLine
 10
108.9580513293986
 20
79.38320610827941
 30
0.0
 11
108.9580513293986
 21
79.91924735207067
 31
0.0
  0
LINE
  5
20568
330
1A
100
AcDbEntity
  8
ELEV HIDDEN
100
AcDbLine
 10
108.8635689103394
 20
79.3648955619501
 30
0.0
 11
108.8635689103394
 21
79.91924735207067
 31
0.0
  0
LINE
  5
20569
330
1A
100
AcDbEntity
  8
ELEVATION
100
AcDbLine
 10
109.1849189984204
 20
78.04745175355674
 30
0.0
 11
109.1849189984204
 21
78.50155330252346
 31
0.0
  0
LINE
  5
2056A
330
1A
100
AcDbEntity
  8
ELEVATION
100
AcDbLine
 10
108.7311836603767
 20
78.02520443976755
 30
0.0
 11
108.7311836603767
 21
78.50155330252346
 31
0.0
  0
LINE
  5
2056B
330
1A
100
AcDbEntity
  8
ELEVATION
100
AcDbLine
 10
108.7310921076496
 20
78.50164485525602
 30
0.0
 11
108.8635231339722
 21
78.50164485525602
 31
0.0
  0
LINE
  5
2056C
330
1A
100
AcDbEntity
  8
ELEVATION
100
AcDbLine
 10
110.9023629069052
 20
77.3129353881377
 30
0.0
 11
110.9805698043055
 21
77.67851941097615
 31
0.0
  0
LINE
  5
2056D
330
1A
100
AcDbEntity
  8
ELEVATION
100
AcDbLine
 10
110.6816139099537
 20
77.35878398677778
 30
0.0
 11
110.7571648930607
 21
77.70967509216825
 31
0.0
  0
LINE
  5
2056E
330
1A
100
AcDbEntity
  8
ELEVATION
100
AcDbLine
 10
110.7927798111195
 20
77.97246627877029
 30
0.0
 11
111.0175316167006
 21
77.94088912180268
 31
0.0
  0
LINE
  5
2056F
330
1A
100
AcDbEntity
  8
ELEVATION
100
AcDbLine
 10
109.1849189984204
 20
77.51836851737244
 30
0.0
 11
109.1849189984204
 21
77.89648129907073
 31
0.0
  0
LINE
  5
20570
330
1A
100
AcDbEntity
  8
ELEVATION
100
AcDbLine
 10
106.9352284738634
 20
77.67838298708557
 30
0.0
 11
107.0134257953032
 21
77.3128437278101
 31
0.0
  0
LINE
  5
20571
330
1A
100
AcDbEntity
  8
ELEVATION
100
AcDbLine
 10
107.1606495094456
 20
77.71005594830421
 30
0.0
 11
107.2363238841717
 21
77.35905094400187
 31
0.0
  0
LINE
  5
20572
330
1A
100
AcDbEntity
  8
ELEVATION
100
AcDbLine
 10
106.8985470444459
 20
77.94044505681085
 30
0.0
 11
107.1232032926418
 21
77.9720442655871
 31
0.0
  0
LINE
  5
20573
330
1A
100
AcDbEntity
  8
ELEVATION
100
AcDbLine
 10
108.7311836603767
 20
77.51836851737244
 30
0.0
 11
108.7311836603767
 21
77.89648129907073
 31
0.0
  0
LINE
  5
20574
330
1A
100
AcDbEntity
  8
ELEV HIDDEN
100
AcDbLine
 10
109.0904365793612
 20
80.05163260202971
 30
0.0
 11
109.7899452255078
 21
80.05163260202971
 31
0.0
  0
LINE
  5
20575
330
1A
100
AcDbEntity
  8
ELEV HIDDEN
100
AcDbLine
 10
109.0904365793612
 20
79.95705863023977
 30
0.0
 11
109.7899452255078
 21
79.95705863023977
 31
0.0
  0
LINE
  5
20576
330
1A
100
AcDbEntity
  8
ELEVATION
100
AcDbLine
 10
108.8635689103394
 20
78.04534604072978
 30
0.0
 11
108.8635689103394
 21
79.2178618749258
 31
0.0
  0
LINE
  5
20577
330
1A
100
AcDbEntity
  8
ELEVATION
100
AcDbLine
 10
109.0526710775593
 20
78.04534604072978
 30
0.0
 11
109.0526710775593
 21
79.21795342765836
 31
0.0
  0
LINE
  5
20578
330
1A
100
AcDbEntity
  8
ELEVATION
100
AcDbLine
 10
108.9580513293986
 20
77.51836851737244
 30
0.0
 11
108.9580513293986
 21
79.2361724212551
 31
0.0
  0
LINE
  5
20579
330
1A
100
AcDbEntity
  8
ELEV HIDDEN
100
AcDbLine
 10
109.789991001875
 20
79.95705863023977
 30
0.0
 11
109.789991001875
 21
80.05154104929898
 31
0.0
  0
LINE
  5
2057A
330
1A
100
AcDbEntity
  8
ELEV HIDDEN
100
AcDbLine
 10
108.1262489860237
 20
79.95705863023977
 30
0.0
 11
108.1262489860237
 21
80.05154104929898
 31
0.0
  0
LINE
  5
2057B
330
1A
100
AcDbEntity
  8
ELEV HIDDEN
100
AcDbLine
 10
108.1262032096565
 20
79.95705863023977
 30
0.0
 11
108.8257576321703
 21
79.95705863023977
 31
0.0
  0
LINE
  5
2057C
330
1A
100
AcDbEntity
  8
ELEV HIDDEN
100
AcDbLine
 10
108.1262032096565
 20
80.05163260202971
 30
0.0
 11
108.8257576321703
 21
80.05163260202971
 31
0.0
  0
LINE
  5
2057D
330
1A
100
AcDbEntity
  8
ELEVATION
100
AcDbLine
 10
109.0714393875387
 20
75.43874821802091
 30
0.0
 11
109.0714393875387
 21
76.46853334358093
 31
0.0
  0
LINE
  5
2057E
330
1A
100
AcDbEntity
  8
ELEVATION
100
AcDbLine
 10
108.8445717185241
 20
75.43874821802091
 30
0.0
 11
108.8445717185241
 21
76.46853334358093
 31
0.0
  0
LINE
  5
2057F
330
1A
100
AcDbEntity
  8
ELEVATION
100
AcDbLine
 10
109.0526253011921
 20
78.50164485525602
 30
0.0
 11
109.1848732220533
 21
78.50164485525602
 31
0.0
  0
LINE
  5
20580
330
1A
100
AcDbEntity
  8
dim
100
AcDbLine
 10
72.95809710577305
 20
21.2270623339482
 30
0.0
 11
49.00516905208497
 21
21.2270623339482
 31
0.0
  0
LINE
  5
20581
330
1A
100
AcDbEntity
  8
dim
100
AcDbLine
 10
51.958097288305
 20
21.70706237231752
 30
0.0
 11
51.958097288305
 21
20.74706229557887
 31
0.0
  0
LINE
  5
20582
330
1A
100
AcDbEntity
  8
dim
100
AcDbLine
 10
51.958097288305
 20
20.98706231471988
 30
0.0
 11
48.95809704837302
 21
21.2270623339482
 31
0.0
  0
LINE
  5
20583
330
1A
100
AcDbEntity
  8
dim
100
AcDbLine
 10
51.958097288305
 20
21.46706235317652
 30
0.0
 11
48.95809704837302
 21
21.2270623339482
 31
0.0
  0
LINE
  5
20584
330
1A
100
AcDbEntity
  8
dim
100
AcDbLine
 10
48.95809704837302
 20
21.2270623339482
 30
0.0
 11
51.958097288305
 21
20.74706229557887
 31
0.0
  0
LINE
  5
20585
330
1A
100
AcDbEntity
  8
dim
100
AcDbLine
 10
51.958097288305
 20
21.70706237231752
 30
0.0
 11
48.95809704837302
 21
21.2270623339482
 31
0.0
  0
LINE
  5
20586
330
1A
100
AcDbEntity
  8
dim
100
AcDbLine
 10
48.95809704837302
 20
19.73906221490142
 30
0.0
 11
48.95809704837302
 21
24.25106257586413
 31
0.0
  0
LINE
  5
20587
330
1A
100
AcDbEntity
  8
dim
100
AcDbLine
 10
72.95809710576577
 20
19.73906221490142
 30
0.0
 11
72.95809710576577
 21
24.25106257586413
 31
0.0
  0
LINE
  5
20588
330
1A
100
AcDbEntity
  8
dim
100
AcDbLine
 10
69.95809686572465
 20
21.70706237231752
 30
0.0
 11
69.95809686572465
 21
20.74706229557887
 31
0.0
  0
LINE
  5
20589
330
1A
100
AcDbEntity
  8
dim
100
AcDbLine
 10
69.95809686572465
 20
20.98706231471988
 30
0.0
 11
72.95809710577305
 21
21.2270623339482
 31
0.0
  0
LINE
  5
2058A
330
1A
100
AcDbEntity
  8
dim
100
AcDbLine
 10
69.95809686572465
 20
21.46706235317652
 30
0.0
 11
72.95809710577305
 21
21.2270623339482
 31
0.0
  0
LINE
  5
2058B
330
1A
100
AcDbEntity
  8
dim
100
AcDbLine
 10
72.95809710577305
 20
21.2270623339482
 30
0.0
 11
69.95809686572465
 21
20.74706229557887
 31
0.0
  0
LINE
  5
2058C
330
1A
100
AcDbEntity
  8
dim
100
AcDbLine
 10
69.95809686572465
 20
21.70706237231752
 30
0.0
 11
72.95809710577305
 21
21.2270623339482
 31
0.0
  0
LINE
  5
2058D
330
1A
100
AcDbEntity
  8
dim
100
AcDbLine
 10
96.95809710577306
 20
21.2270623339482
 30
0.0
 11
73.00516905208496
 21
21.2270623339482
 31
0.0
  0
LINE
  5
2058E
330
1A
100
AcDbEntity
  8
dim
100
AcDbLine
 10
75.95809728830499
 20
21.70706237231752
 30
0.0
 11
75.95809728830499
 21
20.74706229557887
 31
0.0
  0
LINE
  5
2058F
330
1A
100
AcDbEntity
  8
dim
100
AcDbLine
 10
75.95809728830499
 20
20.98706231471988
 30
0.0
 11
72.95809704837302
 21
21.2270623339482
 31
0.0
  0
LINE
  5
20590
330
1A
100
AcDbEntity
  8
dim
100
AcDbLine
 10
75.95809728830499
 20
21.46706235317652
 30
0.0
 11
72.95809704837302
 21
21.2270623339482
 31
0.0
  0
LINE
  5
20591
330
1A
100
AcDbEntity
  8
dim
100
AcDbLine
 10
72.95809704837302
 20
21.2270623339482
 30
0.0
 11
75.95809728830499
 21
20.74706229557887
 31
0.0
  0
LINE
  5
20592
330
1A
100
AcDbEntity
  8
dim
100
AcDbLine
 10
75.95809728830499
 20
21.70706237231752
 30
0.0
 11
72.95809704837302
 21
21.2270623339482
 31
0.0
  0
LINE
  5
20593
330
1A
100
AcDbEntity
  8
dim
100
AcDbLine
 10
72.95809704837302
 20
19.73906221490142
 30
0.0
 11
72.95809704837302
 21
24.25106257586413
 31
0.0
  0
LINE
  5
20594
330
1A
100
AcDbEntity
  8
dim
100
AcDbLine
 10
96.95809710576577
 20
19.73906221490142
 30
0.0
 11
96.95809710576577
 21
24.25106257586413
 31
0.0
  0
LINE
  5
20595
330
1A
100
AcDbEntity
  8
dim
100
AcDbLine
 10
93.95809686572466
 20
21.70706237231752
 30
0.0
 11
93.95809686572466
 21
20.74706229557887
 31
0.0
  0
LINE
  5
20596
330
1A
100
AcDbEntity
  8
dim
100
AcDbLine
 10
93.95809686572466
 20
20.98706231471988
 30
0.0
 11
96.95809710577306
 21
21.2270623339482
 31
0.0
  0
LINE
  5
20597
330
1A
100
AcDbEntity
  8
dim
100
AcDbLine
 10
93.95809686572466
 20
21.46706235317652
 30
0.0
 11
96.95809710577306
 21
21.2270623339482
 31
0.0
  0
LINE
  5
20598
330
1A
100
AcDbEntity
  8
dim
100
AcDbLine
 10
96.95809710577306
 20
21.2270623339482
 30
0.0
 11
93.95809686572466
 21
20.74706229557887
 31
0.0
  0
LINE
  5
20599
330
1A
100
AcDbEntity
  8
dim
100
AcDbLine
 10
93.95809686572466
 20
21.70706237231752
 30
0.0
 11
96.95809710577306
 21
21.2270623339482
 31
0.0
  0
MTEXT
  5
2059A
330
1A
100
AcDbEntity
  8
ELEVATION
100
AcDbMText
 10
110.5751794920361
 20
22.37042469389416
 30
0.0
 40
1.5
 41
21.22806135042629
 71
     5
 72
     5
  1
{\H0.8333x;INTERIOR\PELEVATION}
  7
ELEVATION
 73
     1
 44
1.0
  0
CIRCLE
  5
2059B
330
1A
100
AcDbEntity
  8
ELEVATION
100
AcDbCircle
 10
86.05190042829054
 20
90.05373854840218
 30
0.0
 40
0.0625000100000004
  0
CIRCLE
  5
2059C
330
1A
100
AcDbEntity
  8
ELEVATION
100
AcDbCircle
 10
83.86438488498242
 20
90.05373854840218
 30
0.0
 40
0.0625000100000004
  0
LINE
  5
2059D
330
1A
100
AcDbEntity
  8
0 OBJECT BORDER
100
AcDbLine
 10
83.59283272809262
 20
89.56873850959164
 30
0.0
 11
86.32343721672805
 21
89.56873850959164
 31
0.0
  0
ARC
  5
2059E
330
1A
100
AcDbEntity
  8
0 OBJECT BORDER
100
AcDbCircle
 10
83.81439472040074
 20
90.06423854925015
 30
0.0
 40
0.187500015
100
AcDbArc
 50
104.3102750721047
 51
169.6338360115885
  0
ARC
  5
2059F
330
1A
100
AcDbEntity
  8
0 OBJECT BORDER
100
AcDbCircle
 10
86.10187522453633
 20
90.06423854925015
 30
0.0
 40
0.187500015
100
AcDbArc
 50
10.36616398841153
 51
75.68972492789528
  0
LINE
  5
205A0
330
1A
100
AcDbEntity
  8
0 OBJECT BORDER
100
AcDbLine
 10
83.55494525310495
 20
89.68791674197928
 30
0.0
 11
83.62995509841857
 21
90.09797697681278
 31
0.0
  0
ARC
  5
205A1
330
1A
100
AcDbEntity
  8
0 OBJECT BORDER
100
AcDbCircle
 10
83.73938487497071
 20
89.65417831441664
 30
0.0
 40
0.187500015
100
AcDbArc
 50
169.6338360115885
 51
200.2926116435396
  0
ARC
  5
205A2
330
1A
100
AcDbEntity
  8
0 OBJECT BORDER
100
AcDbCircle
 10
83.59283272809262
 20
89.59998851209457
 30
0.0
 40
0.0312500025
100
AcDbArc
 50
200.2926116435396
 51
270.0
  0
LINE
  5
205A3
330
1A
100
AcDbEntity
  8
0 OBJECT BORDER
100
AcDbLine
 10
86.36132469194853
 20
89.68791674197928
 30
0.0
 11
86.28631484651851
 21
90.09797697681278
 31
0.0
  0
ARC
  5
205A4
330
1A
100
AcDbEntity
  8
0 OBJECT BORDER
100
AcDbCircle
 10
86.1768850700828
 20
89.65417831441664
 30
0.0
 40
0.187500015
100
AcDbArc
 50
339.7073883564605
 51
10.36616398841153
  0
ARC
  5
205A5
330
1A
100
AcDbEntity
  8
0 OBJECT BORDER
100
AcDbCircle
 10
86.32343721672805
 20
89.59998851209457
 30
0.0
 40
0.0312500025
100
AcDbArc
 50
270.0
 51
339.7073883564605
  0
LINE
  5
205A6
330
1A
100
AcDbEntity
  8
0 OBJECT BORDER
100
AcDbLine
 10
84.86544517035509
 20
90.52585286883914
 30
0.0
 11
83.7680498191985
 21
90.24592070512516
 31
0.0
  0
LINE
  5
205A7
330
1A
100
AcDbEntity
  8
0 OBJECT BORDER
100
AcDbLine
 10
85.05082477469841
 20
90.52585286883914
 30
0.0
 11
86.14822012573858
 21
90.24592070512516
 31
0.0
  0
ARC
  5
205A8
330
1A
100
AcDbEntity
  8
0 OBJECT BORDER
100
AcDbCircle
 10
84.95813497241034
 20
90.16248855708909
 30
0.0
 40
0.37500003
100
AcDbArc
 50
75.68972492789528
 51
104.3102750721047
  0
CIRCLE
  5
205A9
330
1A
100
AcDbEntity
  8
ELEVATION
100
AcDbCircle
 10
62.05190042829054
 20
90.05373854840218
 30
0.0
 40
0.0625000100000004
  0
CIRCLE
  5
205AA
330
1A
100
AcDbEntity
  8
ELEVATION
100
AcDbCircle
 10
59.86438488498243
 20
90.05373854840218
 30
0.0
 40
0.0625000100000004
  0
LINE
  5
205AB
330
1A
100
AcDbEntity
  8
0 OBJECT BORDER
100
AcDbLine
 10
59.59283272809262
 20
89.56873850959164
 30
0.0
 11
62.32343721672805
 21
89.56873850959164
 31
0.0
  0
ARC
  5
205AC
330
1A
100
AcDbEntity
  8
0 OBJECT BORDER
100
AcDbCircle
 10
59.81439472040074
 20
90.06423854925015
 30
0.0
 40
0.187500015
100
AcDbArc
 50
104.3102750721047
 51
169.6338360115885
  0
ARC
  5
205AD
330
1A
100
AcDbEntity
  8
0 OBJECT BORDER
100
AcDbCircle
 10
62.10187522453634
 20
90.06423854925015
 30
0.0
 40
0.187500015
100
AcDbArc
 50
10.36616398841153
 51
75.68972492789528
  0
LINE
  5
205AE
330
1A
100
AcDbEntity
  8
0 OBJECT BORDER
100
AcDbLine
 10
59.55494525310496
 20
89.68791674197928
 30
0.0
 11
59.62995509841857
 21
90.09797697681278
 31
0.0
  0
ARC
  5
205AF
330
1A
100
AcDbEntity
  8
0 OBJECT BORDER
100
AcDbCircle
 10
59.73938487497071
 20
89.65417831441664
 30
0.0
 40
0.187500015
100
AcDbArc
 50
169.6338360115885
 51
200.2926116435396
  0
ARC
  5
205B0
330
1A
100
AcDbEntity
  8
0 OBJECT BORDER
100
AcDbCircle
 10
59.59283272809262
 20
89.59998851209457
 30
0.0
 40
0.0312500025
100
AcDbArc
 50
200.2926116435396
 51
270.0
  0
LINE
  5
205B1
330
1A
100
AcDbEntity
  8
0 OBJECT BORDER
100
AcDbLine
 10
62.36132469194854
 20
89.68791674197928
 30
0.0
 11
62.28631484651851
 21
90.09797697681278
 31
0.0
  0
ARC
  5
205B2
330
1A
100
AcDbEntity
  8
0 OBJECT BORDER
100
AcDbCircle
 10
62.17688507008279
 20
89.65417831441664
 30
0.0
 40
0.187500015
100
AcDbArc
 50
339.7073883564605
 51
10.36616398841153
  0
ARC
  5
205B3
330
1A
100
AcDbEntity
  8
0 OBJECT BORDER
100
AcDbCircle
 10
62.32343721672805
 20
89.59998851209457
 30
0.0
 40
0.0312500025
100
AcDbArc
 50
270.0
 51
339.7073883564605
  0
LINE
  5
205B4
330
1A
100
AcDbEntity
  8
0 OBJECT BORDER
100
AcDbLine
 10
60.86544517035509
 20
90.52585286883914
 30
0.0
 11
59.76804981919849
 21
90.24592070512516
 31
0.0
  0
LINE
  5
205B5
330
1A
100
AcDbEntity
  8
0 OBJECT BORDER
100
AcDbLine
 10
61.05082477469841
 20
90.52585286883914
 30
0.0
 11
62.14822012573859
 21
90.24592070512516
 31
0.0
  0
ARC
  5
205B6
330
1A
100
AcDbEntity
  8
0 OBJECT BORDER
100
AcDbCircle
 10
60.95813497241033
 20
90.16248855708909
 30
0.0
 40
0.37500003
100
AcDbArc
 50
75.68972492789528
 51
104.3102750721047
  0
INSERT
  5
205B7
330
1A
100
AcDbEntity
  8
OBJECT
100
AcDbBlockReference
  2
A$C6895fdcc
 10
55.95810042828816
 20
88.24112168178363
 30
0.0
  0
INSERT
  5
205B8
330
1A
100
AcDbEntity
  8
OBJECT
100
AcDbBlockReference
  2
A$C6895fdcc
 10
54.95810042828816
 20
88.24112168178363
 30
0.0
  0
INSERT
  5
205B9
330
1A
100
AcDbEntity
  8
OBJECT
100
AcDbBlockReference
  2
A$C6895fdcc
 10
55.45810042828816
 20
87.49112168178362
 30
0.0
  0
INSERT
  5
205BA
330
1A
100
AcDbEntity
  8
OBJECT
100
AcDbBlockReference
  2
A$C6895fdcc
 10
54.95810042828816
 20
86.74112168178362
 30
0.0
  0
INSERT
  5
205BB
330
1A
100
AcDbEntity
  8
OBJECT
100
AcDbBlockReference
  2
A$C6895fdcc
 10
54.95810042828816
 20
85.24112168178362
 30
0.0
  0
INSERT
  5
205BC
330
1A
100
AcDbEntity
  8
OBJECT
100
AcDbBlockReference
  2
A$C6895fdcc
 10
54.95810042828816
 20
83.74112168178362
 30
0.0
  0
INSERT
  5
205BD
330
1A
100
AcDbEntity
  8
OBJECT
100
AcDbBlockReference
  2
A$C6895fdcc
 10
54.95810042828816
 20
82.24112168178363
 30
0.0
  0
INSERT
  5
205BE
330
1A
100
AcDbEntity
  8
OBJECT
100
AcDbBlockReference
  2
A$C6895fdcc
 10
54.95810042828816
 20
80.74112168178363
 30
0.0
  0
INSERT
  5
205BF
330
1A
100
AcDbEntity
  8
OBJECT
100
AcDbBlockReference
  2
A$C6895fdcc
 10
54.95810042828816
 20
79.24112168178362
 30
0.0
  0
INSERT
  5
205C0
330
1A
100
AcDbEntity
  8
OBJECT
100
AcDbBlockReference
  2
A$C6895fdcc
 10
54.95810042828816
 20
77.74112168178362
 30
0.0
  0
INSERT
  5
205C1
330
1A
100
AcDbEntity
  8
OBJECT
100
AcDbBlockReference
  2
A$C6895fdcc
 10
54.95810042828816
 20
76.24112168178363
 30
0.0
  0
INSERT
  5
205C2
330
1A
100
AcDbEntity
  8
OBJECT
100
AcDbBlockReference
  2
A$C6895fdcc
 10
54.95810042828816
 20
74.74112168178362
 30
0.0
  0
INSERT
  5
205C3
330
1A
100
AcDbEntity
  8
OBJECT
100
AcDbBlockReference
  2
A$C6895fdcc
 10
54.95810042828816
 20
73.24112168178363
 30
0.0
  0
INSERT
  5
205C4
330
1A
100
AcDbEntity
  8
OBJECT
100
AcDbBlockReference
  2
A$C6895fdcc
 10
55.45810042828816
 20
72.49112168178363
 30
0.0
  0
INSERT
  5
205C5
330
1A
100
AcDbEntity
  8
OBJECT
100
AcDbBlockReference
  2
A$C6895fdcc
 10
54.95810042828816
 20
71.74112168178362
 30
0.0
  0
INSERT
  5
205C6
330
1A
100
AcDbEntity
  8
OBJECT
100
AcDbBlockReference
  2
A$C6895fdcc
 10
55.45810042828816
 20
70.99112168178362
 30
0.0
  0
INSERT
  5
205C7
330
1A
100
AcDbEntity
  8
OBJECT
100
AcDbBlockReference
  2
A$C6895fdcc
 10
65.95804848709668
 20
88.24112168178363
 30
0.0
  0
INSERT
  5
205C8
330
1A
100
AcDbEntity
  8
OBJECT
100
AcDbBlockReference
  2
A$C6895fdcc
 10
66.95804848709667
 20
88.24112168178363
 30
0.0
  0
INSERT
  5
205C9
330
1A
100
AcDbEntity
  8
OBJECT
100
AcDbBlockReference
  2
A$C6895fdcc
 10
66.45804848709667
 20
87.49112168178362
 30
0.0
  0
INSERT
  5
205CA
330
1A
100
AcDbEntity
  8
OBJECT
100
AcDbBlockReference
  2
A$C6895fdcc
 10
66.95804848709667
 20
86.74112168178362
 30
0.0
  0
INSERT
  5
205CB
330
1A
100
AcDbEntity
  8
OBJECT
100
AcDbBlockReference
  2
A$C6895fdcc
 10
66.95804848709667
 20
85.24112168178362
 30
0.0
  0
INSERT
  5
205CC
330
1A
100
AcDbEntity
  8
OBJECT
100
AcDbBlockReference
  2
A$C6895fdcc
 10
66.95804848709667
 20
83.74112168178362
 30
0.0
  0
INSERT
  5
205CD
330
1A
100
AcDbEntity
  8
OBJECT
100
AcDbBlockReference
  2
A$C6895fdcc
 10
66.95804848709667
 20
82.24112168178363
 30
0.0
  0
INSERT
  5
205CE
330
1A
100
AcDbEntity
  8
OBJECT
100
AcDbBlockReference
  2
A$C6895fdcc
 10
66.95804848709667
 20
80.74112168178363
 30
0.0
  0
INSERT
  5
205CF
330
1A
100
AcDbEntity
  8
OBJECT
100
AcDbBlockReference
  2
A$C6895fdcc
 10
66.95804848709667
 20
79.24112168178362
 30
0.0
  0
INSERT
  5
205D0
330
1A
100
AcDbEntity
  8
OBJECT
100
AcDbBlockReference
  2
A$C6895fdcc
 10
66.95804848709667
 20
77.74112168178362
 30
0.0
  0
INSERT
  5
205D1
330
1A
100
AcDbEntity
  8
OBJECT
100
AcDbBlockReference
  2
A$C6895fdcc
 10
66.95804848709667
 20
76.24112168178363
 30
0.0
  0
INSERT
  5
205D2
330
1A
100
AcDbEntity
  8
OBJECT
100
AcDbBlockReference
  2
A$C6895fdcc
 10
66.95804848709667
 20
74.74112168178362
 30
0.0
  0
INSERT
  5
205D3
330
1A
100
AcDbEntity
  8
OBJECT
100
AcDbBlockReference
  2
A$C6895fdcc
 10
66.95804848709667
 20
73.24112168178363
 30
0.0
  0
INSERT
  5
205D4
330
1A
100
AcDbEntity
  8
OBJECT
100
AcDbBlockReference
  2
A$C6895fdcc
 10
66.45804848709667
 20
72.49112168178363
 30
0.0
  0
INSERT
  5
205D5
330
1A
100
AcDbEntity
  8
OBJECT
100
AcDbBlockReference
  2
A$C6895fdcc
 10
66.95804848709667
 20
71.74112168178362
 30
0.0
  0
INSERT
  5
205D6
330
1A
100
AcDbEntity
  8
OBJECT
100
AcDbBlockReference
  2
A$C6895fdcc
 10
66.45804848709667
 20
70.99112168178362
 30
0.0
  0
INSERT
  5
205D7
330
1A
100
AcDbEntity
  8
OBJECT
100
AcDbBlockReference
  2
A$C6895fdcc
 10
55.95810042828816
 20
58.92859571118606
 30
0.0
  0
INSERT
  5
205D8
330
1A
100
AcDbEntity
  8
OBJECT
100
AcDbBlockReference
  2
A$C6895fdcc
 10
54.95810042828816
 20
58.92859571118606
 30
0.0
  0
INSERT
  5
205D9
330
1A
100
AcDbEntity
  8
OBJECT
100
AcDbBlockReference
  2
A$C6895fdcc
 10
55.45810042828816
 20
58.17859571118606
 30
0.0
  0
INSERT
  5
205DA
330
1A
100
AcDbEntity
  8
OBJECT
100
AcDbBlockReference
  2
A$C6895fdcc
 10
54.95810042828816
 20
57.42859571118606
 30
0.0
  0
INSERT
  5
205DB
330
1A
100
AcDbEntity
  8
OBJECT
100
AcDbBlockReference
  2
A$C6895fdcc
 10
54.95810042828816
 20
55.92859571118606
 30
0.0
  0
INSERT
  5
205DC
330
1A
100
AcDbEntity
  8
OBJECT
100
AcDbBlockReference
  2
A$C6895fdcc
 10
54.95810042828816
 20
54.42859571118606
 30
0.0
  0
INSERT
  5
205DD
330
1A
100
AcDbEntity
  8
OBJECT
100
AcDbBlockReference
  2
A$C6895fdcc
 10
54.95810042828816
 20
52.92859571118606
 30
0.0
  0
INSERT
  5
205DE
330
1A
100
AcDbEntity
  8
OBJECT
100
AcDbBlockReference
  2
A$C6895fdcc
 10
54.95810042828816
 20
51.42859571118606
 30
0.0
  0
INSERT
  5
205DF
330
1A
100
AcDbEntity
  8
OBJECT
100
AcDbBlockReference
  2
A$C6895fdcc
 10
54.95810042828816
 20
49.92859571118606
 30
0.0
  0
INSERT
  5
205E0
330
1A
100
AcDbEntity
  8
OBJECT
100
AcDbBlockReference
  2
A$C6895fdcc
 10
54.95810042828816
 20
48.42859571118606
 30
0.0
  0
INSERT
  5
205E1
330
1A
100
AcDbEntity
  8
OBJECT
100
AcDbBlockReference
  2
A$C6895fdcc
 10
54.95810042828816
 20
46.92859571118606
 30
0.0
  0
INSERT
  5
205E2
330
1A
100
AcDbEntity
  8
OBJECT
100
AcDbBlockReference
  2
A$C6895fdcc
 10
54.95810042828816
 20
45.42859571118606
 30
0.0
  0
INSERT
  5
205E3
330
1A
100
AcDbEntity
  8
OBJECT
100
AcDbBlockReference
  2
A$C6895fdcc
 10
54.95810042828816
 20
43.92859571118606
 30
0.0
  0
INSERT
  5
205E4
330
1A
100
AcDbEntity
  8
OBJECT
100
AcDbBlockReference
  2
A$C6895fdcc
 10
54.95810042828816
 20
42.42859571118606
 30
0.0
  0
INSERT
  5
205E5
330
1A
100
AcDbEntity
  8
OBJECT
100
AcDbBlockReference
  2
A$C6895fdcc
 10
54.95810042828816
 20
40.92859571118606
 30
0.0
  0
INSERT
  5
205E6
330
1A
100
AcDbEntity
  8
OBJECT
100
AcDbBlockReference
  2
A$C6895fdcc
 10
54.95810042828816
 20
39.42859571118606
 30
0.0
  0
INSERT
  5
205E7
330
1A
100
AcDbEntity
  8
OBJECT
100
AcDbBlockReference
  2
A$C6895fdcc
 10
54.95810042828816
 20
37.92859571118607
 30
0.0
  0
INSERT
  5
205E8
330
1A
100
AcDbEntity
  8
OBJECT
100
AcDbBlockReference
  2
A$C6895fdcc
 10
55.45810042828816
 20
37.17859571118606
 30
0.0
  0
INSERT
  5
205E9
330
1A
100
AcDbEntity
  8
OBJECT
100
AcDbBlockReference
  2
A$C6895fdcc
 10
54.95810042828816
 20
36.42859571118606
 30
0.0
  0
INSERT
  5
205EA
330
1A
100
AcDbEntity
  8
OBJECT
100
AcDbBlockReference
  2
A$C6895fdcc
 10
55.45810042828816
 20
35.67859571118606
 30
0.0
  0
INSERT
  5
205EB
330
1A
100
AcDbEntity
  8
OBJECT
100
AcDbBlockReference
  2
A$C6895fdcc
 10
65.95804848709668
 20
58.92859571118606
 30
0.0
  0
INSERT
  5
205EC
330
1A
100
AcDbEntity
  8
OBJECT
100
AcDbBlockReference
  2
A$C6895fdcc
 10
66.95804848709667
 20
58.92859571118606
 30
0.0
  0
INSERT
  5
205ED
330
1A
100
AcDbEntity
  8
OBJECT
100
AcDbBlockReference
  2
A$C6895fdcc
 10
66.45804848709667
 20
58.17859571118606
 30
0.0
  0
INSERT
  5
205EE
330
1A
100
AcDbEntity
  8
OBJECT
100
AcDbBlockReference
  2
A$C6895fdcc
 10
66.95804848709667
 20
57.42859571118606
 30
0.0
  0
INSERT
  5
205EF
330
1A
100
AcDbEntity
  8
OBJECT
100
AcDbBlockReference
  2
A$C6895fdcc
 10
66.95804848709667
 20
55.92859571118606
 30
0.0
  0
INSERT
  5
205F0
330
1A
100
AcDbEntity
  8
OBJECT
100
AcDbBlockReference
  2
A$C6895fdcc
 10
66.95804848709667
 20
54.42859571118606
 30
0.0
  0
INSERT
  5
205F1
330
1A
100
AcDbEntity
  8
OBJECT
100
AcDbBlockReference
  2
A$C6895fdcc
 10
66.95804848709667
 20
52.92859571118606
 30
0.0
  0
INSERT
  5
205F2
330
1A
100
AcDbEntity
  8
OBJECT
100
AcDbBlockReference
  2
A$C6895fdcc
 10
66.95804848709667
 20
51.42859571118606
 30
0.0
  0
INSERT
  5
205F3
330
1A
100
AcDbEntity
  8
OBJECT
100
AcDbBlockReference
  2
A$C6895fdcc
 10
66.95804848709667
 20
49.92859571118606
 30
0.0
  0
INSERT
  5
205F4
330
1A
100
AcDbEntity
  8
OBJECT
100
AcDbBlockReference
  2
A$C6895fdcc
 10
66.95804848709667
 20
48.42859571118606
 30
0.0
  0
INSERT
  5
205F5
330
1A
100
AcDbEntity
  8
OBJECT
100
AcDbBlockReference
  2
A$C6895fdcc
 10
66.95804848709667
 20
46.92859571118606
 30
0.0
  0
INSERT
  5
205F6
330
1A
100
AcDbEntity
  8
OBJECT
100
AcDbBlockReference
  2
A$C6895fdcc
 10
66.95804848709667
 20
45.42859571118606
 30
0.0
  0
INSERT
  5
205F7
330
1A
100
AcDbEntity
  8
OBJECT
100
AcDbBlockReference
  2
A$C6895fdcc
 10
66.95804848709667
 20
43.92859571118606
 30
0.0
  0
INSERT
  5
205F8
330
1A
100
AcDbEntity
  8
OBJECT
100
AcDbBlockReference
  2
A$C6895fdcc
 10
66.95804848709667
 20
42.42859571118606
 30
0.0
  0
INSERT
  5
205F9
330
1A
100
AcDbEntity
  8
OBJECT
100
AcDbBlockReference
  2
A$C6895fdcc
 10
66.95804848709667
 20
40.92859571118606
 30
0.0
  0
INSERT
  5
205FA
330
1A
100
AcDbEntity
  8
OBJECT
100
AcDbBlockReference
  2
A$C6895fdcc
 10
66.95804848709667
 20
39.42859571118606
 30
0.0
  0
INSERT
  5
205FB
330
1A
100
AcDbEntity
  8
OBJECT
100
AcDbBlockReference
  2
A$C6895fdcc
 10
66.95804848709667
 20
37.92859571118607
 30
0.0
  0
INSERT
  5
205FC
330
1A
100
AcDbEntity
  8
OBJECT
100
AcDbBlockReference
  2
A$C6895fdcc
 10
66.45804848709667
 20
37.17859571118606
 30
0.0
  0
INSERT
  5
205FD
330
1A
100
AcDbEntity
  8
OBJECT
100
AcDbBlockReference
  2
A$C6895fdcc
 10
66.95804848709667
 20
36.42859571118606
 30
0.0
  0
INSERT
  5
205FE
330
1A
100
AcDbEntity
  8
OBJECT
100
AcDbBlockReference
  2
A$C6895fdcc
 10
66.45804848709667
 20
35.67859571118606
 30
0.0
  0
MTEXT
  5
205FF
330
1A
100
AcDbEntity
  8
ELEVATION
100
AcDbMText
 10
44.86374823598453
 20
68.55134824264315
 30
0.0
 40
1.5
 41
21.86809248175996
 71
     3
 72
     5
  1
RECESSED HANDLE
  7
ELEVATION
 73
     1
 44
1.0
  0
MTEXT
  5
20600
330
1A
100
AcDbEntity
  8
ELEVATION
100
AcDbMText
 10
44.86704797118
 20
65.24956396850758
 30
0.0
 40
1.5
 41
21.11797386984599
 71
     3
 72
     5
  1
LOCK HOLE FILLER
  7
ELEVATION
 73
     1
 44
1.0
  0
MTEXT
  5
20601
330
1A
100
AcDbEntity
  8
ELEVATION
100
AcDbMText
 10
44.70816577031655
 20
90.32347296892476
 30
0.0
 40
1.5
 41
17.95216092238024
 71
     3
 72
     5
  1
NUMBER PLATE
  7
ELEVATION
 73
     1
 44
1.0
  0
MTEXT
  5
20602
330
1A
100
AcDbEntity
  8
ELEVATION
100
AcDbMText
 10
44.86374823597725
 20
85.50234846963759
 30
0.0
 40
1.5
 41
27.99094968113787
 71
     3
 72
     5
  1
1-DOUBLE & 4-SINGLE PRONG HOOKS
  7
ELEVATION
 73
     1
 44
1.0
  0
MTEXT
  5
20603
330
1A
100
AcDbEntity
  8
ELEVATION
100
AcDbMText
 10
44.86374823597725
 20
79.63815465925472
 30
0.0
 40
1.5
 41
29.66639667126583
 71
     3
 72
     5
  1
SHELF
  7
ELEVATION
 73
     1
 44
1.0
1001
ACAD
1000
ACAD_MTEXT_DEFINED_HEIGHT_BEGIN
1070
    46
1040
1.051387094485107
1000
ACAD_MTEXT_DEFINED_HEIGHT_END
  0
MTEXT
  5
20604
330
1A
100
AcDbEntity
  8
ELEVATION
100
AcDbMText
 10
44.86374823598453
 20
35.87812577228215
 30
0.0
 40
1.5
 41
35.03720885620714
 71
     3
 72
     5
  1
DIAMOND PERFORATED DOORS
  7
ELEVATION
 73
     1
 44
1.0
  0
LINE
  5
20605
330
1A
100
AcDbEntity
  8
ELEVATION
100
AcDbLine
 10
102.3002695279283
 20
75.43872532983733
 30
0.0
 11
102.3002695279283
 21
76.46846467903197
 31
0.0
  0
LINE
  5
20606
330
1A
100
AcDbEntity
  8
ELEVATION
100
AcDbLine
 10
102.5271371969429
 20
75.43872532983733
 30
0.0
 11
102.5271371969429
 21
76.46846467903197
 31
0.0
  0
LINE
  5
20607
330
1A
100
AcDbEntity
  8
ELEVATION
100
AcDbLine
 10
102.1867441406866
 20
78.50157619070706
 30
0.0
 11
102.6406168078247
 21
78.50157619070706
 31
0.0
  0
LINE
  5
20608
330
1A
100
AcDbEntity
  8
ELEVATION
100
AcDbLine
 10
102.1867899170465
 20
76.86305695242845
 30
0.0
 11
102.1867899170465
 21
78.50153041433987
 31
0.0
  0
LINE
  5
20609
330
1A
100
AcDbEntity
  8
ELEVATION
100
AcDbLine
 10
102.6406168078247
 20
76.87635498669988
 30
0.0
 11
102.6406168078247
 21
78.50153041433987
 31
0.0
  0
ARC
  5
2060A
330
1A
100
AcDbEntity
  8
ELEVATION
100
AcDbCircle
 10
102.4137033624356
 20
75.43877110620269
 30
0.0
 40
0.1134375001955777
100
AcDbArc
 50
180.0000359721976
 51
0.0
  0
ARC
  5
2060B
330
1A
100
AcDbEntity
  8
ELEVATION
100
AcDbCircle
 10
102.4049600765647
 20
76.61533814877657
 30
0.0
 40
0.1803770309574297
100
AcDbArc
 50
125.5025403382986
 51
234.4974423588557
  0
ARC
  5
2060C
330
1A
100
AcDbEntity
  8
ELEVATION
100
AcDbCircle
 10
102.4223550955794
 20
76.61533814877657
 30
0.0
 40
0.1803770309574297
100
AcDbArc
 50
305.5025524050591
 51
54.49744759494091
  0
ARC
  5
2060D
330
1A
100
AcDbEntity
  8
ELEVATION
100
AcDbCircle
 10
102.4931253571412
 20
76.90958862828665
 30
0.0
 40
0.1512499965354801
100
AcDbArc
 50
282.9723503898188
 51
347.0281662000227
  0
ARC
  5
2060E
330
1A
100
AcDbEntity
  8
ELEVATION
100
AcDbCircle
 10
102.3341440386357
 20
76.90958862828665
 30
0.0
 40
0.1512499965354801
100
AcDbArc
 50
192.9718766024036
 51
257.0276855825764
  0
LINE
  5
2060F
330
1A
100
AcDbEntity
  8
ELEVATION
100
AcDbLine
 10
115.6159246836032
 20
75.43872532983733
 30
0.0
 11
115.6159246836032
 21
76.46846467903197
 31
0.0
  0
LINE
  5
20610
330
1A
100
AcDbEntity
  8
ELEVATION
100
AcDbLine
 10
115.3890570145886
 20
75.43872532983733
 30
0.0
 11
115.3890570145886
 21
76.46846467903197
 31
0.0
  0
LINE
  5
20611
330
1A
100
AcDbEntity
  8
ELEVATION
100
AcDbLine
 10
115.7294500708449
 20
78.50157619070706
 30
0.0
 11
115.2755774037068
 21
78.50157619070706
 31
0.0
  0
LINE
  5
20612
330
1A
100
AcDbEntity
  8
ELEVATION
100
AcDbLine
 10
115.729404294485
 20
76.86305695242845
 30
0.0
 11
115.729404294485
 21
78.50153041433987
 31
0.0
  0
LINE
  5
20613
330
1A
100
AcDbEntity
  8
ELEVATION
100
AcDbLine
 10
115.2755774037068
 20
76.87635498669988
 30
0.0
 11
115.2755774037068
 21
78.50153041433987
 31
0.0
  0
ARC
  5
20614
330
1A
100
AcDbEntity
  8
ELEVATION
100
AcDbCircle
 10
115.5024908490959
 20
75.43877110620269
 30
0.0
 40
0.1134375001955777
100
AcDbArc
 50
180.0
 51
359.9999640278024
  0
ARC
  5
20615
330
1A
100
AcDbEntity
  8
ELEVATION
100
AcDbCircle
 10
115.5112341349668
 20
76.61533814877657
 30
0.0
 40
0.1803770309574297
100
AcDbArc
 50
305.5025576415443
 51
54.4974596617014
  0
ARC
  5
20616
330
1A
100
AcDbEntity
  8
ELEVATION
100
AcDbCircle
 10
115.4938391159521
 20
76.61533814877657
 30
0.0
 40
0.1803770309574297
100
AcDbArc
 50
125.502552405059
 51
234.4974475949409
  0
ARC
  5
20617
330
1A
100
AcDbEntity
  8
ELEVATION
100
AcDbCircle
 10
115.4230688543903
 20
76.90958862828665
 30
0.0
 40
0.1512499965354801
100
AcDbArc
 50
192.9718337998757
 51
257.0276496101812
  0
ARC
  5
20618
330
1A
100
AcDbEntity
  8
ELEVATION
100
AcDbCircle
 10
115.5820501728958
 20
76.90958862828665
 30
0.0
 40
0.1512499965354801
100
AcDbArc
 50
282.9723144178533
 51
347.0281233974948
  0
LINE
  5
20619
330
1A
100
AcDbEntity
  8
HIDDEN
 48
3.0
100
AcDbLine
 10
56.72379280505265
 20
91.08495070265234
 30
0.0
 11
56.72379280505265
 21
33.45994513270307
 31
0.0
  0
LINE
  5
2061A
330
1A
100
AcDbEntity
  8
HIDDEN
 48
3.0
100
AcDbLine
 10
57.22418221663247
 20
91.08495070265234
 30
0.0
 11
57.22418221663247
 21
33.45994513270307
 31
0.0
  0
LINE
  5
2061B
330
1A
100
AcDbEntity
  8
HIDDEN
 48
3.0
100
AcDbLine
 10
64.72378961920185
 20
91.08495070265234
 30
0.0
 11
64.72378961920185
 21
33.45994513270307
 31
0.0
  0
LINE
  5
2061C
330
1A
100
AcDbEntity
  8
HIDDEN
 48
3.0
100
AcDbLine
 10
65.22378965924872
 20
91.08495070265234
 30
0.0
 11
65.22378965924872
 21
33.45994513270307
 31
0.0
  0
LINE
  5
2061D
330
1A
100
AcDbEntity
  8
HIDDEN
 48
3.0
100
AcDbLine
 10
56.72379280505265
 20
33.45994513270307
 30
0.0
 11
65.223789659256
 21
33.45994513270125
 31
0.0
  0
LINE
  5
2061E
330
1A
100
AcDbEntity
  8
HIDDEN
 48
3.0
100
AcDbLine
 10
56.72379280505265
 20
91.08495070265234
 30
0.0
 11
65.22378965924872
 21
91.08495070265053
 31
0.0
  0
LINE
  5
2061F
330
1A
100
AcDbEntity
  8
HIDDEN
 48
3.0
100
AcDbLine
 10
80.72379280505264
 20
91.08495070265234
 30
0.0
 11
80.72379280505264
 21
33.45994513270307
 31
0.0
  0
LINE
  5
20620
330
1A
100
AcDbEntity
  8
HIDDEN
 48
3.0
100
AcDbLine
 10
81.22418221663247
 20
91.08495070265234
 30
0.0
 11
81.22418221663247
 21
33.45994513270307
 31
0.0
  0
LINE
  5
20621
330
1A
100
AcDbEntity
  8
HIDDEN
 48
3.0
100
AcDbLine
 10
88.72378961920185
 20
91.08495070265234
 30
0.0
 11
88.72378961920185
 21
33.45994513270307
 31
0.0
  0
LINE
  5
20622
330
1A
100
AcDbEntity
  8
HIDDEN
 48
3.0
100
AcDbLine
 10
89.22378965924872
 20
91.08495070265234
 30
0.0
 11
89.22378965924872
 21
33.45994513270307
 31
0.0
  0
LINE
  5
20623
330
1A
100
AcDbEntity
  8
HIDDEN
 48
3.0
100
AcDbLine
 10
80.72379280505264
 20
33.45994513270307
 30
0.0
 11
89.223789659256
 21
33.45994513270125
 31
0.0
  0
LINE
  5
20624
330
1A
100
AcDbEntity
  8
HIDDEN
 48
3.0
100
AcDbLine
 10
80.72379280505264
 20
91.08495070265234
 30
0.0
 11
89.22378965924872
 21
91.08495070265053
 31
0.0
  0
LINE
  5
20625
330
1A
100
AcDbEntity
  8
door
100
AcDbLine
 10
146.1801624810105
 20
33.42869516366955
 30
0.0
 11
146.9216624810142
 21
33.42869516366955
 31
0.0
  0
LINE
  5
20626
330
1A
100
AcDbEntity
  8
door
100
AcDbLine
 10
146.1801624810105
 20
33.49969516366946
 30
0.0
 11
146.9216624810142
 21
33.49969516366946
 31
0.0
  0
ARC
  5
20627
330
1A
100
AcDbEntity
  8
door
100
AcDbCircle
 10
146.1801624810105
 20
33.49969516366946
 30
0.0
 40
0.071
100
AcDbArc
 50
180.0
 51
270.0
  0
LINE
  5
20628
330
1A
100
AcDbEntity
  8
door
100
AcDbLine
 10
146.9529124809996
 20
91.24119519719716
 30
0.0
 11
146.9529124809996
 21
91.17019519719724
 31
0.0
  0
LINE
  5
20629
330
1A
100
AcDbEntity
  8
door
100
AcDbLine
 10
146.1801624810032
 20
91.24119519719716
 30
0.0
 11
146.9529124809996
 21
91.24119519719716
 31
0.0
  0
ARC
  5
2062A
330
1A
100
AcDbEntity
  8
door
100
AcDbCircle
 10
146.1801624810032
 20
91.17019519719724
 30
0.0
 40
0.071
100
AcDbArc
 50
90.0
 51
180.0
  0
LINE
  5
2062B
330
1A
100
AcDbEntity
  8
door
100
AcDbLine
 10
146.1801624810032
 20
91.17019519719724
 30
0.0
 11
146.9529124809996
 21
91.17019519719724
 31
0.0
  0
LINE
  5
2062C
330
1A
100
AcDbEntity
  8
door
100
AcDbLine
 10
146.1091624809996
 20
91.17019519719724
 30
0.0
 11
146.1091624810142
 21
33.49969516366946
 31
0.0
  0
LINE
  5
2062D
330
1A
100
AcDbEntity
  8
door
100
AcDbLine
 10
146.1801624810032
 20
91.17019519719724
 30
0.0
 11
146.1801624810105
 21
33.49969516366946
 31
0.0
  0
LINE
  5
2062E
330
1A
100
AcDbEntity
  8
frame
100
AcDbLine
 10
146.1801624810105
 20
32.30369516366955
 30
0.0
 11
146.8279124810142
 21
32.30369516366955
 31
0.0
  0
ARC
  5
2062F
330
1A
100
AcDbEntity
  8
frame
100
AcDbCircle
 10
146.1801624810105
 20
32.37469516366946
 30
0.0
 40
0.071
100
AcDbArc
 50
180.0
 51
270.0
  0
LINE
  5
20630
330
1A
100
AcDbEntity
  8
frame
100
AcDbLine
 10
146.1801624810105
 20
33.30369516366955
 30
0.0
 11
147.5779124810142
 21
33.30369516366955
 31
0.0
  0
ARC
  5
20631
330
1A
100
AcDbEntity
  8
frame
100
AcDbCircle
 10
146.1801624810105
 20
33.23269516366963
 30
0.0
 40
0.071
100
AcDbArc
 50
90.0
 51
180.0
  0
LINE
  5
20632
330
1A
100
AcDbEntity
  8
frame
100
AcDbLine
 10
146.1091624810142
 20
33.23269516366963
 30
0.0
 11
146.1091624810142
 21
32.37469516366946
 31
0.0
  0
LINE
  5
20633
330
1A
100
AcDbEntity
  8
frame
100
AcDbLine
 10
146.1872874810142
 20
33.22557016366955
 30
0.0
 11
147.5779124810142
 21
33.22557016366955
 31
0.0
  0
LINE
  5
20634
330
1A
100
AcDbEntity
  8
frame
100
AcDbLine
 10
146.1872874810142
 20
33.22557016366955
 30
0.0
 11
146.1872874810142
 21
32.38182016366955
 31
0.0
  0
LINE
  5
20635
330
1A
100
AcDbEntity
  8
frame
100
AcDbLine
 10
146.1872874810142
 20
32.38182016366955
 30
0.0
 11
146.8279124810142
 21
32.38182016366955
 31
0.0
  0
LINE
  5
20636
330
1A
100
AcDbEntity
  8
frame
100
AcDbLine
 10
146.8279124810142
 20
32.30369516366955
 30
0.0
 11
146.8279124810142
 21
32.38182016366955
 31
0.0
  0
LINE
  5
20637
330
1A
100
AcDbEntity
  8
frame
100
AcDbLine
 10
147.5779124810142
 20
33.22557016366955
 30
0.0
 11
147.5779124810142
 21
33.30369516366955
 31
0.0
  0
LINE
  5
20638
330
1A
100
AcDbEntity
  8
frame
100
AcDbLine
 10
146.1801624810032
 20
91.30369516366954
 30
0.0
 11
146.8279124809996
 21
91.30369516366954
 31
0.0
  0
ARC
  5
20639
330
1A
100
AcDbEntity
  8
frame
100
AcDbCircle
 10
146.1801624810032
 20
91.37469516366946
 30
0.0
 40
0.071
100
AcDbArc
 50
180.0
 51
270.0
  0
LINE
  5
2063A
330
1A
100
AcDbEntity
  8
frame
100
AcDbLine
 10
146.1801624810032
 20
92.30369516366954
 30
0.0
 11
147.5779124809996
 21
92.30369516366954
 31
0.0
  0
ARC
  5
2063B
330
1A
100
AcDbEntity
  8
frame
100
AcDbCircle
 10
146.1801624810032
 20
92.23269516366963
 30
0.0
 40
0.071
100
AcDbArc
 50
90.0
 51
180.0
  0
LINE
  5
2063C
330
1A
100
AcDbEntity
  8
frame
100
AcDbLine
 10
146.1091624809996
 20
92.23269516366963
 30
0.0
 11
146.1091624809996
 21
91.37469516366946
 31
0.0
  0
LINE
  5
2063D
330
1A
100
AcDbEntity
  8
frame
100
AcDbLine
 10
146.1872874809996
 20
92.22557016366954
 30
0.0
 11
147.5779124809996
 21
92.22557016366954
 31
0.0
  0
LINE
  5
2063E
330
1A
100
AcDbEntity
  8
frame
100
AcDbLine
 10
146.1872874809996
 20
92.22557016366954
 30
0.0
 11
146.1872874809996
 21
91.38182016366954
 31
0.0
  0
LINE
  5
2063F
330
1A
100
AcDbEntity
  8
frame
100
AcDbLine
 10
146.1872874809996
 20
91.38182016366954
 30
0.0
 11
146.8279124809996
 21
91.38182016366954
 31
0.0
  0
LINE
  5
20640
330
1A
100
AcDbEntity
  8
frame
100
AcDbLine
 10
146.8279124809996
 20
91.30369516366954
 30
0.0
 11
146.8279124809996
 21
91.38182016366954
 31
0.0
  0
LINE
  5
20641
330
1A
100
AcDbEntity
  8
frame
100
AcDbLine
 10
147.5779124809996
 20
92.22557016366954
 30
0.0
 11
147.5779124809996
 21
92.30369516366954
 31
0.0
  0
LINE
  5
20642
330
1A
100
AcDbEntity
  8
frame
100
AcDbLine
 10
161.1716624809924
 20
92.27610804455252
 30
0.0
 11
161.1716624810069
 21
32.40110804455253
 31
0.0
  0
LINE
  5
20643
330
1A
100
AcDbEntity
  8
frame
100
AcDbLine
 10
161.2341624809924
 20
92.27610804455252
 30
0.0
 11
161.2341624810069
 21
32.40110804455253
 31
0.0
  0
LINE
  5
20644
330
1A
100
AcDbEntity
  8
frame
100
AcDbLine
 10
161.1716624809924
 20
92.27610804455252
 30
0.0
 11
161.2341624809924
 21
92.27610804455252
 31
0.0
  0
LINE
  5
20645
330
1A
100
AcDbEntity
  8
frame
100
AcDbLine
 10
161.1716624810069
 20
32.40110804455253
 30
0.0
 11
161.2341624810069
 21
32.40110804455253
 31
0.0
  0
LINE
  5
20646
330
1A
100
AcDbEntity
  8
door
100
AcDbLine
 10
146.9216624810142
 20
33.42869516366955
 30
0.0
 11
146.9216624810142
 21
33.49969516366946
 31
0.0
  0
TEXT
  5
20647
330
1A
100
AcDbEntity
  8
TEXT
100
AcDbText
 10
132.7294316490006
 20
58.86844250531692
 30
0.0
 40
1.68
  1
LOCKER HEIGHT
 50
90.0
  7
ROMANS
 72
     1
 11
132.7294316490006
 21
68.98844250531692
 31
0.0
100
AcDbText
  0
LINE
  5
20648
330
1A
100
AcDbEntity
  8
dim
100
AcDbLine
 10
144.7774316490104
 20
32.30369116367001
 30
0.0
 11
132.7774316490104
 21
32.30369116367001
 31
0.0
  0
LINE
  5
20649
330
1A
100
AcDbEntity
  8
dim
100
AcDbLine
 10
134.2174316490054
 20
32.30369116367001
 30
0.0
 11
134.2174316489981
 21
92.30369116367
 31
0.0
  0
LINE
  5
2064A
330
1A
100
AcDbEntity
  8
dim
100
AcDbLine
 10
133.7374316490095
 20
35.30369116367001
 30
0.0
 11
134.6974316490086
 21
35.30369116367001
 31
0.0
  0
LINE
  5
2064B
330
1A
100
AcDbEntity
  8
dim
100
AcDbLine
 10
134.4574316490107
 20
35.30369116367001
 30
0.0
 11
134.2174316490054
 21
32.30369116367001
 31
0.0
  0
LINE
  5
2064C
330
1A
100
AcDbEntity
  8
dim
100
AcDbLine
 10
133.9774316490075
 20
35.30369116367001
 30
0.0
 11
134.2174316490054
 21
32.30369116367001
 31
0.0
  0
LINE
  5
2064D
330
1A
100
AcDbEntity
  8
dim
100
AcDbLine
 10
134.2174316490054
 20
32.30369116367001
 30
0.0
 11
134.6974316490086
 21
35.30369116367001
 31
0.0
  0
LINE
  5
2064E
330
1A
100
AcDbEntity
  8
dim
100
AcDbLine
 10
133.7374316490095
 20
35.30369116367001
 30
0.0
 11
134.2174316490054
 21
32.30369116367001
 31
0.0
  0
LINE
  5
2064F
330
1A
100
AcDbEntity
  8
dim
100
AcDbLine
 10
140.2174316490054
 20
32.30369116367001
 30
0.0
 11
140.2174316490054
 21
29.30364292348895
 31
0.0
  0
LINE
  5
20650
330
1A
100
AcDbEntity
  8
dim
100
AcDbLine
 10
140.2174316489982
 20
92.30369116367
 30
0.0
 11
140.2174316490054
 21
33.30358876366882
 31
0.0
  0
LINE
  5
20651
330
1A
100
AcDbEntity
  8
dim
100
AcDbLine
 10
144.7774316490104
 20
33.30358876366882
 30
0.0
 11
140.2174316490054
 21
33.30358876366882
 31
0.0
  0
LINE
  5
20652
330
1A
100
AcDbEntity
  8
dim
100
AcDbLine
 10
140.2174316490054
 20
33.30358876366882
 30
0.0
 11
138.7294316490079
 21
33.30358876366882
 31
0.0
  0
TEXT
  5
20653
330
1A
100
AcDbEntity
  8
elevation text
100
AcDbText
 10
138.7294316490079
 20
28.58781699657708
 30
0.0
 40
2.04
  1
1"
 50
90.0
  7
ROMANS
 72
     1
 11
138.7294316490079
 21
30.43353128229137
 31
0.0
100
AcDbText
  0
TEXT
  5
20654
330
1A
100
AcDbEntity
  8
elevation text
100
AcDbText
 10
138.7294316490079
 20
53.27743624656001
 30
0.0
 40
2.04
  1
47"
 50
90.0
  7
ROMANS
 72
     1
 11
138.7294316490079
 21
55.94886481798858
 31
0.0
100
AcDbText
  0
LINE
  5
20655
330
1A
100
AcDbEntity
  8
dim
100
AcDbLine
 10
134.6974316489941
 20
89.30369116366819
 30
0.0
 11
133.7374316490022
 21
89.30369116366819
 31
0.0
  0
LINE
  5
20656
330
1A
100
AcDbEntity
  8
dim
100
AcDbLine
 10
133.9774316489929
 20
89.30369116366819
 30
0.0
 11
134.2174316489981
 21
92.30369116366819
 31
0.0
  0
LINE
  5
20657
330
1A
100
AcDbEntity
  8
dim
100
AcDbLine
 10
134.4574316489961
 20
89.30369116366819
 30
0.0
 11
134.2174316489981
 21
92.30369116366819
 31
0.0
  0
LINE
  5
20658
330
1A
100
AcDbEntity
  8
dim
100
AcDbLine
 10
134.2174316489981
 20
92.30369116366819
 30
0.0
 11
133.7374316490022
 21
89.30369116366819
 31
0.0
  0
LINE
  5
20659
330
1A
100
AcDbEntity
  8
dim
100
AcDbLine
 10
134.6974316489941
 20
89.30369116366819
 30
0.0
 11
134.2174316489981
 21
92.30369116366819
 31
0.0
  0
LINE
  5
2065A
330
1A
100
AcDbEntity
  8
dim
100
AcDbLine
 10
140.6974316489941
 20
89.30369116366819
 30
0.0
 11
139.7374316490022
 21
89.30369116366819
 31
0.0
  0
LINE
  5
2065B
330
1A
100
AcDbEntity
  8
dim
100
AcDbLine
 10
139.9774316489929
 20
89.30369116366819
 30
0.0
 11
140.2174316489982
 21
92.30369116366819
 31
0.0
  0
LINE
  5
2065C
330
1A
100
AcDbEntity
  8
dim
100
AcDbLine
 10
140.4574316489961
 20
89.30369116366819
 30
0.0
 11
140.2174316489982
 21
92.30369116366819
 31
0.0
  0
LINE
  5
2065D
330
1A
100
AcDbEntity
  8
dim
100
AcDbLine
 10
140.2174316489982
 20
92.30369116366819
 30
0.0
 11
139.7374316490022
 21
89.30369116366819
 31
0.0
  0
LINE
  5
2065E
330
1A
100
AcDbEntity
  8
dim
100
AcDbLine
 10
140.6974316489941
 20
89.30369116366819
 30
0.0
 11
140.2174316489982
 21
92.30369116366819
 31
0.0
  0
LINE
  5
2065F
330
1A
100
AcDbEntity
  8
dim
100
AcDbLine
 10
139.7374239305718
 20
29.30364292348895
 30
0.0
 11
140.697439367439
 21
29.30364292348895
 31
0.0
  0
LINE
  5
20660
330
1A
100
AcDbEntity
  8
dim
100
AcDbLine
 10
140.4574355082222
 20
29.30364292348895
 30
0.0
 11
140.2174316490054
 21
32.30369116367001
 31
0.0
  0
LINE
  5
20661
330
1A
100
AcDbEntity
  8
dim
100
AcDbLine
 10
139.9774277897886
 20
29.30364292348895
 30
0.0
 11
140.2174316490054
 21
32.30369116367001
 31
0.0
  0
LINE
  5
20662
330
1A
100
AcDbEntity
  8
dim
100
AcDbLine
 10
140.2174316490054
 20
32.30369116367001
 30
0.0
 11
140.697439367439
 21
29.30364292348895
 31
0.0
  0
LINE
  5
20663
330
1A
100
AcDbEntity
  8
dim
100
AcDbLine
 10
139.7374239305718
 20
29.30364292348895
 30
0.0
 11
140.2174316490054
 21
32.30369116367001
 31
0.0
  0
LINE
  5
20664
330
1A
100
AcDbEntity
  8
dim
100
AcDbLine
 10
139.7374316490095
 20
36.30358876366881
 30
0.0
 11
140.6974316490086
 21
36.30358876366881
 31
0.0
  0
LINE
  5
20665
330
1A
100
AcDbEntity
  8
dim
100
AcDbLine
 10
140.4574316490107
 20
36.30358876366881
 30
0.0
 11
140.2174316490054
 21
33.30358876366882
 31
0.0
  0
LINE
  5
20666
330
1A
100
AcDbEntity
  8
dim
100
AcDbLine
 10
139.9774316490075
 20
36.30358876366881
 30
0.0
 11
140.2174316490054
 21
33.30358876366882
 31
0.0
  0
LINE
  5
20667
330
1A
100
AcDbEntity
  8
dim
100
AcDbLine
 10
140.2174316490054
 20
33.30358876366882
 30
0.0
 11
140.6974316490086
 21
36.30358876366881
 31
0.0
  0
LINE
  5
20668
330
1A
100
AcDbEntity
  8
dim
100
AcDbLine
 10
139.7374316490095
 20
36.30358876366881
 30
0.0
 11
140.2174316490054
 21
33.30358876366882
 31
0.0
  0
LINE
  5
20669
330
1A
100
AcDbEntity
  8
dim
100
AcDbLine
 10
144.7774316489958
 20
92.30369116367
 30
0.0
 11
132.7774316489958
 21
92.30369116367
 31
0.0
  0
TEXT
  5
2066A
330
1A
100
AcDbEntity
  8
elevation text
100
AcDbText
 10
132.7294316490079
 20
50.61033868638631
 30
0.0
 40
2.04
  1
60"
 50
90.0
  7
ROMANS
 72
     1
 11
132.7294316490079
 21
53.33033868638631
 31
0.0
100
AcDbText
  0
LINE
  5
2066B
330
1A
100
AcDbEntity
  8
wall
100
AcDbLine
 10
161.2966632310126
 20
96.40110804455254
 30
0.0
 11
161.2966632310126
 21
32.40110804455253
 31
0.0
  0
LINE
  5
2066C
330
1A
100
AcDbEntity
  8
wall
100
AcDbLine
 10
159.8111113747654
 20
86.44360007556134
 30
0.0
 11
166.1406698387363
 21
86.44360007556134
 31
0.0
  0
LINE
  5
2066D
330
1A
100
AcDbEntity
  8
top
370
    35
100
AcDbLine
 10
161.077602260957
 20
33.24869530867181
 30
0.0
 11
147.8428818892935
 21
33.24869530867181
 31
0.0
  0
ARC
  5
2066E
330
1A
100
AcDbEntity
  8
top
370
    35
100
AcDbCircle
 10
147.8428818892935
 20
33.19369529988944
 30
0.0
 40
0.0550000088000004
100
AcDbArc
 50
90.0
 51
134.9999999998526
  0
LINE
  5
2066F
330
1A
100
AcDbEntity
  8
top
370
    35
100
AcDbLine
 10
159.976352084639
 20
32.40494517363004
 30
0.0
 11
148.3357252222267
 21
32.40494517363004
 31
0.0
  0
LINE
  5
20670
330
1A
100
AcDbEntity
  8
top
370
    35
100
AcDbLine
 10
161.077602260957
 20
33.19369529988944
 30
0.0
 11
159.976352084639
 21
33.19369529988944
 31
0.0
  0
LINE
  5
20671
330
1A
100
AcDbEntity
  8
top
370
    35
100
AcDbLine
 10
148.3357252222267
 20
33.24869530867181
 30
0.0
 11
148.3357252222267
 21
32.40494517363004
 31
0.0
  0
LINE
  5
20672
330
1A
100
AcDbEntity
  8
top
370
    35
100
AcDbLine
 10
159.976352084639
 20
33.24869530867181
 30
0.0
 11
159.976352084639
 21
32.40494517363004
 31
0.0
  0
LINE
  5
20673
330
1A
100
AcDbEntity
  8
top
370
    35
100
AcDbLine
 10
147.757600129793
 20
33.1861952986601
 30
0.0
 11
147.8039910101579
 21
33.23258617902502
 31
0.0
  0
LINE
  5
20674
330
1A
100
AcDbEntity
  8
top
370
    35
100
AcDbLine
 10
147.7964910089285
 20
33.14730441946631
 30
0.0
 11
147.8428818892935
 21
33.19369529988944
 31
0.0
  0
ARC
  5
20675
330
1A
100
AcDbEntity
  8
top
370
    35
100
AcDbCircle
 10
147.757600129793
 20
33.1861952986601
 30
0.0
 40
0.0550000088000004
100
AcDbArc
 50
270.0
 51
314.9999999998526
  0
LINE
  5
20676
330
1A
100
AcDbEntity
  8
top
370
    35
100
AcDbLine
 10
146.2263498846223
 20
33.13119528981952
 30
0.0
 11
146.2263498846223
 21
32.71744522363042
 31
0.0
  0
LINE
  5
20677
330
1A
100
AcDbEntity
  8
top
370
    35
100
AcDbLine
 10
146.2813498936375
 20
33.13119528981952
 30
0.0
 11
146.2813498936375
 21
32.71744522363042
 31
0.0
  0
LINE
  5
20678
330
1A
100
AcDbEntity
  8
top
370
    35
100
AcDbLine
 10
146.2813498936375
 20
33.1861952986601
 30
0.0
 11
147.757600129793
 21
33.1861952986601
 31
0.0
  0
ARC
  5
20679
330
1A
100
AcDbEntity
  8
top
370
    35
100
AcDbCircle
 10
146.2813498936375
 20
33.13119528981952
 30
0.0
 40
0.0550000088000004
100
AcDbArc
 50
90.0
 51
180.0
  0
LINE
  5
2067A
330
1A
100
AcDbEntity
  8
top
370
    35
100
AcDbLine
 10
146.2813498936375
 20
33.13119528981952
 30
0.0
 11
147.757600129793
 21
33.13119528981952
 31
0.0
  0
LINE
  5
2067B
330
1A
100
AcDbEntity
  8
top
370
    35
100
AcDbLine
 10
148.3357252222267
 20
33.19369529988944
 30
0.0
 11
147.8428818892935
 21
33.19369529988944
 31
0.0
  0
LINE
  5
2067C
330
1A
100
AcDbEntity
  8
top
370
    35
100
AcDbLine
 10
146.2263498846223
 20
32.71744522363042
 30
0.0
 11
146.2813498936375
 21
32.71744522363042
 31
0.0
  0
LINE
  5
2067D
330
1A
100
AcDbEntity
  8
top
370
    35
100
AcDbLine
 10
161.1326022697394
 20
33.19369529988944
 30
0.0
 11
161.1326022697394
 21
32.40494517363004
 31
0.0
  0
ARC
  5
2067E
330
1A
100
AcDbEntity
  8
top
370
    35
100
AcDbCircle
 10
161.077602260957
 20
33.19369529988944
 30
0.0
 40
0.0550000088000004
100
AcDbArc
 50
0.0
 51
90.0
  0
LINE
  5
2067F
330
1A
100
AcDbEntity
  8
top
370
    35
100
AcDbLine
 10
161.077602260957
 20
33.19369529988944
 30
0.0
 11
161.077602260957
 21
32.40494517363004
 31
0.0
  0
LINE
  5
20680
330
1A
100
AcDbEntity
  8
top
370
    35
100
AcDbLine
 10
161.1326022697394
 20
32.40494517363004
 30
0.0
 11
161.077602260957
 21
32.40494517363004
 31
0.0
  0
LINE
  5
20681
330
1A
100
AcDbEntity
  8
top
370
    35
100
AcDbLine
 10
161.0776022609425
 20
92.24869530867181
 30
0.0
 11
147.8428818892789
 21
92.24869530867181
 31
0.0
  0
ARC
  5
20682
330
1A
100
AcDbEntity
  8
top
370
    35
100
AcDbCircle
 10
147.8428818892789
 20
92.19369529988943
 30
0.0
 40
0.0550000088000004
100
AcDbArc
 50
90.0
 51
134.9999999998526
  0
LINE
  5
20683
330
1A
100
AcDbEntity
  8
top
370
    35
100
AcDbLine
 10
159.9763520846245
 20
91.40494517363004
 30
0.0
 11
148.3357252222122
 21
91.40494517363004
 31
0.0
  0
LINE
  5
20684
330
1A
100
AcDbEntity
  8
top
370
    35
100
AcDbLine
 10
161.0776022609425
 20
92.19369529988943
 30
0.0
 11
159.9763520846245
 21
92.19369529988943
 31
0.0
  0
LINE
  5
20685
330
1A
100
AcDbEntity
  8
top
370
    35
100
AcDbLine
 10
148.3357252222122
 20
92.24869530867181
 30
0.0
 11
148.3357252222122
 21
91.40494517363004
 31
0.0
  0
LINE
  5
20686
330
1A
100
AcDbEntity
  8
top
370
    35
100
AcDbLine
 10
159.9763520846245
 20
92.24869530867181
 30
0.0
 11
159.9763520846245
 21
91.40494517363004
 31
0.0
  0
LINE
  5
20687
330
1A
100
AcDbEntity
  8
top
370
    35
100
AcDbLine
 10
147.7576001297784
 20
92.18619529866009
 30
0.0
 11
147.8039910101433
 21
92.23258617902502
 31
0.0
  0
LINE
  5
20688
330
1A
100
AcDbEntity
  8
top
370
    35
100
AcDbLine
 10
147.796491008914
 20
92.14730441946631
 30
0.0
 11
147.8428818892789
 21
92.19369529988943
 31
0.0
  0
ARC
  5
20689
330
1A
100
AcDbEntity
  8
top
370
    35
100
AcDbCircle
 10
147.7576001297784
 20
92.18619529866009
 30
0.0
 40
0.0550000088000004
100
AcDbArc
 50
270.0
 51
314.9999999998526
  0
LINE
  5
2068A
330
1A
100
AcDbEntity
  8
top
370
    35
100
AcDbLine
 10
146.2263498846077
 20
92.13119528981952
 30
0.0
 11
146.2263498846077
 21
91.71744522363042
 31
0.0
  0
LINE
  5
2068B
330
1A
100
AcDbEntity
  8
top
370
    35
100
AcDbLine
 10
146.2813498936229
 20
92.13119528981952
 30
0.0
 11
146.2813498936229
 21
91.71744522363042
 31
0.0
  0
LINE
  5
2068C
330
1A
100
AcDbEntity
  8
top
370
    35
100
AcDbLine
 10
146.2813498936229
 20
92.18619529866009
 30
0.0
 11
147.7576001297784
 21
92.18619529866009
 31
0.0
  0
ARC
  5
2068D
330
1A
100
AcDbEntity
  8
top
370
    35
100
AcDbCircle
 10
146.2813498936229
 20
92.13119528981952
 30
0.0
 40
0.0550000088000004
100
AcDbArc
 50
90.0
 51
180.0
  0
LINE
  5
2068E
330
1A
100
AcDbEntity
  8
top
370
    35
100
AcDbLine
 10
146.2813498936229
 20
92.13119528981952
 30
0.0
 11
147.7576001297784
 21
92.13119528981952
 31
0.0
  0
LINE
  5
2068F
330
1A
100
AcDbEntity
  8
top
370
    35
100
AcDbLine
 10
148.3357252222122
 20
92.19369529988943
 30
0.0
 11
147.8428818892789
 21
92.19369529988943
 31
0.0
  0
LINE
  5
20690
330
1A
100
AcDbEntity
  8
top
370
    35
100
AcDbLine
 10
146.2263498846077
 20
91.71744522363042
 30
0.0
 11
146.2813498936229
 21
91.71744522363042
 31
0.0
  0
LINE
  5
20691
330
1A
100
AcDbEntity
  8
top
370
    35
100
AcDbLine
 10
161.1326022697249
 20
92.19369529988943
 30
0.0
 11
161.1326022697249
 21
91.40494517363004
 31
0.0
  0
ARC
  5
20692
330
1A
100
AcDbEntity
  8
top
370
    35
100
AcDbCircle
 10
161.0776022609425
 20
92.19369529988943
 30
0.0
 40
0.0550000088000004
100
AcDbArc
 50
0.0
 51
90.0
  0
LINE
  5
20693
330
1A
100
AcDbEntity
  8
top
370
    35
100
AcDbLine
 10
161.0776022609425
 20
92.19369529988943
 30
0.0
 11
161.0776022609425
 21
91.40494517363004
 31
0.0
  0
LINE
  5
20694
330
1A
100
AcDbEntity
  8
top
370
    35
100
AcDbLine
 10
161.1326022697249
 20
91.40494517363004
 30
0.0
 11
161.0776022609425
 21
91.40494517363004
 31
0.0
  0
LINE
  5
20695
330
1A
100
AcDbEntity
  8
diamonds
  6
PHANTOM2
 62
     2
 48
2.0
100
AcDbLine
 10
149.3509572849943
 20
36.57840616455178
 30
0.0
 11
149.3509572849943
 21
88.74172539828942
 31
0.0
  0
LINE
  5
20696
330
1A
100
AcDbEntity
  8
diamonds
  6
PHANTOM2
 62
     2
 48
2.0
100
AcDbLine
 10
158.1008356539241
 20
36.57840616455178
 30
0.0
 11
158.1008356539169
 21
88.74172539828942
 31
0.0
  0
LINE
  5
20697
330
1A
100
AcDbEntity
  8
diamonds
  6
PHANTOM2
 62
     2
 48
2.0
100
AcDbLine
 10
148.5852788408156
 20
87.8691934635899
 30
0.0
 11
158.7377451706779
 21
87.8691934635899
 31
0.0
  0
LINE
  5
20698
330
1A
100
AcDbEntity
  8
diamonds
  6
PHANTOM2
 62
     2
 48
2.0
100
AcDbLine
 10
148.3623742513373
 20
37.77537921880503
 30
0.0
 11
158.7358488930403
 21
37.77537921880503
 31
0.0
  0
INSERT
  5
20699
330
1A
100
AcDbEntity
  8
OBJECT
100
AcDbBlockReference
  2
A$C6895fdcc
 10
149.35086573226
 20
87.88163323043045
 30
0.0
  0
INSERT
  5
2069A
330
1A
100
AcDbEntity
  8
OBJECT
100
AcDbBlockReference
  2
A$C6895fdcc
 10
151.1008696868884
 20
87.88163323043045
 30
0.0
  0
INSERT
  5
2069B
330
1A
100
AcDbEntity
  8
OBJECT
100
AcDbBlockReference
  2
A$C6895fdcc
 10
152.8508660122388
 20
87.88163323043045
 30
0.0
  0
INSERT
  5
2069C
330
1A
100
AcDbEntity
  8
OBJECT
100
AcDbBlockReference
  2
A$C6895fdcc
 10
154.60086615217
 20
87.88163323043045
 30
0.0
  0
INSERT
  5
2069D
330
1A
100
AcDbEntity
  8
OBJECT
100
AcDbBlockReference
  2
A$C6895fdcc
 10
156.3508586629396
 20
87.88163323043045
 30
0.0
  0
INSERT
  5
2069E
330
1A
100
AcDbEntity
  8
OBJECT
100
AcDbBlockReference
  2
A$C6895fdcc
 10
158.100862617568
 20
87.88163323043045
 30
0.0
  0
INSERT
  5
2069F
330
1A
100
AcDbEntity
  8
OBJECT
100
AcDbBlockReference
  2
A$C6895fdcc
 10
158.100862617568
 20
86.13164071977735
 30
0.0
  0
INSERT
  5
206A0
330
1A
100
AcDbEntity
  8
OBJECT
100
AcDbBlockReference
  2
A$C6895fdcc
 10
158.100862617568
 20
84.38164057978793
 30
0.0
  0
INSERT
  5
206A1
330
1A
100
AcDbEntity
  8
OBJECT
100
AcDbBlockReference
  2
A$C6895fdcc
 10
156.3508586629396
 20
86.13164071977735
 30
0.0
  0
INSERT
  5
206A2
330
1A
100
AcDbEntity
  8
OBJECT
100
AcDbBlockReference
  2
A$C6895fdcc
 10
151.1008696868884
 20
86.13164071977735
 30
0.0
  0
INSERT
  5
206A3
330
1A
100
AcDbEntity
  8
OBJECT
100
AcDbBlockReference
  2
A$C6895fdcc
 10
149.35086573226
 20
86.13164071977735
 30
0.0
  0
INSERT
  5
206A4
330
1A
100
AcDbEntity
  8
OBJECT
100
AcDbBlockReference
  2
A$C6895fdcc
 10
149.35086573226
 20
84.38164057978793
 30
0.0
  0
INSERT
  5
206A5
330
1A
100
AcDbEntity
  8
OBJECT
100
AcDbBlockReference
  2
A$C6895fdcc
 10
158.100862617568
 20
84.38164057978793
 30
0.0
  0
INSERT
  5
206A6
330
1A
100
AcDbEntity
  8
OBJECT
100
AcDbBlockReference
  2
A$C6895fdcc
 10
149.350838768616
 20
41.28789234336363
 30
0.0
  0
INSERT
  5
206A7
330
1A
100
AcDbEntity
  8
OBJECT
100
AcDbBlockReference
  2
A$C6895fdcc
 10
149.350838768616
 20
39.53789220337421
 30
0.0
  0
INSERT
  5
206A8
330
1A
100
AcDbEntity
  8
OBJECT
100
AcDbBlockReference
  2
A$C6895fdcc
 10
151.1008427232446
 20
39.53789220337421
 30
0.0
  0
INSERT
  5
206A9
330
1A
100
AcDbEntity
  8
OBJECT
100
AcDbBlockReference
  2
A$C6895fdcc
 10
149.350838768616
 20
37.78787680453752
 30
0.0
  0
INSERT
  5
206AA
330
1A
100
AcDbEntity
  8
OBJECT
100
AcDbBlockReference
  2
A$C6895fdcc
 10
151.1008427232446
 20
37.78787680453752
 30
0.0
  0
INSERT
  5
206AB
330
1A
100
AcDbEntity
  8
OBJECT
100
AcDbBlockReference
  2
A$C6895fdcc
 10
152.8508390485949
 20
37.78787680453752
 30
0.0
  0
INSERT
  5
206AC
330
1A
100
AcDbEntity
  8
OBJECT
100
AcDbBlockReference
  2
A$C6895fdcc
 10
154.6008391885261
 20
37.78787680453752
 30
0.0
  0
INSERT
  5
206AD
330
1A
100
AcDbEntity
  8
OBJECT
100
AcDbBlockReference
  2
A$C6895fdcc
 10
156.3508316992956
 20
37.78787680453752
 30
0.0
  0
INSERT
  5
206AE
330
1A
100
AcDbEntity
  8
OBJECT
100
AcDbBlockReference
  2
A$C6895fdcc
 10
158.1008356539241
 20
37.78787680453752
 30
0.0
  0
INSERT
  5
206AF
330
1A
100
AcDbEntity
  8
OBJECT
100
AcDbBlockReference
  2
A$C6895fdcc
 10
156.3508316992956
 20
39.53789220337421
 30
0.0
  0
INSERT
  5
206B0
330
1A
100
AcDbEntity
  8
OBJECT
100
AcDbBlockReference
  2
A$C6895fdcc
 10
158.1008356539241
 20
39.53789220337421
 30
0.0
  0
INSERT
  5
206B1
330
1A
100
AcDbEntity
  8
OBJECT
100
AcDbBlockReference
  2
A$C6895fdcc
 10
158.1008356539241
 20
41.28789234336363
 30
0.0
  0
LINE
  5
206B2
330
1A
100
AcDbEntity
  8
top
100
AcDbLine
 10
161.0776027408064
 20
80.31869363980694
 30
0.0
 11
147.4376000784905
 21
80.31869363980694
 31
0.0
  0
LINE
  5
206B3
330
1A
100
AcDbEntity
  8
top
100
AcDbLine
 10
159.9763525649541
 20
79.47494350476517
 30
0.0
 11
148.3357252222122
 21
79.47494350476517
 31
0.0
  0
LINE
  5
206B4
330
1A
100
AcDbEntity
  8
top
100
AcDbLine
 10
161.0776027408064
 20
80.26369363102459
 30
0.0
 11
159.9763525649541
 21
80.26369363102459
 31
0.0
  0
LINE
  5
206B5
330
1A
100
AcDbEntity
  8
top
100
AcDbLine
 10
148.3357252222122
 20
80.31869363980694
 30
0.0
 11
148.3357252222122
 21
79.47494350476517
 31
0.0
  0
LINE
  5
206B6
330
1A
100
AcDbEntity
  8
top
100
AcDbLine
 10
159.9763525649541
 20
80.31869363980694
 30
0.0
 11
159.9763525649541
 21
79.47494350476517
 31
0.0
  0
LINE
  5
206B7
330
1A
100
AcDbEntity
  8
top
100
AcDbLine
 10
147.3826000699409
 20
80.26369363102459
 30
0.0
 11
147.3826000699409
 21
79.37369348863467
 31
0.0
  0
LINE
  5
206B8
330
1A
100
AcDbEntity
  8
top
100
AcDbLine
 10
147.4376000784905
 20
80.26369363102459
 30
0.0
 11
147.4376000784905
 21
79.37369348863467
 31
0.0
  0
ARC
  5
206B9
330
1A
100
AcDbEntity
  8
top
100
AcDbCircle
 10
147.4376000784905
 20
80.26369363102459
 30
0.0
 40
0.0550000088000004
100
AcDbArc
 50
90.0
 51
180.0
  0
LINE
  5
206BA
330
1A
100
AcDbEntity
  8
top
100
AcDbLine
 10
148.3357252222122
 20
80.26369363102459
 30
0.0
 11
147.4376000784905
 21
80.26369363102459
 31
0.0
  0
LINE
  5
206BB
330
1A
100
AcDbEntity
  8
top
100
AcDbLine
 10
161.1326027498217
 20
80.26369363102459
 30
0.0
 11
161.1326027498217
 21
79.47494350476517
 31
0.0
  0
ARC
  5
206BC
330
1A
100
AcDbEntity
  8
top
100
AcDbCircle
 10
161.0776027408064
 20
80.26369363102459
 30
0.0
 40
0.0550000088000004
100
AcDbArc
 50
0.0
 51
90.0
  0
LINE
  5
206BD
330
1A
100
AcDbEntity
  8
top
100
AcDbLine
 10
161.0776027408064
 20
80.26369363102459
 30
0.0
 11
161.0776027408064
 21
79.47494350476517
 31
0.0
  0
LINE
  5
206BE
330
1A
100
AcDbEntity
  8
top
100
AcDbLine
 10
161.1326027498217
 20
79.47494350476517
 30
0.0
 11
161.0776027408064
 21
79.47494350476517
 31
0.0
  0
ARC
  5
206BF
330
1A
100
AcDbEntity
  8
top
100
AcDbCircle
 10
147.4376000784905
 20
79.37369348863467
 30
0.0
 40
0.0550000088000004
100
AcDbArc
 50
180.0
 51
314.9999999998526
  0
LINE
  5
206C0
330
1A
100
AcDbEntity
  8
top
100
AcDbLine
 10
147.4376000784905
 20
79.37369348863467
 30
0.0
 11
147.8406510082641
 21
79.77674441840827
 31
0.0
  0
LINE
  5
206C1
330
1A
100
AcDbEntity
  8
top
100
AcDbLine
 10
147.4764909576261
 20
79.33480260944088
 30
0.0
 11
147.8795418873997
 21
79.73785353921448
 31
0.0
  0
LINE
  5
206C2
330
1A
100
AcDbEntity
  8
top
100
AcDbLine
 10
147.8406510082641
 20
79.77674441840827
 30
0.0
 11
147.8795418873997
 21
79.73785353921448
 31
0.0
  0
LINE
  5
206C3
330
1A
100
AcDbEntity
  8
dim
100
AcDbLine
 10
144.7774313209447
 20
80.30369427739969
 30
0.0
 11
140.217430591314
 21
80.30369427739969
 31
0.0
  0
INSERT
  5
206C4
330
1A
100
AcDbEntity
  8
dim
100
AcDbBlockReference
  2
ARRO2
 10
140.217430591314
 20
80.30369427739969
 30
0.0
 41
24.0
 42
24.0
 43
24.0
 50
90.0
  0
TEXT
  5
206C5
330
1A
100
AcDbEntity
  8
elevation text
100
AcDbText
 10
138.7294303531162
 20
83.92668170259849
 30
0.0
 40
2.040000326400013
  1
12"
 50
90.0
  7
ROMANS
 72
     1
 11
138.7294303531162
 21
86.74382501048421
 31
0.0
100
AcDbText
  0
LINE
  5
206C6
330
1A
100
AcDbEntity
  8
dim
100
AcDbLine
 10
140.217430591314
 20
80.30369427739969
 30
0.0
 11
138.7294303531162
 21
80.30369427739969
 31
0.0
  0
LINE
  5
206C7
330
1A
100
AcDbEntity
  8
wall
100
AcDbLine
 10
161.2966632310126
 20
36.40110804455253
 30
0.0
 11
163.5526812790049
 21
38.65712609255934
 31
0.0
  0
LINE
  5
206C8
330
1A
100
AcDbEntity
  8
wall
100
AcDbLine
 10
161.2966632310126
 20
32.40110804455253
 30
0.0
 11
163.5526812790049
 21
34.65712609255934
 31
0.0
  0
LINE
  5
206C9
330
1A
100
AcDbEntity
  8
wall
100
AcDbLine
 10
161.2966632310126
 20
34.40110804455253
 30
0.0
 11
163.5526812790049
 21
36.65712609255934
 31
0.0
  0
LINE
  5
206CA
330
1A
100
AcDbEntity
  8
wall
100
AcDbLine
 10
161.2966632310126
 20
40.40110804455252
 30
0.0
 11
163.5526812790049
 21
42.65712609255934
 31
0.0
  0
LINE
  5
206CB
330
1A
100
AcDbEntity
  8
wall
100
AcDbLine
 10
161.2966632310126
 20
38.40110804455253
 30
0.0
 11
163.5526812790049
 21
40.65712609255934
 31
0.0
  0
LINE
  5
206CC
330
1A
100
AcDbEntity
  8
wall
100
AcDbLine
 10
161.2966632310126
 20
44.40110804455253
 30
0.0
 11
163.5526812790049
 21
46.65712609255933
 31
0.0
  0
LINE
  5
206CD
330
1A
100
AcDbEntity
  8
wall
100
AcDbLine
 10
161.2966632310126
 20
42.40110804455253
 30
0.0
 11
163.5526812790049
 21
44.65712609255933
 31
0.0
  0
LINE
  5
206CE
330
1A
100
AcDbEntity
  8
wall
100
AcDbLine
 10
161.2966632310126
 20
48.40110804455253
 30
0.0
 11
163.5526812790049
 21
50.65712609255934
 31
0.0
  0
LINE
  5
206CF
330
1A
100
AcDbEntity
  8
wall
100
AcDbLine
 10
161.2966632310126
 20
46.40110804455253
 30
0.0
 11
163.5526812790049
 21
48.65712609255933
 31
0.0
  0
LINE
  5
206D0
330
1A
100
AcDbEntity
  8
wall
100
AcDbLine
 10
161.2966632310126
 20
52.40110804455253
 30
0.0
 11
163.5526812790049
 21
54.65712609255934
 31
0.0
  0
LINE
  5
206D1
330
1A
100
AcDbEntity
  8
wall
100
AcDbLine
 10
161.2966632310126
 20
50.40110804455252
 30
0.0
 11
163.5526812790049
 21
52.65712609255934
 31
0.0
  0
LINE
  5
206D2
330
1A
100
AcDbEntity
  8
wall
100
AcDbLine
 10
161.2966632310126
 20
56.40110804455253
 30
0.0
 11
163.5526812790049
 21
58.65712609255933
 31
0.0
  0
LINE
  5
206D3
330
1A
100
AcDbEntity
  8
wall
100
AcDbLine
 10
161.2966632310126
 20
54.40110804455253
 30
0.0
 11
163.5526812790049
 21
56.65712609255933
 31
0.0
  0
LINE
  5
206D4
330
1A
100
AcDbEntity
  8
wall
100
AcDbLine
 10
161.2966632310126
 20
58.40110804455253
 30
0.0
 11
163.5526812790049
 21
60.65712609255934
 31
0.0
  0
LINE
  5
206D5
330
1A
100
AcDbEntity
  8
wall
100
AcDbLine
 10
161.2966632310126
 20
60.40110804455252
 30
0.0
 11
163.5526812790049
 21
62.65712609255934
 31
0.0
  0
LINE
  5
206D6
330
1A
100
AcDbEntity
  8
wall
100
AcDbLine
 10
161.2966632310126
 20
64.40110804455253
 30
0.0
 11
163.5526812790049
 21
66.65712609255933
 31
0.0
  0
LINE
  5
206D7
330
1A
100
AcDbEntity
  8
wall
100
AcDbLine
 10
161.2966632310126
 20
62.40110804455253
 30
0.0
 11
163.5526812790049
 21
64.65712609255934
 31
0.0
  0
LINE
  5
206D8
330
1A
100
AcDbEntity
  8
wall
100
AcDbLine
 10
161.2966632310126
 20
68.40110804455253
 30
0.0
 11
163.5526812790049
 21
70.65712609255934
 31
0.0
  0
LINE
  5
206D9
330
1A
100
AcDbEntity
  8
wall
100
AcDbLine
 10
161.2966632310126
 20
66.40110804455253
 30
0.0
 11
163.5526812790049
 21
68.65712609255933
 31
0.0
  0
LINE
  5
206DA
330
1A
100
AcDbEntity
  8
wall
100
AcDbLine
 10
161.2966632310126
 20
72.40110804455253
 30
0.0
 11
163.5526812790049
 21
74.65712609255934
 31
0.0
  0
LINE
  5
206DB
330
1A
100
AcDbEntity
  8
wall
100
AcDbLine
 10
161.2966632310126
 20
70.40110804455252
 30
0.0
 11
163.5526812790049
 21
72.65712609255934
 31
0.0
  0
LINE
  5
206DC
330
1A
100
AcDbEntity
  8
wall
100
AcDbLine
 10
161.2966632310126
 20
76.40110804455253
 30
0.0
 11
163.5526812790049
 21
78.65712609255933
 31
0.0
  0
LINE
  5
206DD
330
1A
100
AcDbEntity
  8
wall
100
AcDbLine
 10
161.2966632310126
 20
74.40110804455253
 30
0.0
 11
163.5526812790049
 21
76.65712609255933
 31
0.0
  0
LINE
  5
206DE
330
1A
100
AcDbEntity
  8
wall
100
AcDbLine
 10
161.2966632310126
 20
78.40110804455253
 30
0.0
 11
163.5526812790049
 21
80.65712609255934
 31
0.0
  0
LINE
  5
206DF
330
1A
100
AcDbEntity
  8
wall
100
AcDbLine
 10
161.2966632310126
 20
80.40110804455252
 30
0.0
 11
163.5526812790049
 21
82.65712609255933
 31
0.0
  0
LINE
  5
206E0
330
1A
100
AcDbEntity
  8
wall
100
AcDbLine
 10
161.2966632310126
 20
84.40110804455253
 30
0.0
 11
163.5526812790049
 21
86.65712609255933
 31
0.0
  0
LINE
  5
206E1
330
1A
100
AcDbEntity
  8
wall
100
AcDbLine
 10
161.2966632310126
 20
82.40110804455254
 30
0.0
 11
163.5526812790049
 21
84.65712609255934
 31
0.0
  0
LINE
  5
206E2
330
1A
100
AcDbEntity
  8
wall
100
AcDbLine
 10
161.2966632310126
 20
88.40110804455253
 30
0.0
 11
163.5526812790049
 21
90.65712609255934
 31
0.0
  0
LINE
  5
206E3
330
1A
100
AcDbEntity
  8
wall
100
AcDbLine
 10
161.2966632310126
 20
86.40110804455252
 30
0.0
 11
163.5526812790049
 21
88.65712609255934
 31
0.0
  0
LINE
  5
206E4
330
1A
100
AcDbEntity
  8
wall
100
AcDbLine
 10
161.2966632310126
 20
92.40110804455254
 30
0.0
 11
163.5526812790049
 21
94.65712609255934
 31
0.0
  0
LINE
  5
206E5
330
1A
100
AcDbEntity
  8
wall
100
AcDbLine
 10
161.2966632310126
 20
90.40110804455252
 30
0.0
 11
163.5526812790049
 21
92.65712609255933
 31
0.0
  0
LINE
  5
206E6
330
1A
100
AcDbEntity
  8
wall
100
AcDbLine
 10
161.2966632310126
 20
94.40110804455253
 30
0.0
 11
163.2966632310053
 21
96.40110804455254
 31
0.0
  0
MTEXT
  5
206E7
330
1A
100
AcDbEntity
  8
ELEVATION
100
AcDbMText
 10
168.4741431812872
 20
87.23721662189928
 30
0.0
 40
1.5
 41
22.51445628941201
 71
     1
 72
     5
  1
ANCHORING BY ERECTOR
  7
ELEVATION
 73
     1
 44
1.0
  0
MTEXT
  5
206E8
330
1A
100
AcDbEntity
  8
ELEVATION
100
AcDbMText
 10
168.4741431812872
 20
77.64387412607902
 30
0.0
 40
1.5
 41
22.51445628941201
 71
     1
 72
     5
  1
DIAMOND PERFORATED SIDES
  7
ELEVATION
 73
     1
 44
1.0
  0
LINE
  5
206E9
330
1A
100
AcDbEntity
  8
dim
100
AcDbLine
 10
161.2341624810069
 20
21.18883054133403
 30
0.0
 11
146.1091624810142
 21
21.18883054133403
 31
0.0
  0
LINE
  5
206EA
330
1A
100
AcDbEntity
  8
dim
100
AcDbLine
 10
161.2966632310054
 20
21.18883054133039
 30
0.0
 11
167.2966632310054
 21
21.18883054133039
 31
0.0
  0
LINE
  5
206EB
330
1A
100
AcDbEntity
  8
dim
100
AcDbLine
 10
149.1091624810142
 20
21.66883054133359
 30
0.0
 11
149.1091624810142
 21
20.70883054133446
 31
0.0
  0
LINE
  5
206EC
330
1A
100
AcDbEntity
  8
dim
100
AcDbLine
 10
149.1091624810142
 20
20.94883054133425
 30
0.0
 11
146.1091624810142
 21
21.18883054133403
 31
0.0
  0
LINE
  5
206ED
330
1A
100
AcDbEntity
  8
dim
100
AcDbLine
 10
149.1091624810142
 20
21.42883054133381
 30
0.0
 11
146.1091624810142
 21
21.18883054133403
 31
0.0
  0
LINE
  5
206EE
330
1A
100
AcDbEntity
  8
dim
100
AcDbLine
 10
146.1091624810142
 20
21.18883054133403
 30
0.0
 11
149.1091624810142
 21
20.70883054133446
 31
0.0
  0
LINE
  5
206EF
330
1A
100
AcDbEntity
  8
dim
100
AcDbLine
 10
149.1091624810142
 20
21.66883054133359
 30
0.0
 11
146.1091624810142
 21
21.18883054133403
 31
0.0
  0
LINE
  5
206F0
330
1A
100
AcDbEntity
  8
dim
100
AcDbLine
 10
164.2966632310054
 20
21.66883054132995
 30
0.0
 11
164.2966632310054
 21
20.70883054133083
 31
0.0
  0
LINE
  5
206F1
330
1A
100
AcDbEntity
  8
dim
100
AcDbLine
 10
164.2966632310054
 20
20.94883054133243
 30
0.0
 11
161.2966632310054
 21
21.18883054133039
 31
0.0
  0
LINE
  5
206F2
330
1A
100
AcDbEntity
  8
dim
100
AcDbLine
 10
164.2966632310054
 20
21.42883054133199
 30
0.0
 11
161.2966632310054
 21
21.18883054133039
 31
0.0
  0
LINE
  5
206F3
330
1A
100
AcDbEntity
  8
dim
100
AcDbLine
 10
161.2966632310054
 20
21.18883054133039
 30
0.0
 11
164.2966632310054
 21
20.70883054133083
 31
0.0
  0
LINE
  5
206F4
330
1A
100
AcDbEntity
  8
dim
100
AcDbLine
 10
164.2966632310054
 20
21.66883054132995
 30
0.0
 11
161.2966632310054
 21
21.18883054133039
 31
0.0
  0
LINE
  5
206F5
330
1A
100
AcDbEntity
  8
dim
100
AcDbLine
 10
146.1091624810142
 20
19.70083054133283
 30
0.0
 11
146.1091624810142
 21
24.21283054133346
 31
0.0
  0
LINE
  5
206F6
330
1A
100
AcDbEntity
  8
dim
100
AcDbLine
 10
161.2341624810069
 20
19.70083054133283
 30
0.0
 11
161.2341624810069
 21
24.21283054133346
 31
0.0
  0
LINE
  5
206F7
330
1A
100
AcDbEntity
  8
dim
100
AcDbLine
 10
161.2966632310054
 20
19.70083054133101
 30
0.0
 11
161.2966632310054
 21
24.21283054133164
 31
0.0
  0
TEXT
  5
206F8
330
1A
100
AcDbEntity
  8
elevation text
100
AcDbText
 10
164.4388330398886
 20
22.34803054133227
 30
0.0
 40
2.04
  1
1/8"
  7
ROMANS
 72
     1
 11
168.3245473256029
 21
22.34803054133227
 31
0.0
100
AcDbText
  0
LINE
  5
206F9
330
1A
100
AcDbEntity
  8
dim
100
AcDbLine
 10
158.2341624810069
 20
21.66883054133359
 30
0.0
 11
158.2341624810069
 21
20.70883054133446
 31
0.0
  0
LINE
  5
206FA
330
1A
100
AcDbEntity
  8
dim
100
AcDbLine
 10
158.2341624810069
 20
20.94883054133425
 30
0.0
 11
161.2341624810069
 21
21.18883054133403
 31
0.0
  0
LINE
  5
206FB
330
1A
100
AcDbEntity
  8
dim
100
AcDbLine
 10
158.2341624810069
 20
21.42883054133381
 30
0.0
 11
161.2341624810069
 21
21.18883054133403
 31
0.0
  0
LINE
  5
206FC
330
1A
100
AcDbEntity
  8
dim
100
AcDbLine
 10
161.2341624810069
 20
21.18883054133403
 30
0.0
 11
158.2341624810069
 21
20.70883054133446
 31
0.0
  0
LINE
  5
206FD
330
1A
100
AcDbEntity
  8
dim
100
AcDbLine
 10
158.2341624810069
 20
21.66883054133359
 30
0.0
 11
161.2341624810069
 21
21.18883054133403
 31
0.0
  0
MTEXT
  5
206FE
330
1A
100
AcDbEntity
  8
ELEVATION
100
AcDbMText
 10
154.7828660541054
 20
17.11750309077797
 30
0.0
 40
1.5
 41
18.70534557438077
 71
     5
 72
     5
  1
SINGLE ROW\PEND ELEVATION
  7
ELEVATION
 73
     1
 44
1.0
  0
LINE
  5
206FF
330
1A
100
AcDbEntity
  8
diamonds
  6
PHANTOM2
 62
     2
 48
2.0
100
AcDbLine
 10
54.9581919786433
 20
70.79684364186505
 30
0.0
 11
54.95819197862147
 21
89.10128521929255
 31
0.0
  0
LINE
  5
20700
330
1A
100
AcDbEntity
  8
diamonds
  6
PHANTOM2
 62
     2
 48
2.0
100
AcDbLine
 10
54.1925135344427
 20
88.22875328459304
 30
0.0
 11
67.69241578249057
 21
88.22875328459122
 31
0.0
  0
LINE
  5
20701
330
1A
100
AcDbEntity
  8
diamonds
  6
PHANTOM2
 62
     2
 48
2.0
100
AcDbLine
 10
54.1925135344427
 20
70.99119305985732
 30
0.0
 11
67.69241578249057
 21
70.99119305985914
 31
0.0
  0
LINE
  5
20702
330
1A
100
AcDbEntity
  8
diamonds
  6
PHANTOM2
 62
     2
 48
2.0
100
AcDbLine
 10
66.9581400398456
 20
70.79677227221509
 30
0.0
 11
66.95814003983105
 21
89.10121384964259
 31
0.0
  0
LINE
  5
20703
330
1A
100
AcDbEntity
  8
diamonds
  6
PHANTOM2
 62
     2
 48
2.0
100
AcDbLine
 10
54.9581919786433
 20
35.48431767126749
 30
0.0
 11
54.95819197862147
 21
59.78875924869498
 31
0.0
  0
LINE
  5
20704
330
1A
100
AcDbEntity
  8
diamonds
  6
PHANTOM2
 62
     2
 48
2.0
100
AcDbLine
 10
54.1925135344427
 20
58.91622731399547
 30
0.0
 11
67.69241578249057
 21
58.91622731399365
 31
0.0
  0
LINE
  5
20705
330
1A
100
AcDbEntity
  8
diamonds
  6
PHANTOM2
 62
     2
 48
2.0
100
AcDbLine
 10
66.9581400398456
 20
35.48431767126749
 30
0.0
 11
66.95814003983105
 21
59.78868787904502
 31
0.0
  0
LINE
  5
20706
330
1A
100
AcDbEntity
  8
diamonds
  6
PHANTOM2
 62
     2
 48
2.0
100
AcDbLine
 10
54.1925135344427
 20
35.67866708925976
 30
0.0
 11
67.69241578249057
 21
35.67866708926158
 31
0.0
  0
INSERT
  5
20707
330
1A
100
AcDbEntity
  8
OBJECT
100
AcDbBlockReference
  2
A$C6895fdcc
 10
79.95810042828816
 20
88.24112168178363
 30
0.0
  0
INSERT
  5
20708
330
1A
100
AcDbEntity
  8
OBJECT
100
AcDbBlockReference
  2
A$C6895fdcc
 10
78.95810042828816
 20
88.24112168178363
 30
0.0
  0
INSERT
  5
20709
330
1A
100
AcDbEntity
  8
OBJECT
100
AcDbBlockReference
  2
A$C6895fdcc
 10
79.45810042828816
 20
87.49112168178362
 30
0.0
  0
INSERT
  5
2070A
330
1A
100
AcDbEntity
  8
OBJECT
100
AcDbBlockReference
  2
A$C6895fdcc
 10
78.95810042828816
 20
86.74112168178362
 30
0.0
  0
INSERT
  5
2070B
330
1A
100
AcDbEntity
  8
OBJECT
100
AcDbBlockReference
  2
A$C6895fdcc
 10
78.95810042828816
 20
85.24112168178362
 30
0.0
  0
INSERT
  5
2070C
330
1A
100
AcDbEntity
  8
OBJECT
100
AcDbBlockReference
  2
A$C6895fdcc
 10
78.95810042828816
 20
83.74112168178362
 30
0.0
  0
INSERT
  5
2070D
330
1A
100
AcDbEntity
  8
OBJECT
100
AcDbBlockReference
  2
A$C6895fdcc
 10
78.95810042828816
 20
82.24112168178363
 30
0.0
  0
INSERT
  5
2070E
330
1A
100
AcDbEntity
  8
OBJECT
100
AcDbBlockReference
  2
A$C6895fdcc
 10
78.95810042828816
 20
80.74112168178363
 30
0.0
  0
INSERT
  5
2070F
330
1A
100
AcDbEntity
  8
OBJECT
100
AcDbBlockReference
  2
A$C6895fdcc
 10
78.95810042828816
 20
79.24112168178362
 30
0.0
  0
INSERT
  5
20710
330
1A
100
AcDbEntity
  8
OBJECT
100
AcDbBlockReference
  2
A$C6895fdcc
 10
78.95810042828816
 20
77.74112168178362
 30
0.0
  0
INSERT
  5
20711
330
1A
100
AcDbEntity
  8
OBJECT
100
AcDbBlockReference
  2
A$C6895fdcc
 10
78.95810042828816
 20
76.24112168178363
 30
0.0
  0
INSERT
  5
20712
330
1A
100
AcDbEntity
  8
OBJECT
100
AcDbBlockReference
  2
A$C6895fdcc
 10
78.95810042828816
 20
74.74112168178362
 30
0.0
  0
INSERT
  5
20713
330
1A
100
AcDbEntity
  8
OBJECT
100
AcDbBlockReference
  2
A$C6895fdcc
 10
78.95810042828816
 20
73.24112168178363
 30
0.0
  0
INSERT
  5
20714
330
1A
100
AcDbEntity
  8
OBJECT
100
AcDbBlockReference
  2
A$C6895fdcc
 10
79.45810042828816
 20
72.49112168178363
 30
0.0
  0
INSERT
  5
20715
330
1A
100
AcDbEntity
  8
OBJECT
100
AcDbBlockReference
  2
A$C6895fdcc
 10
78.95810042828816
 20
71.74112168178362
 30
0.0
  0
INSERT
  5
20716
330
1A
100
AcDbEntity
  8
OBJECT
100
AcDbBlockReference
  2
A$C6895fdcc
 10
79.45810042828816
 20
70.99112168178362
 30
0.0
  0
INSERT
  5
20717
330
1A
100
AcDbEntity
  8
OBJECT
100
AcDbBlockReference
  2
A$C6895fdcc
 10
89.95804848709667
 20
88.24112168178363
 30
0.0
  0
INSERT
  5
20718
330
1A
100
AcDbEntity
  8
OBJECT
100
AcDbBlockReference
  2
A$C6895fdcc
 10
90.95804848709667
 20
88.24112168178363
 30
0.0
  0
INSERT
  5
20719
330
1A
100
AcDbEntity
  8
OBJECT
100
AcDbBlockReference
  2
A$C6895fdcc
 10
90.45804848709668
 20
87.49112168178362
 30
0.0
  0
INSERT
  5
2071A
330
1A
100
AcDbEntity
  8
OBJECT
100
AcDbBlockReference
  2
A$C6895fdcc
 10
90.95804848709667
 20
86.74112168178362
 30
0.0
  0
INSERT
  5
2071B
330
1A
100
AcDbEntity
  8
OBJECT
100
AcDbBlockReference
  2
A$C6895fdcc
 10
90.95804848709667
 20
85.24112168178362
 30
0.0
  0
INSERT
  5
2071C
330
1A
100
AcDbEntity
  8
OBJECT
100
AcDbBlockReference
  2
A$C6895fdcc
 10
90.95804848709667
 20
83.74112168178362
 30
0.0
  0
INSERT
  5
2071D
330
1A
100
AcDbEntity
  8
OBJECT
100
AcDbBlockReference
  2
A$C6895fdcc
 10
90.95804848709667
 20
82.24112168178363
 30
0.0
  0
INSERT
  5
2071E
330
1A
100
AcDbEntity
  8
OBJECT
100
AcDbBlockReference
  2
A$C6895fdcc
 10
90.95804848709667
 20
80.74112168178363
 30
0.0
  0
INSERT
  5
2071F
330
1A
100
AcDbEntity
  8
OBJECT
100
AcDbBlockReference
  2
A$C6895fdcc
 10
90.95804848709667
 20
79.24112168178362
 30
0.0
  0
INSERT
  5
20720
330
1A
100
AcDbEntity
  8
OBJECT
100
AcDbBlockReference
  2
A$C6895fdcc
 10
90.95804848709667
 20
77.74112168178362
 30
0.0
  0
INSERT
  5
20721
330
1A
100
AcDbEntity
  8
OBJECT
100
AcDbBlockReference
  2
A$C6895fdcc
 10
90.95804848709667
 20
76.24112168178363
 30
0.0
  0
INSERT
  5
20722
330
1A
100
AcDbEntity
  8
OBJECT
100
AcDbBlockReference
  2
A$C6895fdcc
 10
90.95804848709667
 20
74.74112168178362
 30
0.0
  0
INSERT
  5
20723
330
1A
100
AcDbEntity
  8
OBJECT
100
AcDbBlockReference
  2
A$C6895fdcc
 10
90.95804848709667
 20
73.24112168178363
 30
0.0
  0
INSERT
  5
20724
330
1A
100
AcDbEntity
  8
OBJECT
100
AcDbBlockReference
  2
A$C6895fdcc
 10
90.45804848709668
 20
72.49112168178363
 30
0.0
  0
INSERT
  5
20725
330
1A
100
AcDbEntity
  8
OBJECT
100
AcDbBlockReference
  2
A$C6895fdcc
 10
90.95804848709667
 20
71.74112168178362
 30
0.0
  0
INSERT
  5
20726
330
1A
100
AcDbEntity
  8
OBJECT
100
AcDbBlockReference
  2
A$C6895fdcc
 10
90.45804848709668
 20
70.99112168178362
 30
0.0
  0
INSERT
  5
20727
330
1A
100
AcDbEntity
  8
OBJECT
100
AcDbBlockReference
  2
A$C6895fdcc
 10
79.95810042828816
 20
58.92859571118606
 30
0.0
  0
INSERT
  5
20728
330
1A
100
AcDbEntity
  8
OBJECT
100
AcDbBlockReference
  2
A$C6895fdcc
 10
78.95810042828816
 20
58.92859571118606
 30
0.0
  0
INSERT
  5
20729
330
1A
100
AcDbEntity
  8
OBJECT
100
AcDbBlockReference
  2
A$C6895fdcc
 10
79.45810042828816
 20
58.17859571118606
 30
0.0
  0
INSERT
  5
2072A
330
1A
100
AcDbEntity
  8
OBJECT
100
AcDbBlockReference
  2
A$C6895fdcc
 10
78.95810042828816
 20
57.42859571118606
 30
0.0
  0
INSERT
  5
2072B
330
1A
100
AcDbEntity
  8
OBJECT
100
AcDbBlockReference
  2
A$C6895fdcc
 10
78.95810042828816
 20
55.92859571118606
 30
0.0
  0
INSERT
  5
2072C
330
1A
100
AcDbEntity
  8
OBJECT
100
AcDbBlockReference
  2
A$C6895fdcc
 10
78.95810042828816
 20
54.42859571118606
 30
0.0
  0
INSERT
  5
2072D
330
1A
100
AcDbEntity
  8
OBJECT
100
AcDbBlockReference
  2
A$C6895fdcc
 10
78.95810042828816
 20
52.92859571118606
 30
0.0
  0
INSERT
  5
2072E
330
1A
100
AcDbEntity
  8
OBJECT
100
AcDbBlockReference
  2
A$C6895fdcc
 10
78.95810042828816
 20
51.42859571118606
 30
0.0
  0
INSERT
  5
2072F
330
1A
100
AcDbEntity
  8
OBJECT
100
AcDbBlockReference
  2
A$C6895fdcc
 10
78.95810042828816
 20
49.92859571118606
 30
0.0
  0
INSERT
  5
20730
330
1A
100
AcDbEntity
  8
OBJECT
100
AcDbBlockReference
  2
A$C6895fdcc
 10
78.95810042828816
 20
48.42859571118606
 30
0.0
  0
INSERT
  5
20731
330
1A
100
AcDbEntity
  8
OBJECT
100
AcDbBlockReference
  2
A$C6895fdcc
 10
78.95810042828816
 20
46.92859571118606
 30
0.0
  0
INSERT
  5
20732
330
1A
100
AcDbEntity
  8
OBJECT
100
AcDbBlockReference
  2
A$C6895fdcc
 10
78.95810042828816
 20
45.42859571118606
 30
0.0
  0
INSERT
  5
20733
330
1A
100
AcDbEntity
  8
OBJECT
100
AcDbBlockReference
  2
A$C6895fdcc
 10
78.95810042828816
 20
43.92859571118606
 30
0.0
  0
INSERT
  5
20734
330
1A
100
AcDbEntity
  8
OBJECT
100
AcDbBlockReference
  2
A$C6895fdcc
 10
78.95810042828816
 20
42.42859571118606
 30
0.0
  0
INSERT
  5
20735
330
1A
100
AcDbEntity
  8
OBJECT
100
AcDbBlockReference
  2
A$C6895fdcc
 10
78.95810042828816
 20
40.92859571118606
 30
0.0
  0
INSERT
  5
20736
330
1A
100
AcDbEntity
  8
OBJECT
100
AcDbBlockReference
  2
A$C6895fdcc
 10
78.95810042828816
 20
39.42859571118606
 30
0.0
  0
INSERT
  5
20737
330
1A
100
AcDbEntity
  8
OBJECT
100
AcDbBlockReference
  2
A$C6895fdcc
 10
78.95810042828816
 20
37.92859571118607
 30
0.0
  0
INSERT
  5
20738
330
1A
100
AcDbEntity
  8
OBJECT
100
AcDbBlockReference
  2
A$C6895fdcc
 10
79.45810042828816
 20
37.17859571118606
 30
0.0
  0
INSERT
  5
20739
330
1A
100
AcDbEntity
  8
OBJECT
100
AcDbBlockReference
  2
A$C6895fdcc
 10
78.95810042828816
 20
36.42859571118606
 30
0.0
  0
INSERT
  5
2073A
330
1A
100
AcDbEntity
  8
OBJECT
100
AcDbBlockReference
  2
A$C6895fdcc
 10
79.45810042828816
 20
35.67859571118606
 30
0.0
  0
INSERT
  5
2073B
330
1A
100
AcDbEntity
  8
OBJECT
100
AcDbBlockReference
  2
A$C6895fdcc
 10
89.95804848709667
 20
58.92859571118606
 30
0.0
  0
INSERT
  5
2073C
330
1A
100
AcDbEntity
  8
OBJECT
100
AcDbBlockReference
  2
A$C6895fdcc
 10
90.95804848709667
 20
58.92859571118606
 30
0.0
  0
INSERT
  5
2073D
330
1A
100
AcDbEntity
  8
OBJECT
100
AcDbBlockReference
  2
A$C6895fdcc
 10
90.45804848709668
 20
58.17859571118606
 30
0.0
  0
INSERT
  5
2073E
330
1A
100
AcDbEntity
  8
OBJECT
100
AcDbBlockReference
  2
A$C6895fdcc
 10
90.95804848709667
 20
57.42859571118606
 30
0.0
  0
INSERT
  5
2073F
330
1A
100
AcDbEntity
  8
OBJECT
100
AcDbBlockReference
  2
A$C6895fdcc
 10
90.95804848709667
 20
55.92859571118606
 30
0.0
  0
INSERT
  5
20740
330
1A
100
AcDbEntity
  8
OBJECT
100
AcDbBlockReference
  2
A$C6895fdcc
 10
90.95804848709667
 20
54.42859571118606
 30
0.0
  0
INSERT
  5
20741
330
1A
100
AcDbEntity
  8
OBJECT
100
AcDbBlockReference
  2
A$C6895fdcc
 10
90.95804848709667
 20
52.92859571118606
 30
0.0
  0
INSERT
  5
20742
330
1A
100
AcDbEntity
  8
OBJECT
100
AcDbBlockReference
  2
A$C6895fdcc
 10
90.95804848709667
 20
51.42859571118606
 30
0.0
  0
INSERT
  5
20743
330
1A
100
AcDbEntity
  8
OBJECT
100
AcDbBlockReference
  2
A$C6895fdcc
 10
90.95804848709667
 20
49.92859571118606
 30
0.0
  0
INSERT
  5
20744
330
1A
100
AcDbEntity
  8
OBJECT
100
AcDbBlockReference
  2
A$C6895fdcc
 10
90.95804848709667
 20
48.42859571118606
 30
0.0
  0
INSERT
  5
20745
330
1A
100
AcDbEntity
  8
OBJECT
100
AcDbBlockReference
  2
A$C6895fdcc
 10
90.95804848709667
 20
46.92859571118606
 30
0.0
  0
INSERT
  5
20746
330
1A
100
AcDbEntity
  8
OBJECT
100
AcDbBlockReference
  2
A$C6895fdcc
 10
90.95804848709667
 20
45.42859571118606
 30
0.0
  0
INSERT
  5
20747
330
1A
100
AcDbEntity
  8
OBJECT
100
AcDbBlockReference
  2
A$C6895fdcc
 10
90.95804848709667
 20
43.92859571118606
 30
0.0
  0
INSERT
  5
20748
330
1A
100
AcDbEntity
  8
OBJECT
100
AcDbBlockReference
  2
A$C6895fdcc
 10
90.95804848709667
 20
42.42859571118606
 30
0.0
  0
INSERT
  5
20749
330
1A
100
AcDbEntity
  8
OBJECT
100
AcDbBlockReference
  2
A$C6895fdcc
 10
90.95804848709667
 20
40.92859571118606
 30
0.0
  0
INSERT
  5
2074A
330
1A
100
AcDbEntity
  8
OBJECT
100
AcDbBlockReference
  2
A$C6895fdcc
 10
90.95804848709667
 20
39.42859571118606
 30
0.0
  0
INSERT
  5
2074B
330
1A
100
AcDbEntity
  8
OBJECT
100
AcDbBlockReference
  2
A$C6895fdcc
 10
90.95804848709667
 20
37.92859571118607
 30
0.0
  0
INSERT
  5
2074C
330
1A
100
AcDbEntity
  8
OBJECT
100
AcDbBlockReference
  2
A$C6895fdcc
 10
90.45804848709668
 20
37.17859571118606
 30
0.0
  0
INSERT
  5
2074D
330
1A
100
AcDbEntity
  8
OBJECT
100
AcDbBlockReference
  2
A$C6895fdcc
 10
90.95804848709667
 20
36.42859571118606
 30
0.0
  0
INSERT
  5
2074E
330
1A
100
AcDbEntity
  8
OBJECT
100
AcDbBlockReference
  2
A$C6895fdcc
 10
90.45804848709668
 20
35.67859571118606
 30
0.0
  0
LINE
  5
2074F
330
1A
100
AcDbEntity
  8
diamonds
  6
PHANTOM2
 62
     2
 48
2.0
100
AcDbLine
 10
78.9581919786433
 20
70.79684364186505
 30
0.0
 11
78.95819197862147
 21
89.10128521929255
 31
0.0
  0
LINE
  5
20750
330
1A
100
AcDbEntity
  8
diamonds
  6
PHANTOM2
 62
     2
 48
2.0
100
AcDbLine
 10
78.19251353444269
 20
88.22875328459304
 30
0.0
 11
91.69241578249057
 21
88.22875328459122
 31
0.0
  0
LINE
  5
20751
330
1A
100
AcDbEntity
  8
diamonds
  6
PHANTOM2
 62
     2
 48
2.0
100
AcDbLine
 10
78.19251353444269
 20
70.99119305985732
 30
0.0
 11
91.69241578249057
 21
70.99119305985914
 31
0.0
  0
LINE
  5
20752
330
1A
100
AcDbEntity
  8
diamonds
  6
PHANTOM2
 62
     2
 48
2.0
100
AcDbLine
 10
90.9581400398456
 20
70.79677227221509
 30
0.0
 11
90.95814003983106
 21
89.10121384964259
 31
0.0
  0
LINE
  5
20753
330
1A
100
AcDbEntity
  8
diamonds
  6
PHANTOM2
 62
     2
 48
2.0
100
AcDbLine
 10
78.9581919786433
 20
35.48431767126749
 30
0.0
 11
78.95819197862147
 21
59.78875924869498
 31
0.0
  0
LINE
  5
20754
330
1A
100
AcDbEntity
  8
diamonds
  6
PHANTOM2
 62
     2
 48
2.0
100
AcDbLine
 10
78.19251353444269
 20
58.91622731399547
 30
0.0
 11
91.69241578249057
 21
58.91622731399365
 31
0.0
  0
LINE
  5
20755
330
1A
100
AcDbEntity
  8
diamonds
  6
PHANTOM2
 62
     2
 48
2.0
100
AcDbLine
 10
90.9581400398456
 20
35.48431767126749
 30
0.0
 11
90.95814003983106
 21
59.78868787904502
 31
0.0
  0
LINE
  5
20756
330
1A
100
AcDbEntity
  8
diamonds
  6
PHANTOM2
 62
     2
 48
2.0
100
AcDbLine
 10
78.19251353444269
 20
35.67866708925976
 30
0.0
 11
91.69241578249057
 21
35.67866708926158
 31
0.0
  0
MTEXT
  5
20757
330
1A
100
AcDbEntity
  8
ELEVATION
100
AcDbMText
 10
44.86704797118
 20
53.32263348138076
 30
0.0
 40
1.5
 41
26.89852264480342
 71
     3
 72
     5
  1
REINFORCING CHANNEL
  7
ELEVATION
 73
     1
 44
1.0
  0
ENDSEC
  0
SECTION
  2
OBJECTS
  0
DICTIONARY
  5
C
330
0
100
AcDbDictionary
281
     1
  3
ACAD_CIP_PREVIOUS_PRODUCT_INFO
350
1954F
  3
ACAD_COLOR
350
152C8
  3
ACAD_DETAILVIEWSTYLE
350
19549
  3
ACAD_DGNLINESTYLECOMP
350
1E8EC
  3
ACAD_GROUP
350
D
  3
ACAD_IMAGE_DICT
350
D338
  3
ACAD_LAYOUT
350
5D96
  3
ACAD_MATERIAL
350
152C7
  3
ACAD_MLEADERSTYLE
350
18BCA
  3
ACAD_MLINESTYLE
350
E
  3
ACAD_PLOTSETTINGS
350
5D97
  3
ACAD_PLOTSTYLENAME
350
5D94
  3
ACAD_SCALELIST
350
18BA8
  3
ACAD_SECTIONVIEWSTYLE
350
19546
  3
ACAD_TABLESTYLE
350
1835B
  3
ACAD_VISUALSTYLE
350
1834A
  3
AcadDim
350
16861
  3
ACDB_RECOMPOSE_DATA
350
207AB
  3
AcDbVariableDictionary
350
F6BD
  3
AEC_PROPERTY_SET_DEFS
350
19250
  3
BNS_SELSET
350
54CC
  0
DICTIONARY
  5
1857C
330
8
100
AcDbDictionary
280
     1
281
     1
  0
DICTIONARY
  5
18C2C
330
2
100
AcDbDictionary
280
     1
281
     1
  3
ACAD_LAYERSTATES
360
18C2D
  0
DICTIONARY
  5
18BD0
330
F
100
AcDbDictionary
280
     1
281
     1
  3
ADSK_XREC_LAYER_RECONCILED
360
18BD1
  0
DICTIONARY
  5
18BD2
330
36
100
AcDbDictionary
280
     1
281
     1
  3
ADSK_XREC_LAYER_RECONCILED
360
18BD3
  0
DICTIONARY
  5
18BD6
330
14178
100
AcDbDictionary
280
     1
281
     1
  3
ADSK_XREC_LAYER_RECONCILED
360
18BD7
  0
DICTIONARY
  5
1A809
330
1A808
100
AcDbDictionary
280
     1
281
     1
  0
DICTIONARY
  5
1A80B
330
1A80A
100
AcDbDictionary
280
     1
281
     1
  0
DICTIONARY
  5
1A80D
330
1A80C
100
AcDbDictionary
280
     1
281
     1
  0
DICTIONARY
  5
1A80F
330
1A80E
100
AcDbDictionary
280
     1
281
     1
  0
DICTIONARY
  5
1E73C
330
1E73B
100
AcDbDictionary
280
     1
281
     1
  0
DICTIONARY
  5
1E740
330
1E73F
100
AcDbDictionary
280
     1
281
     1
  0
DICTIONARY
  5
1E742
330
1E741
100
AcDbDictionary
280
     1
281
     1
  0
DICTIONARY
  5
1E745
330
1E744
100
AcDbDictionary
280
     1
281
     1
  0
DICTIONARY
  5
1E747
330
1E746
100
AcDbDictionary
280
     1
281
     1
  0
DICTIONARY
  5
1E749
330
1E748
100
AcDbDictionary
280
     1
281
     1
  0
DICTIONARY
  5
1EFB9
330
1EFB8
100
AcDbDictionary
280
     1
281
     1
  0
DICTIONARY
  5
202A3
330
202A2
100
AcDbDictionary
280
     1
281
     1
  0
DICTIONARY
  5
183EF
330
1A
100
AcDbDictionary
280
     1
281
     1
  3
ACAD_SORTENTS
360
183F0
  0
DICTIONARY
  5
1E708
330
1E707
100
AcDbDictionary
280
     1
281
     1
  3
ACAD_SORTENTS
360
1E709
  0
DICTIONARY
  5
1E72D
330
1E72C
100
AcDbDictionary
280
     1
281
     1
  3
ACAD_SORTENTS
360
1E72E
  0
XRECORD
  5
1954F
102
{ACAD_REACTORS
330
C
102
}
330
C
100
AcDbXrecord
280
     1
300
AMECH_PP
300
2013
300
AMECH_PP_F_S
  0
DICTIONARY
  5
152C8
102
{ACAD_REACTORS
330
C
102
}
330
C
100
AcDbDictionary
281
     1
  0
DICTIONARY
  5
19549
102
{ACAD_REACTORS
330
C
102
}
330
C
100
AcDbDictionary
281
     1
  3
Imperial24
350
1954A
  0
DICTIONARY
  5
1E8EC
102
{ACAD_REACTORS
330
C
102
}
330
C
100
AcDbDictionary
280
     1
281
     1
  3
Base$0$base5.14.12$0$DGN2
360
1E8ED
  3
Base$0$base5.14.12$0$DGN3
360
1E8EE
  3
Base$0$DGN2
360
1E8EF
  3
Base$0$DGN3
360
1E8F0
  3
Base$0$DGN7
360
1E8F1
  3
Base$0$etopo$0$DGN2
360
1E8F2
  3
Base$0$etopo$0$DGN3
360
1E8F3
  3
Base$0$X103294002ebs01$0$DGN2
360
1E8F4
  3
Base$0$X103294002ebs01$0$DGN3
360
1E8F5
  3
Base$0$X103294002ebs01$0$etopo$0$DGN2
360
1E8F6
  3
Base$0$X103294002ebs01$0$etopo$0$DGN3
360
1E8F7
  3
Base$0$X103294002pbs01$0$DGN2
360
1E8F8
  3
Base$0$X103294002pbs01$0$DGN3
360
1E8F9
  3
Base$0$X103294002pbs01$0$etopo$0$DGN2
360
1E8FA
  3
Base$0$X103294002pbs01$0$etopo$0$DGN3
360
1E8FB
  3
Base$0$X103294002pto01$0$DGN2
360
1E8FC
  3
Base$0$X103294002pto01$0$DGN3
360
1E8FD
  3
Base$0$X103294002pto01$0$etopo$0$DGN2
360
1E8FE
  3
Base$0$X103294002pto01$0$etopo$0$DGN3
360
1E8FF
  3
base5.14.12$0$DGN2
360
1E900
  3
base5.14.12$0$DGN3
360
1E901
  3
DGN2
360
1E902
  3
DGN3
360
1E903
  3
DGN7
360
1E904
  3
etopo$0$DGN2
360
1E905
  3
etopo$0$DGN3
360
1E906
  3
TB_24X36_SUB$0$base5.14.12$0$DGN2
360
1E907
  3
TB_24X36_SUB$0$base5.14.12$0$DGN3
360
1E908
  3
TB_24X36_SUB$0$DGN2
360
1E909
  3
TB_24X36_SUB$0$DGN3
360
1E90A
  3
TB_24X36_SUB$0$DGN7
360
1E90B
  3
TB_24X36_SUB$0$etopo$0$DGN2
360
1E90C
  3
TB_24X36_SUB$0$etopo$0$DGN3
360
1E90D
  3
TB_24X36_SUB$0$X103294002ebs01$0$DGN2
360
1E90E
  3
TB_24X36_SUB$0$X103294002ebs01$0$DGN3
360
1E90F
  3
TB_24X36_SUB$0$X103294002ebs01$0$etopo$0$DGN2
360
1E910
  3
TB_24X36_SUB$0$X103294002ebs01$0$etopo$0$DGN3
360
1E911
  3
TB_24X36_SUB$0$X103294002pbs01$0$DGN2
360
1E912
  3
TB_24X36_SUB$0$X103294002pbs01$0$DGN3
360
1E913
  3
TB_24X36_SUB$0$X103294002pbs01$0$etopo$0$DGN2
360
1E914
  3
TB_24X36_SUB$0$X103294002pbs01$0$etopo$0$DGN3
360
1E915
  3
TB_24X36_SUB$0$X103294002pto01$0$DGN2
360
1E916
  3
TB_24X36_SUB$0$X103294002pto01$0$DGN3
360
1E917
  3
TB_24X36_SUB$0$X103294002pto01$0$etopo$0$DGN2
360
1E918
  3
TB_24X36_SUB$0$X103294002pto01$0$etopo$0$DGN3
360
1E919
  3
Topo$0$base5.14.12$0$DGN2
360
1E91A
  3
Topo$0$base5.14.12$0$DGN3
360
1E91B
  3
Topo$0$DGN2
360
1E91C
  3
Topo$0$DGN3
360
1E91D
  3
Topo$0$DGN7
360
1E91E
  3
Topo$0$etopo$0$DGN2
360
1E91F
  3
Topo$0$etopo$0$DGN3
360
1E920
  3
Topo$0$X103294002ebs01$0$DGN2
360
1E921
  3
Topo$0$X103294002ebs01$0$DGN3
360
1E922
  3
Topo$0$X103294002ebs01$0$etopo$0$DGN2
360
1E923
  3
Topo$0$X103294002ebs01$0$etopo$0$DGN3
360
1E924
  3
Topo$0$X103294002pbs01$0$DGN2
360
1E925
  3
Topo$0$X103294002pbs01$0$DGN3
360
1E926
  3
Topo$0$X103294002pbs01$0$etopo$0$DGN2
360
1E927
  3
Topo$0$X103294002pbs01$0$etopo$0$DGN3
360
1E928
  3
Topo$0$X103294002pto01$0$DGN2
360
1E929
  3
Topo$0$X103294002pto01$0$DGN3
360
1E92A
  3
Topo$0$X103294002pto01$0$etopo$0$DGN2
360
1E92B
  3
Topo$0$X103294002pto01$0$etopo$0$DGN3
360
1E92C
  3
X103294002ebs01$0$DGN2
360
1E92D
  3
X103294002ebs01$0$DGN3
360
1E92E
  3
X103294002ebs01$0$etopo$0$DGN2
360
1E92F
  3
X103294002ebs01$0$etopo$0$DGN3
360
1E930
  3
X103294002pbs01$0$DGN2
360
1E931
  3
X103294002pbs01$0$DGN3
360
1E932
  3
X103294002pbs01$0$etopo$0$DGN2
360
1E933
  3
X103294002pbs01$0$etopo$0$DGN3
360
1E934
  3
X103294002pto01$0$DGN2
360
1E935
  3
X103294002pto01$0$DGN3
360
1E936
  3
X103294002pto01$0$etopo$0$DGN2
360
1E937
  3
X103294002pto01$0$etopo$0$DGN3
360
1E938
  0
DICTIONARY
  5
D
102
{ACAD_REACTORS
330
C
102
}
330
C
100
AcDbDictionary
281
     1
  0
DICTIONARY
  5
D338
102
{ACAD_REACTORS
330
C
102
}
330
C
100
AcDbDictionary
281
     1
  3
BENCH_WITH_BRACKET_SUPPORT
350
D339
  0
DICTIONARY
  5
5D96
102
{ACAD_REACTORS
330
C
102
}
330
C
100
AcDbDictionary
281
     1
  3
Layout1
350
5D99
  3
Model
350
5D98
  0
DICTIONARY
  5
152C7
102
{ACAD_REACTORS
330
C
102
}
330
C
100
AcDbDictionary
281
     1
  3
ByBlock
350
18348
  3
ByLayer
350
18347
  3
Global
350
18349
  0
DICTIONARY
  5
18BCA
102
{ACAD_REACTORS
330
C
102
}
330
C
100
AcDbDictionary
281
     1
  3
Standard
350
18BCB
  0
DICTIONARY
  5
E
102
{ACAD_REACTORS
330
C
102
}
330
C
100
AcDbDictionary
281
     1
  3
STANDARD
350
13
  0
DICTIONARY
  5
5D97
102
{ACAD_REACTORS
330
C
102
}
330
C
100
AcDbDictionary
281
     1
  3
LASERJET5000 (MODEL)
350
7F14
  3
OCE 22x34 (MODEL)
350
D238
  0
ACDBDICTIONARYWDFLT
  5
5D94
102
{ACAD_REACTORS
330
C
102
}
330
C
100
AcDbDictionary
281
     1
  3
Normal
350
5D95
100
AcDbDictionaryWithDefault
340
5D95
  0
DICTIONARY
  5
18BA8
102
{ACAD_REACTORS
330
C
102
}
330
C
100
AcDbDictionary
281
     1
  3
A0
350
18BA9
  3
A1
350
18BAA
  3
A2
350
18BAB
  3
A3
350
18BAC
  3
A4
350
18BAD
  3
A5
350
18BAE
  3
A6
350
18BAF
  3
A7
350
18BB0
  3
A8
350
18BB1
  3
A9
350
18BB2
  3
B0
350
18BB3
  3
B1
350
18BB4
  3
B2
350
18BB5
  3
B3
350
18BB6
  3
B4
350
18BB7
  3
B5
350
18BB8
  3
B6
350
18BB9
  3
B7
350
18BBA
  3
B8
350
18BBB
  3
B9
350
18BBC
  3
C0
350
18BBD
  3
C1
350
18BBE
  3
C2
350
18BBF
  3
C3
350
18BC0
  3
C4
350
18BC1
  3
C5
350
18BC2
  3
C6
350
18BC3
  3
C7
350
18BC4
  3
C8
350
18BC5
  3
C9
350
18BC6
  3
D0
350
18BC7
  3
D1
350
18BC8
  3
D2
350
18BC9
  0
DICTIONARY
  5
19546
102
{ACAD_REACTORS
330
C
102
}
330
C
100
AcDbDictionary
281
     1
  3
Imperial24
350
19548
  0
DICTIONARY
  5
1835B
102
{ACAD_REACTORS
330
C
102
}
330
C
100
AcDbDictionary
281
     1
  3
Standard
350
1835C
  0
DICTIONARY
  5
1834A
102
{ACAD_REACTORS
330
C
102
}
330
C
100
AcDbDictionary
281
     1
  3
2dWireframe
350
18350
  3
3D Hidden
350
18B33
  3
3dWireframe
350
18B32
  3
Basic
350
1834F
  3
Brighten
350
18356
  3
ColorChange
350
1835A
  3
Conceptual
350
18B34
  3
Dim
350
18355
  3
EdgeColorOff
350
18BA7
  3
Facepattern
350
18359
  3
Flat
350
1834B
  3
FlatWithEdges
350
1834C
  3
Gouraud
350
1834D
  3
GouraudWithEdges
350
1834E
  3
Hidden
350
19540
  3
JitterOff
350
18BA5
  3
Linepattern
350
18358
  3
OverhangOff
350
18BA6
  3
Realistic
350
18B35
  3
Shaded
350
19545
  3
Shaded with edges
350
19544
  3
Shades of Gray
350
19541
  3
Sketchy
350
19542
  3
Thicken
350
18357
  3
Wireframe
350
1953F
  3
X-Ray
350
19543
  0
XRECORD
  5
16861
102
{ACAD_REACTORS
330
C
102
}
330
C
100
AcDbXrecord
280
     1
 90
   990106
  3

 60
     0
 61
     0
 62
     1
 63
     3
 64
     0
 65
     0
 66
     0
 67
     3
 68
     1
 69
     0
 70
     0
 71
     0
 72
     0
 40
0.0
170
     0
340
0
  0
XRECORD
  5
207AB
102
{ACAD_REACTORS
330
C
102
}
330
C
100
AcDbXrecord
280
     1
 90
        1
330
1835C
  0
DICTIONARY
  5
F6BD
102
{ACAD_REACTORS
330
C
102
}
330
C
100
AcDbDictionary
281
     1
  3
CANNOSCALE
350
1953D
  3
CMLEADERSTYLE
350
1953C
  3
CTABLESTYLE
350
185A4
  3
CVIEWDETAILSTYLE
350
1959E
  3
CVIEWSECTIONSTYLE
350
1959F
  3
SORTENTS
350
F6BE
  0
DICTIONARY
  5
19250
102
{ACAD_REACTORS
330
C
102
}
330
C
100
AcDbDictionary
281
     1
  0
DICTIONARY
  5
54CC
102
{ACAD_REACTORS
330
C
102
}
330
0
100
AcDbDictionary
281
     1
  3
BNS_SS01
350
5508
  3
BNS_SS02
350
5509
  3
BNS_SS03
350
550A
  3
BNS_SS04
350
550B
  0
DICTIONARY
  5
18C2D
102
{ACAD_REACTORS
330
18C2C
102
}
330
18C2C
100
AcDbDictionary
281
     1
  0
XRECORD
  5
18BD1
102
{ACAD_REACTORS
330
18BD0
102
}
330
18BD0
100
AcDbXrecord
280
     1
290
     1
  0
XRECORD
  5
18BD3
102
{ACAD_REACTORS
330
18BD2
102
}
330
18BD2
100
AcDbXrecord
280
     1
290
     1
  0
XRECORD
  5
18BD7
102
{ACAD_REACTORS
330
18BD6
102
}
330
18BD6
100
AcDbXrecord
280
     1
290
     1
  0
SORTENTSTABLE
  5
183F0
102
{ACAD_REACTORS
330
183EF
102
}
330
183EF
100
AcDbSortentsTable
330
1A
331
16791
  5
16791
331
17A1C
  5
17F3F
  0
SORTENTSTABLE
  5
1E709
102
{ACAD_REACTORS
330
1E708
102
}
330
1E708
100
AcDbSortentsTable
330
1E707
  0
SORTENTSTABLE
  5
1E72E
102
{ACAD_REACTORS
330
1E72D
102
}
330
1E72D
100
AcDbSortentsTable
330
1E72C
  0
ACDBDETAILVIEWSTYLE
  5
1954A
102
{ACAD_REACTORS
330
19549
102
}
330
19549
100
AcDbModelDocViewStyle
 70
     0
  3
Imperial24
290
     0
100
AcDbDetailViewStyle
 70
     0
 71
     0
 90
        3
 71
     1
340
10
 62
   256
 40
0.24
340
0
 62
   256
 40
0.24
300

 40
0.36
280
     3
 71
     2
340
16
 90
       25
 62
   256
 71
     3
340
10
 62
   256
 40
0.24
 90
        1
 40
0.75
 90
        1
300
%<\AcVar ViewType \f "%tc1">% %<\AcVar ViewDetailId>%\PSCALE %<\AcVar ViewScale \f "%sn">%
 71
     4
340
16
 90
       25
 62
   256
340
16
 90
       25
 62
   256
280
     0
  0
IMAGEDEF
  5
D339
102
{ACAD_REACTORS
330
D338
102
}
330
D338
100
AcDbRasterImageDef
 90
        0
  1
C:\Lockers\Ll4802\bench with bracket support.tif
 10
1676.0
 20
893.0
 11
0.127
 21
0.127
280
     1
281
     5
  0
LAYOUT
  5
5D99
102
{ACAD_REACTORS
330
5D96
102
}
330
5D96
100
AcDbPlotSettings
  1

  2
HP LaserJet 4MV
  4

  6

 40
0.0
 41
0.0
 42
0.0
 43
0.0
 44
0.0
 45
0.0
 46
0.0
 47
0.0
 48
0.0
 49
0.0
140
0.0
141
0.0
142
1.0
143
1.0
 70
   688
 72
     0
 73
     0
 74
     5
  7

 75
    16
147
1.0
 76
     0
 77
     2
 78
   300
148
0.0
149
0.0
100
AcDbLayout
  1
Layout1
 70
     1
 71
     1
 10
0.0
 20
0.0
 11
12.0
 21
9.0
 12
0.0
 22
0.0
 32
0.0
 14
1.000000000000000E+20
 24
1.000000000000000E+20
 34
1.000000000000000E+20
 15
-1.000000000000000E+20
 25
-1.000000000000000E+20
 35
-1.000000000000000E+20
146
0.0
 13
0.0
 23
0.0
 33
0.0
 16
1.0
 26
0.0
 36
0.0
 17
0.0
 27
1.0
 37
0.0
 76
     0
330
17
  0
LAYOUT
  5
5D98
102
{ACAD_XDICTIONARY
360
19508
102
}
102
{ACAD_REACTORS
330
5D96
102
}
330
5D96
100
AcDbPlotSettings
  1

  2
\\REPUBLIC01\LJ5000 CAD
  4
Letter
  6

 40
7.143749713897705
 41
6.720394611358642
 42
7.14373779296875
 43
3.757080078125
 44
215.8999938964844
 45
279.3999938964844
 46
34.1028580007554
 47
42.37165097832487
 48
0.0
 49
0.0
140
0.0
141
0.0
142
1.0
143
1.0
 70
 11956
 72
     0
 73
     1
 74
     1
  7
monochrome.ctb
 75
    16
147
1.0
 76
     1
 77
     2
 78
   300
148
-343.5033005404355
149
-709.2483680669708
100
AcDbLayout
  1
Model
 70
     1
 71
     0
 10
0.0
 20
0.0
 11
12.0
 21
9.0
 12
0.0
 22
0.0
 32
0.0
 14
0.0
 24
0.0
 34
0.0
 15
0.0
 25
0.0
 35
0.0
146
0.0
 13
0.0
 23
0.0
 33
0.0
 16
1.0
 26
0.0
 36
0.0
 17
0.0
 27
1.0
 37
0.0
 76
     0
330
1A
331
18345
1001
ACAD_PSEXT
1000
\\REPUBLIC01\LJ5000 CAD
1000
HP LaserJet 5000 Series PCL6
1000
Cad room
1000

1070
     0
  0
MATERIAL
  5
18348
102
{ACAD_XDICTIONARY
360
207AE
102
}
102
{ACAD_REACTORS
330
152C7
102
}
330
152C7
100
AcDbMaterial
  1
ByBlock
 73
     1
 78
     1
172
     1
176
     1
270
     1
274
     1
  0
MATERIAL
  5
18347
102
{ACAD_XDICTIONARY
360
207AC
102
}
102
{ACAD_REACTORS
330
152C7
102
}
330
152C7
100
AcDbMaterial
  1
ByLayer
 73
     1
 78
     1
172
     1
176
     1
270
     1
274
     1
  0
MATERIAL
  5
18349
102
{ACAD_XDICTIONARY
360
207B0
102
}
102
{ACAD_REACTORS
330
152C7
102
}
330
152C7
100
AcDbMaterial
  1
Global
 73
     1
 78
     1
172
     1
176
     1
270
     1
274
     1
  0
MLEADERSTYLE
  5
18BCB
102
{ACAD_REACTORS
330
18BCA
102
}
330
18BCA
100
AcDbMLeaderStyle
170
     2
171
     1
172
     0
 90
        2
 40
0.0
 41
0.0
173
     1
 91
-1056964608
340
14
 92
       -2
290
     1
 42
0.09
291
     1
 43
0.36
  3
Standard
 44
0.18
300

342
10
174
     1
178
     6
175
     1
176
     0
 93
-1056964608
 45
0.18
292
     0
297
     0
 46
0.18
 94
-1056964608
 47
1.0
 49
1.0
140
1.0
293
     1
141
0.0
294
     1
177
     0
142
1.0
295
     0
296
     0
143
0.125
1001
ACAD_MLEADERVER
1070
     2
  0
MLINESTYLE
  5
13
102
{ACAD_REACTORS
330
E
102
}
330
E
100
AcDbMlineStyle
  2
STANDARD
 70
     0
  3

 62
     0
 51
90.0
 52
90.0
 71
     2
 49
0.5
 62
   256
  6
BYLAYER
 49
-0.5
 62
   256
  6
BYLAYER
  0
PLOTSETTINGS
  5
7F14
102
{ACAD_REACTORS
330
5D97
102
}
330
5D97
100
AcDbPlotSettings
  1
LASERJET5000 (MODEL)
  2
LaserJet 5000 (CAD Room)
  4
11x17
  6

 40
5.027083396911621
 41
5.027085304260253
 42
5.027099609375
 43
5.027069091796875
 44
279.3999938964844
 45
431.7999877929687
 46
-0.762
 47
12.7
 48
0.0
 49
0.0
140
0.0
141
0.0
142
1.0
143
2.0
 70
  1712
 72
     0
 73
     1
 74
     1
  7
HP LaserJet.ctb
 75
    17
147
0.5
 76
     0
 77
     2
 78
   300
148
-9.836719936971038
149
0.0347099098089075
  0
PLOTSETTINGS
  5
D238
102
{ACAD_REACTORS
330
5D97
102
}
330
5D97
100
AcDbPlotSettings
  1
OCE 22x34 (MODEL)
  2
oce34x22.pc3
  4
ANSI_expand_D_(22.00_x_34.00_Inches)
  6

 40
0.7937499880790711
 41
0.7937499880790711
 42
0.79376220703125
 43
0.79376220703125
 44
558.7999877929687
 45
863.5999755859375
 46
0.0
 47
17.78
 48
0.0
 49
0.0
140
0.0
141
0.0
142
1.0
143
1.0
 70
  1712
 72
     0
 73
     1
 74
     1
  7
OCE 22x34.ctb
 75
    16
147
1.0
 76
     0
 77
     2
 78
   300
148
0.0624224285698944
149
0.0260279300389826
  0
ACDBPLACEHOLDER
  5
5D95
102
{ACAD_REACTORS
330
5D94
102
}
330
5D94
  0
SCALE
  5
18BA9
102
{ACAD_REACTORS
330
18BA8
102
}
330
18BA8
100
AcDbScale
 70
     0
300
1:1
140
1.0
141
1.0
290
     1
  0
SCALE
  5
18BAA
102
{ACAD_REACTORS
330
18BA8
102
}
330
18BA8
100
AcDbScale
 70
     0
300
1:2
140
1.0
141
2.0
290
     0
  0
SCALE
  5
18BAB
102
{ACAD_REACTORS
330
18BA8
102
}
330
18BA8
100
AcDbScale
 70
     0
300
1:4
140
1.0
141
4.0
290
     0
  0
SCALE
  5
18BAC
102
{ACAD_REACTORS
330
18BA8
102
}
330
18BA8
100
AcDbScale
 70
     0
300
1:5
140
1.0
141
5.0
290
     0
  0
SCALE
  5
18BAD
102
{ACAD_REACTORS
330
18BA8
102
}
330
18BA8
100
AcDbScale
 70
     0
300
1:8
140
1.0
141
8.0
290
     0
  0
SCALE
  5
18BAE
102
{ACAD_REACTORS
330
18BA8
102
}
330
18BA8
100
AcDbScale
 70
     0
300
1:10
140
1.0
141
10.0
290
     0
  0
SCALE
  5
18BAF
102
{ACAD_REACTORS
330
18BA8
102
}
330
18BA8
100
AcDbScale
 70
     0
300
1:16
140
1.0
141
16.0
290
     0
  0
SCALE
  5
18BB0
102
{ACAD_REACTORS
330
18BA8
102
}
330
18BA8
100
AcDbScale
 70
     0
300
1:20
140
1.0
141
20.0
290
     0
  0
SCALE
  5
18BB1
102
{ACAD_REACTORS
330
18BA8
102
}
330
18BA8
100
AcDbScale
 70
     0
300
1:30
140
1.0
141
30.0
290
     0
  0
SCALE
  5
18BB2
102
{ACAD_REACTORS
330
18BA8
102
}
330
18BA8
100
AcDbScale
 70
     0
300
1:40
140
1.0
141
40.0
290
     0
  0
SCALE
  5
18BB3
102
{ACAD_REACTORS
330
18BA8
102
}
330
18BA8
100
AcDbScale
 70
     0
300
1:50
140
1.0
141
50.0
290
     0
  0
SCALE
  5
18BB4
102
{ACAD_REACTORS
330
18BA8
102
}
330
18BA8
100
AcDbScale
 70
     0
300
1:100
140
1.0
141
100.0
290
     0
  0
SCALE
  5
18BB5
102
{ACAD_REACTORS
330
18BA8
102
}
330
18BA8
100
AcDbScale
 70
     0
300
2:1
140
2.0
141
1.0
290
     0
  0
SCALE
  5
18BB6
102
{ACAD_REACTORS
330
18BA8
102
}
330
18BA8
100
AcDbScale
 70
     0
300
4:1
140
4.0
141
1.0
290
     0
  0
SCALE
  5
18BB7
102
{ACAD_REACTORS
330
18BA8
102
}
330
18BA8
100
AcDbScale
 70
     0
300
8:1
140
8.0
141
1.0
290
     0
  0
SCALE
  5
18BB8
102
{ACAD_REACTORS
330
18BA8
102
}
330
18BA8
100
AcDbScale
 70
     0
300
10:1
140
10.0
141
1.0
290
     0
  0
SCALE
  5
18BB9
102
{ACAD_REACTORS
330
18BA8
102
}
330
18BA8
100
AcDbScale
 70
     0
300
100:1
140
100.0
141
1.0
290
     0
  0
SCALE
  5
18BBA
102
{ACAD_REACTORS
330
18BA8
102
}
330
18BA8
100
AcDbScale
 70
     0
300
1/128" = 1'-0"
140
0.0078125
141
12.0
290
     0
  0
SCALE
  5
18BBB
102
{ACAD_REACTORS
330
18BA8
102
}
330
18BA8
100
AcDbScale
 70
     0
300
1/64" = 1'-0"
140
0.015625
141
12.0
290
     0
  0
SCALE
  5
18BBC
102
{ACAD_REACTORS
330
18BA8
102
}
330
18BA8
100
AcDbScale
 70
     0
300
1/32" = 1'-0"
140
0.03125
141
12.0
290
     0
  0
SCALE
  5
18BBD
102
{ACAD_REACTORS
330
18BA8
102
}
330
18BA8
100
AcDbScale
 70
     0
300
1/16" = 1'-0"
140
0.0625
141
12.0
290
     0
  0
SCALE
  5
18BBE
102
{ACAD_REACTORS
330
18BA8
102
}
330
18BA8
100
AcDbScale
 70
     0
300
3/32" = 1'-0"
140
0.09375
141
12.0
290
     0
  0
SCALE
  5
18BBF
102
{ACAD_REACTORS
330
18BA8
102
}
330
18BA8
100
AcDbScale
 70
     0
300
1/8" = 1'-0"
140
0.125
141
12.0
290
     0
  0
SCALE
  5
18BC0
102
{ACAD_REACTORS
330
18BA8
102
}
330
18BA8
100
AcDbScale
 70
     0
300
3/16" = 1'-0"
140
0.1875
141
12.0
290
     0
  0
SCALE
  5
18BC1
102
{ACAD_REACTORS
330
18BA8
102
}
330
18BA8
100
AcDbScale
 70
     0
300
1/4" = 1'-0"
140
0.25
141
12.0
290
     0
  0
SCALE
  5
18BC2
102
{ACAD_REACTORS
330
18BA8
102
}
330
18BA8
100
AcDbScale
 70
     0
300
3/8" = 1'-0"
140
0.375
141
12.0
290
     0
  0
SCALE
  5
18BC3
102
{ACAD_REACTORS
330
18BA8
102
}
330
18BA8
100
AcDbScale
 70
     0
300
1/2" = 1'-0"
140
0.5
141
12.0
290
     0
  0
SCALE
  5
18BC4
102
{ACAD_REACTORS
330
18BA8
102
}
330
18BA8
100
AcDbScale
 70
     0
300
3/4" = 1'-0"
140
0.75
141
12.0
290
     0
  0
SCALE
  5
18BC5
102
{ACAD_REACTORS
330
18BA8
102
}
330
18BA8
100
AcDbScale
 70
     0
300
1" = 1'-0"
140
1.0
141
12.0
290
     0
  0
SCALE
  5
18BC6
102
{ACAD_REACTORS
330
18BA8
102
}
330
18BA8
100
AcDbScale
 70
     0
300
1-1/2" = 1'-0"
140
1.5
141
12.0
290
     0
  0
SCALE
  5
18BC7
102
{ACAD_REACTORS
330
18BA8
102
}
330
18BA8
100
AcDbScale
 70
     0
300
3" = 1'-0"
140
3.0
141
12.0
290
     0
  0
SCALE
  5
18BC8
102
{ACAD_REACTORS
330
18BA8
102
}
330
18BA8
100
AcDbScale
 70
     0
300
6" = 1'-0"
140
6.0
141
12.0
290
     0
  0
SCALE
  5
18BC9
102
{ACAD_REACTORS
330
18BA8
102
}
330
18BA8
100
AcDbScale
 70
     0
300
1'-0" = 1'-0"
140
12.0
141
12.0
290
     0
  0
ACDBSECTIONVIEWSTYLE
  5
19548
102
{ACAD_REACTORS
330
19546
102
}
330
19546
100
AcDbModelDocViewStyle
 70
     0
  3
Imperial24
290
     0
100
AcDbSectionViewStyle
 70
     0
 71
     0
 90
       78
 71
     1
340
10
 62
   256
 40
0.24
340
0
340
0
 62
   256
 40
0.24
300
I, O, Q, S, X, Z
 40
0.48
 90
        3
 40
0.18
 90
        1
 71
     2
340
19547
 90
       25
 62
   256
340
16
 90
       50
 62
   256
 40
0.24
 40
0.0
 40
0.24
 71
     3
340
10
 62
   256
 40
0.24
 90
        1
 40
0.75
 90
        1
300
%<\AcVar ViewType \f "%tc1">% %<\AcVar ViewSectionStartId>%-%<\AcVar ViewSectionEndId>%\PSCALE %<\AcVar ViewScale \f "%sn">%
 71
     4
 62
   256
 62
   257
300
ANSI31
 40
1.0
 90
        0
290
     0
290
     0
 90
        6
 40
0.0
 40
1.570796326794896
 40
0.2617993877991494
 40
1.308996938995747
 40
-0.2617993877991494
 40
1.832595714594046
  0
TABLESTYLE
  5
1835C
102
{ACAD_XDICTIONARY
360
1950A
102
}
102
{ACAD_REACTORS
330
1835B
102
}
330
1835B
100
AcDbTableStyle
  3
Standard
 70
     0
 71
     0
 40
0.06
 41
0.06
280
     0
281
     0
  7
STANDARD
140
0.18
170
     2
 62
     0
 63
     7
283
     0
274
    -2
284
     1
 64
     0
275
    -2
285
     1
 65
     0
276
    -2
286
     1
 66
     0
277
    -2
287
     1
 67
     0
278
    -2
288
     1
 68
     0
279
    -2
289
     1
 69
     0
  7
STANDARD
140
0.25
170
     5
 62
     0
 63
     7
283
     0
274
    -2
284
     1
 64
     0
275
    -2
285
     1
 65
     0
276
    -2
286
     1
 66
     0
277
    -2
287
     1
 67
     0
278
    -2
288
     1
 68
     0
279
    -2
289
     1
 69
     0
  7
STANDARD
140
0.18
170
     5
 62
     0
 63
     7
283
     0
274
    -2
284
     1
 64
     0
275
    -2
285
     1
 65
     0
276
    -2
286
     1
 66
     0
277
    -2
287
     1
 67
     0
278
    -2
288
     1
 68
     0
279
    -2
289
     1
 69
     0
  0
VISUALSTYLE
  5
18350
102
{ACAD_XDICTIONARY
360
207BC
102
}
102
{ACAD_REACTORS
330
1834A
102
}
330
1834A
100
AcDbVisualStyle
  2
2dWireframe
 70
     4
 71
     0
 72
     2
 73
     0
 90
        0
 40
-0.6
 41
-30.0
 62
     5
 63
     7
421
 16777215
 74
     1
 91
        4
 64
     7
 65
   257
 75
     1
175
     1
 42
1.0
 92
        0
 66
   257
 43
1.0
 76
     1
 77
     6
 78
     2
 67
     7
 79
     5
170
     0
171
     0
290
     0
174
     0
 93
        1
 44
0.0
173
     0
291
     0
 45
0.0
1001
ACAD
1000
AcDbSavedByObjectVersion
1070
     0
  0
VISUALSTYLE
  5
18B33
102
{ACAD_XDICTIONARY
360
207CD
102
}
102
{ACAD_REACTORS
330
1834A
102
}
330
1834A
100
AcDbVisualStyle
  2
3D Hidden
 70
     6
 71
     1
 72
     2
 73
     2
 90
        0
 40
-0.6
 41
-30.0
 62
     5
 63
     7
421
 16777215
 74
     2
 91
        2
 64
     7
 65
   257
 75
     2
175
     1
 42
40.0
 92
        0
 66
   257
 43
1.0
 76
     1
 77
     6
 78
     2
 67
     7
 79
     3
170
     0
171
     0
290
     0
174
     0
 93
        1
 44
0.0
173
     0
291
     0
 45
0.0
1001
ACAD
1000
AcDbSavedByObjectVersion
1070
     0
  0
VISUALSTYLE
  5
18B32
102
{ACAD_XDICTIONARY
360
207CB
102
}
102
{ACAD_REACTORS
330
1834A
102
}
330
1834A
100
AcDbVisualStyle
  2
3dWireframe
 70
     5
 71
     0
 72
     2
 73
     0
 90
        0
 40
-0.6
 41
-30.0
 62
     5
 63
     7
421
 16777215
 74
     1
 91
        4
 64
     7
 65
   257
 75
     1
175
     1
 42
1.0
 92
        0
 66
   257
 43
1.0
 76
     1
 77
     6
 78
     2
 67
     7
 79
     5
170
     0
171
     0
290
     0
174
     0
 93
        1
 44
0.0
173
     0
291
     0
 45
0.0
1001
ACAD
1000
AcDbSavedByObjectVersion
1070
     0
  0
VISUALSTYLE
  5
1834F
102
{ACAD_XDICTIONARY
360
207BA
102
}
102
{ACAD_REACTORS
330
1834A
102
}
330
1834A
100
AcDbVisualStyle
  2
Basic
 70
     7
 71
     1
 72
     0
 73
     1
 90
        0
 40
-0.6
 41
-30.0
 62
     5
 63
     7
421
 16777215
 74
     0
 91
        4
 64
     7
 65
   257
 75
     1
175
     1
 42
1.0
 92
        8
 66
     7
 43
1.0
 76
     1
 77
     6
 78
     2
 67
     7
 79
     5
170
     0
171
     0
290
     0
174
     0
 93
        1
 44
0.0
173
     0
291
     1
 45
0.0
1001
ACAD
1000
AcDbSavedByObjectVersion
1070
     0
  0
VISUALSTYLE
  5
18356
102
{ACAD_XDICTIONARY
360
207C0
102
}
102
{ACAD_REACTORS
330
1834A
102
}
330
1834A
100
AcDbVisualStyle
  2
Brighten
 70
    12
 71
     2
 72
     2
 73
     0
 90
        0
 40
-0.6
 41
-30.0
 62
     5
 63
     7
421
 16777215
 74
     1
 91
        4
 64
     7
 65
   257
 75
     1
175
     1
 42
1.0
 92
        8
 66
     7
 43
1.0
 76
     1
 77
     6
 78
     2
 67
     7
 79
     5
170
     0
171
     0
290
     0
174
     0
 93
        1
 44
50.0
173
     0
291
     1
 45
0.0
1001
ACAD
1000
AcDbSavedByObjectVersion
1070
     0
  0
VISUALSTYLE
  5
1835A
102
{ACAD_XDICTIONARY
360
207C8
102
}
102
{ACAD_REACTORS
330
1834A
102
}
330
1834A
100
AcDbVisualStyle
  2
ColorChange
 70
    16
 71
     2
 72
     2
 73
     3
 90
        0
 40
-0.6
 41
-30.0
 62
     5
 63
     8
421
  8421504
 74
     1
 91
        4
 64
     7
 65
   257
 75
     1
175
     1
 42
1.0
 92
        8
 66
     8
424
  8421504
 43
1.0
 76
     1
 77
     6
 78
     2
 67
     7
 79
     5
170
     0
171
     0
290
     0
174
     0
 93
        1
 44
0.0
173
     0
291
     1
 45
0.0
1001
ACAD
1000
AcDbSavedByObjectVersion
1070
     0
  0
VISUALSTYLE
  5
18B34
102
{ACAD_XDICTIONARY
360
207CF
102
}
102
{ACAD_REACTORS
330
1834A
102
}
330
1834A
100
AcDbVisualStyle
  2
Conceptual
 70
     9
 71
     3
 72
     2
 73
     0
 90
        0
 40
-0.6
 41
-30.0
 62
     5
 63
     7
421
 16777215
 74
     2
 91
        2
 64
     7
 65
   257
 75
     1
175
     1
 42
40.0
 92
        8
 66
     7
 43
1.0
 76
     1
 77
     6
 78
     2
 67
     7
 79
     3
170
     0
171
     0
290
     0
174
     0
 93
        1
 44
0.0
173
     0
291
     0
 45
0.0
1001
ACAD
1000
AcDbSavedByObjectVersion
1070
     0
  0
VISUALSTYLE
  5
18355
102
{ACAD_XDICTIONARY
360
207BE
102
}
102
{ACAD_REACTORS
330
1834A
102
}
330
1834A
100
AcDbVisualStyle
  2
Dim
 70
    11
 71
     2
 72
     2
 73
     0
 90
        0
 40
-0.6
 41
-30.0
 62
     5
 63
     7
421
 16777215
 74
     1
 91
        4
 64
     7
 65
   257
 75
     1
175
     1
 42
1.0
 92
        8
 66
     7
 43
1.0
 76
     1
 77
     6
 78
     2
 67
     7
 79
     5
170
     0
171
     0
290
     0
174
     0
 93
        1
 44
-50.0
173
     0
291
     1
 45
0.0
1001
ACAD
1000
AcDbSavedByObjectVersion
1070
     0
  0
VISUALSTYLE
  5
18BA7
102
{ACAD_XDICTIONARY
360
207D7
102
}
102
{ACAD_REACTORS
330
1834A
102
}
330
1834A
100
AcDbVisualStyle
  2
EdgeColorOff
 70
    22
 71
     2
 72
     2
 73
     0
 90
        0
 40
-0.6
 41
-30.0
 62
     5
 63
     7
421
 16777215
 74
     1
 91
        4
 64
     7
 65
   257
 75
     1
175
     1
 42
1.0
 92
        8
 66
     7
 43
1.0
 76
     1
 77
     6
 78
     2
 67
     7
 79
     5
170
     0
171
     0
290
     0
174
     0
 93
        1
 44
0.0
173
     0
291
     1
 45
0.0
1001
ACAD
1000
AcDbSavedByObjectVersion
1070
     0
  0
VISUALSTYLE
  5
18359
102
{ACAD_XDICTIONARY
360
207C6
102
}
102
{ACAD_REACTORS
330
1834A
102
}
330
1834A
100
AcDbVisualStyle
  2
Facepattern
 70
    15
 71
     2
 72
     2
 73
     0
 90
        0
 40
-0.6
 41
-30.0
 62
     5
 63
     7
421
 16777215
 74
     1
 91
        4
 64
     7
 65
   257
 75
     1
175
     1
 42
1.0
 92
        8
 66
     7
 43
1.0
 76
     1
 77
     6
 78
     2
 67
     7
 79
     5
170
     0
171
     0
290
     0
174
     0
 93
        1
 44
0.0
173
     0
291
     1
 45
0.0
1001
ACAD
1000
AcDbSavedByObjectVersion
1070
     0
  0
VISUALSTYLE
  5
1834B
102
{ACAD_XDICTIONARY
360
207B2
102
}
102
{ACAD_REACTORS
330
1834A
102
}
330
1834A
100
AcDbVisualStyle
  2
Flat
 70
     0
 71
     2
 72
     1
 73
     1
 90
        2
 40
-0.6
 41
30.0
 62
     5
 63
     7
421
 16777215
 74
     0
 91
        4
 64
     7
 65
   257
 75
     1
175
     1
 42
1.0
 92
        8
 66
     7
 43
1.0
 76
     1
 77
     6
 78
     2
 67
     7
 79
     5
170
     0
171
     0
290
     0
174
     0
 93
       13
 44
0.0
173
     0
291
     1
 45
0.0
1001
ACAD
1000
AcDbSavedByObjectVersion
1070
     0
  0
VISUALSTYLE
  5
1834C
102
{ACAD_XDICTIONARY
360
207B4
102
}
102
{ACAD_REACTORS
330
1834A
102
}
330
1834A
100
AcDbVisualStyle
  2
FlatWithEdges
 70
     1
 71
     2
 72
     1
 73
     1
 90
        2
 40
-0.6
 41
30.0
 62
     5
 63
     7
421
 16777215
 74
     1
 91
        4
 64
     7
 65
   257
 75
     1
175
     1
 42
1.0
 92
        0
 66
   257
 43
1.0
 76
     1
 77
     6
 78
     2
 67
     7
 79
     5
170
     0
171
     0
290
     0
174
     0
 93
       13
 44
0.0
173
     0
291
     1
 45
0.0
1001
ACAD
1000
AcDbSavedByObjectVersion
1070
     0
  0
VISUALSTYLE
  5
1834D
102
{ACAD_XDICTIONARY
360
207B6
102
}
102
{ACAD_REACTORS
330
1834A
102
}
330
1834A
100
AcDbVisualStyle
  2
Gouraud
 70
     2
 71
     2
 72
     2
 73
     1
 90
        2
 40
-0.6
 41
30.0
 62
     5
 63
     7
421
 16777215
 74
     0
 91
        4
 64
     7
 65
   257
 75
     1
175
     1
 42
1.0
 92
        0
 66
     7
 43
1.0
 76
     1
 77
     6
 78
     2
 67
     7
 79
     5
170
     0
171
     0
290
     0
174
     0
 93
       13
 44
0.0
173
     0
291
     1
 45
0.0
1001
ACAD
1000
AcDbSavedByObjectVersion
1070
     0
  0
VISUALSTYLE
  5
1834E
102
{ACAD_XDICTIONARY
360
207B8
102
}
102
{ACAD_REACTORS
330
1834A
102
}
330
1834A
100
AcDbVisualStyle
  2
GouraudWithEdges
 70
     3
 71
     2
 72
     2
 73
     1
 90
        2
 40
-0.6
 41
30.0
 62
     5
 63
     7
421
 16777215
 74
     1
 91
        4
 64
     7
 65
   257
 75
     1
175
     1
 42
1.0
 92
        0
 66
   257
 43
1.0
 76
     1
 77
     6
 78
     2
 67
     7
 79
     5
170
     0
171
     0
290
     0
174
     0
 93
       13
 44
0.0
173
     0
291
     1
 45
0.0
1001
ACAD
1000
AcDbSavedByObjectVersion
1070
     0
  0
VISUALSTYLE
  5
19540
102
{ACAD_XDICTIONARY
360
207DB
102
}
102
{ACAD_REACTORS
330
1834A
102
}
330
1834A
100
AcDbVisualStyle
  2
Hidden
 70
     6
 71
     1
 72
     2
 73
     2
 90
        0
 40
-0.6
 41
-30.0
 62
     5
 63
     7
421
 16777215
 74
     2
 91
        2
 64
     7
 65
   257
 75
     2
175
     1
 42
40.0
 92
        0
 66
   257
 43
1.0
 76
     1
 77
     6
 78
     2
 67
     7
 79
     3
170
     0
171
     0
290
     0
174
     0
 93
        1
 44
0.0
173
     0
291
     0
 45
0.0
1001
ACAD
1000
AcDbSavedByObjectVersion
1070
     0
  0
VISUALSTYLE
  5
18BA5
102
{ACAD_XDICTIONARY
360
207D3
102
}
102
{ACAD_REACTORS
330
1834A
102
}
330
1834A
100
AcDbVisualStyle
  2
JitterOff
 70
    20
 71
     2
 72
     2
 73
     0
 90
        0
 40
-0.6
 41
-30.0
 62
     5
 63
     7
421
 16777215
 74
     1
 91
        4
 64
     7
 65
   257
 75
     1
175
     1
 42
1.0
 92
       10
 66
     7
 43
1.0
 76
     1
 77
     6
 78
     2
 67
     7
 79
     5
170
     0
171
     0
290
     0
174
     0
 93
        1
 44
0.0
173
     0
291
     1
 45
0.0
1001
ACAD
1000
AcDbSavedByObjectVersion
1070
     0
  0
VISUALSTYLE
  5
18358
102
{ACAD_XDICTIONARY
360
207C4
102
}
102
{ACAD_REACTORS
330
1834A
102
}
330
1834A
100
AcDbVisualStyle
  2
Linepattern
 70
    14
 71
     2
 72
     2
 73
     0
 90
        0
 40
-0.6
 41
-30.0
 62
     5
 63
     7
421
 16777215
 74
     1
 91
        4
 64
     7
 65
   257
 75
     7
175
     7
 42
1.0
 92
        8
 66
     7
 43
1.0
 76
     1
 77
     6
 78
     2
 67
     7
 79
     5
170
     0
171
     0
290
     0
174
     0
 93
        1
 44
0.0
173
     0
291
     1
 45
0.0
1001
ACAD
1000
AcDbSavedByObjectVersion
1070
     0
  0
VISUALSTYLE
  5
18BA6
102
{ACAD_XDICTIONARY
360
207D5
102
}
102
{ACAD_REACTORS
330
1834A
102
}
330
1834A
100
AcDbVisualStyle
  2
OverhangOff
 70
    21
 71
     2
 72
     2
 73
     0
 90
        0
 40
-0.6
 41
-30.0
 62
     5
 63
     7
421
 16777215
 74
     1
 91
        4
 64
     7
 65
   257
 75
     1
175
     1
 42
1.0
 92
        9
 66
     7
 43
1.0
 76
     1
 77
     6
 78
     2
 67
     7
 79
     5
170
     0
171
     0
290
     0
174
     0
 93
        1
 44
0.0
173
     0
291
     1
 45
0.0
1001
ACAD
1000
AcDbSavedByObjectVersion
1070
     0
  0
VISUALSTYLE
  5
18B35
102
{ACAD_XDICTIONARY
360
207D1
102
}
102
{ACAD_REACTORS
330
1834A
102
}
330
1834A
100
AcDbVisualStyle
  2
Realistic
 70
     8
 71
     2
 72
     2
 73
     0
 90
        0
 40
-0.6
 41
-30.0
 62
     5
 63
     7
421
 16777215
 74
     1
 91
        0
 64
     7
 65
   257
 75
     1
175
     1
 42
1.0
 92
        8
 66
     8
424
  7895160
 43
1.0
 76
     1
 77
     6
 78
     2
 67
     7
 79
     5
170
     0
171
     0
290
     0
174
     0
 93
       13
 44
0.0
173
     0
291
     0
 45
0.0
1001
ACAD
1000
AcDbSavedByObjectVersion
1070
     0
  0
VISUALSTYLE
  5
19545
102
{ACAD_XDICTIONARY
360
207E5
102
}
102
{ACAD_REACTORS
330
1834A
102
}
330
1834A
100
AcDbVisualStyle
  2
Shaded
 70
    27
 71
     2
 72
     2
 73
     1
 90
        2
 40
-0.6
 41
30.0
 62
     5
 63
     7
421
 16777215
 74
     0
 91
        4
 64
     7
 65
   257
 75
     1
175
     1
 42
1.0
 92
        8
 66
   257
 43
1.0
 76
     1
 77
     6
 78
     2
 67
     8
425
  7895160
 79
     3
170
     0
171
     0
290
     0
174
     0
 93
        5
 44
0.0
173
     0
291
     0
 45
0.0
1001
ACAD
1000
AcDbSavedByObjectVersion
1070
     0
  0
VISUALSTYLE
  5
19544
102
{ACAD_XDICTIONARY
360
207E3
102
}
102
{ACAD_REACTORS
330
1834A
102
}
330
1834A
100
AcDbVisualStyle
  2
Shaded with edges
 70
    26
 71
     2
 72
     2
 73
     1
 90
        2
 40
-0.6
 41
30.0
 62
     5
 63
     7
421
 16777215
 74
     1
 91
       10
 64
     7
 65
   257
 75
     2
175
     1
 42
1.0
 92
        8
 66
   257
 43
1.0
 76
     1
 77
     6
 78
     2
 67
     7
 79
     3
170
     0
171
     0
290
     0
174
     0
 93
        5
 44
0.0
173
     0
291
     0
 45
0.0
1001
ACAD
1000
AcDbSavedByObjectVersion
1070
     0
  0
VISUALSTYLE
  5
19541
102
{ACAD_XDICTIONARY
360
207DD
102
}
102
{ACAD_REACTORS
330
1834A
102
}
330
1834A
100
AcDbVisualStyle
  2
Shades of Gray
 70
    23
 71
     2
 72
     2
 73
     3
 90
        0
 40
-0.6
 41
-30.0
 62
     5
 63
     7
421
 16777215
 74
     2
 91
        2
 64
     7
 65
     7
 75
     1
175
     1
 42
40.0
 92
        8
 66
     7
 43
1.0
 76
     1
 77
     6
 78
     2
 67
     7
 79
     3
170
     0
171
     0
290
     0
174
     0
 93
        1
 44
0.0
173
     0
291
     0
 45
0.0
1001
ACAD
1000
AcDbSavedByObjectVersion
1070
     0
  0
VISUALSTYLE
  5
19542
102
{ACAD_XDICTIONARY
360
207DF
102
}
102
{ACAD_REACTORS
330
1834A
102
}
330
1834A
100
AcDbVisualStyle
  2
Sketchy
 70
    24
 71
     1
 72
     2
 73
     2
 90
        0
 40
-0.6
 41
-30.0
 62
     5
 63
     7
421
 16777215
 74
     2
 91
        2
 64
     7
 65
     7
 75
     1
175
     1
 42
40.0
 92
       11
 66
     7
 43
1.0
 76
     1
 77
     6
 78
     2
 67
     7
 79
     6
170
     0
171
     0
290
     0
174
     0
 93
        1
 44
0.0
173
     0
291
     0
 45
0.0
1001
ACAD
1000
AcDbSavedByObjectVersion
1070
     0
  0
VISUALSTYLE
  5
18357
102
{ACAD_XDICTIONARY
360
207C2
102
}
102
{ACAD_REACTORS
330
1834A
102
}
330
1834A
100
AcDbVisualStyle
  2
Thicken
 70
    13
 71
     2
 72
     2
 73
     0
 90
        0
 40
-0.6
 41
-30.0
 62
     5
 63
     7
421
 16777215
 74
     1
 91
        4
 64
     7
 65
   257
 75
     1
175
     1
 42
1.0
 92
       12
 66
     7
 43
1.0
 76
     1
 77
     6
 78
     2
 67
     7
 79
     5
170
     0
171
     0
290
     0
174
     0
 93
        1
 44
0.0
173
     0
291
     1
 45
0.0
1001
ACAD
1000
AcDbSavedByObjectVersion
1070
     0
  0
VISUALSTYLE
  5
1953F
102
{ACAD_XDICTIONARY
360
207D9
102
}
102
{ACAD_REACTORS
330
1834A
102
}
330
1834A
100
AcDbVisualStyle
  2
Wireframe
 70
     5
 71
     0
 72
     2
 73
     0
 90
        0
 40
-0.6
 41
-30.0
 62
     5
 63
     7
421
 16777215
 74
     1
 91
        4
 64
     7
 65
   257
 75
     1
175
     1
 42
1.0
 92
        0
 66
   257
 43
1.0
 76
     1
 77
     6
 78
     2
 67
     7
 79
     3
170
     0
171
     0
290
     0
174
     0
 93
        1
 44
0.0
173
     0
291
     0
 45
0.0
1001
ACAD
1000
AcDbSavedByObjectVersion
1070
     0
  0
VISUALSTYLE
  5
19543
102
{ACAD_XDICTIONARY
360
207E1
102
}
102
{ACAD_REACTORS
330
1834A
102
}
330
1834A
100
AcDbVisualStyle
  2
X-Ray
 70
    25
 71
     2
 72
     2
 73
     1
 90
        1
 40
0.5
 41
-30.0
 62
     5
 63
     7
421
 16777215
 74
     1
 91
        0
 64
     7
 65
   257
 75
     1
175
     1
 42
1.0
 92
        8
 66
     7
 43
1.0
 76
     1
 77
     6
 78
     2
 67
     7
 79
     3
170
     0
171
     0
290
     0
174
     0
 93
       13
 44
0.0
173
     0
291
     0
 45
0.0
1001
ACAD
1000
AcDbSavedByObjectVersion
1070
     0
  0
DICTIONARYVAR
  5
1953D
102
{ACAD_REACTORS
330
F6BD
102
}
330
F6BD
100
DictionaryVariables
280
     0
  1
1:1
  0
DICTIONARYVAR
  5
1953C
102
{ACAD_REACTORS
330
F6BD
102
}
330
F6BD
100
DictionaryVariables
280
     0
  1
STANDARD
  0
DICTIONARYVAR
  5
185A4
102
{ACAD_REACTORS
330
F6BD
102
}
330
F6BD
100
DictionaryVariables
280
     0
  1
STANDARD
  0
DICTIONARYVAR
  5
1959E
102
{ACAD_REACTORS
330
F6BD
102
}
330
F6BD
100
DictionaryVariables
280
     0
  1
Imperial24
  0
DICTIONARYVAR
  5
1959F
102
{ACAD_REACTORS
330
F6BD
102
}
330
F6BD
100
DictionaryVariables
280
     0
  1
Imperial24
  0
DICTIONARYVAR
  5
F6BE
102
{ACAD_REACTORS
330
F6BD
102
}
330
F6BD
100
DictionaryVariables
280
     0
  1
96
  0
XRECORD
  5
5508
102
{ACAD_REACTORS
330
54CC
102
}
330
0
100
AcDbXrecord
280
     1
330
0
330
0
330
0
330
0
330
0
330
0
330
0
330
0
330
0
330
0
330
0
330
0
330
0
330
0
330
0
330
0
330
0
330
0
330
0
330
0
330
0
330
0
330
0
330
0
330
0
330
0
330
0
330
0
330
0
330
0
330
0
330
0
330
0
330
0
330
0
330
0
330
0
330
0
330
0
330
0
330
0
330
0
330
0
330
0
330
0
330
0
330
0
330
0
330
0
330
0
330
0
330
0
330
0
330
0
330
0
330
0
330
0
330
0
330
0
330
0
330
0
330
0
330
0
330
0
330
0
330
0
330
0
330
0
330
0
330
0
330
0
330
0
330
0
  0
XRECORD
  5
5509
102
{ACAD_REACTORS
330
54CC
102
}
330
0
100
AcDbXrecord
280
     1
330
0
330
0
  0
XRECORD
  5
550A
102
{ACAD_REACTORS
330
54CC
102
}
330
0
100
AcDbXrecord
280
     1
330
0
  0
XRECORD
  5
550B
102
{ACAD_REACTORS
330
54CC
102
}
330
0
100
AcDbXrecord
280
     1
330
0
330
0
  0
DICTIONARY
  5
19508
330
5D98
100
AcDbDictionary
280
     1
281
     1
  3
ADSK_XREC_LAYOUTTHUMBNAIL
360
19509
  0
DICTIONARY
  5
207AE
330
18348
100
AcDbDictionary
280
     1
281
     1
  3
ACAD_XREC_ROUNDTRIP
360
207AF
  0
DICTIONARY
  5
207AC
330
18347
100
AcDbDictionary
280
     1
281
     1
  3
ACAD_XREC_ROUNDTRIP
360
207AD
  0
DICTIONARY
  5
207B0
330
18349
100
AcDbDictionary
280
     1
281
     1
  3
ACAD_XREC_ROUNDTRIP
360
207B1
  0
DICTIONARY
  5
1950A
330
1835C
100
AcDbDictionary
280
     1
281
     1
  3
ACAD_ROUNDTRIP_2008_TABLESTYLE_CELLSTYLEMAP
360
207AA
  3
ACAD_XREC_ROUNDTRIP
360
207CA
  0
DICTIONARY
  5
207BC
330
18350
100
AcDbDictionary
280
     1
281
     1
  3
ACAD_XREC_ROUNDTRIP
360
207BD
  0
DICTIONARY
  5
207CD
330
18B33
100
AcDbDictionary
280
     1
281
     1
  3
ACAD_XREC_ROUNDTRIP
360
207CE
  0
DICTIONARY
  5
207CB
330
18B32
100
AcDbDictionary
280
     1
281
     1
  3
ACAD_XREC_ROUNDTRIP
360
207CC
  0
DICTIONARY
  5
207BA
330
1834F
100
AcDbDictionary
280
     1
281
     1
  3
ACAD_XREC_ROUNDTRIP
360
207BB
  0
DICTIONARY
  5
207C0
330
18356
100
AcDbDictionary
280
     1
281
     1
  3
ACAD_XREC_ROUNDTRIP
360
207C1
  0
DICTIONARY
  5
207C8
330
1835A
100
AcDbDictionary
280
     1
281
     1
  3
ACAD_XREC_ROUNDTRIP
360
207C9
  0
DICTIONARY
  5
207CF
330
18B34
100
AcDbDictionary
280
     1
281
     1
  3
ACAD_XREC_ROUNDTRIP
360
207D0
  0
DICTIONARY
  5
207BE
330
18355
100
AcDbDictionary
280
     1
281
     1
  3
ACAD_XREC_ROUNDTRIP
360
207BF
  0
DICTIONARY
  5
207D7
330
18BA7
100
AcDbDictionary
280
     1
281
     1
  3
ACAD_XREC_ROUNDTRIP
360
207D8
  0
DICTIONARY
  5
207C6
330
18359
100
AcDbDictionary
280
     1
281
     1
  3
ACAD_XREC_ROUNDTRIP
360
207C7
  0
DICTIONARY
  5
207B2
330
1834B
100
AcDbDictionary
280
     1
281
     1
  3
ACAD_XREC_ROUNDTRIP
360
207B3
  0
DICTIONARY
  5
207B4
330
1834C
100
AcDbDictionary
280
     1
281
     1
  3
ACAD_XREC_ROUNDTRIP
360
207B5
  0
DICTIONARY
  5
207B6
330
1834D
100
AcDbDictionary
280
     1
281
     1
  3
ACAD_XREC_ROUNDTRIP
360
207B7
  0
DICTIONARY
  5
207B8
330
1834E
100
AcDbDictionary
280
     1
281
     1
  3
ACAD_XREC_ROUNDTRIP
360
207B9
  0
DICTIONARY
  5
207DB
330
19540
100
AcDbDictionary
280
     1
281
     1
  3
ACAD_XREC_ROUNDTRIP
360
207DC
  0
DICTIONARY
  5
207D3
330
18BA5
100
AcDbDictionary
280
     1
281
     1
  3
ACAD_XREC_ROUNDTRIP
360
207D4
  0
DICTIONARY
  5
207C4
330
18358
100
AcDbDictionary
280
     1
281
     1
  3
ACAD_XREC_ROUNDTRIP
360
207C5
  0
DICTIONARY
  5
207D5
330
18BA6
100
AcDbDictionary
280
     1
281
     1
  3
ACAD_XREC_ROUNDTRIP
360
207D6
  0
DICTIONARY
  5
207D1
330
18B35
100
AcDbDictionary
280
     1
281
     1
  3
ACAD_XREC_ROUNDTRIP
360
207D2
  0
DICTIONARY
  5
207E5
330
19545
100
AcDbDictionary
280
     1
281
     1
  3
ACAD_XREC_ROUNDTRIP
360
207E6
  0
DICTIONARY
  5
207E3
330
19544
100
AcDbDictionary
280
     1
281
     1
  3
ACAD_XREC_ROUNDTRIP
360
207E4
  0
DICTIONARY
  5
207DD
330
19541
100
AcDbDictionary
280
     1
281
     1
  3
ACAD_XREC_ROUNDTRIP
360
207DE
  0
DICTIONARY
  5
207DF
330
19542
100
AcDbDictionary
280
     1
281
     1
  3
ACAD_XREC_ROUNDTRIP
360
207E0
  0
DICTIONARY
  5
207C2
330
18357
100
AcDbDictionary
280
     1
281
     1
  3
ACAD_XREC_ROUNDTRIP
360
207C3
  0
DICTIONARY
  5
207D9
330
1953F
100
AcDbDictionary
280
     1
281
     1
  3
ACAD_XREC_ROUNDTRIP
360
207DA
  0
DICTIONARY
  5
207E1
330
19543
100
AcDbDictionary
280
     1
281
     1
  3
ACAD_XREC_ROUNDTRIP
360
207E2
  0
XRECORD
  5
19509
102
{ACAD_REACTORS
330
19508
102
}
330
19508
100
AcDbXrecord
280
     1
310
280000000001000078000000010008000000000000780000010000000100000000010000000000000000000000000043C8C8C8FF000000FF000000FF000000FF000000FF000000FF000000FF000000FF000000FF330000FF660000FF990000FFCC0000FFFF0000FF003300FF333300FF663300FF993300FFCC3300FFFF3300
310
FF006600FF336600FF666600FF996600FFCC6600FFFF6600FF009900FF339900FF669900FF999900FFCC9900FFFF9900FF00CC00FF33CC00FF66CC00FF99CC00FFCCCC00FFFFCC00FF00FF00FF33FF00FF66FF00FF99FF00FFCCFF00FFFFFF00FF000033FF330033FF660033FF990033FFCC0033FFFF0033FF003333FF3333
310
33FF663333FF993333FFCC3333FFFF3333FF006633FF336633FF666633FF996633FFCC6633FFFF6633FF009933FF339933FF669933FF999933FFCC9933FFFF9933FF00CC33FF33CC33FF66CC33FF99CC33FFCCCC33FFFFCC33FF00FF33FF33FF33FF66FF33FF99FF33FFCCFF33FFFFFF33FF000066FF330066FF660066FF99
310
0066FFCC0066FFFF0066FF003366FF333366FF663366FF993366FFCC3366FFFF3366FF006666FF336666FF666666FF996666FFCC6666FFFF6666FF009966FF339966FF669966FF999966FFCC9966FFFF9966FF00CC66FF33CC66FF66CC66FF99CC66FFCCCC66FFFFCC66FF00FF66FF33FF66FF66FF66FF99FF66FFCCFF66FF
310
FFFF66FF000099FF330099FF660099FF990099FFCC0099FFFF0099FF003399FF333399FF663399FF993399FFCC3399FFFF3399FF006699FF336699FF666699FF996699FFCC6699FFFF6699FF009999FF339999FF669999FF999999FFCC9999FFFF9999FF00CC99FF33CC99FF66CC99FF99CC99FFCCCC99FFFFCC99FF00FF99
310
FF33FF99FF66FF99FF99FF99FFCCFF99FFFFFF99FF0000CCFF3300CCFF6600CCFF9900CCFFCC00CCFFFF00CCFF0033CCFF3333CCFF6633CCFF9933CCFFCC33CCFFFF33CCFF0066CCFF3366CCFF6666CCFF9966CCFFCC66CCFFFF66CCFF0099CCFF3399CCFF6699CCFF9999CCFFCC99CCFFFF99CCFF00CCCCFF33CCCCFF66CC
310
CCFF99CCCCFFCCCCCCFFFFCCCCFF00FFCCFF33FFCCFF66FFCCFF99FFCCFFCCFFCCFFFFFFCCFF0000FFFF3300FFFF6600FFFF9900FFFFCC00FFFFFF00FFFF0033FFFF3333FFFF6633FFFF9933FFFFCC33FFFFFF33FFFF0066FFFF3366FFFF6666FFFF9966FFFFCC66FFFFFF66FFFF0099FFFF3399FFFF6699FFFF9999FFFFCC
310
99FFFFFF99FFFF00CCFFFF33CCFFFF66CCFFFF99CCFFFFCCCCFFFFFFCCFFFF00FFFFFF33FFFFFF66FFFFFF99FFFFFFCCFFFFFFFFFFFFFF000000FF0D0D0DFF1A1A1AFF282828FF353535FF434343FF505050FF5D5D5DFF6B6B6BFF787878FF868686FF939393FFA1A1A1FFAEAEAEFFBBBBBBFFC9C9C9FFD6D6D6FFE4E4E4FF
310
F1F1F1FFFFFFFFFF000000FF000000FF000000FF000000FF000000FF000000FF000000FF000000FF000000FF000000FF00000000000000000000000000000000000000000000000000000000000000000000000000000000000000000000000000000000000000000000000000000000000000000000000000000000000000
310
00000000000000000000000000000000000000000000000000000000000000000000000000000000000000000000000000000000000000000000000000000000000000000000000000000000000000000000000000000000000000000000000000000000000000000000000000000000000000000000000000000000000000
310
000000000000000000000000000000000000000000000000000000000000000000000000000000000000000000000000000000000000000000000000000000000000000000000000000000000000000000000000BEBEBEBEBEBEBEBEBEBEBEBEBEBEBEBEBEBEBEBEBEBEBEBEBEBEBEBEBEBEBEBEBEBEBEBEBEBEBEBEBEBEBE
310
BEBEBEBEBEBEBEBEBEBEBEBEBEBEBEBEBEBEBEBEBEBEBEBEBEBEBEBEBEBEBEBEBEBEBEBEBEBEBEBEBEBEBEBEBEBEBEBEBEBEBEBEBEBEBEBEBEBEBEBEBEBEBEBEBEBEBEBEBEBEBEBEBEBEBEBEBEBEBEBEBEBEBEBEBEBEBEBEBEBEBEBEBEBEBEBEBEBEBEBEBEBEBEBEBEBEBEBEBEBEBEBEBEBEBEBEBEBEBEBEBEBEBEBEBEBEBE
310
BEBEBEBEBEBEBEBEBEBEBEBEBEBEBEBEBEBE0000000000000000000000000000000000000000000000000000000000000000000000000000000000000000000000000000000000000000000000000000000000000000BE00000000000000000000000000000000000000000000000000000000000000000000000000000000
310
00000000000000000000000000000000000000000000000000000000000000000000000000000000000000000000000000000000000000000000000000000000000000000000000000000000000000000000000000000000000000000000000000000000000000000000000000000000000000000000000000000000000000
310
00000000000000000000000000000000000000BE0000000000000000000000000000000000000000000000000000000000000000000000000000000000000000000000000000000000000000000000000000000000000000BE0000000000000000000000000000000000000000000000000000000000000000000000000000
310
00000000000000000000000000000000000000000000000000000000000000000000000000000000000000000000000000000000000000000000000000000000000000000000000000000000000000000000000000000000000000000000000000000000000000000000000000000000000000000000000000000000000000
310
000000000000000000000000000000000000000000BE0000000000000000000000000000000000000000000000000000000000000000000000000000000000000000000000000000000000000000000000000000000000000000BE000000000000000000000000000000000000000000000000000000000000000000000000
310
00000000000000000000000000000000000000000000000000000000000000000000000000000000000000000000000000000000000000000000000000000000000000000000000000000000000000000000000000000000000000000000000000000000000000000000000000000000000000000000000000000000000000
310
0000000000000000000000000000000000000000000000BE0000000000000000000000000000000000000000000000000000000000000000000000000000000000000000000000000000000000000000000000000000000000000000BE00000000000000000000000000000000000000000000000000000000000000000000
310
00000000000000000000000000000000000000000000000000000000000000000000000000000000000000000000000000000000000000000000000000000000000000000000000000000000000000000000000000000000000000000000000000000000000000000000000000000000000000000000000000000000000000
310
00000000000000000000000000000000000000000000000000BE0000000000000000000000000000000000000000000000000000000000000000000000000000000000000000000000000000000000000000000000000000000000000000BE0000000000000000000000000000000000000000000000000000000000000000
310
00000000000000000000000000000000000000000000000000000000000000000000000000000000000000000000000000000000000000000000000000000000000000000000000000000000000000000000000000000000000000000000000000000000000000000000000000000000000000000000000000000000000000
310
000000000000000000000000000000000000000000000000000000BE0000000000000000000000000000000000000000000000000000000000000000000000000000000000000000000000000000000000000000000000000000000000000000BE000000000000000000000000000000000000000000000000000000000000
310
00000000000000000000000000000000000000000000000000000000000000000000000000000000000000000000000000000000000000000000000000000000000000000000000000000000000000000000000000000000000000000000000000000000000000000000000000000000000000000000000000000000000000
310
0000000000000000000000000000000000000000000000000000000000BE0000000000000000000000000000000000000000000000000000000000000000000000000000000000000000000000000000000000000000000000000000000000000000BE00000000000000000000000000000000000000000000000000000000
310
00000000000000000000000000000000000000000000000000000000000000000000000000000000000000000000000000000000000000000000000000000000000000000000000000000000000000000000000000000000000000000000000000000000000000000000000000000000000000000000000000000000000000
310
00000000000000000000000000000000000000000000000000000000000000BE0000000000000000000000000000000000000000000000000000000000000000000000000000000000000000000000000000000000000000000000000000000000000000BE0000000000000000000000000000000000000000000000000000
310
00000000000000000000000000000000000000000000000000000000000000000000000000000000000000000000000000000000000000000000000000000000000000000000000000000000000000000000000000000000000000000000000000000000000000000000000000000000000000000000000000000000000000
310
000000000000000000000000000000000000000000000000000000000000000000BE0000000000000000000000000000000000000000000000000000000000000000000000000000000000000000000000000000000000000000000000000000000000000000BE000000000000000000000000000000000000000000000000
310
00000000000000000000000000000000000000000000000000000000000000000000000000000000000000000000000000000000000000000000000000000000000000000000000000000000000000000000000000000000000000000000000000000000000000000000000000000000000000000000000000000000000000
310
0000000000000000000000000000000000000000000000000000000000000000000000BE0000000000000000000000000000000000000000000000000000000000000000000000000000000000000000000000000000000000000000000000000000000000000000BE00000000000000000000000000000000000000000000
310
00000000000000000000000000000000000000000000000000000000000000000000000000000000000000000000000000000000000000000000000000000000000000000000000000000000000000000000000000000000000000000000000000000000000000000000000000000000000000000000000000000000000000
310
00000000000000000000000000000000000000000000000000000000000000000000000000BE0000000000000000000000000000000000000000000000000000000000000000000000000000000000000000000000000000000000000000000000000000000000000000BE0000000000000000000000000000000000000000
310
00000000000000000000000000000000000000000000000000000000000000000000000000000000000000000000000000000000000000000000000000000000000000000000000000000000000000000000000000000000000000000000000000000000000000000000000000000000000000000000000000000000000000
310
000000000000000000000000000000000000000000000000000000000000000000000000000000BE0000000000000000000000000000000000000000000000000000000000000000000000000000000000000000000000000000000000000000000000000000000000000000BE000000000000000000000000000000000000
310
00000000000000000000000000000000000000000000000000000000000000000000000000000000000000000000000000000000000000000000000000000000000000000000000000000000000000000000000000000000000000000000000000000000000000000000000000000000000000000000000000000000000000
310
0000000000000000000000000000000000000000000000000000000000000000000000000000000000BE0000000000000000000000000000000000000000000000000000000000000000000000000000000000000000000000000000000000000000000000000000000000000000BE00000000000000000000000000000000
310
00000000000000000000000000000000000000000000000000000000000000000000000000000000000000000000000000000000000000000000000000000000000000000000000000000000000000000000000000000000000000000000000000000000000000000000000000000000000000000000000000000000000000
310
00000000000000000000000000000000000000000000000000000000000000000000000000000000000000BE0000000000000000000000000000000000000000000000000000000000000000000000000000000000000000000000000000000000000000000000000000000000000000BE0000000000000000000000000000
310
00000000000000000000000000000000000000000000000000000000000000000000000000000000000000000000000000000000000000000000000000000000000000000000000000000000000000000000000000000000000000000000000000000000000000000000000000000000000000000000000000000028282828
310
282828282828282828282828280000000000000000000000000000000000000000000000000000000000000000BE0000000000000000000000000000000000000000000000000000000000000000000000000000000000000000000000000000000000000000000000000000000000000000BE000000000000000000000000
310
00000000000000000000000000000000000000000000000000000000000000000000000000000000000000000000000000000000000000000000000000000000000000000000000000000000000000000000000000000000000000000000000000000000000000000000000000000000000000000000000000000000002828
310
2828282828282828282828282828280000000000000000000000000000000000000000000000000000000000000000BE0000000000000000000000000000000000000000000000000000000000000000000000000000000000000000000000000000000000000000000000000000000000000000BE00000000000000000000
310
00000000000000000000000000000000000000000000000000000000000000000000000000000000000000000000000000000000000000000000000000000000000000000000000000000000000000000000000000000000000000000000000000000000000000000000000000000000000000000000000000000000000000
310
00002828282828282800282828282800000000000000000000000000000000000000000000000000000000000000000000BE0000000000000000000000000000000000000000000000000000000000000000000000000000000000000000000000000000000000000000000000000000000000000000BE0000000000000000
310
00000000000000000000000000000000000000000000000000000000000000000000000000000000000000000000000000000000000000000000000000000000000000000000000000000000000000000000000000000000000000000000000000000000000000000000000000000000000000000000000000000000000000
310
000000002828282828282800282828282800000000000000000000000000000000000000000000000000000000000000000000BE0000000000000000000000000000000000000000000000000000000000000000000000000000000000000000000000000000000000000000000000000000000000000000BE000000000000
310
0000000000000000000000000000000000000000000000000000000000000000000000000000002D000000000000000000000000000000000000000000002D000000000000000000000000000000000000000000002D0000000000000000000000000000000000000000000000000000000000000000000000000000000000
310
000000002D000000000000000000000000002D00000000000000000000000000000000000000000000000000000000000000000000BE0000000000000000000000000000000000000000000000000000000000000000000000000000000000000000000000000000000000000000000000000000000000000000BE00000000
310
00000000000000000000000000000000000000000000000000000000000000000000000000000000002D2D2D2D2D2D2D2D2D2D2D2D2D2D2D2D2D2D2D2D2D2D2D2D2D2D2D2D2D2D2D2D2D2D2D2D2D2D2D2D2D2D2D2D2D2D2D000000000000002828282828282828282800000000000000000000000000000000000000000000
310
0000000000002D2D2D2D2D2D2D2D2D2D2D2D2D2D2D2D2D2D2D2D2D00000000000000000000000000000000000000000000000000000000BE0000000000000000000000000000000000000000000000000000000000000000000000000000000000000000000000000000000000000000000000000000000000000000BE0000
310
000000000000000000000000000000000000000000000000000000000000000000000000000000000000002D002D2D000000000000000000000000000000002D2D002D002D2D000000000000000000000000000000002D2D002D00000000000000282828282828282828280000000000000000000000000000000000000000
310
00000000000000002D002D2D000000000000002D2D002D002D2DF5F50000F50000000000000000000000000000000000000000000000000000BE0000000000000000000000000000000000000000000000000000000000000000000000000000000000000000000000000000000000000000000000000000000000000000BE
310
0000000000000000000000000000000000000000000000000000000000000000000000000000000000000000002D000000000000000000000000000000000000000000002D000000000000000000000000000000000000000000002D0000000000000000282828282828282800000000000000000000000000000000000000
310
000000000000000000002D000000000000000000000000002D000000F500F5F5F50000000000000000000000000000000000000000000000000000BE00000000000000000000000000000000000000000000000000000000000000000000000000000000000000000000000000000000000000000000000000000000000000
310
00BE0000000000000000000000000000000000000000000000000000000000000000000000000000000000000000002D000000000000000000000000000000000000000000002D000000000000000000000000000000000000000000002D000000000000000028282828282828280000000000000000000000000000000000
310
0000000000000000000000002D000000000000000000000000002D000000F500F5F5F5F5F5000000000000000000000000000000000000000000000000BE0000000000000000000000000000000000000000000000000000000000000000000000000000000000000000000000000000000000000000000000000000000000
310
000000BE000000000000000000000000000000000000000000000000000000000000000000000000000000000000000000000000000000000000000000000000000000000000000000000000000000000000000000000000000000000000000000000000000000000000000000000000000000000000000000000000000000
310
0000000000000000000000000000000000000000000000000000000000000000000000F500F5F5000000000000000000000000000000000000000000000000BE000000000000000000000000000000000000000000000000000000000000000000000000000000000000000000000000000000000000000000000000000000
310
0000000000BE00000000000000000000000000000000000000000000000000000000000000000000000000000000000000000000000000000000000000000000000000000000000000000000000000000000000000000000000000000000000000000000000000000000000000000000000000000000000000000000000000
310
0000000000000000000000000000000000000000000000000000000000000000000000000000000000000000000000000000000000000000000000000000000000BE00000000000000000000000000000000000000000000000000000000000000000000000000000000000000000000000000000000000000000000000000
310
00000000000000BE0000000000000000000000000000000000000000000000000000000000000000000000000000000000000000000000000000000000000000000000000000000000000000000000000000000000000000000000000000000000000000000000000000000000000000000000000000000000000000000000
310
00000000000000000000000000000000000000000000000000000000000000000000000000000000000000000000000000000000000000000000000000000000000000BE0000000000000000000000000000000000000000000000000000000000000000000000000000000000000000000000000000000000000000000000
310
000000000000000000BE000000000000000000000000000000000000000000000000000000000000000000000000000000000000000000000000000000000000000000000000000000000000000000000000000000000000000000000000000000000000000000000000000000000000000000000000000000000000000000
310
000000000000000000000000000000000000000000000000000000000000000000000000000000000000000000000000000000000000000000000000000000000000000000BE000000000000000000000000000000000000000000000000000000000000000000000000000000000000000000000000000000000000000000
310
0000000000000000000000BE00000000000000000000000000000000000000000000000000000000000000000000000000000000000000000000000000000000000000000000000000000000000000000000000000000000000000000000000000000000000000000000000000000000000000000000000000000000000000
310
00000000000000000000000000F5F5F52D2D0000000000000000000000000000000000000000000000000000000000000000000000000000000000000000000000000000000000BE00000000000000000000000000000000000000000000000000000000000000000000000000000000000000000000000000000000000000
310
00000000000000000000000000BE0000000000000000000000000000000000000000000000000000000000000000000000000000000000000000000000000000000000000000000000000000000000000000000000000000000000000000000000000000000000000000000000000000000000000000000000000000000000
310
000000000000000000000000000000F500002D2D0000000000000000000000000000000000000000000000000000000000000000000000000000000000000000000000000000000000BE0000000000000000000000000000000000000000000000000000000000000000000000000000000000000000000000000000000000
310
000000000000000000000000000000BE000000000000000000000000000000000000000000000000000000000000000000000000000000000000000000000000000000000000000000000000000000000000000000000000000000000000000000000000000000000000000000000000000000000000000000000000000000
310
0000000000000000000000000000000000F500002D000000000000000000000000000000000000000000000000000000000000000000000000000000000000000000000000000000000000BE000000000000000000000000000000000000000000000000000000000000000000000000000000000000000000000000000000
310
0000000000000000000000000000000000BE00000000000000000000000000000000000000000000000000000000000000000000000000000000000000000028282828282828282828282828282828282828282828282828282828282828282828282828282828282828282828282828282828282828282828282828282828
310
2828282828000000000000000000002D2D2D2D2D2D2D2D2D2D2D2D2DC300C3C3C3C3C3C3C3C3C3C3C3C3AC00000000000000000000000000000000000000000000000000000000000000000000BE00000000000000000000000000000000000000000000000000000000000000000000000000000000000000000000000000
310
00000000000000000000000000000000000000BE0000000000000000000000000000000000000000000000000000000000000000000000000000000000000000002828282828282828DCDCDCDCDCDCDCDCDC28282828282828282828282828DCDCDCDCDCDCDCDCDC2828282828282828282828282828282828282828282828
310
282828282828280000000000000000000000002D0000002D2D2D2D2D2D2DC3C3C3C3C3C3C3C3C3C3C3C3C3C3C3AC000000000000000000000000000000000000000000000000000000000000000000BE0000000000000000000000000000000000000000000000000000000000000000000000000000000000000000000000
310
000000000000000000000000000000000000000000BE0000000000000000002828282828282828282800282828282828282828282828282800282828282828282800002828000000000028DC000000000000DCDC28000000002828280000000028DCDC000000000000DC282800000000282828000000000000000000000000
310
00000000000000282800000000000000000000002D2D000000002D00000000002800000000000000000000000000AC00AC0000000000000000000000000000000000000000000000000000000000000000BE000000000000000000000000000000000000000000000000000000000000000000000000000000000000000000
310
0000000000000000000000000000000000000000000000BE0000000000000000002828282828282828282800282828282828282828282828282800282828282828282800002828000000DCDCDCDCDCDCDCDCDCDCDCDCDCDC000000282828000000DCDCDCDCDCDCDCDCDCDCDCDCDCDC00000028282800000000000000000000
310
000000000000000000282800000000000000000000002D2D000000002D2D000000002800000000000000000000000000ACAC000000000000000000000000000000000000000000000000000000000000000000BE00000000000000000000000000000000000000000000000000000000000000000000000000000000000000
310
00000000000000000000000000000000000000000000000000BE000000000000000000000000000000000000000000000000000000000000000000000000000000000000000000282800000000DC28DC000000000000DCDCDC2800000028282800000028DCDCDC000000000000DC28DC000000002828280000000000000000
310
000000000000000000000028280000000000000000000000002D000000002D2D00000000280000DC28282800282800DC0000AC00AC0000000000000000000000000000000000000000000000000000000000000000BE0000000000000000000000000000000000000000000000000000000000000000000000000000000000
310
000000000000000000000000000000000000000000000000000000BE000000000000000000000000000000000000000000000000000000000000000000000000000000000000000000282800000000DC28DC000000000000DCDCDC2800000028282800000028DCDCDC000000000000DC28DC00000000282828000000000000
310
0000000000000000000000000028280000000000000000000000002D000000002D00000000002800DCDCDCDCDCDCDCDCDCDCDC00ACAC000000000000000000000000000000000000000000000000000000000000000000BE000000000000000000000000000000000000000000000000000000000000000000000000000000
310
0000000000000000000000000000000000000000000000000000000000BE000000000000000000000000000000000000000000000000000000000000000000000000000000000000000000282800000000DC00DC000000000000DCDCDC2800000028282800000028DCDCDC000000000000DC00DC0000000028282800000000
310
00000000000000000000000000000028280000000000000000000000002D000000002D0000000000280000DC28280000002828DC0000ACACAC0000000000000000000000000000000000000000000000000000000000000000BE00000000000000000000000000000000000000000000000000000000000000000000000000
310
00000000000000000000000000000000000000000000000000000000000000BE000000000000000000000000000000000000000000000000000000000000000000000000000000000000000000282800000000DC00DC000000000000DCDCDC2800000028282800000028DCDCDC000000000000DC00DC000000002828280000
310
000000000000000000000000000000000028280000000000000000000000002D000000002D0000000000280000DC28280000002828DC0000ACAC000000000000000000000000000000000000000000000000000000000000000000BE0000000000000000000000000000000000000000000000000000000000000000000000
310
000000000000000000000000000000000000000000000000000000000000000000BE000000000000000000000000000000000000000000000000000000000000000000000000000000000000000000282800000000DC00DC000000000000DCDCDC2800000028282800000028DCDCDC000000000000DC00DC00000000282828
310
0000000000000000000000000000000000000028280000000000000000000000002D000000002D0000000000280000DC00000000000000DC0000ACACAC0000000000000000000000000000000000000000000000000000000000000000BE000000000000000000000000000000000000000000000000000000000000000000
310
0000000000000000000000000000000000000000000000000000000000000000000000BE000000000000000000000000000000000000000000000000000000000000000000000000000000000000000000282800000000DC00DC000000000000DCDCDC2800000028282800000028DCDCDC000000000000DC00DC0000000028
310
28280000000000000000000000000000000000000028280000000000000000000000002D000000002D0000000000280000DC00000000000000DC0000AC00AC0000000000000000000000000000000000000000000000000000000000000000BE00000000000000000000000000000000000000000000000000000000000000
310
00000000000000000000000000000000000000000000000000000000000000000000000000BE000000000000000000000000000000000000000000000000000000000000000000000000000000000000000000282800000000DC00DC000000000000DCDCDC0000000028282800000000DCDCDC000000000000DC00DC000000
310
002828280000000000000000000000000000000000000028280000000000000000000000002D000000002D0000000000280000DC00000000000000DC0000ACAC000000000000000000000000000000000000000000000000000000000000000000BE0000000000000000000000000000000000000000000000000000000000
310
000000000000000000000000000000000000000000000000000000000000000000000000000000BE000000000000000000000000000000000000000000000000000000000000000000000000000000000000000000282800000000DC00DC000000000000DCDCDC2800000028282800000028DCDCDC000000000000DC00DC00
310
0000002828280000000000000000000000000000000000000028280000000000000000000000002D000000002D0000000000280000DC00000000000000DC0000AC00AC0000000000000000000000000000000000000000000000000000000000000000BE000000000000000000000000000000000000000000000000000000
310
0000000000000000000000000000000000000000000000000000000000000000000000000000000000BE000000000000000000000000000000000000000000000000000000000000000000000000000000000000000000282800000000DC00DC000000000000DCDCDC2800000028282800000028DCDCDC000000000000DC00
310
DC000000002828280000000000000000000000000000000000000028280000000000000000000000002D000000002D0000000000280000DC00000000000000DC0000ACAC000000000000000000000000000000000000000000000000000000000000000000BE00000000000000000000000000000000000000000000000000
310
00000000000000000000000000000000000000000000000000000000000000000000000000000000000000BE000000000000000000000000000000000000000000000000000000000000000000000000000000000000000000282800000000DC00DC000000000000DCDCDC2800000028282800000028DCDCDC000000000000
310
DC00DC000000002828280000000000000000000000000000000000000028280000000000000000000000002D000000002D0000000000280000DC00000000000000DC0000AC00AC0000000000000000000000000000000000000000000000000000000000000000BE0000000000000000000000000000000000000000000000
310
000000000000000000000000000000000000000000000000000000000000000000000000000000000000000000BE000000000000000000000000000000000000000000000000000000000000000000000000000000000000000000282800000000DC00DC000000000000DCDCDC2800000028282800000028DCDCDC00000000
310
0000DC00DC000000002828280000000000000000000000000000000000000028280000000000000000000000002D000000002D0000000000280000DC00000000000000DC0000ACAC000000000000000000000000000000000000000000000000000000000000000000BE000000000000000000000000000000000000000000
310
0000000000000000000000000000000000000000000000000000000000000000000000000000000000000000000000BE000000000000000000000000000000000000000000000000000000000000000000000000000000000000000000282800000000DC00DC000000000000DCDCDC2800000028282800000028DCDCDC0000
310
00000000DC00DC000000002828280000000000000000000000000000000000000028280000000000000000000000002D000000002D0000000000280000DC00000000000000DC0000AC00AC0000000000000000000000000000000000000000000000000000000000000000BE00000000000000000000000000000000000000
310
00000000000000000000000000000000000000000000000000000000000000000000000000000000000000000000000000BE000000000000000000000000000000000000000000000000000000000000000000000000000000000000000000282800000000DC00DC000000000000DCDCDC2800000028282800000028DCDCDC
310
000000000000DC00DC000000002828280000000000000000000000000000000000000028280000000000000000000000002D000000002D0000000000280000DC00000000000000DC0000ACAC000000000000000000000000000000000000000000000000000000000000000000BE0000000000000000000000000000000000
310
000000000000000000000000000000000000000000000000000000000000000000000000000000000000000000000000000000BE000000000000000000000000000000000000000000000000000000000000000000000000000000000000000000282800000000DC00DC000000000000DCDCDC0000000028282800000000DC
310
DCDC000000000000DC00DC00000000282828000000000000000000000000000000000000002828000000000000000000F5F5002D000000002D0000000000280000DC00000000000000DC0000AC00AC0000000000000000000000000000000000000000000000000000000000000000BE000000000000000000000000000000
310
0000000000000000000000000000000000000000000000000000000000000000000000000000000000000000000000000000000000BE000000000000000000000000000000000028282828282828282828282828282828282828282828282828280000282800000000DC00DC000000000000DCDCDC28000000282828000000
310
28DCDCDC000000000000DC00DC000000002828280000000000000000000000000000000000000028280000000000000000F5F5F5002D000000002D0000000000280000DC00000000000000DC0000ACAC000000000000000000000000000000000000000000000000000000000000000000BE00000000000000000000000000
310
00000000000000000000000000000000000000000000000000000000000000000000000000000000000000000000000000000000000000BE000000000000000000000000000000000028282828282828282828282828282828282828282828282828000000282800000000DC00DC000000000000DCDCDC2800000028282800
310
000028DCDCDC000000000000DC00DC000000002828280000000000000000000000000000000000000028280000000000000000F5F5F5002D000000002D0000000000280000DC00000000000000DC0000AC00AC0000000000000000000000000000000000000000000000000000000000000000BE0000000000000000000000
310
000000000000000000000000000000000000000000000000000000000000000000000000000000000000000000000000000000000000000000BE000000000000000000000000000000000000000000000000000000000000000000000000000000000000000000282800000000DC00DC000000000000DCDCDC280000002828
310
2800000028DCDCDC000000000000DC00DC000000002828280000000000000000000000000000000000000028280000000000000000F5F5F5002D0000F5002D0000000000280000DC00000000000000DC0000ACAC000000000000000000000000000000000000000000000000000000000000000000BE000000000000000000
310
0000000000000000000000000000000000000000000000000000000000000000000000000000000000000000000000000000000000000000000000BE000000000000000000000000000000000000000000000000000000000000000000000000000000000000000000282800000000DC00DC000000000000DCDCDC28000000
310
28282800000028DCDCDC000000000000DC00DC000000002828280000000000000000000000000000000000000028280000000000000000F50000002D00F5F5F52D0000000000280000DC00000000000000DC0000ACACAC0000000000000000000000000000000000000000000000000000000000000000BE00000000000000
310
00000000000000000000000000000000000000000000000000000000000000000000000000000000000000000000000000000000000000000000000000BE000000000000000000000000000000000000000000000000000000000000000000000000000000000000000000282800000000DC00DC000000000000DCDCDC2800
310
000028282800000028DCDCDC000000000000DC00DC000000002828280000000000000000000000000000000000000028280000000000000000F50000002D00F500F52D0000000000280000DC00000000000000DC0000ACAC000000000000000000000000000000000000000000000000000000000000000000BE0000000000
310
000000000000000000000000000000000000000000000000000000000000000000000000000000000000000000000000000000000000000000000000000000BE000000000000000000000000000000000000000000000000000000000000000000000000000000000000000000282800000000DC28DC000000000000DCDCDC
310
2800000028282800000028DCDCDC000000000000DC28DC000000002828280000000000000000000000000000000000000028280000000000000000000000002D00F5F5002D0000000000280000DC00000000000000DC0000ACACAC0000000000000000000000000000000000000000000000000000000000000000BE000000
310
0000000000000000000000000000000000000000000000000000000000000000000000000000000000000000000000000000000000000000000000000000000000BE000000000000000000000000000000000000000000000000000000000000000000000000000000000000000000282800000000DC28DC000000000000DC
310
DCDC0000000028282800000000DCDCDC000000000000DC28DC000000002828280000000000000000000000000000000000000028280000000000000000000000002D00F500002D0000000000280000DC00000000000000DC0000AC00AC0000000000000000000000000000000000000000000000000000000000000000BE00
310
00000000000000000000000000000000000000000000000000000000000000000000000000000000000000000000000000000000000000000000000000000000000000BE0000000000000000000000000000000000000000000000000000000000000000000000000000000000000000002828000000DCDCDCDCDCDCDCDCDC
310
DCDCDCDCDC000000282828000000DCDCDCDCDCDCDCDCDCDCDCDCDCDC000000282828000000000000000000000000000000000000002828000000000000000000DCDC002D000000002D0000000000280000DC00000000000000DC0000ACAC000000000000000000000000000000000000000000000000000000000000000000
310
BE0000000000000000000000000000000000000000000000000000000000000000000000000000000000000000000000000000000000000000000000000000000000000000BE0000000000000000000000000000000000000000000000000000000000000000000000000000000000000000002828000000000000DC000000
310
000000DCDC00000000002828280000000000DCDC000000000000DC000000000000282828000000000000000000000000000000000000002828000000000000000000DCDC002D000000002D0000000000280000DC00000000000000DC0000AC00AC000000000000000000000000000000000000000000000000000000000000
310
0000BE0000000000000000000000000000000000000000000000000000000000000000000000000000000000000000000000000000000000000000000000000000000000000000BE0000000000000000000000000000000000000000000000000000000000000000000000000000000000000000002828000000000000DC00
310
0000000000DCDC00000000002828280000000000DCDC000000000000DC000000000000282828000000000000000000000000000000000000002828000000000000000000DCDC002D000000002D0000000000280000DC00000000000000DC0000ACAC0000000000000000000000000000000000000000000000000000000000
310
00000000BE0000000000000000000000000000000000000000000000000000000000000000000000000000000000000000000000000000000000000000000000000000000000000000BE0000000000000000000000000000000000000000000000000000000000000000000000000000000000000000002828000F0F0F0F00
310
DC000000000000DCDC0000000000282828000F0F0F0FDCDC000000000000DC000000000000282828000000000000000000000000000000000000002828000000000000000000DCDC002D000000002D0000000000280000DC00000000000000DC0000AC00AC0000000000000000000000000000000000000000000000000000
310
000000000000BE0000000000000000000000000000000000000000000000000000000000000000000000000000000000000000000000000000000000000000000000000000000000000000BE0000000000000000000000000000000000000000000028282828282800282828282828280028282828282800002828000F0F0F
310
0F00DC000000000000DCDC0000000000282828000F0F0F0FDCDC000000000000DC000000000000282828000000000000000000000000000000000000002828000000000000000000DCDC002D000000002D0000000000280000DC00000000000000DC0000ACAC00000000000000000000000000000000000000000000000000
310
0000000000000000BE0000000000000000000000000000000000000000000000000000000000000000000000000000000000000000000000000000000000000000000000000000000000000000BE0000000000000000000000000000000000000000000028282828280000282828282800282828282828282800002828000F
310
0F0F0F00DC000000000000DCDC0000000000282828000F0F0F0FDCDC000000000000DC000000000000282828000000000000000000000000000000000000002828000000000000000000DCDC002D000000002D0000000000280000DC00000000000000DC0000AC00AC00000000000000000000000000000000000000000000
310
00000000000000000000BE0000000000000000000000000000000000000000000000000000000000000000000000000000000000000000000000000000000000000000000000000000000000000000BE0000000000000000000000000000000000000000000028282828282800282828282828282828282828280000002828
310
000F000F000FDC000000000000DCDC0000000000282828000F0F0F0FDCDC000000000000DC000000000000282828000000000000000000000000000000000000002828000000000000000000DCDC002D000000002D0000000000280000DC00000000000000DC0000ACAC000000000000000000000000000000000000000000
310
000000000000000000000000BE0000000000000000000000000000000000000000000000000000000000000000000000000000000000000000000000000000000000000000000000000000000000000000BE000000000000000000000000000000000000000000002828282828282828282828002828282828282828280000
310
2828000F000F000FDC000000000000DCDC0000000000282828000F0F0F0FDCDC000000000000DC000000000000282828000000000000000000000000000000000000002828000000000000000000DCDC002D000000002D0000000000280000DC00000000000000DC0000AC00AC000000000000000000000000000000000000
310
0000000000000000000000000000BE0000000000000000000000000000000000000000000000000000000000000000000000000000000000000000000000000000000000000000000000000000000000000000BE00000000000000000000000000000000000000000000282828282828282828282800282828282828282800
310
00002828000F0F0F0F0FDC000000000000DCDC0000000000282828000F0F0F0FDCDC000000000000DC000000000000282828000000000000000000000000000000000000002828000000000000000000DCDC002D000000002D0000000000280000DC00000000000000DC0000ACAC0000000000000000000000000000000000
310
00000000000000000000000000000000BE0000000000000000000000000000000000000000000000000000000000000000000000000000000000000000000000000000000000000000000000000000000000000000BE0000000000000000000000000000000000000000000028282828282828282828280028282828282828
310
282800002828000000000000DC000000000000DCDC00000000002828280000000000DCDC000000000000DC0000000000002828280000000000000000000000000000000000000028280000000000000000000000002D000000002D0000000000280000DC00000000000000DC0000AC00AC0000000000000000000000000000
310
000000000000000000000000000000000000BE0000000000000000000000000000000000000000000000000000000000000000000000000000000000000000000000000000000000000000000000000000000000000000BE000000000000000000000000000000000000000000000000000000000000000000000000000000
310
0000000000002828000000000028DC000000000000DCDC28000000002828280000000028DCDC000000000000DC2800000000002828280000000000000000000000000000000000000028280000000000000000000000002D000000002D0000000000280000DC00000000000000DC0000ACAC00000000000000000000000000
310
0000000000000000000000000000000000000000BE0000000000000000000000000000000000000000000000000000000000000000000000000000000000000000000000000000000000000000000000000000000000000000BE00000000000000000000000000000000000000000000000000000000000000000000000000
310
00000000000000002828000000DCDCDCDCDCDCDCDCDCDCDCDCDCDC000000282828000000DCDCDCDCDCDCDCDCDCDCDCDCDCDC000000282828000000000000000000000000000000000000002828000000000000000000DCDC002D000000002D0000000000280000DC00000000000000DC0000ACACAC00000000000000000000
310
00000000000000000000000000000000000000000000BE0000000000000000000000000000000000000000000000000000000000000000000000000000000000000000000000000000000000000000000000000000000000000000BE0000000000000000000000000000000000000000000000000000000000000000000000
310
00000000000000000000282800000000DC28DC000000000000DCDCDC2800000028282800000028DCDCDC000000000000DC28DC00000000282828000000000000000000000000000000000000002828000000000000000000DCDC002D000000002D0000000000280000DC00000000000000DC0000ACAC000000000000000000
310
000000000000000000000000000000000000000000000000BE0000000000000000000000000000000000000000000000000000000000000000000000000000000000000000000000000000000000000000000000000000000000000000BE000000000000000000000000000000000000000000000000000000000000000000
310
000000000000000000000000282800000000DC28DC000000000000DCDCDC2800000028282800000028DCDCDC000000000000DC28DC00000000282828000000000000000000000000000000000000002828000000000000000000DCDC002D000000002D0000000000280000DC00000000000000DC0000ACACAC000000002828
310
2828282828282828282828000028282828282800000000000000BE0000000000000000000000000000000000000000000000000000000000000000000000000000000000000000000000000000000000000000000000000000000000000000BE00000000000000000000000000000000000000000000000000000000000000
310
0000000000000000000000000000282800000000DC00DC000000000000DCDCDC2800000028282800000028DCDCDC000000000000DC00DC00000000282828000000000000000000000000000000000000002828000000000000000000DCDC002D000000002D0000000000280000DC00000000000000DC0000AC00AC00000000
310
28282828282828282828282828280028282828282800000000000000BE0000000000000000000000000000000000000000000000000000000000000000000000000000000000000000000000000000000000000000000000000000000000000000BE0000000000000000000000000000000000000000000000000000000000
310
00000000000000000000000000000000282800000000DC00DC000000000000DCDCDC2800000028282800000028DCDCDC000000000000DC00DC0000000028BE280000002800000000002800000000002800000028BE000000000000000000DCDC002D000000002D0000000000280000DC00000000000000DC0000ACAC000000
310
000028282828282828282828282828280028282828282800000000000000BE0000000000000000000000000000000000000000000000000000000000000000000000000000000000000000000000000000000000000000000000000000000000000000BE000000000000000000000000000000000000000000000000000000
310
000000000000000000000000000000000000282800000000DC00DC000000000000DCDCDC2800000028282800000028DCDCDC000000000000DC00DC0000000028BE282800282800000028282828000000002800002828BE000000000000000000DCDC002D000000002D0000000000280000DC00000000000000DC0000AC00AC
310
0000000028282828282828282828000000000000000000000000000000000000BE0000000000000000000000000000000000000000000000000000000000000000000000000000000000000000000000000000000000000000000000000000000000000000BE00000000000000000000000000000000000000000000000000
310
0000000000000000000000000000000000000000282800000000DC00DC000000000000DCDCDC2800000028282800000028DCDCDC000000000000DC00DC0000000028BE280000282800000028282828280000002800000028BE000000000000000000DCDC002D000000002D2D00000000280000DC00000000000000DC0000AC
310
AC000000000028282828282828282828000000000000000000000000000000000000BE0000000000000000000000000000000000000000000000000000000000000000000000000000000000000000000000000000000000000000000000000000000000000000BE0000000000000000000000000000000000000000000000
310
00000000000000000000000000282828282828000000282800000000DC00DC000000000000DCDCDC0000000028282800000000DCDCDC000000000000DC00DC0000000028BE280000282800000028002800280000002800000028BE000000000000000000DCDC002D000000002D2D00000000280000DC00000000000000DC00
310
00AC00AC0000000000000000000000000000000000000000000000000000000000000000BE0000000000000000000000000000000000000000000000000000000000000000000000000000000000000000000000000000000000000000000000000000000000000000BE000000000000000000000000000000000000000000
310
000000000000000000000000000000282828282828280000282800000000DC00DC000000000000DCDCDC2800000028282800000028DCDCDC000000000000DC00DC000000002828C3C3C3C3C3C3C3C3C3BEBEBEC3C3C3C3C3C3C3C3C3280000000000000000000000002D000000002D000000000028C3C3DCC3C3C3C3C3C3C3
310
DCC3C3C3AC000000000000000000000000000000000000000000000000000000000000000000BE0000000000000000000000000000000000000000000000000000000000000000000000000000000000000000000000000000000000000000000000000000000000000000BE00000000000000000000000000000000000000
310
0000000000000000000000000000000000000000000000000000282800000000DC00DC000000000000DCDCDC2800000028282800000028DCDCDC000000000000DC00DC000000002828C3C3C3C3C3C3C3C3C3C3C3C3C3C3C3C3C3C3C3C3C3280000000000000000000000002D0000002D2D2D2D2D2D2D28C3C3DCC3C3C3C3C3
310
C3C3DCC3C3AC00AC0000000000000000000000000000000000000000000000000000000000000000BE0000000000000000000000000000000000000000000000000000000000000000000000000000000000000000000000000000000000000000000000000000000000000000BE0000000000000000000000000000000000
310
00000000000000000028282828282828280028282828282828280000282800000000DC00DC000000000000DCDCDC2800000028282800000028DCDCDC000000000000DC00DC000000002828280000000000000000000000000000000000000028280000000000000000000000002D000000002D2D00000000280000DC000000
310
00000000DC0000ACAC000000000000000000000000000000000000000000000000000000000000000000BE0000000000000000000000000000000000000000000000000000000000000000000000000000000000000000000000000000000000000000000000000000000000000000BE000000000000000000000000000000
310
000000000000000000000028282828282828280028282828282828280000282800000000DC00DC000000000000DCDCDC2800000028282800000028DCDCDC000000000000DC00DC000000002828280000000000000000000000000000000000000028280000000000000000000000002D000000002D2D00000000280000DC00
310
000000000000DC0000AC00AC0000000028282828282828282828000000000000000000000000000000000000BE0000000000000000000000000000000000000000000000000000000000000000000000000000000000000000000000000000000000000000000000000000000000000000BE00000000000000000000000000
310
0000000028002828282828282828280028280028000028282828282828280000282800000000DC00DC000000000000DCDCDC2800000028282800000028DCDCDC000000000000DC00DC000000002828280000000000000000000000000000000000000028280000000000000000000000002D000000002D0000000000280000
310
DC00000000000000DC0000ACAC000000000028282828282828282828000000000000000000000000000000000000BE0000000000000000000000000000000000000000000000000000000000000000000000000000000000000000000000000000000000000000000000000000000000000000BE0000000000000000000000
310
00000000002828282828282828282828280028280028282828282828282828000000282800000000DC00DC000000000000DCDCDC2800000028282800000028DCDCDC000000000000DC00DC000000002828280000000000000000000000000000000000000028280000000000000000000000002D00F5F5F52D000000000028
310
0000DC00000000000000DC0000AC00AC0000000028282828282828282828000000000000000000000000000000000000BE0000000000000000000000000000000000000000000000000000000000000000000000000000000000000000000000000000000000000000000000000000000000000000BE000000000000000000
310
000000000000000028002828282828282828280028000028000028282828282828280000282800000000DC00DC000000000000DCDCDC0000000028282800000000DCDCDC000000000000DC00DC000000002828280000000000000000000000000000000000000028280000000000000000000000002D00F500F52D00000000
310
00280000DC28280000002828DC00ACACACACACACAC0028282828282828282828282828282828000000000000000000000000BE0000000000000000000000000000000000000000000000000000000000000000000000000000000000000000000000000000000000000000000000000000000000000000BE00000000000000
310
0000000000000000000000000000000000000000000000000000000000000000000000000000282800000000DC28DC000000000000DCDCDC2800000028282800000028DCDCDC000000000000DC28DC000000002828280000000000000000000000000000000000000028280000000000000000000000002D00F5F5F52D0000
310
000000280000DC28282800282800DC0000ACACAC0000000028282828282828282828282828282828280000000000000000000000BE0000000000000000000000000000000000000000000000000000000000000000000000000000000000000000000000000000000000000000000000000000000000000000BE0000000000
310
000000000000000000000000000000000000000000000000000000000000000000000000000000002828000000DCDCDCDCDCDCDCDCDCDCDCDCDCDC000000282828000000DCDCDCDCDCDCDCDCDCDCDCDCDCDC0000002828280000000000000000000000000000000000000028280000000000000000000000002D00F500002D
310
00000000002800DCDCDCDCDCDCDCDCDCDCDC00AC00AC0000000000000000000000000000000000000000000000000000000000000000BE0000000000000000000000000000000000000000000000000000000000000000000000000000000000000000000000000000000000000000000000000000000000000000BE000000
310
000000000000000000000000000000000000000000002828282828282828282828282828282828000000282800000000DC28DC00BEBEBEBE00DCDCDC0000000028282800000000DCDCDC00BEBEBEBE00DC28DC0000000028282800000000000000000000000000000000000000282800000000000000000000002D2D00F500
310
002D2D00000000280000DC00000000000000DC0000ACAC000000000000000000000000000000000000000000000000000000000000000000BE0000000000000000000000000000000000000000000000000000000000000000000000000000000000000000000000000000000000000000000000000000000000000000BE00
310
00000000000000000000000000000000000000000000000028282828282828282828282828282828280000002828000000000000DC0000BEBEBE00DCDC00000000002828280000000000DCDC00BEBEBEBE00DC00000000000028282800000000000000000000000000000000000000282800000000000000000000002D2D00
310
0000002D2D000000002800000000000000000000000000AC00AC0000000000000000000000000000000000000000000000000000000000000000BE0000000000000000000000000000000000000000000000000000000000000000000000000000000000000000000000000000000000000000000000000000000000000000
310
BE0000000000000000000000000000000000000000000000000000000000000000000000000000000000000000002828282828282828DCDCDCDCDCDCDCDCDC28282828282828282828282828DCDCDCDCDCDCDCDCDC282828282828282828282828282828282828282828282828282828282828000000000000000000000000
310
2D000000002D0000000000C328C3C3C3C3C3C3C3C3C3C3C3C3C3AC000000000000000000000000000000000000000000000000000000000000000000BE000000000000000000000000000000000000000000000000000000000000000000000000000000000000000000000000000000000000000000000000000000000000
310
0000BE00000000000000000000000000000000000000000000000000000000000000000000000000000000000000000028282828282828282828282828282828282828282828282828282828282828282828282828282828282828282828282828282828282828282828282828282828282828282800000000000000000000
310
2D2D2D2D2D2D2D2D2D2D2D2D2DC3C3C3C3C3C3C3C3C3C3C3C3C3C3AC00AC0000000000000000000000000000000000000000000000000000000000000000BE00000000000000000000000000000000000000000000000000000000000000000000000000000000000000000000000000000000000000000000000000000000
310
00000000BE0000000000000000000000000000000000000000000000000000000000000000000000000000000000000000000000000000000000000000000000000000000000000000000000000000000000000000000000000000000000000000000000000000000000000000000000000000000000000000000000000000
310
0000000000000000000000000000000000000000000000000000000000ACAC000000000000000000000000000000000000000000000000000000000000000000BE0000000000000000000000000000000000000000000000000000000000000000000000000000000000000000000000000000000000000000000000000000
310
000000000000BE000000000000000000000000000000000000000000000000000000000000000000000000000000000000000000000000000000000000000000000000000000000000000000000000000000000000000000000000000000000000000000000000000000000000000000000000000000000000000000000000
310
00000000000000000000000000000000000000000000000000000000000000AC00AC0000000000000000000000000000000000000000000000000000000000000000BE000000000000000000000000000000000000000000000000000000000000000000000000000000000000000000000000000000000000000000000000
310
0000000000000000BE00000000000000000000000000000000000000000000000000000000000000000000000000000000000000000000000000000000000000000000000000000000000000000000000000000000000000000000000000000000000000000000000000000000000000000000000000000000000000000000
310
000000000000000000000000000000000000000000000000000000000000000000ACAC000000000000000000000000000000000000000000000000000000000000000000BE00000000000000000000000000000000000000000000000000000000000000000000000000000000000000000000000000000000000000000000
310
00000000000000000000BE0000000000000000000000000000000000000000000000000000000000000000000000000000000000000000000000000000000000000000000000000000000000000000000000000000000000000000000000000000000000000000000000000000000000000000000000000000000000000000
310
0000000000000000000000000000000000000000000000000000000000000000000000AC00AC0000000000000000000000000000000000000000000000000000000000000000BE0000000000000000000000000000000000000000000000000000000000000000000000000000000000000000000000000000000000000000
310
000000000000000000000000BE000000000000000000000000000000000000000000000000000000000000000000000000000000000000000000000000000000000000000000000000000000000000000000000000000000000000000000000000000000000000000000000000000000000000000000000000000000000000
310
000000000000000000000000000000000000000000000000000000000000000000000000000000000000000000000000000000000000000000000000000000000000000000000000BE000000000000000000000000000000000000000000000000000000000000000000000000000000000000000000000000000000000000
310
0000000000000000000000000000BE00000000000000000000000000000000000000000000000000000000000000000000000000000000000000000000000000000000000000000000000000000000000000000000000000000000000000000000000000000000000000000000000000000000000000000000000000000000
310
0000000000000000000000000000000000000000000000000000000000000000000000000000000000000000000000000000000000000000000000000000000000000000000000000000BE00000000000000000000000000000000000000000000000000000000000000000000000000000000000000000000000000000000
310
00000000000000000000000000000000BE0000000000000000000000000000000000000000000000000000000000000000000000000000000000000000000000000000000000000000000000000000000000000000000000000000000000000000000000000000000000000000000000000000000000000000000000000000
310
00000000000000000000000000000000000000000000000000000000000000000000000000000000000000000000000000000000000000000000000000000000000000000000000000000000BE0000000000000000000000000000000000000000000000000000000000000000000000000000000000000000000000000000
310
000000000000000000000000000000000000BE000000000000000000000000000000000000000000000000000000000000000000000000000000000000000000000000000000000000000000000000000000000000000000000000000000000000000000000000000000000000000000000000000000000000000000000000
310
000000000000000000000000000000000000000000000000000000000000000000000000000000000000000000000000000000000000000000000000000000000000000000000000000000000000BE000000000000000000000000000000000000000000000000000000000000000000000000000000000000000000000000
310
0000000000000000000000000000000000000000BE00000000000000000000000000000000000000000000000000000000000000000000000000000000000000000000000000000000000000000000000000000000000000000000000000000000000000000000000000000000000000000000000000000000000000000000
310
0000000000000000000000000000000000000000000000000000000000000000000000000000000000000000000000000000000000000000000000000000000000000000000000000000000000000000BE00000000000000000000000000000000000000000000000000000000000000000000000000000000000000000000
310
00000000000000000000000000000000000000000000BE0000000000000000000000000000000000000000000000000000000000000000000000000000000000000000000000000000000000000000000000000000000000000000000000000000000000000000000000000000000000000000000000000000000000000000
310
00000000000000000000000000000000000000000000000000000000000000000000000000000000000000000000000000000000000000000000000000000000000000000000000000000000000000000000BE0000000000000000000000000000000000000000000000000000000000000000000000000000000000000000
310
000000000000000000000000000000000000000000000000BE000000000000000000000000000000000000000000000000000000000000000000000000000000000000000000000000000000000000000000000000000000000000000000000000000000000000000000000000000000000000000000000000000000000000
310
000000000000000000000000000000000000000000000000000000000000000000000000000000000000000000000000000000000000000000000000000000000000000000000000000000000000000000000000BE000000000000000000000000000000000000000000000000000000000000000000000000000000000000
310
0000000000000000000000000000000000000000000000000000BE00000000000000000000000000000000000000000000000000000000000000000000000000000000000000000000000000000000000000000000000000000000000000000000000000000000000000000000000000000000000000000000000000000000
310
0000000000000000000000000000000000000000000000000000000000000000000000000000000000000000000000000000000000000000000000000000000000000000000000000000000000000000000000000000BE00000000000000000000000000000000000000000000000000000000000000000000000000000000
310
00000000000000000000000000000000000000000000000000000000BE0000000000000000000000000000000000000000000000000000000000000000000000000000000000000000000000000000000000000000000000000000000000000000000000000000000000000000000000000000000000000000000000000000
310
00000000000000000000000000000000000000000000000000000000000000000000000000000000000000000000000000000000000000000000000000000000000000000000000000000000000000000000000000000000BE0000000000000000000000000000000000000000000000000000000000000000000000000000
310
000000000000000000000000000000000000000000000000000000000000BE000000000000000000000000000000000000000000000000000000000000000000000000000000000000000000000000000000000000000000000000000000000000000000000000000000000000000000000000000000000000000000000000
310
000000000000000000000000000000000000000000000000000000000000000000000000000000000000000000000000000000000000000000000000000000000000000000000000000000000000000000000000000000000000BE000000000000000000000000000000000000000000000000000000000000000000000000
310
0000000000000000000000000000000000000000000000000000000000000000BE00000000000000000000000000000000000000000000000000000000000000000000000000000000000000000000000000000000000000000000000000000000000000000000000000000000000000000000000000000000000000000000
310
0000000000000000000000000000000000000000000000000000000000000000000000000000000000000000000000000000000000000000000000000000000000000000000000000000000000000000000000000000000000000000BE00000000000000000000000000000000000000000000000000000000000000000000
310
00000000000000000000000000000000000000000000000000000000000000000000BE0000000000000000000000000000000000000000000000000000000000000000000000000000000000000000000000000000000000000000000000000000000000000000000000000000000000000000000000000000000000000000
310
00000000000000000000000000000000000000000000000000000000000000000000000000000000000000000000000000000000000000000000000000000000000000000000000000000000000000000000000000000000000000000000BE0000000000000000000000000000000000000000000000000000000000000000
310
000000000000000000000000000000000000000000000000000000000000000000000000BE000000000000000000000000000000000000000000000000000000000000000000000000000000000000000000000000000000000000000000000000000000000000000000000000000000000000000000000000000000000000
310
000000000000000000000000000000000000000000000000000000000000000000000000000000000000000000000000000000000000000000000000000000000000000000000000000000000000000000000000000000000000000000000000BE000000000000000000000000000000000000000000000000000000000000
310
0000000000000000000000000000000000000000000000000000000000000000000000000000BE00000000000000000000000000000000000000000000000000000000000000000000000000000000000000000000000000000000000000000000000000000000000000000000000000000000000000000000000000000000
310
0000000000000000000000000000000000000000000000000000000000000000000000000000000000000000000000000000000000000000000000000000000000000000000000000000000000000000000000000000000000000000000000000000BE00000000000000000000000000000000000000000000000000000000
310
00000000000000000000000000000000000000000000000000000000000000000000000000000000BE0000000000000000000000000000000000000000000000000000000000000000000000000000000000000000000000000000000000000000000000000000000000000000000000000000000000000000000000000000
310
00000000000000000000000000000000000000000000000000000000000000000000000000000000000000000000000000000000000000000000000000000000000000000000000000000000000000000000000000000000000000000000000000000000BE0000000000000000000000000000000000000000000000000000
310
000000000000000000000000000000000000000000000000000000000000000000000000000000000000BE000000000000000000000000000000000000000000000000000000000000000000000000000000000000000000000000000000000000000000000000000000000000000000000000000000000000000000000000
310
000000000000000000000000000000000000000000000000000000000000000000000000000000000000000000000000000000000000000000000000000000000000000000000000000000000000000000000000000000000000000000000000000000000000BE000000000000000000000000000000000000000000000000
310
0000000000000000000000000000000000000000000000000000000000000000000000000000000000000000BE00000000000000000000000000000000000000000000000000000000000000000000000000000000000000000000000000000000000000000000000000000000000000000000000000000000000000000000
310
0000000000000000000000000000000000000000000000000000000000000000000000000000000000000000000000000000000000000000000000000000000000000000000000000000000000000000000000000000000000000000000000000000000000000000BE00000000000000000000000000000000000000000000
310
00000000000000000000000000000000000000000000000000000000000000000000000000000000000000000000BE0000000000000000000000000000000000000000000000000000000000000000000000000000000000000000000000000000000000000000000000000000000000000000000000000000000000000000
310
00000000000000000000000000000000000000000000000000000000000000000000000000000000000000000000000000000000000000000000000000000000000000000000000000000000000000000000000000000000000000000000000000000000000000000000BE0000000000000000000000000000000000000000
310
000000000000000000000000000000000000000000000000000000000000000000000000000000000000000000000000BE000000000000000000000000000000000000000000000000000000000000000000000000000000000000000000000000000000000000000000000000000000000000000000000000000000000000
310
000000000000000000000000000000000000000000000000000000000000000000000000000000000000000000000000000000000000000000000000000000000000000000000000000000000000000000000000000000000000000000000000000000000000000000000000BE000000000000000000000000000000000000
310
0000000000000000000000000000000000000000000000000000000000000000000000000000000000000000000000000000BE00000000000000000000000000000000000000000000000000000000000000000000000000000000000000000000000000000000000000000000000000000000000000000000000000000000
310
0000000000000000000000000000000000000000000000000000000000000000000000000000000000000000000000000000000000000000000000000000000000000000000000000000000000000000000000000000000000000000000000000000000000000000000000000000BE00000000000000000000000000000000
310
00000000000000000000000000000000000000000000000000000000000000000000000000000000000000000000000000000000BE0000000000000000000000000000000000000000000000000000000000000000000000000000000000000000000000000000000000000000000000000000000000000000000000000000
310
00000000000000000000000000000000000000000000000000000000000000000000000000000000000000000000000000000000000000000000000000000000000000000000000000000000000000000000000000000000000000000000000000000000000000000000000000000000BE0000000000000000000000000000
310
000000000000000000000000000000000000000000000000000000000000000000000000000000000000000000000000000000000000BE000000000000000000000000000000000000000000000000000000000000000000000000000000000000000000000000000000000000000000000000000000000000000000000000
310
000000000000000000000000000000000000000000000000000000000000000000000000000000000000000000000000000000000000000000000000000000000000000000000000000000000000000000000000000000000000000000000000000000000000000000000000000000000000BE000000000000000000000000
310
0000000000000000000000000000000000000000000000000000000000000000000000000000000000000000000000000000000000000000BE00000000000000000000000000000000000000000000000000000000000000000000000000000000000000000000000000000000000000000000000000000000000000000000
310
0000000000000000000000000000000000000000000000000000000000000000000000000000000000000000000000000000000000000000000000000000000000000000000000000000000000000000000000000000000000000000000000000000000000000000000000000000000000000000BE00000000000000000000
310
00000000000000000000000000000000000000000000000000000000000000000000000000000000000000000000000000000000000000000000BE0000000000000000000000000000000000000000000000000000000000000000000000000000000000000000000000000000000000000000000000000000000000000000
310
00000000000000000000000000000000000000000000000000000000000000000000000000000000000000000000000000000000000000000000000000000000000000000000000000000000000000000000000000000000000000000000000000000000000000000000000000000000000000000000BE0000000000000000
310
000000000000000000000000000000000000000000000000000000000000000000000000000000000000000000000000000000000000000000000000BE000000000000000000000000000000000000000000000000000000000000000000000000000000000000000000000000000000000000000000000000000000000000
310
000000000000000000000000000000000000000000000000000000000000000000000000000000000000000000000000000000000000000000000000000000000000000000000000000000000000000000000000000000000000000000000000000000000000000000000000000000000000000000000000BE000000000000
310
0000000000000000000000000000000000000000000000000000000000000000000000000000000000000000000000000000000000000000000000000000BE00000000000000000000000000000000000000000000000000000000000000000000000000000000000000000000000000000000000000000000000000000000
310
0000000000000000000000000000000000000000000000000000000000000000000000000000000000000000000000000000000000000000000000000000000000000000000000000000000000000000000000000000000000000000000000000000000000000000000000000000000000000000000000000000BE00000000
310
00000000000000000000000000000000000000000000000000000000000000000000000000000000000000000000000000000000000000000000000000000000BEBEBEBEBEBEBEBEBEBEBEBEBEBEBEBEBEBEBEBEBEBEBEBEBEBEBEBEBEBEBEBEBEBEBEBEBEBEBEBEBEBEBEBEBEBEBEBEBEBEBEBEBEBEBEBEBEBEBEBEBEBEBE
310
BEBEBEBEBEBEBEBEBEBEBEBEBEBEBEBEBEBEBEBEBEBEBEBEBEBEBEBEBEBEBEBEBEBEBEBEBEBEBEBEBEBEBEBEBEBEBEBEBEBEBEBEBEBEBEBEBEBEBEBEBEBEBEBEBEBEBEBEBEBEBEBEBEBEBEBEBEBEBEBEBEBEBEBEBEBEBEBEBEBEBEBEBEBEBEBEBEBEBEBEBEBEBEBEBEBEBEBEBEBEBEBEBEBEBEBEBEBEBEBEBEBEBEBEBE0000
310
00000000000000000000000000000000000000000000000000000000000000000000000000000000000000000000000000000000000000000000000000000000000000000000000000000000000000000000000000000000000000000000000000000000000000000000000000000000000000000000000000000000000000
310
00000000000000000000000000000000000000000000000000000000000000000000000000000000000000000000000000000000000000000000000000000000000000000000000000000000000000000000000000000000000000000000000000000000000000000000000000000000000000000000000000000000000000
310
00000000000000000000000000000000000000000000000000000000000000000000
  0
XRECORD
  5
207AF
102
{ACAD_REACTORS
330
207AE
102
}
330
207AE
100
AcDbXrecord
280
     1
102
MATERIAL
148
0.0
149
0.0
149
0.0
 93
        0
 94
       63
282
     0
 72
     1
 77
     1
171
     1
175
     1
179
     1
273
     0
  0
XRECORD
  5
207AD
102
{ACAD_REACTORS
330
207AC
102
}
330
207AC
100
AcDbXrecord
280
     1
102
MATERIAL
148
0.0
149
0.0
149
0.0
 93
        0
 94
       63
282
     0
 72
     1
 77
     1
171
     1
175
     1
179
     1
273
     0
  0
XRECORD
  5
207B1
102
{ACAD_REACTORS
330
207B0
102
}
330
207B0
100
AcDbXrecord
280
     1
102
MATERIAL
148
0.0
149
0.0
149
0.0
 93
        0
 94
       63
282
     0
 72
     1
 77
     1
171
     1
175
     1
179
     1
273
     0
  0
CELLSTYLEMAP
  5
207AA
102
{ACAD_REACTORS
330
1950A
102
}
330
1950A
100
AcDbCellStyleMap
 90
        3
300
CELLSTYLE
  1
TABLEFORMAT_BEGIN
 90
        5
170
     1
 91
        0
 92
    32768
 62
   257
 93
        1
300
CONTENTFORMAT
  1
CONTENTFORMAT_BEGIN
 90
        0
 91
        0
 92
      512
 93
        0
300

 40
0.0
140
1.0
 94
        5
 62
     0
340
10
144
0.25
309
CONTENTFORMAT_END
171
     0
 94
        6
 95
        1
302
GRIDFORMAT
  1
GRIDFORMAT_BEGIN
 90
        0
 91
        1
 62
     0
 92
       -2
340
0
 93
        0
 40
0.045
309
GRIDFORMAT_END
 95
        2
302
GRIDFORMAT
  1
GRIDFORMAT_BEGIN
 90
        0
 91
        1
 62
     0
 92
       -2
340
0
 93
        0
 40
0.045
309
GRIDFORMAT_END
 95
        4
302
GRIDFORMAT
  1
GRIDFORMAT_BEGIN
 90
        0
 91
        1
 62
     0
 92
       -2
340
0
 93
        0
 40
0.045
309
GRIDFORMAT_END
 95
        8
302
GRIDFORMAT
  1
GRIDFORMAT_BEGIN
 90
        0
 91
        1
 62
     0
 92
       -2
340
0
 93
        0
 40
0.045
309
GRIDFORMAT_END
 95
       16
302
GRIDFORMAT
  1
GRIDFORMAT_BEGIN
 90
        0
 91
        1
 62
     0
 92
       -2
340
0
 93
        0
 40
0.045
309
GRIDFORMAT_END
 95
       32
302
GRIDFORMAT
  1
GRIDFORMAT_BEGIN
 90
        0
 91
        1
 62
     0
 92
       -2
340
0
 93
        0
 40
0.045
309
GRIDFORMAT_END
309
TABLEFORMAT_END
  1
CELLSTYLE_BEGIN
 90
        1
 91
        1
300
_TITLE
309
CELLSTYLE_END
300
CELLSTYLE
  1
TABLEFORMAT_BEGIN
 90
        5
170
     1
 91
        0
 92
        0
 62
   257
 93
        1
300
CONTENTFORMAT
  1
CONTENTFORMAT_BEGIN
 90
        0
 91
        0
 92
      512
 93
        0
300

 40
0.0
140
1.0
 94
        5
 62
     0
340
10
144
0.18
309
CONTENTFORMAT_END
171
     0
 94
        6
 95
        1
302
GRIDFORMAT
  1
GRIDFORMAT_BEGIN
 90
        0
 91
        1
 62
     0
 92
       -2
340
0
 93
        0
 40
0.045
309
GRIDFORMAT_END
 95
        2
302
GRIDFORMAT
  1
GRIDFORMAT_BEGIN
 90
        0
 91
        1
 62
     0
 92
       -2
340
0
 93
        0
 40
0.045
309
GRIDFORMAT_END
 95
        4
302
GRIDFORMAT
  1
GRIDFORMAT_BEGIN
 90
        0
 91
        1
 62
     0
 92
       -2
340
0
 93
        0
 40
0.045
309
GRIDFORMAT_END
 95
        8
302
GRIDFORMAT
  1
GRIDFORMAT_BEGIN
 90
        0
 91
        1
 62
     0
 92
       -2
340
0
 93
        0
 40
0.045
309
GRIDFORMAT_END
 95
       16
302
GRIDFORMAT
  1
GRIDFORMAT_BEGIN
 90
        0
 91
        1
 62
     0
 92
       -2
340
0
 93
        0
 40
0.045
309
GRIDFORMAT_END
 95
       32
302
GRIDFORMAT
  1
GRIDFORMAT_BEGIN
 90
        0
 91
        1
 62
     0
 92
       -2
340
0
 93
        0
 40
0.045
309
GRIDFORMAT_END
309
TABLEFORMAT_END
  1
CELLSTYLE_BEGIN
 90
        2
 91
        1
300
_HEADER
309
CELLSTYLE_END
300
CELLSTYLE
  1
TABLEFORMAT_BEGIN
 90
        5
170
     1
 91
        0
 92
        0
 62
   257
 93
        1
300
CONTENTFORMAT
  1
CONTENTFORMAT_BEGIN
 90
        0
 91
        0
 92
      512
 93
        0
300

 40
0.0
140
1.0
 94
        2
 62
     0
340
10
144
0.18
309
CONTENTFORMAT_END
171
     0
 94
        6
 95
        1
302
GRIDFORMAT
  1
GRIDFORMAT_BEGIN
 90
        0
 91
        1
 62
     0
 92
       -2
340
0
 93
        0
 40
0.045
309
GRIDFORMAT_END
 95
        2
302
GRIDFORMAT
  1
GRIDFORMAT_BEGIN
 90
        0
 91
        1
 62
     0
 92
       -2
340
0
 93
        0
 40
0.045
309
GRIDFORMAT_END
 95
        4
302
GRIDFORMAT
  1
GRIDFORMAT_BEGIN
 90
        0
 91
        1
 62
     0
 92
       -2
340
0
 93
        0
 40
0.045
309
GRIDFORMAT_END
 95
        8
302
GRIDFORMAT
  1
GRIDFORMAT_BEGIN
 90
        0
 91
        1
 62
     0
 92
       -2
340
0
 93
        0
 40
0.045
309
GRIDFORMAT_END
 95
       16
302
GRIDFORMAT
  1
GRIDFORMAT_BEGIN
 90
        0
 91
        1
 62
     0
 92
       -2
340
0
 93
        0
 40
0.045
309
GRIDFORMAT_END
 95
       32
302
GRIDFORMAT
  1
GRIDFORMAT_BEGIN
 90
        0
 91
        1
 62
     0
 92
       -2
340
0
 93
        0
 40
0.045
309
GRIDFORMAT_END
309
TABLEFORMAT_END
  1
CELLSTYLE_BEGIN
 90
        3
 91
        2
300
_DATA
309
CELLSTYLE_END
  0
XRECORD
  5
207CA
102
{ACAD_REACTORS
330
1950A
102
}
330
1950A
100
AcDbXrecord
280
     1
102
ACAD_ROUNDTRIP_PRE2007_TABLESTYLE
 90
      512
 91
        0
  1

 92
      512
 93
        0
  2

 94
      512
 95
        0
  3

  0
XRECORD
  5
207BD
102
{ACAD_REACTORS
330
207BC
102
}
330
207BC
100
AcDbXrecord
280
     1
102
RTVSPost2010Prop28
280
     1
102
RTVSPost2010PropOp28
 70
     1
102
RTVSPost2010Prop29
280
     1
102
RTVSPost2010PropOp29
 70
     1
102
RTVSPost2010Prop30
280
     0
102
RTVSPost2010PropOp30
 70
     1
102
RTVSPost2010Prop31
280
     0
102
RTVSPost2010PropOp31
 70
     1
102
RTVSPost2010Prop32
280
     0
102
RTVSPost2010PropOp32
 70
     1
102
RTVSPost2010Prop33
280
     0
102
RTVSPost2010PropOp33
 70
     1
102
RTVSPost2010Prop34
280
     0
102
RTVSPost2010PropOp34
 70
     1
102
RTVSPost2010Prop35
280
     0
102
RTVSPost2010PropOp35
 70
     1
102
RTVSPost2010Prop36
280
     0
102
RTVSPost2010PropOp36
 70
     1
102
RTVSPost2010Prop37
 90
       50
102
RTVSPost2010PropOp37
 70
     1
102
RTVSPost2010Prop38
140
0.0
102
RTVSPost2010PropOp38
 70
     1
102
RTVSPost2010Prop39
140
1.0
102
RTVSPost2010PropOp39
 70
     1
102
RTVSPost2010Prop40
 90
        0
102
RTVSPost2010PropOp40
 70
     1
102
RTVSPost2010Prop41ColorIndex
 90
       18
102
RTVSPost2010Prop41ColorRGB
 90
        0
102
RTVSPost2010PropOp41
 70
     1
102
RTVSPost2010Prop42
 90
       50
102
RTVSPost2010PropOp42
 70
     1
102
RTVSPost2010Prop43
 90
        3
102
RTVSPost2010PropOp43
 70
     1
102
RTVSPost2010Prop44ColorIndex
 90
        5
102
RTVSPost2010Prop44ColorRGB
 90
      255
102
RTVSPost2010PropOp44
 70
     1
102
RTVSPost2010Prop45
280
     0
102
RTVSPost2010PropOp45
 70
     1
102
RTVSPost2010Prop46
 90
       50
102
RTVSPost2010PropOp46
 70
     1
102
RTVSPost2010Prop47
 90
       50
102
RTVSPost2010PropOp47
 70
     1
102
RTVSPost2010Prop48
 90
       50
102
RTVSPost2010PropOp48
 70
     1
102
RTVSPost2010Prop49
280
     0
102
RTVSPost2010PropOp49
 70
     1
102
RTVSPost2010Prop50
 90
       50
102
RTVSPost2010PropOp50
 70
     1
102
RTVSPost2010Prop51ColorIndex
 90
      256
102
RTVSPost2010Prop51ColorRGB
 90
-16777216
102
RTVSPost2010PropOp51
 70
     0
102
RTVSPost2010Prop52
140
1.0
102
RTVSPost2010PropOp52
 70
     0
102
RTVSPost2010Prop53
 90
        2
102
RTVSPost2010PropOp53
 70
     1
102
RTVSPost2010Prop54
  1
strokes_ogs.tif
102
RTVSPost2010PropOp54
 70
     1
102
RTVSPost2010Prop55
280
     0
102
RTVSPost2010PropOp55
 70
     1
102
RTVSPost2010Prop56
140
1.0
102
RTVSPost2010PropOp56
 70
     1
102
RTVSPost2010Prop57
140
1.0
102
RTVSPost2010PropOp57
 70
     1
102
RTVSPropertyOp0
 70
     1
102
RTVSPropertyOp1
 70
     1
102
RTVSPropertyOp2
 70
     1
102
RTVSPropertyOp3
 70
     1
102
RTVSPropertyOp4
 70
     1
102
RTVSPropertyOp5
 70
     1
102
RTVSPropertyOp6
 70
     1
102
RTVSPropertyOp7
 70
     1
102
RTVSPropertyOp8
 70
     1
102
RTVSPropertyOp9
 70
     1
102
RTVSPropertyOp10
 70
     1
102
RTVSPropertyOp11
 70
     1
102
RTVSPropertyOp12
 70
     1
102
RTVSPropertyOp13
 70
     1
102
RTVSPropertyOp14
 70
     1
102
RTVSPropertyOp15
 70
     1
102
RTVSPropertyOp16
 70
     1
102
RTVSPropertyOp17
 70
     1
102
RTVSPropertyOp18
 70
     1
102
RTVSPropertyOp19
 70
     1
102
RTVSPropertyOp20
 70
     1
102
RTVSPropertyOp21
 70
     1
102
RTVSPropertyOp22
 70
     1
102
RTVSPropertyOp23
 70
     1
102
RTVSPropertyOp24
 70
     1
102
RTVSPropertyOp25
 70
     1
102
RTVSPropertyOp26
 70
     1
102
RTVSPropertyOp27
 70
     1
102
RTVSPropertyOp28
 70
     1
102
RTVSPropertyOp29
 70
     1
102
RTVSPropertyOp30
 70
     1
102
RTVSPropertyOp31
 70
     1
102
RTVSPropertyOp32
 70
     1
102
RTVSPropertyOp33
 70
     1
102
RTVSPropertyOp34
 70
     1
102
RTVSPropertyOp35
 70
     1
102
RTVSPropertyOp36
 70
     1
102
RTVSPropertyOp37
 70
     1
102
RTVSPropertyOp38
 70
     1
102
RTVSPropertyOp39
 70
     1
102
RTVSPropertyOp40
 70
     1
102
RTVSPropertyOp41
 70
     1
102
RTVSPropertyOp42
 70
     1
102
RTVSPropertyOp43
 70
     1
102
RTVSPropertyOp44
 70
     1
102
RTVSPropertyOp45
 70
     1
102
RTVSPropertyOp46
 70
     1
102
RTVSPropertyOp47
 70
     1
102
RTVSPropertyOp48
 70
     1
102
RTVSPropertyOp49
 70
     1
102
RTVSPropertyOp50
 70
     1
102
RTVSPropertyOp51
 70
     0
102
RTVSPropertyOp52
 70
     0
102
RTVSPropertyOp53
 70
     1
102
RTVSPropertyOp54
 70
     1
102
RTVSPropertyOp55
 70
     1
102
RTVSPropertyOp56
 70
     1
102
RTVSPropertyOp57
 70
     1
102
RTVSPropertyOp58
 70
     1
102
RTVSPropertyOp59
 70
     1
102
RTVSPropertyOp60
 70
     1
102
RTVSPropertyOp61
 70
     1
102
RTVSPropertyOp62
 70
     1
  0
XRECORD
  5
207CE
102
{ACAD_REACTORS
330
207CD
102
}
330
207CD
100
AcDbXrecord
280
     1
102
RTVSPost2010Prop28
280
     0
102
RTVSPost2010PropOp28
 70
     1
102
RTVSPost2010Prop29
280
     1
102
RTVSPost2010PropOp29
 70
     1
102
RTVSPost2010Prop30
280
     1
102
RTVSPost2010PropOp30
 70
     1
102
RTVSPost2010Prop31
280
     0
102
RTVSPost2010PropOp31
 70
     1
102
RTVSPost2010Prop32
280
     0
102
RTVSPost2010PropOp32
 70
     1
102
RTVSPost2010Prop33
280
     0
102
RTVSPost2010PropOp33
 70
     1
102
RTVSPost2010Prop34
280
     0
102
RTVSPost2010PropOp34
 70
     1
102
RTVSPost2010Prop35
280
     0
102
RTVSPost2010PropOp35
 70
     1
102
RTVSPost2010Prop36
280
     0
102
RTVSPost2010PropOp36
 70
     1
102
RTVSPost2010Prop37
 90
       50
102
RTVSPost2010PropOp37
 70
     1
102
RTVSPost2010Prop38
140
0.0
102
RTVSPost2010PropOp38
 70
     1
102
RTVSPost2010Prop39
140
1.0
102
RTVSPost2010PropOp39
 70
     1
102
RTVSPost2010Prop40
 90
        0
102
RTVSPost2010PropOp40
 70
     1
102
RTVSPost2010Prop41ColorIndex
 90
       18
102
RTVSPost2010Prop41ColorRGB
 90
        0
102
RTVSPost2010PropOp41
 70
     1
102
RTVSPost2010Prop42
 90
       50
102
RTVSPost2010PropOp42
 70
     1
102
RTVSPost2010Prop43
 90
        3
102
RTVSPost2010PropOp43
 70
     1
102
RTVSPost2010Prop44ColorIndex
 90
        5
102
RTVSPost2010Prop44ColorRGB
 90
      255
102
RTVSPost2010PropOp44
 70
     1
102
RTVSPost2010Prop45
280
     0
102
RTVSPost2010PropOp45
 70
     1
102
RTVSPost2010Prop46
 90
       50
102
RTVSPost2010PropOp46
 70
     1
102
RTVSPost2010Prop47
 90
       50
102
RTVSPost2010PropOp47
 70
     1
102
RTVSPost2010Prop48
 90
       50
102
RTVSPost2010PropOp48
 70
     1
102
RTVSPost2010Prop49
280
     0
102
RTVSPost2010PropOp49
 70
     1
102
RTVSPost2010Prop50
 90
       50
102
RTVSPost2010PropOp50
 70
     1
102
RTVSPost2010Prop51ColorIndex
 90
      256
102
RTVSPost2010Prop51ColorRGB
 90
-16777216
102
RTVSPost2010PropOp51
 70
     0
102
RTVSPost2010Prop52
140
1.0
102
RTVSPost2010PropOp52
 70
     0
102
RTVSPost2010Prop53
 90
        2
102
RTVSPost2010PropOp53
 70
     1
102
RTVSPost2010Prop54
  1
strokes_ogs.tif
102
RTVSPost2010PropOp54
 70
     1
102
RTVSPost2010Prop55
280
     0
102
RTVSPost2010PropOp55
 70
     1
102
RTVSPost2010Prop56
140
1.0
102
RTVSPost2010PropOp56
 70
     1
102
RTVSPost2010Prop57
140
1.0
102
RTVSPost2010PropOp57
 70
     1
102
RTVSPropertyOp0
 70
     1
102
RTVSPropertyOp1
 70
     1
102
RTVSPropertyOp2
 70
     1
102
RTVSPropertyOp3
 70
     1
102
RTVSPropertyOp4
 70
     1
102
RTVSPropertyOp5
 70
     1
102
RTVSPropertyOp6
 70
     1
102
RTVSPropertyOp7
 70
     1
102
RTVSPropertyOp8
 70
     1
102
RTVSPropertyOp9
 70
     1
102
RTVSPropertyOp10
 70
     1
102
RTVSPropertyOp11
 70
     1
102
RTVSPropertyOp12
 70
     1
102
RTVSPropertyOp13
 70
     1
102
RTVSPropertyOp14
 70
     1
102
RTVSPropertyOp15
 70
     1
102
RTVSPropertyOp16
 70
     1
102
RTVSPropertyOp17
 70
     1
102
RTVSPropertyOp18
 70
     1
102
RTVSPropertyOp19
 70
     1
102
RTVSPropertyOp20
 70
     1
102
RTVSPropertyOp21
 70
     1
102
RTVSPropertyOp22
 70
     1
102
RTVSPropertyOp23
 70
     1
102
RTVSPropertyOp24
 70
     1
102
RTVSPropertyOp25
 70
     1
102
RTVSPropertyOp26
 70
     1
102
RTVSPropertyOp27
 70
     1
102
RTVSPropertyOp28
 70
     1
102
RTVSPropertyOp29
 70
     1
102
RTVSPropertyOp30
 70
     1
102
RTVSPropertyOp31
 70
     1
102
RTVSPropertyOp32
 70
     1
102
RTVSPropertyOp33
 70
     1
102
RTVSPropertyOp34
 70
     1
102
RTVSPropertyOp35
 70
     1
102
RTVSPropertyOp36
 70
     1
102
RTVSPropertyOp37
 70
     1
102
RTVSPropertyOp38
 70
     1
102
RTVSPropertyOp39
 70
     1
102
RTVSPropertyOp40
 70
     1
102
RTVSPropertyOp41
 70
     1
102
RTVSPropertyOp42
 70
     1
102
RTVSPropertyOp43
 70
     1
102
RTVSPropertyOp44
 70
     1
102
RTVSPropertyOp45
 70
     1
102
RTVSPropertyOp46
 70
     1
102
RTVSPropertyOp47
 70
     1
102
RTVSPropertyOp48
 70
     1
102
RTVSPropertyOp49
 70
     1
102
RTVSPropertyOp50
 70
     1
102
RTVSPropertyOp51
 70
     0
102
RTVSPropertyOp52
 70
     0
102
RTVSPropertyOp53
 70
     1
102
RTVSPropertyOp54
 70
     1
102
RTVSPropertyOp55
 70
     1
102
RTVSPropertyOp56
 70
     1
102
RTVSPropertyOp57
 70
     1
102
RTVSPropertyOp58
 70
     1
102
RTVSPropertyOp59
 70
     1
102
RTVSPropertyOp60
 70
     1
102
RTVSPropertyOp61
 70
     1
102
RTVSPropertyOp62
 70
     1
  0
XRECORD
  5
207CC
102
{ACAD_REACTORS
330
207CB
102
}
330
207CB
100
AcDbXrecord
280
     1
102
RTVSPost2010Prop28
280
     0
102
RTVSPost2010PropOp28
 70
     1
102
RTVSPost2010Prop29
280
     1
102
RTVSPost2010PropOp29
 70
     1
102
RTVSPost2010Prop30
280
     1
102
RTVSPost2010PropOp30
 70
     1
102
RTVSPost2010Prop31
280
     0
102
RTVSPost2010PropOp31
 70
     1
102
RTVSPost2010Prop32
280
     0
102
RTVSPost2010PropOp32
 70
     1
102
RTVSPost2010Prop33
280
     0
102
RTVSPost2010PropOp33
 70
     1
102
RTVSPost2010Prop34
280
     0
102
RTVSPost2010PropOp34
 70
     1
102
RTVSPost2010Prop35
280
     0
102
RTVSPost2010PropOp35
 70
     1
102
RTVSPost2010Prop36
280
     0
102
RTVSPost2010PropOp36
 70
     1
102
RTVSPost2010Prop37
 90
       50
102
RTVSPost2010PropOp37
 70
     1
102
RTVSPost2010Prop38
140
0.0
102
RTVSPost2010PropOp38
 70
     1
102
RTVSPost2010Prop39
140
1.0
102
RTVSPost2010PropOp39
 70
     1
102
RTVSPost2010Prop40
 90
        0
102
RTVSPost2010PropOp40
 70
     1
102
RTVSPost2010Prop41ColorIndex
 90
       18
102
RTVSPost2010Prop41ColorRGB
 90
        0
102
RTVSPost2010PropOp41
 70
     1
102
RTVSPost2010Prop42
 90
       50
102
RTVSPost2010PropOp42
 70
     1
102
RTVSPost2010Prop43
 90
        3
102
RTVSPost2010PropOp43
 70
     1
102
RTVSPost2010Prop44ColorIndex
 90
        5
102
RTVSPost2010Prop44ColorRGB
 90
      255
102
RTVSPost2010PropOp44
 70
     1
102
RTVSPost2010Prop45
280
     0
102
RTVSPost2010PropOp45
 70
     1
102
RTVSPost2010Prop46
 90
       50
102
RTVSPost2010PropOp46
 70
     1
102
RTVSPost2010Prop47
 90
       50
102
RTVSPost2010PropOp47
 70
     1
102
RTVSPost2010Prop48
 90
       50
102
RTVSPost2010PropOp48
 70
     1
102
RTVSPost2010Prop49
280
     0
102
RTVSPost2010PropOp49
 70
     1
102
RTVSPost2010Prop50
 90
       50
102
RTVSPost2010PropOp50
 70
     1
102
RTVSPost2010Prop51ColorIndex
 90
      256
102
RTVSPost2010Prop51ColorRGB
 90
-16777216
102
RTVSPost2010PropOp51
 70
     0
102
RTVSPost2010Prop52
140
1.0
102
RTVSPost2010PropOp52
 70
     0
102
RTVSPost2010Prop53
 90
        2
102
RTVSPost2010PropOp53
 70
     1
102
RTVSPost2010Prop54
  1
strokes_ogs.tif
102
RTVSPost2010PropOp54
 70
     1
102
RTVSPost2010Prop55
280
     0
102
RTVSPost2010PropOp55
 70
     1
102
RTVSPost2010Prop56
140
1.0
102
RTVSPost2010PropOp56
 70
     1
102
RTVSPost2010Prop57
140
1.0
102
RTVSPost2010PropOp57
 70
     1
102
RTVSPropertyOp0
 70
     1
102
RTVSPropertyOp1
 70
     1
102
RTVSPropertyOp2
 70
     1
102
RTVSPropertyOp3
 70
     1
102
RTVSPropertyOp4
 70
     1
102
RTVSPropertyOp5
 70
     1
102
RTVSPropertyOp6
 70
     1
102
RTVSPropertyOp7
 70
     1
102
RTVSPropertyOp8
 70
     1
102
RTVSPropertyOp9
 70
     1
102
RTVSPropertyOp10
 70
     1
102
RTVSPropertyOp11
 70
     1
102
RTVSPropertyOp12
 70
     1
102
RTVSPropertyOp13
 70
     1
102
RTVSPropertyOp14
 70
     1
102
RTVSPropertyOp15
 70
     1
102
RTVSPropertyOp16
 70
     1
102
RTVSPropertyOp17
 70
     1
102
RTVSPropertyOp18
 70
     1
102
RTVSPropertyOp19
 70
     1
102
RTVSPropertyOp20
 70
     1
102
RTVSPropertyOp21
 70
     1
102
RTVSPropertyOp22
 70
     1
102
RTVSPropertyOp23
 70
     1
102
RTVSPropertyOp24
 70
     1
102
RTVSPropertyOp25
 70
     1
102
RTVSPropertyOp26
 70
     1
102
RTVSPropertyOp27
 70
     1
102
RTVSPropertyOp28
 70
     1
102
RTVSPropertyOp29
 70
     1
102
RTVSPropertyOp30
 70
     1
102
RTVSPropertyOp31
 70
     1
102
RTVSPropertyOp32
 70
     1
102
RTVSPropertyOp33
 70
     1
102
RTVSPropertyOp34
 70
     1
102
RTVSPropertyOp35
 70
     1
102
RTVSPropertyOp36
 70
     1
102
RTVSPropertyOp37
 70
     1
102
RTVSPropertyOp38
 70
     1
102
RTVSPropertyOp39
 70
     1
102
RTVSPropertyOp40
 70
     1
102
RTVSPropertyOp41
 70
     1
102
RTVSPropertyOp42
 70
     1
102
RTVSPropertyOp43
 70
     1
102
RTVSPropertyOp44
 70
     1
102
RTVSPropertyOp45
 70
     1
102
RTVSPropertyOp46
 70
     1
102
RTVSPropertyOp47
 70
     1
102
RTVSPropertyOp48
 70
     1
102
RTVSPropertyOp49
 70
     1
102
RTVSPropertyOp50
 70
     1
102
RTVSPropertyOp51
 70
     0
102
RTVSPropertyOp52
 70
     0
102
RTVSPropertyOp53
 70
     1
102
RTVSPropertyOp54
 70
     1
102
RTVSPropertyOp55
 70
     1
102
RTVSPropertyOp56
 70
     1
102
RTVSPropertyOp57
 70
     1
102
RTVSPropertyOp58
 70
     1
102
RTVSPropertyOp59
 70
     1
102
RTVSPropertyOp60
 70
     1
102
RTVSPropertyOp61
 70
     1
102
RTVSPropertyOp62
 70
     1
  0
XRECORD
  5
207BB
102
{ACAD_REACTORS
330
207BA
102
}
330
207BA
100
AcDbXrecord
280
     1
102
RTVSPost2010Prop28
280
     0
102
RTVSPost2010PropOp28
 70
     1
102
RTVSPost2010Prop29
280
     1
102
RTVSPost2010PropOp29
 70
     1
102
RTVSPost2010Prop30
280
     1
102
RTVSPost2010PropOp30
 70
     1
102
RTVSPost2010Prop31
280
     0
102
RTVSPost2010PropOp31
 70
     1
102
RTVSPost2010Prop32
280
     0
102
RTVSPost2010PropOp32
 70
     1
102
RTVSPost2010Prop33
280
     0
102
RTVSPost2010PropOp33
 70
     1
102
RTVSPost2010Prop34
280
     0
102
RTVSPost2010PropOp34
 70
     1
102
RTVSPost2010Prop35
280
     0
102
RTVSPost2010PropOp35
 70
     1
102
RTVSPost2010Prop36
280
     0
102
RTVSPost2010PropOp36
 70
     1
102
RTVSPost2010Prop37
 90
       50
102
RTVSPost2010PropOp37
 70
     1
102
RTVSPost2010Prop38
140
0.0
102
RTVSPost2010PropOp38
 70
     1
102
RTVSPost2010Prop39
140
1.0
102
RTVSPost2010PropOp39
 70
     1
102
RTVSPost2010Prop40
 90
        0
102
RTVSPost2010PropOp40
 70
     1
102
RTVSPost2010Prop41ColorIndex
 90
       18
102
RTVSPost2010Prop41ColorRGB
 90
        0
102
RTVSPost2010PropOp41
 70
     1
102
RTVSPost2010Prop42
 90
       50
102
RTVSPost2010PropOp42
 70
     1
102
RTVSPost2010Prop43
 90
        3
102
RTVSPost2010PropOp43
 70
     1
102
RTVSPost2010Prop44ColorIndex
 90
        5
102
RTVSPost2010Prop44ColorRGB
 90
      255
102
RTVSPost2010PropOp44
 70
     1
102
RTVSPost2010Prop45
280
     0
102
RTVSPost2010PropOp45
 70
     1
102
RTVSPost2010Prop46
 90
       50
102
RTVSPost2010PropOp46
 70
     1
102
RTVSPost2010Prop47
 90
       50
102
RTVSPost2010PropOp47
 70
     1
102
RTVSPost2010Prop48
 90
       50
102
RTVSPost2010PropOp48
 70
     1
102
RTVSPost2010Prop49
280
     0
102
RTVSPost2010PropOp49
 70
     1
102
RTVSPost2010Prop50
 90
       50
102
RTVSPost2010PropOp50
 70
     1
102
RTVSPost2010Prop51ColorIndex
 90
      256
102
RTVSPost2010Prop51ColorRGB
 90
-16777216
102
RTVSPost2010PropOp51
 70
     0
102
RTVSPost2010Prop52
140
1.0
102
RTVSPost2010PropOp52
 70
     0
102
RTVSPost2010Prop53
 90
        2
102
RTVSPost2010PropOp53
 70
     1
102
RTVSPost2010Prop54
  1
strokes_ogs.tif
102
RTVSPost2010PropOp54
 70
     1
102
RTVSPost2010Prop55
280
     0
102
RTVSPost2010PropOp55
 70
     1
102
RTVSPost2010Prop56
140
1.0
102
RTVSPost2010PropOp56
 70
     1
102
RTVSPost2010Prop57
140
1.0
102
RTVSPost2010PropOp57
 70
     1
102
RTVSPropertyOp0
 70
     1
102
RTVSPropertyOp1
 70
     1
102
RTVSPropertyOp2
 70
     1
102
RTVSPropertyOp3
 70
     1
102
RTVSPropertyOp4
 70
     1
102
RTVSPropertyOp5
 70
     1
102
RTVSPropertyOp6
 70
     1
102
RTVSPropertyOp7
 70
     1
102
RTVSPropertyOp8
 70
     1
102
RTVSPropertyOp9
 70
     1
102
RTVSPropertyOp10
 70
     1
102
RTVSPropertyOp11
 70
     1
102
RTVSPropertyOp12
 70
     1
102
RTVSPropertyOp13
 70
     1
102
RTVSPropertyOp14
 70
     1
102
RTVSPropertyOp15
 70
     1
102
RTVSPropertyOp16
 70
     1
102
RTVSPropertyOp17
 70
     1
102
RTVSPropertyOp18
 70
     1
102
RTVSPropertyOp19
 70
     1
102
RTVSPropertyOp20
 70
     1
102
RTVSPropertyOp21
 70
     1
102
RTVSPropertyOp22
 70
     1
102
RTVSPropertyOp23
 70
     1
102
RTVSPropertyOp24
 70
     1
102
RTVSPropertyOp25
 70
     1
102
RTVSPropertyOp26
 70
     1
102
RTVSPropertyOp27
 70
     1
102
RTVSPropertyOp28
 70
     1
102
RTVSPropertyOp29
 70
     1
102
RTVSPropertyOp30
 70
     1
102
RTVSPropertyOp31
 70
     1
102
RTVSPropertyOp32
 70
     1
102
RTVSPropertyOp33
 70
     1
102
RTVSPropertyOp34
 70
     1
102
RTVSPropertyOp35
 70
     1
102
RTVSPropertyOp36
 70
     1
102
RTVSPropertyOp37
 70
     1
102
RTVSPropertyOp38
 70
     1
102
RTVSPropertyOp39
 70
     1
102
RTVSPropertyOp40
 70
     1
102
RTVSPropertyOp41
 70
     1
102
RTVSPropertyOp42
 70
     1
102
RTVSPropertyOp43
 70
     1
102
RTVSPropertyOp44
 70
     1
102
RTVSPropertyOp45
 70
     1
102
RTVSPropertyOp46
 70
     1
102
RTVSPropertyOp47
 70
     1
102
RTVSPropertyOp48
 70
     1
102
RTVSPropertyOp49
 70
     1
102
RTVSPropertyOp50
 70
     1
102
RTVSPropertyOp51
 70
     0
102
RTVSPropertyOp52
 70
     0
102
RTVSPropertyOp53
 70
     1
102
RTVSPropertyOp54
 70
     1
102
RTVSPropertyOp55
 70
     1
102
RTVSPropertyOp56
 70
     1
102
RTVSPropertyOp57
 70
     1
102
RTVSPropertyOp58
 70
     1
102
RTVSPropertyOp59
 70
     1
102
RTVSPropertyOp60
 70
     1
102
RTVSPropertyOp61
 70
     1
102
RTVSPropertyOp62
 70
     1
  0
XRECORD
  5
207C1
102
{ACAD_REACTORS
330
207C0
102
}
330
207C0
100
AcDbXrecord
280
     1
102
RTVSPost2010Prop28
280
     0
102
RTVSPost2010PropOp28
 70
     1
102
RTVSPost2010Prop29
280
     1
102
RTVSPost2010PropOp29
 70
     1
102
RTVSPost2010Prop30
280
     1
102
RTVSPost2010PropOp30
 70
     1
102
RTVSPost2010Prop31
280
     0
102
RTVSPost2010PropOp31
 70
     1
102
RTVSPost2010Prop32
280
     0
102
RTVSPost2010PropOp32
 70
     1
102
RTVSPost2010Prop33
280
     0
102
RTVSPost2010PropOp33
 70
     1
102
RTVSPost2010Prop34
280
     0
102
RTVSPost2010PropOp34
 70
     1
102
RTVSPost2010Prop35
280
     0
102
RTVSPost2010PropOp35
 70
     1
102
RTVSPost2010Prop36
280
     0
102
RTVSPost2010PropOp36
 70
     1
102
RTVSPost2010Prop37
 90
       50
102
RTVSPost2010PropOp37
 70
     1
102
RTVSPost2010Prop38
140
0.0
102
RTVSPost2010PropOp38
 70
     1
102
RTVSPost2010Prop39
140
1.0
102
RTVSPost2010PropOp39
 70
     1
102
RTVSPost2010Prop40
 90
        0
102
RTVSPost2010PropOp40
 70
     1
102
RTVSPost2010Prop41ColorIndex
 90
       18
102
RTVSPost2010Prop41ColorRGB
 90
        0
102
RTVSPost2010PropOp41
 70
     1
102
RTVSPost2010Prop42
 90
       50
102
RTVSPost2010PropOp42
 70
     1
102
RTVSPost2010Prop43
 90
        3
102
RTVSPost2010PropOp43
 70
     1
102
RTVSPost2010Prop44ColorIndex
 90
        5
102
RTVSPost2010Prop44ColorRGB
 90
      255
102
RTVSPost2010PropOp44
 70
     1
102
RTVSPost2010Prop45
280
     0
102
RTVSPost2010PropOp45
 70
     1
102
RTVSPost2010Prop46
 90
       50
102
RTVSPost2010PropOp46
 70
     1
102
RTVSPost2010Prop47
 90
       50
102
RTVSPost2010PropOp47
 70
     1
102
RTVSPost2010Prop48
 90
       50
102
RTVSPost2010PropOp48
 70
     1
102
RTVSPost2010Prop49
280
     0
102
RTVSPost2010PropOp49
 70
     1
102
RTVSPost2010Prop50
 90
       50
102
RTVSPost2010PropOp50
 70
     1
102
RTVSPost2010Prop51ColorIndex
 90
      256
102
RTVSPost2010Prop51ColorRGB
 90
-16777216
102
RTVSPost2010PropOp51
 70
     0
102
RTVSPost2010Prop52
140
1.0
102
RTVSPost2010PropOp52
 70
     0
102
RTVSPost2010Prop53
 90
        2
102
RTVSPost2010PropOp53
 70
     1
102
RTVSPost2010Prop54
  1
strokes_ogs.tif
102
RTVSPost2010PropOp54
 70
     1
102
RTVSPost2010Prop55
280
     0
102
RTVSPost2010PropOp55
 70
     1
102
RTVSPost2010Prop56
140
1.0
102
RTVSPost2010PropOp56
 70
     1
102
RTVSPost2010Prop57
140
1.0
102
RTVSPost2010PropOp57
 70
     1
102
RTVSPropertyOp0
 70
     1
102
RTVSPropertyOp1
 70
     1
102
RTVSPropertyOp2
 70
     1
102
RTVSPropertyOp3
 70
     1
102
RTVSPropertyOp4
 70
     1
102
RTVSPropertyOp5
 70
     1
102
RTVSPropertyOp6
 70
     1
102
RTVSPropertyOp7
 70
     1
102
RTVSPropertyOp8
 70
     1
102
RTVSPropertyOp9
 70
     1
102
RTVSPropertyOp10
 70
     1
102
RTVSPropertyOp11
 70
     1
102
RTVSPropertyOp12
 70
     1
102
RTVSPropertyOp13
 70
     1
102
RTVSPropertyOp14
 70
     1
102
RTVSPropertyOp15
 70
     1
102
RTVSPropertyOp16
 70
     1
102
RTVSPropertyOp17
 70
     1
102
RTVSPropertyOp18
 70
     1
102
RTVSPropertyOp19
 70
     1
102
RTVSPropertyOp20
 70
     1
102
RTVSPropertyOp21
 70
     1
102
RTVSPropertyOp22
 70
     1
102
RTVSPropertyOp23
 70
     1
102
RTVSPropertyOp24
 70
     1
102
RTVSPropertyOp25
 70
     1
102
RTVSPropertyOp26
 70
     1
102
RTVSPropertyOp27
 70
     1
102
RTVSPropertyOp28
 70
     1
102
RTVSPropertyOp29
 70
     1
102
RTVSPropertyOp30
 70
     1
102
RTVSPropertyOp31
 70
     1
102
RTVSPropertyOp32
 70
     1
102
RTVSPropertyOp33
 70
     1
102
RTVSPropertyOp34
 70
     1
102
RTVSPropertyOp35
 70
     1
102
RTVSPropertyOp36
 70
     1
102
RTVSPropertyOp37
 70
     1
102
RTVSPropertyOp38
 70
     1
102
RTVSPropertyOp39
 70
     1
102
RTVSPropertyOp40
 70
     1
102
RTVSPropertyOp41
 70
     1
102
RTVSPropertyOp42
 70
     1
102
RTVSPropertyOp43
 70
     1
102
RTVSPropertyOp44
 70
     1
102
RTVSPropertyOp45
 70
     1
102
RTVSPropertyOp46
 70
     1
102
RTVSPropertyOp47
 70
     1
102
RTVSPropertyOp48
 70
     1
102
RTVSPropertyOp49
 70
     1
102
RTVSPropertyOp50
 70
     1
102
RTVSPropertyOp51
 70
     0
102
RTVSPropertyOp52
 70
     0
102
RTVSPropertyOp53
 70
     1
102
RTVSPropertyOp54
 70
     1
102
RTVSPropertyOp55
 70
     1
102
RTVSPropertyOp56
 70
     1
102
RTVSPropertyOp57
 70
     1
102
RTVSPropertyOp58
 70
     1
102
RTVSPropertyOp59
 70
     1
102
RTVSPropertyOp60
 70
     1
102
RTVSPropertyOp61
 70
     1
102
RTVSPropertyOp62
 70
     1
  0
XRECORD
  5
207C9
102
{ACAD_REACTORS
330
207C8
102
}
330
207C8
100
AcDbXrecord
280
     1
102
RTVSPost2010Prop28
280
     0
102
RTVSPost2010PropOp28
 70
     1
102
RTVSPost2010Prop29
280
     1
102
RTVSPost2010PropOp29
 70
     1
102
RTVSPost2010Prop30
280
     1
102
RTVSPost2010PropOp30
 70
     1
102
RTVSPost2010Prop31
280
     0
102
RTVSPost2010PropOp31
 70
     1
102
RTVSPost2010Prop32
280
     0
102
RTVSPost2010PropOp32
 70
     1
102
RTVSPost2010Prop33
280
     0
102
RTVSPost2010PropOp33
 70
     1
102
RTVSPost2010Prop34
280
     0
102
RTVSPost2010PropOp34
 70
     1
102
RTVSPost2010Prop35
280
     0
102
RTVSPost2010PropOp35
 70
     1
102
RTVSPost2010Prop36
280
     0
102
RTVSPost2010PropOp36
 70
     1
102
RTVSPost2010Prop37
 90
       50
102
RTVSPost2010PropOp37
 70
     1
102
RTVSPost2010Prop38
140
0.0
102
RTVSPost2010PropOp38
 70
     1
102
RTVSPost2010Prop39
140
1.0
102
RTVSPost2010PropOp39
 70
     1
102
RTVSPost2010Prop40
 90
        0
102
RTVSPost2010PropOp40
 70
     1
102
RTVSPost2010Prop41ColorIndex
 90
       18
102
RTVSPost2010Prop41ColorRGB
 90
        0
102
RTVSPost2010PropOp41
 70
     1
102
RTVSPost2010Prop42
 90
       50
102
RTVSPost2010PropOp42
 70
     1
102
RTVSPost2010Prop43
 90
        3
102
RTVSPost2010PropOp43
 70
     1
102
RTVSPost2010Prop44ColorIndex
 90
        5
102
RTVSPost2010Prop44ColorRGB
 90
      255
102
RTVSPost2010PropOp44
 70
     1
102
RTVSPost2010Prop45
280
     0
102
RTVSPost2010PropOp45
 70
     1
102
RTVSPost2010Prop46
 90
       50
102
RTVSPost2010PropOp46
 70
     1
102
RTVSPost2010Prop47
 90
       50
102
RTVSPost2010PropOp47
 70
     1
102
RTVSPost2010Prop48
 90
       50
102
RTVSPost2010PropOp48
 70
     1
102
RTVSPost2010Prop49
280
     0
102
RTVSPost2010PropOp49
 70
     1
102
RTVSPost2010Prop50
 90
       50
102
RTVSPost2010PropOp50
 70
     1
102
RTVSPost2010Prop51ColorIndex
 90
      256
102
RTVSPost2010Prop51ColorRGB
 90
-16777216
102
RTVSPost2010PropOp51
 70
     0
102
RTVSPost2010Prop52
140
1.0
102
RTVSPost2010PropOp52
 70
     0
102
RTVSPost2010Prop53
 90
        2
102
RTVSPost2010PropOp53
 70
     1
102
RTVSPost2010Prop54
  1
strokes_ogs.tif
102
RTVSPost2010PropOp54
 70
     1
102
RTVSPost2010Prop55
280
     0
102
RTVSPost2010PropOp55
 70
     1
102
RTVSPost2010Prop56
140
1.0
102
RTVSPost2010PropOp56
 70
     1
102
RTVSPost2010Prop57
140
1.0
102
RTVSPost2010PropOp57
 70
     1
102
RTVSPropertyOp0
 70
     1
102
RTVSPropertyOp1
 70
     1
102
RTVSPropertyOp2
 70
     1
102
RTVSPropertyOp3
 70
     1
102
RTVSPropertyOp4
 70
     1
102
RTVSPropertyOp5
 70
     1
102
RTVSPropertyOp6
 70
     1
102
RTVSPropertyOp7
 70
     1
102
RTVSPropertyOp8
 70
     1
102
RTVSPropertyOp9
 70
     1
102
RTVSPropertyOp10
 70
     1
102
RTVSPropertyOp11
 70
     1
102
RTVSPropertyOp12
 70
     1
102
RTVSPropertyOp13
 70
     1
102
RTVSPropertyOp14
 70
     1
102
RTVSPropertyOp15
 70
     1
102
RTVSPropertyOp16
 70
     1
102
RTVSPropertyOp17
 70
     1
102
RTVSPropertyOp18
 70
     1
102
RTVSPropertyOp19
 70
     1
102
RTVSPropertyOp20
 70
     1
102
RTVSPropertyOp21
 70
     1
102
RTVSPropertyOp22
 70
     1
102
RTVSPropertyOp23
 70
     1
102
RTVSPropertyOp24
 70
     1
102
RTVSPropertyOp25
 70
     1
102
RTVSPropertyOp26
 70
     1
102
RTVSPropertyOp27
 70
     1
102
RTVSPropertyOp28
 70
     1
102
RTVSPropertyOp29
 70
     1
102
RTVSPropertyOp30
 70
     1
102
RTVSPropertyOp31
 70
     1
102
RTVSPropertyOp32
 70
     1
102
RTVSPropertyOp33
 70
     1
102
RTVSPropertyOp34
 70
     1
102
RTVSPropertyOp35
 70
     1
102
RTVSPropertyOp36
 70
     1
102
RTVSPropertyOp37
 70
     1
102
RTVSPropertyOp38
 70
     1
102
RTVSPropertyOp39
 70
     1
102
RTVSPropertyOp40
 70
     1
102
RTVSPropertyOp41
 70
     1
102
RTVSPropertyOp42
 70
     1
102
RTVSPropertyOp43
 70
     1
102
RTVSPropertyOp44
 70
     1
102
RTVSPropertyOp45
 70
     1
102
RTVSPropertyOp46
 70
     1
102
RTVSPropertyOp47
 70
     1
102
RTVSPropertyOp48
 70
     1
102
RTVSPropertyOp49
 70
     1
102
RTVSPropertyOp50
 70
     1
102
RTVSPropertyOp51
 70
     0
102
RTVSPropertyOp52
 70
     0
102
RTVSPropertyOp53
 70
     1
102
RTVSPropertyOp54
 70
     1
102
RTVSPropertyOp55
 70
     1
102
RTVSPropertyOp56
 70
     1
102
RTVSPropertyOp57
 70
     1
102
RTVSPropertyOp58
 70
     1
102
RTVSPropertyOp59
 70
     1
102
RTVSPropertyOp60
 70
     1
102
RTVSPropertyOp61
 70
     1
102
RTVSPropertyOp62
 70
     1
  0
XRECORD
  5
207D0
102
{ACAD_REACTORS
330
207CF
102
}
330
207CF
100
AcDbXrecord
280
     1
102
RTVSPost2010Prop28
280
     0
102
RTVSPost2010PropOp28
 70
     1
102
RTVSPost2010Prop29
280
     1
102
RTVSPost2010PropOp29
 70
     1
102
RTVSPost2010Prop30
280
     1
102
RTVSPost2010PropOp30
 70
     1
102
RTVSPost2010Prop31
280
     0
102
RTVSPost2010PropOp31
 70
     1
102
RTVSPost2010Prop32
280
     0
102
RTVSPost2010PropOp32
 70
     1
102
RTVSPost2010Prop33
280
     0
102
RTVSPost2010PropOp33
 70
     1
102
RTVSPost2010Prop34
280
     0
102
RTVSPost2010PropOp34
 70
     1
102
RTVSPost2010Prop35
280
     0
102
RTVSPost2010PropOp35
 70
     1
102
RTVSPost2010Prop36
280
     0
102
RTVSPost2010PropOp36
 70
     1
102
RTVSPost2010Prop37
 90
       50
102
RTVSPost2010PropOp37
 70
     1
102
RTVSPost2010Prop38
140
0.0
102
RTVSPost2010PropOp38
 70
     1
102
RTVSPost2010Prop39
140
1.0
102
RTVSPost2010PropOp39
 70
     1
102
RTVSPost2010Prop40
 90
        0
102
RTVSPost2010PropOp40
 70
     1
102
RTVSPost2010Prop41ColorIndex
 90
       18
102
RTVSPost2010Prop41ColorRGB
 90
        0
102
RTVSPost2010PropOp41
 70
     1
102
RTVSPost2010Prop42
 90
       50
102
RTVSPost2010PropOp42
 70
     1
102
RTVSPost2010Prop43
 90
        3
102
RTVSPost2010PropOp43
 70
     1
102
RTVSPost2010Prop44ColorIndex
 90
        5
102
RTVSPost2010Prop44ColorRGB
 90
      255
102
RTVSPost2010PropOp44
 70
     1
102
RTVSPost2010Prop45
280
     0
102
RTVSPost2010PropOp45
 70
     1
102
RTVSPost2010Prop46
 90
       50
102
RTVSPost2010PropOp46
 70
     1
102
RTVSPost2010Prop47
 90
       50
102
RTVSPost2010PropOp47
 70
     1
102
RTVSPost2010Prop48
 90
       50
102
RTVSPost2010PropOp48
 70
     1
102
RTVSPost2010Prop49
280
     0
102
RTVSPost2010PropOp49
 70
     1
102
RTVSPost2010Prop50
 90
       50
102
RTVSPost2010PropOp50
 70
     1
102
RTVSPost2010Prop51ColorIndex
 90
      256
102
RTVSPost2010Prop51ColorRGB
 90
-16777216
102
RTVSPost2010PropOp51
 70
     0
102
RTVSPost2010Prop52
140
1.0
102
RTVSPost2010PropOp52
 70
     0
102
RTVSPost2010Prop53
 90
        2
102
RTVSPost2010PropOp53
 70
     1
102
RTVSPost2010Prop54
  1
strokes_ogs.tif
102
RTVSPost2010PropOp54
 70
     1
102
RTVSPost2010Prop55
280
     0
102
RTVSPost2010PropOp55
 70
     1
102
RTVSPost2010Prop56
140
1.0
102
RTVSPost2010PropOp56
 70
     1
102
RTVSPost2010Prop57
140
1.0
102
RTVSPost2010PropOp57
 70
     1
102
RTVSPropertyOp0
 70
     1
102
RTVSPropertyOp1
 70
     1
102
RTVSPropertyOp2
 70
     1
102
RTVSPropertyOp3
 70
     1
102
RTVSPropertyOp4
 70
     1
102
RTVSPropertyOp5
 70
     1
102
RTVSPropertyOp6
 70
     1
102
RTVSPropertyOp7
 70
     1
102
RTVSPropertyOp8
 70
     1
102
RTVSPropertyOp9
 70
     1
102
RTVSPropertyOp10
 70
     1
102
RTVSPropertyOp11
 70
     1
102
RTVSPropertyOp12
 70
     1
102
RTVSPropertyOp13
 70
     1
102
RTVSPropertyOp14
 70
     1
102
RTVSPropertyOp15
 70
     1
102
RTVSPropertyOp16
 70
     1
102
RTVSPropertyOp17
 70
     1
102
RTVSPropertyOp18
 70
     1
102
RTVSPropertyOp19
 70
     1
102
RTVSPropertyOp20
 70
     1
102
RTVSPropertyOp21
 70
     1
102
RTVSPropertyOp22
 70
     1
102
RTVSPropertyOp23
 70
     1
102
RTVSPropertyOp24
 70
     1
102
RTVSPropertyOp25
 70
     1
102
RTVSPropertyOp26
 70
     1
102
RTVSPropertyOp27
 70
     1
102
RTVSPropertyOp28
 70
     1
102
RTVSPropertyOp29
 70
     1
102
RTVSPropertyOp30
 70
     1
102
RTVSPropertyOp31
 70
     1
102
RTVSPropertyOp32
 70
     1
102
RTVSPropertyOp33
 70
     1
102
RTVSPropertyOp34
 70
     1
102
RTVSPropertyOp35
 70
     1
102
RTVSPropertyOp36
 70
     1
102
RTVSPropertyOp37
 70
     1
102
RTVSPropertyOp38
 70
     1
102
RTVSPropertyOp39
 70
     1
102
RTVSPropertyOp40
 70
     1
102
RTVSPropertyOp41
 70
     1
102
RTVSPropertyOp42
 70
     1
102
RTVSPropertyOp43
 70
     1
102
RTVSPropertyOp44
 70
     1
102
RTVSPropertyOp45
 70
     1
102
RTVSPropertyOp46
 70
     1
102
RTVSPropertyOp47
 70
     1
102
RTVSPropertyOp48
 70
     1
102
RTVSPropertyOp49
 70
     1
102
RTVSPropertyOp50
 70
     1
102
RTVSPropertyOp51
 70
     0
102
RTVSPropertyOp52
 70
     0
102
RTVSPropertyOp53
 70
     1
102
RTVSPropertyOp54
 70
     1
102
RTVSPropertyOp55
 70
     1
102
RTVSPropertyOp56
 70
     1
102
RTVSPropertyOp57
 70
     1
102
RTVSPropertyOp58
 70
     1
102
RTVSPropertyOp59
 70
     1
102
RTVSPropertyOp60
 70
     1
102
RTVSPropertyOp61
 70
     1
102
RTVSPropertyOp62
 70
     1
  0
XRECORD
  5
207BF
102
{ACAD_REACTORS
330
207BE
102
}
330
207BE
100
AcDbXrecord
280
     1
102
RTVSPost2010Prop28
280
     0
102
RTVSPost2010PropOp28
 70
     1
102
RTVSPost2010Prop29
280
     1
102
RTVSPost2010PropOp29
 70
     1
102
RTVSPost2010Prop30
280
     1
102
RTVSPost2010PropOp30
 70
     1
102
RTVSPost2010Prop31
280
     0
102
RTVSPost2010PropOp31
 70
     1
102
RTVSPost2010Prop32
280
     0
102
RTVSPost2010PropOp32
 70
     1
102
RTVSPost2010Prop33
280
     0
102
RTVSPost2010PropOp33
 70
     1
102
RTVSPost2010Prop34
280
     0
102
RTVSPost2010PropOp34
 70
     1
102
RTVSPost2010Prop35
280
     0
102
RTVSPost2010PropOp35
 70
     1
102
RTVSPost2010Prop36
280
     0
102
RTVSPost2010PropOp36
 70
     1
102
RTVSPost2010Prop37
 90
       50
102
RTVSPost2010PropOp37
 70
     1
102
RTVSPost2010Prop38
140
0.0
102
RTVSPost2010PropOp38
 70
     1
102
RTVSPost2010Prop39
140
1.0
102
RTVSPost2010PropOp39
 70
     1
102
RTVSPost2010Prop40
 90
        0
102
RTVSPost2010PropOp40
 70
     1
102
RTVSPost2010Prop41ColorIndex
 90
       18
102
RTVSPost2010Prop41ColorRGB
 90
        0
102
RTVSPost2010PropOp41
 70
     1
102
RTVSPost2010Prop42
 90
       50
102
RTVSPost2010PropOp42
 70
     1
102
RTVSPost2010Prop43
 90
        3
102
RTVSPost2010PropOp43
 70
     1
102
RTVSPost2010Prop44ColorIndex
 90
        5
102
RTVSPost2010Prop44ColorRGB
 90
      255
102
RTVSPost2010PropOp44
 70
     1
102
RTVSPost2010Prop45
280
     0
102
RTVSPost2010PropOp45
 70
     1
102
RTVSPost2010Prop46
 90
       50
102
RTVSPost2010PropOp46
 70
     1
102
RTVSPost2010Prop47
 90
       50
102
RTVSPost2010PropOp47
 70
     1
102
RTVSPost2010Prop48
 90
       50
102
RTVSPost2010PropOp48
 70
     1
102
RTVSPost2010Prop49
280
     0
102
RTVSPost2010PropOp49
 70
     1
102
RTVSPost2010Prop50
 90
       50
102
RTVSPost2010PropOp50
 70
     1
102
RTVSPost2010Prop51ColorIndex
 90
      256
102
RTVSPost2010Prop51ColorRGB
 90
-16777216
102
RTVSPost2010PropOp51
 70
     0
102
RTVSPost2010Prop52
140
1.0
102
RTVSPost2010PropOp52
 70
     0
102
RTVSPost2010Prop53
 90
        2
102
RTVSPost2010PropOp53
 70
     1
102
RTVSPost2010Prop54
  1
strokes_ogs.tif
102
RTVSPost2010PropOp54
 70
     1
102
RTVSPost2010Prop55
280
     0
102
RTVSPost2010PropOp55
 70
     1
102
RTVSPost2010Prop56
140
1.0
102
RTVSPost2010PropOp56
 70
     1
102
RTVSPost2010Prop57
140
1.0
102
RTVSPost2010PropOp57
 70
     1
102
RTVSPropertyOp0
 70
     1
102
RTVSPropertyOp1
 70
     1
102
RTVSPropertyOp2
 70
     1
102
RTVSPropertyOp3
 70
     1
102
RTVSPropertyOp4
 70
     1
102
RTVSPropertyOp5
 70
     1
102
RTVSPropertyOp6
 70
     1
102
RTVSPropertyOp7
 70
     1
102
RTVSPropertyOp8
 70
     1
102
RTVSPropertyOp9
 70
     1
102
RTVSPropertyOp10
 70
     1
102
RTVSPropertyOp11
 70
     1
102
RTVSPropertyOp12
 70
     1
102
RTVSPropertyOp13
 70
     1
102
RTVSPropertyOp14
 70
     1
102
RTVSPropertyOp15
 70
     1
102
RTVSPropertyOp16
 70
     1
102
RTVSPropertyOp17
 70
     1
102
RTVSPropertyOp18
 70
     1
102
RTVSPropertyOp19
 70
     1
102
RTVSPropertyOp20
 70
     1
102
RTVSPropertyOp21
 70
     1
102
RTVSPropertyOp22
 70
     1
102
RTVSPropertyOp23
 70
     1
102
RTVSPropertyOp24
 70
     1
102
RTVSPropertyOp25
 70
     1
102
RTVSPropertyOp26
 70
     1
102
RTVSPropertyOp27
 70
     1
102
RTVSPropertyOp28
 70
     1
102
RTVSPropertyOp29
 70
     1
102
RTVSPropertyOp30
 70
     1
102
RTVSPropertyOp31
 70
     1
102
RTVSPropertyOp32
 70
     1
102
RTVSPropertyOp33
 70
     1
102
RTVSPropertyOp34
 70
     1
102
RTVSPropertyOp35
 70
     1
102
RTVSPropertyOp36
 70
     1
102
RTVSPropertyOp37
 70
     1
102
RTVSPropertyOp38
 70
     1
102
RTVSPropertyOp39
 70
     1
102
RTVSPropertyOp40
 70
     1
102
RTVSPropertyOp41
 70
     1
102
RTVSPropertyOp42
 70
     1
102
RTVSPropertyOp43
 70
     1
102
RTVSPropertyOp44
 70
     1
102
RTVSPropertyOp45
 70
     1
102
RTVSPropertyOp46
 70
     1
102
RTVSPropertyOp47
 70
     1
102
RTVSPropertyOp48
 70
     1
102
RTVSPropertyOp49
 70
     1
102
RTVSPropertyOp50
 70
     1
102
RTVSPropertyOp51
 70
     0
102
RTVSPropertyOp52
 70
     0
102
RTVSPropertyOp53
 70
     1
102
RTVSPropertyOp54
 70
     1
102
RTVSPropertyOp55
 70
     1
102
RTVSPropertyOp56
 70
     1
102
RTVSPropertyOp57
 70
     1
102
RTVSPropertyOp58
 70
     1
102
RTVSPropertyOp59
 70
     1
102
RTVSPropertyOp60
 70
     1
102
RTVSPropertyOp61
 70
     1
102
RTVSPropertyOp62
 70
     1
  0
XRECORD
  5
207D8
102
{ACAD_REACTORS
330
207D7
102
}
330
207D7
100
AcDbXrecord
280
     1
102
RTVSPost2010Prop28
280
     0
102
RTVSPost2010PropOp28
 70
     1
102
RTVSPost2010Prop29
280
     1
102
RTVSPost2010PropOp29
 70
     1
102
RTVSPost2010Prop30
280
     1
102
RTVSPost2010PropOp30
 70
     1
102
RTVSPost2010Prop31
280
     0
102
RTVSPost2010PropOp31
 70
     1
102
RTVSPost2010Prop32
280
     0
102
RTVSPost2010PropOp32
 70
     1
102
RTVSPost2010Prop33
280
     0
102
RTVSPost2010PropOp33
 70
     1
102
RTVSPost2010Prop34
280
     0
102
RTVSPost2010PropOp34
 70
     1
102
RTVSPost2010Prop35
280
     0
102
RTVSPost2010PropOp35
 70
     1
102
RTVSPost2010Prop36
280
     0
102
RTVSPost2010PropOp36
 70
     1
102
RTVSPost2010Prop37
 90
       50
102
RTVSPost2010PropOp37
 70
     1
102
RTVSPost2010Prop38
140
0.0
102
RTVSPost2010PropOp38
 70
     1
102
RTVSPost2010Prop39
140
1.0
102
RTVSPost2010PropOp39
 70
     1
102
RTVSPost2010Prop40
 90
        0
102
RTVSPost2010PropOp40
 70
     1
102
RTVSPost2010Prop41ColorIndex
 90
       18
102
RTVSPost2010Prop41ColorRGB
 90
        0
102
RTVSPost2010PropOp41
 70
     1
102
RTVSPost2010Prop42
 90
       50
102
RTVSPost2010PropOp42
 70
     1
102
RTVSPost2010Prop43
 90
        3
102
RTVSPost2010PropOp43
 70
     1
102
RTVSPost2010Prop44ColorIndex
 90
        5
102
RTVSPost2010Prop44ColorRGB
 90
      255
102
RTVSPost2010PropOp44
 70
     1
102
RTVSPost2010Prop45
280
     0
102
RTVSPost2010PropOp45
 70
     1
102
RTVSPost2010Prop46
 90
       50
102
RTVSPost2010PropOp46
 70
     1
102
RTVSPost2010Prop47
 90
       50
102
RTVSPost2010PropOp47
 70
     1
102
RTVSPost2010Prop48
 90
       50
102
RTVSPost2010PropOp48
 70
     1
102
RTVSPost2010Prop49
280
     0
102
RTVSPost2010PropOp49
 70
     1
102
RTVSPost2010Prop50
 90
       50
102
RTVSPost2010PropOp50
 70
     1
102
RTVSPost2010Prop51ColorIndex
 90
      256
102
RTVSPost2010Prop51ColorRGB
 90
-16777216
102
RTVSPost2010PropOp51
 70
     0
102
RTVSPost2010Prop52
140
1.0
102
RTVSPost2010PropOp52
 70
     0
102
RTVSPost2010Prop53
 90
        2
102
RTVSPost2010PropOp53
 70
     1
102
RTVSPost2010Prop54
  1
strokes_ogs.tif
102
RTVSPost2010PropOp54
 70
     1
102
RTVSPost2010Prop55
280
     0
102
RTVSPost2010PropOp55
 70
     1
102
RTVSPost2010Prop56
140
1.0
102
RTVSPost2010PropOp56
 70
     1
102
RTVSPost2010Prop57
140
1.0
102
RTVSPost2010PropOp57
 70
     1
102
RTVSPropertyOp0
 70
     0
102
RTVSPropertyOp1
 70
     0
102
RTVSPropertyOp2
 70
     0
102
RTVSPropertyOp3
 70
     0
102
RTVSPropertyOp4
 70
     0
102
RTVSPropertyOp5
 70
     0
102
RTVSPropertyOp6
 70
     0
102
RTVSPropertyOp7
 70
     0
102
RTVSPropertyOp8
 70
     0
102
RTVSPropertyOp9
 70
     0
102
RTVSPropertyOp10
 70
     0
102
RTVSPropertyOp11
 70
     0
102
RTVSPropertyOp12
 70
     0
102
RTVSPropertyOp13
 70
     0
102
RTVSPropertyOp14
 70
     2
102
RTVSPropertyOp15
 70
     0
102
RTVSPropertyOp16
 70
     0
102
RTVSPropertyOp17
 70
     0
102
RTVSPropertyOp18
 70
     0
102
RTVSPropertyOp19
 70
     0
102
RTVSPropertyOp20
 70
     0
102
RTVSPropertyOp21
 70
     0
102
RTVSPropertyOp22
 70
     0
102
RTVSPropertyOp23
 70
     0
102
RTVSPropertyOp24
 70
     0
102
RTVSPropertyOp25
 70
     0
102
RTVSPropertyOp26
 70
     0
102
RTVSPropertyOp27
 70
     0
102
RTVSPropertyOp28
 70
     1
102
RTVSPropertyOp29
 70
     1
102
RTVSPropertyOp30
 70
     1
102
RTVSPropertyOp31
 70
     1
102
RTVSPropertyOp32
 70
     1
102
RTVSPropertyOp33
 70
     1
102
RTVSPropertyOp34
 70
     1
102
RTVSPropertyOp35
 70
     1
102
RTVSPropertyOp36
 70
     1
102
RTVSPropertyOp37
 70
     1
102
RTVSPropertyOp38
 70
     1
102
RTVSPropertyOp39
 70
     1
102
RTVSPropertyOp40
 70
     1
102
RTVSPropertyOp41
 70
     1
102
RTVSPropertyOp42
 70
     1
102
RTVSPropertyOp43
 70
     1
102
RTVSPropertyOp44
 70
     1
102
RTVSPropertyOp45
 70
     1
102
RTVSPropertyOp46
 70
     1
102
RTVSPropertyOp47
 70
     1
102
RTVSPropertyOp48
 70
     1
102
RTVSPropertyOp49
 70
     1
102
RTVSPropertyOp50
 70
     1
102
RTVSPropertyOp51
 70
     0
102
RTVSPropertyOp52
 70
     0
102
RTVSPropertyOp53
 70
     1
102
RTVSPropertyOp54
 70
     1
102
RTVSPropertyOp55
 70
     1
102
RTVSPropertyOp56
 70
     1
102
RTVSPropertyOp57
 70
     1
102
RTVSPropertyOp58
 70
     1
102
RTVSPropertyOp59
 70
     1
102
RTVSPropertyOp60
 70
     1
102
RTVSPropertyOp61
 70
     1
102
RTVSPropertyOp62
 70
     1
  0
XRECORD
  5
207C7
102
{ACAD_REACTORS
330
207C6
102
}
330
207C6
100
AcDbXrecord
280
     1
102
RTVSPost2010Prop28
280
     0
102
RTVSPost2010PropOp28
 70
     1
102
RTVSPost2010Prop29
280
     1
102
RTVSPost2010PropOp29
 70
     1
102
RTVSPost2010Prop30
280
     1
102
RTVSPost2010PropOp30
 70
     1
102
RTVSPost2010Prop31
280
     0
102
RTVSPost2010PropOp31
 70
     1
102
RTVSPost2010Prop32
280
     0
102
RTVSPost2010PropOp32
 70
     1
102
RTVSPost2010Prop33
280
     0
102
RTVSPost2010PropOp33
 70
     1
102
RTVSPost2010Prop34
280
     0
102
RTVSPost2010PropOp34
 70
     1
102
RTVSPost2010Prop35
280
     0
102
RTVSPost2010PropOp35
 70
     1
102
RTVSPost2010Prop36
280
     0
102
RTVSPost2010PropOp36
 70
     1
102
RTVSPost2010Prop37
 90
       50
102
RTVSPost2010PropOp37
 70
     1
102
RTVSPost2010Prop38
140
0.0
102
RTVSPost2010PropOp38
 70
     1
102
RTVSPost2010Prop39
140
1.0
102
RTVSPost2010PropOp39
 70
     1
102
RTVSPost2010Prop40
 90
        0
102
RTVSPost2010PropOp40
 70
     1
102
RTVSPost2010Prop41ColorIndex
 90
       18
102
RTVSPost2010Prop41ColorRGB
 90
        0
102
RTVSPost2010PropOp41
 70
     1
102
RTVSPost2010Prop42
 90
       50
102
RTVSPost2010PropOp42
 70
     1
102
RTVSPost2010Prop43
 90
        3
102
RTVSPost2010PropOp43
 70
     1
102
RTVSPost2010Prop44ColorIndex
 90
        5
102
RTVSPost2010Prop44ColorRGB
 90
      255
102
RTVSPost2010PropOp44
 70
     1
102
RTVSPost2010Prop45
280
     0
102
RTVSPost2010PropOp45
 70
     1
102
RTVSPost2010Prop46
 90
       50
102
RTVSPost2010PropOp46
 70
     1
102
RTVSPost2010Prop47
 90
       50
102
RTVSPost2010PropOp47
 70
     1
102
RTVSPost2010Prop48
 90
       50
102
RTVSPost2010PropOp48
 70
     1
102
RTVSPost2010Prop49
280
     0
102
RTVSPost2010PropOp49
 70
     1
102
RTVSPost2010Prop50
 90
       50
102
RTVSPost2010PropOp50
 70
     1
102
RTVSPost2010Prop51ColorIndex
 90
      256
102
RTVSPost2010Prop51ColorRGB
 90
-16777216
102
RTVSPost2010PropOp51
 70
     0
102
RTVSPost2010Prop52
140
1.0
102
RTVSPost2010PropOp52
 70
     0
102
RTVSPost2010Prop53
 90
        2
102
RTVSPost2010PropOp53
 70
     1
102
RTVSPost2010Prop54
  1
strokes_ogs.tif
102
RTVSPost2010PropOp54
 70
     1
102
RTVSPost2010Prop55
280
     0
102
RTVSPost2010PropOp55
 70
     1
102
RTVSPost2010Prop56
140
1.0
102
RTVSPost2010PropOp56
 70
     1
102
RTVSPost2010Prop57
140
1.0
102
RTVSPost2010PropOp57
 70
     1
102
RTVSPropertyOp0
 70
     1
102
RTVSPropertyOp1
 70
     1
102
RTVSPropertyOp2
 70
     1
102
RTVSPropertyOp3
 70
     1
102
RTVSPropertyOp4
 70
     1
102
RTVSPropertyOp5
 70
     1
102
RTVSPropertyOp6
 70
     1
102
RTVSPropertyOp7
 70
     1
102
RTVSPropertyOp8
 70
     1
102
RTVSPropertyOp9
 70
     1
102
RTVSPropertyOp10
 70
     1
102
RTVSPropertyOp11
 70
     1
102
RTVSPropertyOp12
 70
     1
102
RTVSPropertyOp13
 70
     1
102
RTVSPropertyOp14
 70
     1
102
RTVSPropertyOp15
 70
     1
102
RTVSPropertyOp16
 70
     1
102
RTVSPropertyOp17
 70
     1
102
RTVSPropertyOp18
 70
     1
102
RTVSPropertyOp19
 70
     1
102
RTVSPropertyOp20
 70
     1
102
RTVSPropertyOp21
 70
     1
102
RTVSPropertyOp22
 70
     1
102
RTVSPropertyOp23
 70
     1
102
RTVSPropertyOp24
 70
     1
102
RTVSPropertyOp25
 70
     1
102
RTVSPropertyOp26
 70
     1
102
RTVSPropertyOp27
 70
     1
102
RTVSPropertyOp28
 70
     1
102
RTVSPropertyOp29
 70
     1
102
RTVSPropertyOp30
 70
     1
102
RTVSPropertyOp31
 70
     1
102
RTVSPropertyOp32
 70
     1
102
RTVSPropertyOp33
 70
     1
102
RTVSPropertyOp34
 70
     1
102
RTVSPropertyOp35
 70
     1
102
RTVSPropertyOp36
 70
     1
102
RTVSPropertyOp37
 70
     1
102
RTVSPropertyOp38
 70
     1
102
RTVSPropertyOp39
 70
     1
102
RTVSPropertyOp40
 70
     1
102
RTVSPropertyOp41
 70
     1
102
RTVSPropertyOp42
 70
     1
102
RTVSPropertyOp43
 70
     1
102
RTVSPropertyOp44
 70
     1
102
RTVSPropertyOp45
 70
     1
102
RTVSPropertyOp46
 70
     1
102
RTVSPropertyOp47
 70
     1
102
RTVSPropertyOp48
 70
     1
102
RTVSPropertyOp49
 70
     1
102
RTVSPropertyOp50
 70
     1
102
RTVSPropertyOp51
 70
     0
102
RTVSPropertyOp52
 70
     0
102
RTVSPropertyOp53
 70
     1
102
RTVSPropertyOp54
 70
     1
102
RTVSPropertyOp55
 70
     1
102
RTVSPropertyOp56
 70
     1
102
RTVSPropertyOp57
 70
     1
102
RTVSPropertyOp58
 70
     1
102
RTVSPropertyOp59
 70
     1
102
RTVSPropertyOp60
 70
     1
102
RTVSPropertyOp61
 70
     1
102
RTVSPropertyOp62
 70
     1
  0
XRECORD
  5
207B3
102
{ACAD_REACTORS
330
207B2
102
}
330
207B2
100
AcDbXrecord
280
     1
102
RTVSPost2010Prop28
280
     0
102
RTVSPost2010PropOp28
 70
     1
102
RTVSPost2010Prop29
280
     1
102
RTVSPost2010PropOp29
 70
     1
102
RTVSPost2010Prop30
280
     1
102
RTVSPost2010PropOp30
 70
     1
102
RTVSPost2010Prop31
280
     0
102
RTVSPost2010PropOp31
 70
     1
102
RTVSPost2010Prop32
280
     0
102
RTVSPost2010PropOp32
 70
     1
102
RTVSPost2010Prop33
280
     0
102
RTVSPost2010PropOp33
 70
     1
102
RTVSPost2010Prop34
280
     0
102
RTVSPost2010PropOp34
 70
     1
102
RTVSPost2010Prop35
280
     0
102
RTVSPost2010PropOp35
 70
     1
102
RTVSPost2010Prop36
280
     0
102
RTVSPost2010PropOp36
 70
     1
102
RTVSPost2010Prop37
 90
       50
102
RTVSPost2010PropOp37
 70
     1
102
RTVSPost2010Prop38
140
0.0
102
RTVSPost2010PropOp38
 70
     1
102
RTVSPost2010Prop39
140
1.0
102
RTVSPost2010PropOp39
 70
     1
102
RTVSPost2010Prop40
 90
        0
102
RTVSPost2010PropOp40
 70
     1
102
RTVSPost2010Prop41ColorIndex
 90
       18
102
RTVSPost2010Prop41ColorRGB
 90
        0
102
RTVSPost2010PropOp41
 70
     1
102
RTVSPost2010Prop42
 90
       50
102
RTVSPost2010PropOp42
 70
     1
102
RTVSPost2010Prop43
 90
        3
102
RTVSPost2010PropOp43
 70
     1
102
RTVSPost2010Prop44ColorIndex
 90
        5
102
RTVSPost2010Prop44ColorRGB
 90
      255
102
RTVSPost2010PropOp44
 70
     1
102
RTVSPost2010Prop45
280
     0
102
RTVSPost2010PropOp45
 70
     1
102
RTVSPost2010Prop46
 90
       50
102
RTVSPost2010PropOp46
 70
     1
102
RTVSPost2010Prop47
 90
       50
102
RTVSPost2010PropOp47
 70
     1
102
RTVSPost2010Prop48
 90
       50
102
RTVSPost2010PropOp48
 70
     1
102
RTVSPost2010Prop49
280
     0
102
RTVSPost2010PropOp49
 70
     1
102
RTVSPost2010Prop50
 90
       50
102
RTVSPost2010PropOp50
 70
     1
102
RTVSPost2010Prop51ColorIndex
 90
      256
102
RTVSPost2010Prop51ColorRGB
 90
-16777216
102
RTVSPost2010PropOp51
 70
     0
102
RTVSPost2010Prop52
140
1.0
102
RTVSPost2010PropOp52
 70
     0
102
RTVSPost2010Prop53
 90
        2
102
RTVSPost2010PropOp53
 70
     1
102
RTVSPost2010Prop54
  1
strokes_ogs.tif
102
RTVSPost2010PropOp54
 70
     1
102
RTVSPost2010Prop55
280
     0
102
RTVSPost2010PropOp55
 70
     1
102
RTVSPost2010Prop56
140
1.0
102
RTVSPost2010PropOp56
 70
     1
102
RTVSPost2010Prop57
140
1.0
102
RTVSPost2010PropOp57
 70
     1
102
RTVSPropertyOp0
 70
     1
102
RTVSPropertyOp1
 70
     1
102
RTVSPropertyOp2
 70
     1
102
RTVSPropertyOp3
 70
     1
102
RTVSPropertyOp4
 70
     1
102
RTVSPropertyOp5
 70
     1
102
RTVSPropertyOp6
 70
     1
102
RTVSPropertyOp7
 70
     1
102
RTVSPropertyOp8
 70
     1
102
RTVSPropertyOp9
 70
     1
102
RTVSPropertyOp10
 70
     1
102
RTVSPropertyOp11
 70
     1
102
RTVSPropertyOp12
 70
     1
102
RTVSPropertyOp13
 70
     1
102
RTVSPropertyOp14
 70
     1
102
RTVSPropertyOp15
 70
     1
102
RTVSPropertyOp16
 70
     1
102
RTVSPropertyOp17
 70
     1
102
RTVSPropertyOp18
 70
     1
102
RTVSPropertyOp19
 70
     1
102
RTVSPropertyOp20
 70
     1
102
RTVSPropertyOp21
 70
     1
102
RTVSPropertyOp22
 70
     1
102
RTVSPropertyOp23
 70
     1
102
RTVSPropertyOp24
 70
     1
102
RTVSPropertyOp25
 70
     1
102
RTVSPropertyOp26
 70
     1
102
RTVSPropertyOp27
 70
     1
102
RTVSPropertyOp28
 70
     1
102
RTVSPropertyOp29
 70
     1
102
RTVSPropertyOp30
 70
     1
102
RTVSPropertyOp31
 70
     1
102
RTVSPropertyOp32
 70
     1
102
RTVSPropertyOp33
 70
     1
102
RTVSPropertyOp34
 70
     1
102
RTVSPropertyOp35
 70
     1
102
RTVSPropertyOp36
 70
     1
102
RTVSPropertyOp37
 70
     1
102
RTVSPropertyOp38
 70
     1
102
RTVSPropertyOp39
 70
     1
102
RTVSPropertyOp40
 70
     1
102
RTVSPropertyOp41
 70
     1
102
RTVSPropertyOp42
 70
     1
102
RTVSPropertyOp43
 70
     1
102
RTVSPropertyOp44
 70
     1
102
RTVSPropertyOp45
 70
     1
102
RTVSPropertyOp46
 70
     1
102
RTVSPropertyOp47
 70
     1
102
RTVSPropertyOp48
 70
     1
102
RTVSPropertyOp49
 70
     1
102
RTVSPropertyOp50
 70
     1
102
RTVSPropertyOp51
 70
     0
102
RTVSPropertyOp52
 70
     0
102
RTVSPropertyOp53
 70
     1
102
RTVSPropertyOp54
 70
     1
102
RTVSPropertyOp55
 70
     1
102
RTVSPropertyOp56
 70
     1
102
RTVSPropertyOp57
 70
     1
102
RTVSPropertyOp58
 70
     1
102
RTVSPropertyOp59
 70
     1
102
RTVSPropertyOp60
 70
     1
102
RTVSPropertyOp61
 70
     1
102
RTVSPropertyOp62
 70
     1
  0
XRECORD
  5
207B5
102
{ACAD_REACTORS
330
207B4
102
}
330
207B4
100
AcDbXrecord
280
     1
102
RTVSPost2010Prop28
280
     0
102
RTVSPost2010PropOp28
 70
     1
102
RTVSPost2010Prop29
280
     1
102
RTVSPost2010PropOp29
 70
     1
102
RTVSPost2010Prop30
280
     1
102
RTVSPost2010PropOp30
 70
     1
102
RTVSPost2010Prop31
280
     0
102
RTVSPost2010PropOp31
 70
     1
102
RTVSPost2010Prop32
280
     0
102
RTVSPost2010PropOp32
 70
     1
102
RTVSPost2010Prop33
280
     0
102
RTVSPost2010PropOp33
 70
     1
102
RTVSPost2010Prop34
280
     0
102
RTVSPost2010PropOp34
 70
     1
102
RTVSPost2010Prop35
280
     0
102
RTVSPost2010PropOp35
 70
     1
102
RTVSPost2010Prop36
280
     0
102
RTVSPost2010PropOp36
 70
     1
102
RTVSPost2010Prop37
 90
       50
102
RTVSPost2010PropOp37
 70
     1
102
RTVSPost2010Prop38
140
0.0
102
RTVSPost2010PropOp38
 70
     1
102
RTVSPost2010Prop39
140
1.0
102
RTVSPost2010PropOp39
 70
     1
102
RTVSPost2010Prop40
 90
        0
102
RTVSPost2010PropOp40
 70
     1
102
RTVSPost2010Prop41ColorIndex
 90
       18
102
RTVSPost2010Prop41ColorRGB
 90
        0
102
RTVSPost2010PropOp41
 70
     1
102
RTVSPost2010Prop42
 90
       50
102
RTVSPost2010PropOp42
 70
     1
102
RTVSPost2010Prop43
 90
        3
102
RTVSPost2010PropOp43
 70
     1
102
RTVSPost2010Prop44ColorIndex
 90
        5
102
RTVSPost2010Prop44ColorRGB
 90
      255
102
RTVSPost2010PropOp44
 70
     1
102
RTVSPost2010Prop45
280
     0
102
RTVSPost2010PropOp45
 70
     1
102
RTVSPost2010Prop46
 90
       50
102
RTVSPost2010PropOp46
 70
     1
102
RTVSPost2010Prop47
 90
       50
102
RTVSPost2010PropOp47
 70
     1
102
RTVSPost2010Prop48
 90
       50
102
RTVSPost2010PropOp48
 70
     1
102
RTVSPost2010Prop49
280
     0
102
RTVSPost2010PropOp49
 70
     1
102
RTVSPost2010Prop50
 90
       50
102
RTVSPost2010PropOp50
 70
     1
102
RTVSPost2010Prop51ColorIndex
 90
      256
102
RTVSPost2010Prop51ColorRGB
 90
-16777216
102
RTVSPost2010PropOp51
 70
     0
102
RTVSPost2010Prop52
140
1.0
102
RTVSPost2010PropOp52
 70
     0
102
RTVSPost2010Prop53
 90
        2
102
RTVSPost2010PropOp53
 70
     1
102
RTVSPost2010Prop54
  1
strokes_ogs.tif
102
RTVSPost2010PropOp54
 70
     1
102
RTVSPost2010Prop55
280
     0
102
RTVSPost2010PropOp55
 70
     1
102
RTVSPost2010Prop56
140
1.0
102
RTVSPost2010PropOp56
 70
     1
102
RTVSPost2010Prop57
140
1.0
102
RTVSPost2010PropOp57
 70
     1
102
RTVSPropertyOp0
 70
     1
102
RTVSPropertyOp1
 70
     1
102
RTVSPropertyOp2
 70
     1
102
RTVSPropertyOp3
 70
     1
102
RTVSPropertyOp4
 70
     1
102
RTVSPropertyOp5
 70
     1
102
RTVSPropertyOp6
 70
     1
102
RTVSPropertyOp7
 70
     1
102
RTVSPropertyOp8
 70
     1
102
RTVSPropertyOp9
 70
     1
102
RTVSPropertyOp10
 70
     1
102
RTVSPropertyOp11
 70
     1
102
RTVSPropertyOp12
 70
     1
102
RTVSPropertyOp13
 70
     1
102
RTVSPropertyOp14
 70
     1
102
RTVSPropertyOp15
 70
     1
102
RTVSPropertyOp16
 70
     1
102
RTVSPropertyOp17
 70
     1
102
RTVSPropertyOp18
 70
     1
102
RTVSPropertyOp19
 70
     1
102
RTVSPropertyOp20
 70
     1
102
RTVSPropertyOp21
 70
     1
102
RTVSPropertyOp22
 70
     1
102
RTVSPropertyOp23
 70
     1
102
RTVSPropertyOp24
 70
     1
102
RTVSPropertyOp25
 70
     1
102
RTVSPropertyOp26
 70
     1
102
RTVSPropertyOp27
 70
     1
102
RTVSPropertyOp28
 70
     1
102
RTVSPropertyOp29
 70
     1
102
RTVSPropertyOp30
 70
     1
102
RTVSPropertyOp31
 70
     1
102
RTVSPropertyOp32
 70
     1
102
RTVSPropertyOp33
 70
     1
102
RTVSPropertyOp34
 70
     1
102
RTVSPropertyOp35
 70
     1
102
RTVSPropertyOp36
 70
     1
102
RTVSPropertyOp37
 70
     1
102
RTVSPropertyOp38
 70
     1
102
RTVSPropertyOp39
 70
     1
102
RTVSPropertyOp40
 70
     1
102
RTVSPropertyOp41
 70
     1
102
RTVSPropertyOp42
 70
     1
102
RTVSPropertyOp43
 70
     1
102
RTVSPropertyOp44
 70
     1
102
RTVSPropertyOp45
 70
     1
102
RTVSPropertyOp46
 70
     1
102
RTVSPropertyOp47
 70
     1
102
RTVSPropertyOp48
 70
     1
102
RTVSPropertyOp49
 70
     1
102
RTVSPropertyOp50
 70
     1
102
RTVSPropertyOp51
 70
     0
102
RTVSPropertyOp52
 70
     0
102
RTVSPropertyOp53
 70
     1
102
RTVSPropertyOp54
 70
     1
102
RTVSPropertyOp55
 70
     1
102
RTVSPropertyOp56
 70
     1
102
RTVSPropertyOp57
 70
     1
102
RTVSPropertyOp58
 70
     1
102
RTVSPropertyOp59
 70
     1
102
RTVSPropertyOp60
 70
     1
102
RTVSPropertyOp61
 70
     1
102
RTVSPropertyOp62
 70
     1
  0
XRECORD
  5
207B7
102
{ACAD_REACTORS
330
207B6
102
}
330
207B6
100
AcDbXrecord
280
     1
102
RTVSPost2010Prop28
280
     0
102
RTVSPost2010PropOp28
 70
     1
102
RTVSPost2010Prop29
280
     1
102
RTVSPost2010PropOp29
 70
     1
102
RTVSPost2010Prop30
280
     1
102
RTVSPost2010PropOp30
 70
     1
102
RTVSPost2010Prop31
280
     0
102
RTVSPost2010PropOp31
 70
     1
102
RTVSPost2010Prop32
280
     0
102
RTVSPost2010PropOp32
 70
     1
102
RTVSPost2010Prop33
280
     0
102
RTVSPost2010PropOp33
 70
     1
102
RTVSPost2010Prop34
280
     0
102
RTVSPost2010PropOp34
 70
     1
102
RTVSPost2010Prop35
280
     0
102
RTVSPost2010PropOp35
 70
     1
102
RTVSPost2010Prop36
280
     0
102
RTVSPost2010PropOp36
 70
     1
102
RTVSPost2010Prop37
 90
       50
102
RTVSPost2010PropOp37
 70
     1
102
RTVSPost2010Prop38
140
0.0
102
RTVSPost2010PropOp38
 70
     1
102
RTVSPost2010Prop39
140
1.0
102
RTVSPost2010PropOp39
 70
     1
102
RTVSPost2010Prop40
 90
        0
102
RTVSPost2010PropOp40
 70
     1
102
RTVSPost2010Prop41ColorIndex
 90
       18
102
RTVSPost2010Prop41ColorRGB
 90
        0
102
RTVSPost2010PropOp41
 70
     1
102
RTVSPost2010Prop42
 90
       50
102
RTVSPost2010PropOp42
 70
     1
102
RTVSPost2010Prop43
 90
        3
102
RTVSPost2010PropOp43
 70
     1
102
RTVSPost2010Prop44ColorIndex
 90
        5
102
RTVSPost2010Prop44ColorRGB
 90
      255
102
RTVSPost2010PropOp44
 70
     1
102
RTVSPost2010Prop45
280
     0
102
RTVSPost2010PropOp45
 70
     1
102
RTVSPost2010Prop46
 90
       50
102
RTVSPost2010PropOp46
 70
     1
102
RTVSPost2010Prop47
 90
       50
102
RTVSPost2010PropOp47
 70
     1
102
RTVSPost2010Prop48
 90
       50
102
RTVSPost2010PropOp48
 70
     1
102
RTVSPost2010Prop49
280
     0
102
RTVSPost2010PropOp49
 70
     1
102
RTVSPost2010Prop50
 90
       50
102
RTVSPost2010PropOp50
 70
     1
102
RTVSPost2010Prop51ColorIndex
 90
      256
102
RTVSPost2010Prop51ColorRGB
 90
-16777216
102
RTVSPost2010PropOp51
 70
     0
102
RTVSPost2010Prop52
140
1.0
102
RTVSPost2010PropOp52
 70
     0
102
RTVSPost2010Prop53
 90
        2
102
RTVSPost2010PropOp53
 70
     1
102
RTVSPost2010Prop54
  1
strokes_ogs.tif
102
RTVSPost2010PropOp54
 70
     1
102
RTVSPost2010Prop55
280
     0
102
RTVSPost2010PropOp55
 70
     1
102
RTVSPost2010Prop56
140
1.0
102
RTVSPost2010PropOp56
 70
     1
102
RTVSPost2010Prop57
140
1.0
102
RTVSPost2010PropOp57
 70
     1
102
RTVSPropertyOp0
 70
     1
102
RTVSPropertyOp1
 70
     1
102
RTVSPropertyOp2
 70
     1
102
RTVSPropertyOp3
 70
     1
102
RTVSPropertyOp4
 70
     1
102
RTVSPropertyOp5
 70
     1
102
RTVSPropertyOp6
 70
     1
102
RTVSPropertyOp7
 70
     1
102
RTVSPropertyOp8
 70
     1
102
RTVSPropertyOp9
 70
     1
102
RTVSPropertyOp10
 70
     1
102
RTVSPropertyOp11
 70
     1
102
RTVSPropertyOp12
 70
     1
102
RTVSPropertyOp13
 70
     1
102
RTVSPropertyOp14
 70
     1
102
RTVSPropertyOp15
 70
     1
102
RTVSPropertyOp16
 70
     1
102
RTVSPropertyOp17
 70
     1
102
RTVSPropertyOp18
 70
     1
102
RTVSPropertyOp19
 70
     1
102
RTVSPropertyOp20
 70
     1
102
RTVSPropertyOp21
 70
     1
102
RTVSPropertyOp22
 70
     1
102
RTVSPropertyOp23
 70
     1
102
RTVSPropertyOp24
 70
     1
102
RTVSPropertyOp25
 70
     1
102
RTVSPropertyOp26
 70
     1
102
RTVSPropertyOp27
 70
     1
102
RTVSPropertyOp28
 70
     1
102
RTVSPropertyOp29
 70
     1
102
RTVSPropertyOp30
 70
     1
102
RTVSPropertyOp31
 70
     1
102
RTVSPropertyOp32
 70
     1
102
RTVSPropertyOp33
 70
     1
102
RTVSPropertyOp34
 70
     1
102
RTVSPropertyOp35
 70
     1
102
RTVSPropertyOp36
 70
     1
102
RTVSPropertyOp37
 70
     1
102
RTVSPropertyOp38
 70
     1
102
RTVSPropertyOp39
 70
     1
102
RTVSPropertyOp40
 70
     1
102
RTVSPropertyOp41
 70
     1
102
RTVSPropertyOp42
 70
     1
102
RTVSPropertyOp43
 70
     1
102
RTVSPropertyOp44
 70
     1
102
RTVSPropertyOp45
 70
     1
102
RTVSPropertyOp46
 70
     1
102
RTVSPropertyOp47
 70
     1
102
RTVSPropertyOp48
 70
     1
102
RTVSPropertyOp49
 70
     1
102
RTVSPropertyOp50
 70
     1
102
RTVSPropertyOp51
 70
     0
102
RTVSPropertyOp52
 70
     0
102
RTVSPropertyOp53
 70
     1
102
RTVSPropertyOp54
 70
     1
102
RTVSPropertyOp55
 70
     1
102
RTVSPropertyOp56
 70
     1
102
RTVSPropertyOp57
 70
     1
102
RTVSPropertyOp58
 70
     1
102
RTVSPropertyOp59
 70
     1
102
RTVSPropertyOp60
 70
     1
102
RTVSPropertyOp61
 70
     1
102
RTVSPropertyOp62
 70
     1
  0
XRECORD
  5
207B9
102
{ACAD_REACTORS
330
207B8
102
}
330
207B8
100
AcDbXrecord
280
     1
102
RTVSPost2010Prop28
280
     0
102
RTVSPost2010PropOp28
 70
     1
102
RTVSPost2010Prop29
280
     1
102
RTVSPost2010PropOp29
 70
     1
102
RTVSPost2010Prop30
280
     1
102
RTVSPost2010PropOp30
 70
     1
102
RTVSPost2010Prop31
280
     0
102
RTVSPost2010PropOp31
 70
     1
102
RTVSPost2010Prop32
280
     0
102
RTVSPost2010PropOp32
 70
     1
102
RTVSPost2010Prop33
280
     0
102
RTVSPost2010PropOp33
 70
     1
102
RTVSPost2010Prop34
280
     0
102
RTVSPost2010PropOp34
 70
     1
102
RTVSPost2010Prop35
280
     0
102
RTVSPost2010PropOp35
 70
     1
102
RTVSPost2010Prop36
280
     0
102
RTVSPost2010PropOp36
 70
     1
102
RTVSPost2010Prop37
 90
       50
102
RTVSPost2010PropOp37
 70
     1
102
RTVSPost2010Prop38
140
0.0
102
RTVSPost2010PropOp38
 70
     1
102
RTVSPost2010Prop39
140
1.0
102
RTVSPost2010PropOp39
 70
     1
102
RTVSPost2010Prop40
 90
        0
102
RTVSPost2010PropOp40
 70
     1
102
RTVSPost2010Prop41ColorIndex
 90
       18
102
RTVSPost2010Prop41ColorRGB
 90
        0
102
RTVSPost2010PropOp41
 70
     1
102
RTVSPost2010Prop42
 90
       50
102
RTVSPost2010PropOp42
 70
     1
102
RTVSPost2010Prop43
 90
        3
102
RTVSPost2010PropOp43
 70
     1
102
RTVSPost2010Prop44ColorIndex
 90
        5
102
RTVSPost2010Prop44ColorRGB
 90
      255
102
RTVSPost2010PropOp44
 70
     1
102
RTVSPost2010Prop45
280
     0
102
RTVSPost2010PropOp45
 70
     1
102
RTVSPost2010Prop46
 90
       50
102
RTVSPost2010PropOp46
 70
     1
102
RTVSPost2010Prop47
 90
       50
102
RTVSPost2010PropOp47
 70
     1
102
RTVSPost2010Prop48
 90
       50
102
RTVSPost2010PropOp48
 70
     1
102
RTVSPost2010Prop49
280
     0
102
RTVSPost2010PropOp49
 70
     1
102
RTVSPost2010Prop50
 90
       50
102
RTVSPost2010PropOp50
 70
     1
102
RTVSPost2010Prop51ColorIndex
 90
      256
102
RTVSPost2010Prop51ColorRGB
 90
-16777216
102
RTVSPost2010PropOp51
 70
     0
102
RTVSPost2010Prop52
140
1.0
102
RTVSPost2010PropOp52
 70
     0
102
RTVSPost2010Prop53
 90
        2
102
RTVSPost2010PropOp53
 70
     1
102
RTVSPost2010Prop54
  1
strokes_ogs.tif
102
RTVSPost2010PropOp54
 70
     1
102
RTVSPost2010Prop55
280
     0
102
RTVSPost2010PropOp55
 70
     1
102
RTVSPost2010Prop56
140
1.0
102
RTVSPost2010PropOp56
 70
     1
102
RTVSPost2010Prop57
140
1.0
102
RTVSPost2010PropOp57
 70
     1
102
RTVSPropertyOp0
 70
     1
102
RTVSPropertyOp1
 70
     1
102
RTVSPropertyOp2
 70
     1
102
RTVSPropertyOp3
 70
     1
102
RTVSPropertyOp4
 70
     1
102
RTVSPropertyOp5
 70
     1
102
RTVSPropertyOp6
 70
     1
102
RTVSPropertyOp7
 70
     1
102
RTVSPropertyOp8
 70
     1
102
RTVSPropertyOp9
 70
     1
102
RTVSPropertyOp10
 70
     1
102
RTVSPropertyOp11
 70
     1
102
RTVSPropertyOp12
 70
     1
102
RTVSPropertyOp13
 70
     1
102
RTVSPropertyOp14
 70
     1
102
RTVSPropertyOp15
 70
     1
102
RTVSPropertyOp16
 70
     1
102
RTVSPropertyOp17
 70
     1
102
RTVSPropertyOp18
 70
     1
102
RTVSPropertyOp19
 70
     1
102
RTVSPropertyOp20
 70
     1
102
RTVSPropertyOp21
 70
     1
102
RTVSPropertyOp22
 70
     1
102
RTVSPropertyOp23
 70
     1
102
RTVSPropertyOp24
 70
     1
102
RTVSPropertyOp25
 70
     1
102
RTVSPropertyOp26
 70
     1
102
RTVSPropertyOp27
 70
     1
102
RTVSPropertyOp28
 70
     1
102
RTVSPropertyOp29
 70
     1
102
RTVSPropertyOp30
 70
     1
102
RTVSPropertyOp31
 70
     1
102
RTVSPropertyOp32
 70
     1
102
RTVSPropertyOp33
 70
     1
102
RTVSPropertyOp34
 70
     1
102
RTVSPropertyOp35
 70
     1
102
RTVSPropertyOp36
 70
     1
102
RTVSPropertyOp37
 70
     1
102
RTVSPropertyOp38
 70
     1
102
RTVSPropertyOp39
 70
     1
102
RTVSPropertyOp40
 70
     1
102
RTVSPropertyOp41
 70
     1
102
RTVSPropertyOp42
 70
     1
102
RTVSPropertyOp43
 70
     1
102
RTVSPropertyOp44
 70
     1
102
RTVSPropertyOp45
 70
     1
102
RTVSPropertyOp46
 70
     1
102
RTVSPropertyOp47
 70
     1
102
RTVSPropertyOp48
 70
     1
102
RTVSPropertyOp49
 70
     1
102
RTVSPropertyOp50
 70
     1
102
RTVSPropertyOp51
 70
     0
102
RTVSPropertyOp52
 70
     0
102
RTVSPropertyOp53
 70
     1
102
RTVSPropertyOp54
 70
     1
102
RTVSPropertyOp55
 70
     1
102
RTVSPropertyOp56
 70
     1
102
RTVSPropertyOp57
 70
     1
102
RTVSPropertyOp58
 70
     1
102
RTVSPropertyOp59
 70
     1
102
RTVSPropertyOp60
 70
     1
102
RTVSPropertyOp61
 70
     1
102
RTVSPropertyOp62
 70
     1
  0
XRECORD
  5
207DC
102
{ACAD_REACTORS
330
207DB
102
}
330
207DB
100
AcDbXrecord
280
     1
102
RTVSPost2010Prop28
280
     0
102
RTVSPost2010PropOp28
 70
     1
102
RTVSPost2010Prop29
280
     1
102
RTVSPost2010PropOp29
 70
     1
102
RTVSPost2010Prop30
280
     1
102
RTVSPost2010PropOp30
 70
     1
102
RTVSPost2010Prop31
280
     0
102
RTVSPost2010PropOp31
 70
     1
102
RTVSPost2010Prop32
280
     0
102
RTVSPost2010PropOp32
 70
     1
102
RTVSPost2010Prop33
280
     0
102
RTVSPost2010PropOp33
 70
     1
102
RTVSPost2010Prop34
280
     0
102
RTVSPost2010PropOp34
 70
     1
102
RTVSPost2010Prop35
280
     0
102
RTVSPost2010PropOp35
 70
     1
102
RTVSPost2010Prop36
280
     0
102
RTVSPost2010PropOp36
 70
     1
102
RTVSPost2010Prop37
 90
       50
102
RTVSPost2010PropOp37
 70
     1
102
RTVSPost2010Prop38
140
0.0
102
RTVSPost2010PropOp38
 70
     1
102
RTVSPost2010Prop39
140
1.0
102
RTVSPost2010PropOp39
 70
     1
102
RTVSPost2010Prop40
 90
        0
102
RTVSPost2010PropOp40
 70
     1
102
RTVSPost2010Prop41ColorIndex
 90
       18
102
RTVSPost2010Prop41ColorRGB
 90
        0
102
RTVSPost2010PropOp41
 70
     1
102
RTVSPost2010Prop42
 90
       50
102
RTVSPost2010PropOp42
 70
     1
102
RTVSPost2010Prop43
 90
        3
102
RTVSPost2010PropOp43
 70
     1
102
RTVSPost2010Prop44ColorIndex
 90
        5
102
RTVSPost2010Prop44ColorRGB
 90
      255
102
RTVSPost2010PropOp44
 70
     1
102
RTVSPost2010Prop45
280
     0
102
RTVSPost2010PropOp45
 70
     1
102
RTVSPost2010Prop46
 90
       50
102
RTVSPost2010PropOp46
 70
     1
102
RTVSPost2010Prop47
 90
       50
102
RTVSPost2010PropOp47
 70
     1
102
RTVSPost2010Prop48
 90
       50
102
RTVSPost2010PropOp48
 70
     1
102
RTVSPost2010Prop49
280
     0
102
RTVSPost2010PropOp49
 70
     1
102
RTVSPost2010Prop50
 90
       50
102
RTVSPost2010PropOp50
 70
     1
102
RTVSPost2010Prop51ColorIndex
 90
      256
102
RTVSPost2010Prop51ColorRGB
 90
-16777216
102
RTVSPost2010PropOp51
 70
     0
102
RTVSPost2010Prop52
140
1.0
102
RTVSPost2010PropOp52
 70
     0
102
RTVSPost2010Prop53
 90
        2
102
RTVSPost2010PropOp53
 70
     1
102
RTVSPost2010Prop54
  1
strokes_ogs.tif
102
RTVSPost2010PropOp54
 70
     1
102
RTVSPost2010Prop55
280
     0
102
RTVSPost2010PropOp55
 70
     1
102
RTVSPost2010Prop56
140
1.0
102
RTVSPost2010PropOp56
 70
     1
102
RTVSPost2010Prop57
140
1.0
102
RTVSPost2010PropOp57
 70
     1
102
RTVSPropertyOp0
 70
     1
102
RTVSPropertyOp1
 70
     1
102
RTVSPropertyOp2
 70
     1
102
RTVSPropertyOp3
 70
     1
102
RTVSPropertyOp4
 70
     1
102
RTVSPropertyOp5
 70
     1
102
RTVSPropertyOp6
 70
     1
102
RTVSPropertyOp7
 70
     1
102
RTVSPropertyOp8
 70
     1
102
RTVSPropertyOp9
 70
     1
102
RTVSPropertyOp10
 70
     1
102
RTVSPropertyOp11
 70
     1
102
RTVSPropertyOp12
 70
     1
102
RTVSPropertyOp13
 70
     1
102
RTVSPropertyOp14
 70
     1
102
RTVSPropertyOp15
 70
     1
102
RTVSPropertyOp16
 70
     1
102
RTVSPropertyOp17
 70
     1
102
RTVSPropertyOp18
 70
     1
102
RTVSPropertyOp19
 70
     1
102
RTVSPropertyOp20
 70
     1
102
RTVSPropertyOp21
 70
     1
102
RTVSPropertyOp22
 70
     1
102
RTVSPropertyOp23
 70
     1
102
RTVSPropertyOp24
 70
     1
102
RTVSPropertyOp25
 70
     1
102
RTVSPropertyOp26
 70
     1
102
RTVSPropertyOp27
 70
     1
102
RTVSPropertyOp28
 70
     1
102
RTVSPropertyOp29
 70
     1
102
RTVSPropertyOp30
 70
     1
102
RTVSPropertyOp31
 70
     1
102
RTVSPropertyOp32
 70
     1
102
RTVSPropertyOp33
 70
     1
102
RTVSPropertyOp34
 70
     1
102
RTVSPropertyOp35
 70
     1
102
RTVSPropertyOp36
 70
     1
102
RTVSPropertyOp37
 70
     1
102
RTVSPropertyOp38
 70
     1
102
RTVSPropertyOp39
 70
     1
102
RTVSPropertyOp40
 70
     1
102
RTVSPropertyOp41
 70
     1
102
RTVSPropertyOp42
 70
     1
102
RTVSPropertyOp43
 70
     1
102
RTVSPropertyOp44
 70
     1
102
RTVSPropertyOp45
 70
     1
102
RTVSPropertyOp46
 70
     1
102
RTVSPropertyOp47
 70
     1
102
RTVSPropertyOp48
 70
     1
102
RTVSPropertyOp49
 70
     1
102
RTVSPropertyOp50
 70
     1
102
RTVSPropertyOp51
 70
     0
102
RTVSPropertyOp52
 70
     0
102
RTVSPropertyOp53
 70
     1
102
RTVSPropertyOp54
 70
     1
102
RTVSPropertyOp55
 70
     1
102
RTVSPropertyOp56
 70
     1
102
RTVSPropertyOp57
 70
     1
102
RTVSPropertyOp58
 70
     1
102
RTVSPropertyOp59
 70
     1
102
RTVSPropertyOp60
 70
     1
102
RTVSPropertyOp61
 70
     1
102
RTVSPropertyOp62
 70
     1
  0
XRECORD
  5
207D4
102
{ACAD_REACTORS
330
207D3
102
}
330
207D3
100
AcDbXrecord
280
     1
102
RTVSPost2010Prop28
280
     0
102
RTVSPost2010PropOp28
 70
     1
102
RTVSPost2010Prop29
280
     1
102
RTVSPost2010PropOp29
 70
     1
102
RTVSPost2010Prop30
280
     1
102
RTVSPost2010PropOp30
 70
     1
102
RTVSPost2010Prop31
280
     0
102
RTVSPost2010PropOp31
 70
     1
102
RTVSPost2010Prop32
280
     0
102
RTVSPost2010PropOp32
 70
     1
102
RTVSPost2010Prop33
280
     0
102
RTVSPost2010PropOp33
 70
     1
102
RTVSPost2010Prop34
280
     0
102
RTVSPost2010PropOp34
 70
     1
102
RTVSPost2010Prop35
280
     0
102
RTVSPost2010PropOp35
 70
     1
102
RTVSPost2010Prop36
280
     0
102
RTVSPost2010PropOp36
 70
     1
102
RTVSPost2010Prop37
 90
       50
102
RTVSPost2010PropOp37
 70
     1
102
RTVSPost2010Prop38
140
0.0
102
RTVSPost2010PropOp38
 70
     1
102
RTVSPost2010Prop39
140
1.0
102
RTVSPost2010PropOp39
 70
     1
102
RTVSPost2010Prop40
 90
        0
102
RTVSPost2010PropOp40
 70
     1
102
RTVSPost2010Prop41ColorIndex
 90
       18
102
RTVSPost2010Prop41ColorRGB
 90
        0
102
RTVSPost2010PropOp41
 70
     1
102
RTVSPost2010Prop42
 90
       50
102
RTVSPost2010PropOp42
 70
     1
102
RTVSPost2010Prop43
 90
        3
102
RTVSPost2010PropOp43
 70
     1
102
RTVSPost2010Prop44ColorIndex
 90
        5
102
RTVSPost2010Prop44ColorRGB
 90
      255
102
RTVSPost2010PropOp44
 70
     1
102
RTVSPost2010Prop45
280
     0
102
RTVSPost2010PropOp45
 70
     1
102
RTVSPost2010Prop46
 90
       50
102
RTVSPost2010PropOp46
 70
     1
102
RTVSPost2010Prop47
 90
       50
102
RTVSPost2010PropOp47
 70
     1
102
RTVSPost2010Prop48
 90
       50
102
RTVSPost2010PropOp48
 70
     1
102
RTVSPost2010Prop49
280
     0
102
RTVSPost2010PropOp49
 70
     1
102
RTVSPost2010Prop50
 90
       50
102
RTVSPost2010PropOp50
 70
     1
102
RTVSPost2010Prop51ColorIndex
 90
      256
102
RTVSPost2010Prop51ColorRGB
 90
-16777216
102
RTVSPost2010PropOp51
 70
     0
102
RTVSPost2010Prop52
140
1.0
102
RTVSPost2010PropOp52
 70
     0
102
RTVSPost2010Prop53
 90
        2
102
RTVSPost2010PropOp53
 70
     1
102
RTVSPost2010Prop54
  1
strokes_ogs.tif
102
RTVSPost2010PropOp54
 70
     1
102
RTVSPost2010Prop55
280
     0
102
RTVSPost2010PropOp55
 70
     1
102
RTVSPost2010Prop56
140
1.0
102
RTVSPost2010PropOp56
 70
     1
102
RTVSPost2010Prop57
140
1.0
102
RTVSPost2010PropOp57
 70
     1
102
RTVSPropertyOp0
 70
     0
102
RTVSPropertyOp1
 70
     0
102
RTVSPropertyOp2
 70
     0
102
RTVSPropertyOp3
 70
     0
102
RTVSPropertyOp4
 70
     0
102
RTVSPropertyOp5
 70
     0
102
RTVSPropertyOp6
 70
     0
102
RTVSPropertyOp7
 70
     0
102
RTVSPropertyOp8
 70
     0
102
RTVSPropertyOp9
 70
     0
102
RTVSPropertyOp10
 70
     0
102
RTVSPropertyOp11
 70
     0
102
RTVSPropertyOp12
 70
     0
102
RTVSPropertyOp13
 70
     0
102
RTVSPropertyOp14
 70
     2
102
RTVSPropertyOp15
 70
     0
102
RTVSPropertyOp16
 70
     0
102
RTVSPropertyOp17
 70
     0
102
RTVSPropertyOp18
 70
     0
102
RTVSPropertyOp19
 70
     0
102
RTVSPropertyOp20
 70
     0
102
RTVSPropertyOp21
 70
     0
102
RTVSPropertyOp22
 70
     0
102
RTVSPropertyOp23
 70
     0
102
RTVSPropertyOp24
 70
     0
102
RTVSPropertyOp25
 70
     0
102
RTVSPropertyOp26
 70
     0
102
RTVSPropertyOp27
 70
     0
102
RTVSPropertyOp28
 70
     1
102
RTVSPropertyOp29
 70
     1
102
RTVSPropertyOp30
 70
     1
102
RTVSPropertyOp31
 70
     1
102
RTVSPropertyOp32
 70
     1
102
RTVSPropertyOp33
 70
     1
102
RTVSPropertyOp34
 70
     1
102
RTVSPropertyOp35
 70
     1
102
RTVSPropertyOp36
 70
     1
102
RTVSPropertyOp37
 70
     1
102
RTVSPropertyOp38
 70
     1
102
RTVSPropertyOp39
 70
     1
102
RTVSPropertyOp40
 70
     1
102
RTVSPropertyOp41
 70
     1
102
RTVSPropertyOp42
 70
     1
102
RTVSPropertyOp43
 70
     1
102
RTVSPropertyOp44
 70
     1
102
RTVSPropertyOp45
 70
     1
102
RTVSPropertyOp46
 70
     1
102
RTVSPropertyOp47
 70
     1
102
RTVSPropertyOp48
 70
     1
102
RTVSPropertyOp49
 70
     1
102
RTVSPropertyOp50
 70
     1
102
RTVSPropertyOp51
 70
     0
102
RTVSPropertyOp52
 70
     0
102
RTVSPropertyOp53
 70
     1
102
RTVSPropertyOp54
 70
     1
102
RTVSPropertyOp55
 70
     1
102
RTVSPropertyOp56
 70
     1
102
RTVSPropertyOp57
 70
     1
102
RTVSPropertyOp58
 70
     1
102
RTVSPropertyOp59
 70
     1
102
RTVSPropertyOp60
 70
     1
102
RTVSPropertyOp61
 70
     1
102
RTVSPropertyOp62
 70
     1
  0
XRECORD
  5
207C5
102
{ACAD_REACTORS
330
207C4
102
}
330
207C4
100
AcDbXrecord
280
     1
102
RTVSPost2010Prop28
280
     0
102
RTVSPost2010PropOp28
 70
     1
102
RTVSPost2010Prop29
280
     1
102
RTVSPost2010PropOp29
 70
     1
102
RTVSPost2010Prop30
280
     1
102
RTVSPost2010PropOp30
 70
     1
102
RTVSPost2010Prop31
280
     0
102
RTVSPost2010PropOp31
 70
     1
102
RTVSPost2010Prop32
280
     0
102
RTVSPost2010PropOp32
 70
     1
102
RTVSPost2010Prop33
280
     0
102
RTVSPost2010PropOp33
 70
     1
102
RTVSPost2010Prop34
280
     0
102
RTVSPost2010PropOp34
 70
     1
102
RTVSPost2010Prop35
280
     0
102
RTVSPost2010PropOp35
 70
     1
102
RTVSPost2010Prop36
280
     0
102
RTVSPost2010PropOp36
 70
     1
102
RTVSPost2010Prop37
 90
       50
102
RTVSPost2010PropOp37
 70
     1
102
RTVSPost2010Prop38
140
0.0
102
RTVSPost2010PropOp38
 70
     1
102
RTVSPost2010Prop39
140
1.0
102
RTVSPost2010PropOp39
 70
     1
102
RTVSPost2010Prop40
 90
        0
102
RTVSPost2010PropOp40
 70
     1
102
RTVSPost2010Prop41ColorIndex
 90
       18
102
RTVSPost2010Prop41ColorRGB
 90
        0
102
RTVSPost2010PropOp41
 70
     1
102
RTVSPost2010Prop42
 90
       50
102
RTVSPost2010PropOp42
 70
     1
102
RTVSPost2010Prop43
 90
        3
102
RTVSPost2010PropOp43
 70
     1
102
RTVSPost2010Prop44ColorIndex
 90
        5
102
RTVSPost2010Prop44ColorRGB
 90
      255
102
RTVSPost2010PropOp44
 70
     1
102
RTVSPost2010Prop45
280
     0
102
RTVSPost2010PropOp45
 70
     1
102
RTVSPost2010Prop46
 90
       50
102
RTVSPost2010PropOp46
 70
     1
102
RTVSPost2010Prop47
 90
       50
102
RTVSPost2010PropOp47
 70
     1
102
RTVSPost2010Prop48
 90
       50
102
RTVSPost2010PropOp48
 70
     1
102
RTVSPost2010Prop49
280
     0
102
RTVSPost2010PropOp49
 70
     1
102
RTVSPost2010Prop50
 90
       50
102
RTVSPost2010PropOp50
 70
     1
102
RTVSPost2010Prop51ColorIndex
 90
      256
102
RTVSPost2010Prop51ColorRGB
 90
-16777216
102
RTVSPost2010PropOp51
 70
     0
102
RTVSPost2010Prop52
140
1.0
102
RTVSPost2010PropOp52
 70
     0
102
RTVSPost2010Prop53
 90
        2
102
RTVSPost2010PropOp53
 70
     1
102
RTVSPost2010Prop54
  1
strokes_ogs.tif
102
RTVSPost2010PropOp54
 70
     1
102
RTVSPost2010Prop55
280
     0
102
RTVSPost2010PropOp55
 70
     1
102
RTVSPost2010Prop56
140
1.0
102
RTVSPost2010PropOp56
 70
     1
102
RTVSPost2010Prop57
140
1.0
102
RTVSPost2010PropOp57
 70
     1
102
RTVSPropertyOp0
 70
     1
102
RTVSPropertyOp1
 70
     1
102
RTVSPropertyOp2
 70
     1
102
RTVSPropertyOp3
 70
     1
102
RTVSPropertyOp4
 70
     1
102
RTVSPropertyOp5
 70
     1
102
RTVSPropertyOp6
 70
     1
102
RTVSPropertyOp7
 70
     1
102
RTVSPropertyOp8
 70
     1
102
RTVSPropertyOp9
 70
     1
102
RTVSPropertyOp10
 70
     1
102
RTVSPropertyOp11
 70
     1
102
RTVSPropertyOp12
 70
     1
102
RTVSPropertyOp13
 70
     1
102
RTVSPropertyOp14
 70
     1
102
RTVSPropertyOp15
 70
     1
102
RTVSPropertyOp16
 70
     1
102
RTVSPropertyOp17
 70
     1
102
RTVSPropertyOp18
 70
     1
102
RTVSPropertyOp19
 70
     1
102
RTVSPropertyOp20
 70
     1
102
RTVSPropertyOp21
 70
     1
102
RTVSPropertyOp22
 70
     1
102
RTVSPropertyOp23
 70
     1
102
RTVSPropertyOp24
 70
     1
102
RTVSPropertyOp25
 70
     1
102
RTVSPropertyOp26
 70
     1
102
RTVSPropertyOp27
 70
     1
102
RTVSPropertyOp28
 70
     1
102
RTVSPropertyOp29
 70
     1
102
RTVSPropertyOp30
 70
     1
102
RTVSPropertyOp31
 70
     1
102
RTVSPropertyOp32
 70
     1
102
RTVSPropertyOp33
 70
     1
102
RTVSPropertyOp34
 70
     1
102
RTVSPropertyOp35
 70
     1
102
RTVSPropertyOp36
 70
     1
102
RTVSPropertyOp37
 70
     1
102
RTVSPropertyOp38
 70
     1
102
RTVSPropertyOp39
 70
     1
102
RTVSPropertyOp40
 70
     1
102
RTVSPropertyOp41
 70
     1
102
RTVSPropertyOp42
 70
     1
102
RTVSPropertyOp43
 70
     1
102
RTVSPropertyOp44
 70
     1
102
RTVSPropertyOp45
 70
     1
102
RTVSPropertyOp46
 70
     1
102
RTVSPropertyOp47
 70
     1
102
RTVSPropertyOp48
 70
     1
102
RTVSPropertyOp49
 70
     1
102
RTVSPropertyOp50
 70
     1
102
RTVSPropertyOp51
 70
     0
102
RTVSPropertyOp52
 70
     0
102
RTVSPropertyOp53
 70
     1
102
RTVSPropertyOp54
 70
     1
102
RTVSPropertyOp55
 70
     1
102
RTVSPropertyOp56
 70
     1
102
RTVSPropertyOp57
 70
     1
102
RTVSPropertyOp58
 70
     1
102
RTVSPropertyOp59
 70
     1
102
RTVSPropertyOp60
 70
     1
102
RTVSPropertyOp61
 70
     1
102
RTVSPropertyOp62
 70
     1
  0
XRECORD
  5
207D6
102
{ACAD_REACTORS
330
207D5
102
}
330
207D5
100
AcDbXrecord
280
     1
102
RTVSPost2010Prop28
280
     0
102
RTVSPost2010PropOp28
 70
     1
102
RTVSPost2010Prop29
280
     1
102
RTVSPost2010PropOp29
 70
     1
102
RTVSPost2010Prop30
280
     1
102
RTVSPost2010PropOp30
 70
     1
102
RTVSPost2010Prop31
280
     0
102
RTVSPost2010PropOp31
 70
     1
102
RTVSPost2010Prop32
280
     0
102
RTVSPost2010PropOp32
 70
     1
102
RTVSPost2010Prop33
280
     0
102
RTVSPost2010PropOp33
 70
     1
102
RTVSPost2010Prop34
280
     0
102
RTVSPost2010PropOp34
 70
     1
102
RTVSPost2010Prop35
280
     0
102
RTVSPost2010PropOp35
 70
     1
102
RTVSPost2010Prop36
280
     0
102
RTVSPost2010PropOp36
 70
     1
102
RTVSPost2010Prop37
 90
       50
102
RTVSPost2010PropOp37
 70
     1
102
RTVSPost2010Prop38
140
0.0
102
RTVSPost2010PropOp38
 70
     1
102
RTVSPost2010Prop39
140
1.0
102
RTVSPost2010PropOp39
 70
     1
102
RTVSPost2010Prop40
 90
        0
102
RTVSPost2010PropOp40
 70
     1
102
RTVSPost2010Prop41ColorIndex
 90
       18
102
RTVSPost2010Prop41ColorRGB
 90
        0
102
RTVSPost2010PropOp41
 70
     1
102
RTVSPost2010Prop42
 90
       50
102
RTVSPost2010PropOp42
 70
     1
102
RTVSPost2010Prop43
 90
        3
102
RTVSPost2010PropOp43
 70
     1
102
RTVSPost2010Prop44ColorIndex
 90
        5
102
RTVSPost2010Prop44ColorRGB
 90
      255
102
RTVSPost2010PropOp44
 70
     1
102
RTVSPost2010Prop45
280
     0
102
RTVSPost2010PropOp45
 70
     1
102
RTVSPost2010Prop46
 90
       50
102
RTVSPost2010PropOp46
 70
     1
102
RTVSPost2010Prop47
 90
       50
102
RTVSPost2010PropOp47
 70
     1
102
RTVSPost2010Prop48
 90
       50
102
RTVSPost2010PropOp48
 70
     1
102
RTVSPost2010Prop49
280
     0
102
RTVSPost2010PropOp49
 70
     1
102
RTVSPost2010Prop50
 90
       50
102
RTVSPost2010PropOp50
 70
     1
102
RTVSPost2010Prop51ColorIndex
 90
      256
102
RTVSPost2010Prop51ColorRGB
 90
-16777216
102
RTVSPost2010PropOp51
 70
     0
102
RTVSPost2010Prop52
140
1.0
102
RTVSPost2010PropOp52
 70
     0
102
RTVSPost2010Prop53
 90
        2
102
RTVSPost2010PropOp53
 70
     1
102
RTVSPost2010Prop54
  1
strokes_ogs.tif
102
RTVSPost2010PropOp54
 70
     1
102
RTVSPost2010Prop55
280
     0
102
RTVSPost2010PropOp55
 70
     1
102
RTVSPost2010Prop56
140
1.0
102
RTVSPost2010PropOp56
 70
     1
102
RTVSPost2010Prop57
140
1.0
102
RTVSPost2010PropOp57
 70
     1
102
RTVSPropertyOp0
 70
     0
102
RTVSPropertyOp1
 70
     0
102
RTVSPropertyOp2
 70
     0
102
RTVSPropertyOp3
 70
     0
102
RTVSPropertyOp4
 70
     0
102
RTVSPropertyOp5
 70
     0
102
RTVSPropertyOp6
 70
     0
102
RTVSPropertyOp7
 70
     0
102
RTVSPropertyOp8
 70
     0
102
RTVSPropertyOp9
 70
     0
102
RTVSPropertyOp10
 70
     0
102
RTVSPropertyOp11
 70
     0
102
RTVSPropertyOp12
 70
     0
102
RTVSPropertyOp13
 70
     0
102
RTVSPropertyOp14
 70
     2
102
RTVSPropertyOp15
 70
     0
102
RTVSPropertyOp16
 70
     0
102
RTVSPropertyOp17
 70
     0
102
RTVSPropertyOp18
 70
     0
102
RTVSPropertyOp19
 70
     0
102
RTVSPropertyOp20
 70
     0
102
RTVSPropertyOp21
 70
     0
102
RTVSPropertyOp22
 70
     0
102
RTVSPropertyOp23
 70
     0
102
RTVSPropertyOp24
 70
     0
102
RTVSPropertyOp25
 70
     0
102
RTVSPropertyOp26
 70
     0
102
RTVSPropertyOp27
 70
     0
102
RTVSPropertyOp28
 70
     1
102
RTVSPropertyOp29
 70
     1
102
RTVSPropertyOp30
 70
     1
102
RTVSPropertyOp31
 70
     1
102
RTVSPropertyOp32
 70
     1
102
RTVSPropertyOp33
 70
     1
102
RTVSPropertyOp34
 70
     1
102
RTVSPropertyOp35
 70
     1
102
RTVSPropertyOp36
 70
     1
102
RTVSPropertyOp37
 70
     1
102
RTVSPropertyOp38
 70
     1
102
RTVSPropertyOp39
 70
     1
102
RTVSPropertyOp40
 70
     1
102
RTVSPropertyOp41
 70
     1
102
RTVSPropertyOp42
 70
     1
102
RTVSPropertyOp43
 70
     1
102
RTVSPropertyOp44
 70
     1
102
RTVSPropertyOp45
 70
     1
102
RTVSPropertyOp46
 70
     1
102
RTVSPropertyOp47
 70
     1
102
RTVSPropertyOp48
 70
     1
102
RTVSPropertyOp49
 70
     1
102
RTVSPropertyOp50
 70
     1
102
RTVSPropertyOp51
 70
     0
102
RTVSPropertyOp52
 70
     0
102
RTVSPropertyOp53
 70
     1
102
RTVSPropertyOp54
 70
     1
102
RTVSPropertyOp55
 70
     1
102
RTVSPropertyOp56
 70
     1
102
RTVSPropertyOp57
 70
     1
102
RTVSPropertyOp58
 70
     1
102
RTVSPropertyOp59
 70
     1
102
RTVSPropertyOp60
 70
     1
102
RTVSPropertyOp61
 70
     1
102
RTVSPropertyOp62
 70
     1
  0
XRECORD
  5
207D2
102
{ACAD_REACTORS
330
207D1
102
}
330
207D1
100
AcDbXrecord
280
     1
102
RTVSPost2010Prop28
280
     0
102
RTVSPost2010PropOp28
 70
     1
102
RTVSPost2010Prop29
280
     1
102
RTVSPost2010PropOp29
 70
     1
102
RTVSPost2010Prop30
280
     1
102
RTVSPost2010PropOp30
 70
     1
102
RTVSPost2010Prop31
280
     0
102
RTVSPost2010PropOp31
 70
     1
102
RTVSPost2010Prop32
280
     0
102
RTVSPost2010PropOp32
 70
     1
102
RTVSPost2010Prop33
280
     0
102
RTVSPost2010PropOp33
 70
     1
102
RTVSPost2010Prop34
280
     0
102
RTVSPost2010PropOp34
 70
     1
102
RTVSPost2010Prop35
280
     0
102
RTVSPost2010PropOp35
 70
     1
102
RTVSPost2010Prop36
280
     0
102
RTVSPost2010PropOp36
 70
     1
102
RTVSPost2010Prop37
 90
       50
102
RTVSPost2010PropOp37
 70
     1
102
RTVSPost2010Prop38
140
0.0
102
RTVSPost2010PropOp38
 70
     1
102
RTVSPost2010Prop39
140
1.0
102
RTVSPost2010PropOp39
 70
     1
102
RTVSPost2010Prop40
 90
        0
102
RTVSPost2010PropOp40
 70
     1
102
RTVSPost2010Prop41ColorIndex
 90
       18
102
RTVSPost2010Prop41ColorRGB
 90
        0
102
RTVSPost2010PropOp41
 70
     1
102
RTVSPost2010Prop42
 90
       50
102
RTVSPost2010PropOp42
 70
     1
102
RTVSPost2010Prop43
 90
        3
102
RTVSPost2010PropOp43
 70
     1
102
RTVSPost2010Prop44ColorIndex
 90
        5
102
RTVSPost2010Prop44ColorRGB
 90
      255
102
RTVSPost2010PropOp44
 70
     1
102
RTVSPost2010Prop45
280
     0
102
RTVSPost2010PropOp45
 70
     1
102
RTVSPost2010Prop46
 90
       50
102
RTVSPost2010PropOp46
 70
     1
102
RTVSPost2010Prop47
 90
       50
102
RTVSPost2010PropOp47
 70
     1
102
RTVSPost2010Prop48
 90
       50
102
RTVSPost2010PropOp48
 70
     1
102
RTVSPost2010Prop49
280
     0
102
RTVSPost2010PropOp49
 70
     1
102
RTVSPost2010Prop50
 90
       50
102
RTVSPost2010PropOp50
 70
     1
102
RTVSPost2010Prop51ColorIndex
 90
      256
102
RTVSPost2010Prop51ColorRGB
 90
-16777216
102
RTVSPost2010PropOp51
 70
     0
102
RTVSPost2010Prop52
140
1.0
102
RTVSPost2010PropOp52
 70
     0
102
RTVSPost2010Prop53
 90
        2
102
RTVSPost2010PropOp53
 70
     1
102
RTVSPost2010Prop54
  1
strokes_ogs.tif
102
RTVSPost2010PropOp54
 70
     1
102
RTVSPost2010Prop55
280
     0
102
RTVSPost2010PropOp55
 70
     1
102
RTVSPost2010Prop56
140
1.0
102
RTVSPost2010PropOp56
 70
     1
102
RTVSPost2010Prop57
140
1.0
102
RTVSPost2010PropOp57
 70
     1
102
RTVSPropertyOp0
 70
     1
102
RTVSPropertyOp1
 70
     1
102
RTVSPropertyOp2
 70
     1
102
RTVSPropertyOp3
 70
     1
102
RTVSPropertyOp4
 70
     1
102
RTVSPropertyOp5
 70
     1
102
RTVSPropertyOp6
 70
     1
102
RTVSPropertyOp7
 70
     1
102
RTVSPropertyOp8
 70
     1
102
RTVSPropertyOp9
 70
     1
102
RTVSPropertyOp10
 70
     1
102
RTVSPropertyOp11
 70
     1
102
RTVSPropertyOp12
 70
     1
102
RTVSPropertyOp13
 70
     1
102
RTVSPropertyOp14
 70
     1
102
RTVSPropertyOp15
 70
     1
102
RTVSPropertyOp16
 70
     1
102
RTVSPropertyOp17
 70
     1
102
RTVSPropertyOp18
 70
     1
102
RTVSPropertyOp19
 70
     1
102
RTVSPropertyOp20
 70
     1
102
RTVSPropertyOp21
 70
     1
102
RTVSPropertyOp22
 70
     1
102
RTVSPropertyOp23
 70
     1
102
RTVSPropertyOp24
 70
     1
102
RTVSPropertyOp25
 70
     1
102
RTVSPropertyOp26
 70
     1
102
RTVSPropertyOp27
 70
     1
102
RTVSPropertyOp28
 70
     1
102
RTVSPropertyOp29
 70
     1
102
RTVSPropertyOp30
 70
     1
102
RTVSPropertyOp31
 70
     1
102
RTVSPropertyOp32
 70
     1
102
RTVSPropertyOp33
 70
     1
102
RTVSPropertyOp34
 70
     1
102
RTVSPropertyOp35
 70
     1
102
RTVSPropertyOp36
 70
     1
102
RTVSPropertyOp37
 70
     1
102
RTVSPropertyOp38
 70
     1
102
RTVSPropertyOp39
 70
     1
102
RTVSPropertyOp40
 70
     1
102
RTVSPropertyOp41
 70
     1
102
RTVSPropertyOp42
 70
     1
102
RTVSPropertyOp43
 70
     1
102
RTVSPropertyOp44
 70
     1
102
RTVSPropertyOp45
 70
     1
102
RTVSPropertyOp46
 70
     1
102
RTVSPropertyOp47
 70
     1
102
RTVSPropertyOp48
 70
     1
102
RTVSPropertyOp49
 70
     1
102
RTVSPropertyOp50
 70
     1
102
RTVSPropertyOp51
 70
     0
102
RTVSPropertyOp52
 70
     0
102
RTVSPropertyOp53
 70
     1
102
RTVSPropertyOp54
 70
     1
102
RTVSPropertyOp55
 70
     1
102
RTVSPropertyOp56
 70
     1
102
RTVSPropertyOp57
 70
     1
102
RTVSPropertyOp58
 70
     1
102
RTVSPropertyOp59
 70
     1
102
RTVSPropertyOp60
 70
     1
102
RTVSPropertyOp61
 70
     1
102
RTVSPropertyOp62
 70
     1
  0
XRECORD
  5
207E6
102
{ACAD_REACTORS
330
207E5
102
}
330
207E5
100
AcDbXrecord
280
     1
102
RTVSPost2010Prop28
280
     0
102
RTVSPost2010PropOp28
 70
     1
102
RTVSPost2010Prop29
280
     1
102
RTVSPost2010PropOp29
 70
     1
102
RTVSPost2010Prop30
280
     1
102
RTVSPost2010PropOp30
 70
     1
102
RTVSPost2010Prop31
280
     0
102
RTVSPost2010PropOp31
 70
     1
102
RTVSPost2010Prop32
280
     0
102
RTVSPost2010PropOp32
 70
     1
102
RTVSPost2010Prop33
280
     0
102
RTVSPost2010PropOp33
 70
     1
102
RTVSPost2010Prop34
280
     0
102
RTVSPost2010PropOp34
 70
     1
102
RTVSPost2010Prop35
280
     0
102
RTVSPost2010PropOp35
 70
     1
102
RTVSPost2010Prop36
280
     0
102
RTVSPost2010PropOp36
 70
     1
102
RTVSPost2010Prop37
 90
       50
102
RTVSPost2010PropOp37
 70
     1
102
RTVSPost2010Prop38
140
0.0
102
RTVSPost2010PropOp38
 70
     1
102
RTVSPost2010Prop39
140
1.0
102
RTVSPost2010PropOp39
 70
     1
102
RTVSPost2010Prop40
 90
        0
102
RTVSPost2010PropOp40
 70
     1
102
RTVSPost2010Prop41ColorIndex
 90
       18
102
RTVSPost2010Prop41ColorRGB
 90
        0
102
RTVSPost2010PropOp41
 70
     1
102
RTVSPost2010Prop42
 90
       50
102
RTVSPost2010PropOp42
 70
     1
102
RTVSPost2010Prop43
 90
        3
102
RTVSPost2010PropOp43
 70
     1
102
RTVSPost2010Prop44ColorIndex
 90
        5
102
RTVSPost2010Prop44ColorRGB
 90
      255
102
RTVSPost2010PropOp44
 70
     1
102
RTVSPost2010Prop45
280
     0
102
RTVSPost2010PropOp45
 70
     1
102
RTVSPost2010Prop46
 90
       50
102
RTVSPost2010PropOp46
 70
     1
102
RTVSPost2010Prop47
 90
       50
102
RTVSPost2010PropOp47
 70
     1
102
RTVSPost2010Prop48
 90
       50
102
RTVSPost2010PropOp48
 70
     1
102
RTVSPost2010Prop49
280
     0
102
RTVSPost2010PropOp49
 70
     1
102
RTVSPost2010Prop50
 90
       50
102
RTVSPost2010PropOp50
 70
     1
102
RTVSPost2010Prop51ColorIndex
 90
      256
102
RTVSPost2010Prop51ColorRGB
 90
-16777216
102
RTVSPost2010PropOp51
 70
     0
102
RTVSPost2010Prop52
140
1.0
102
RTVSPost2010PropOp52
 70
     0
102
RTVSPost2010Prop53
 90
        2
102
RTVSPost2010PropOp53
 70
     1
102
RTVSPost2010Prop54
  1
strokes_ogs.tif
102
RTVSPost2010PropOp54
 70
     1
102
RTVSPost2010Prop55
280
     0
102
RTVSPost2010PropOp55
 70
     1
102
RTVSPost2010Prop56
140
1.0
102
RTVSPost2010PropOp56
 70
     1
102
RTVSPost2010Prop57
140
1.0
102
RTVSPost2010PropOp57
 70
     1
102
RTVSPropertyOp0
 70
     1
102
RTVSPropertyOp1
 70
     1
102
RTVSPropertyOp2
 70
     1
102
RTVSPropertyOp3
 70
     1
102
RTVSPropertyOp4
 70
     1
102
RTVSPropertyOp5
 70
     1
102
RTVSPropertyOp6
 70
     1
102
RTVSPropertyOp7
 70
     1
102
RTVSPropertyOp8
 70
     1
102
RTVSPropertyOp9
 70
     1
102
RTVSPropertyOp10
 70
     1
102
RTVSPropertyOp11
 70
     1
102
RTVSPropertyOp12
 70
     1
102
RTVSPropertyOp13
 70
     1
102
RTVSPropertyOp14
 70
     1
102
RTVSPropertyOp15
 70
     1
102
RTVSPropertyOp16
 70
     1
102
RTVSPropertyOp17
 70
     1
102
RTVSPropertyOp18
 70
     1
102
RTVSPropertyOp19
 70
     1
102
RTVSPropertyOp20
 70
     1
102
RTVSPropertyOp21
 70
     1
102
RTVSPropertyOp22
 70
     1
102
RTVSPropertyOp23
 70
     1
102
RTVSPropertyOp24
 70
     1
102
RTVSPropertyOp25
 70
     1
102
RTVSPropertyOp26
 70
     1
102
RTVSPropertyOp27
 70
     1
102
RTVSPropertyOp28
 70
     1
102
RTVSPropertyOp29
 70
     1
102
RTVSPropertyOp30
 70
     1
102
RTVSPropertyOp31
 70
     1
102
RTVSPropertyOp32
 70
     1
102
RTVSPropertyOp33
 70
     1
102
RTVSPropertyOp34
 70
     1
102
RTVSPropertyOp35
 70
     1
102
RTVSPropertyOp36
 70
     1
102
RTVSPropertyOp37
 70
     1
102
RTVSPropertyOp38
 70
     1
102
RTVSPropertyOp39
 70
     1
102
RTVSPropertyOp40
 70
     1
102
RTVSPropertyOp41
 70
     1
102
RTVSPropertyOp42
 70
     1
102
RTVSPropertyOp43
 70
     1
102
RTVSPropertyOp44
 70
     1
102
RTVSPropertyOp45
 70
     1
102
RTVSPropertyOp46
 70
     1
102
RTVSPropertyOp47
 70
     1
102
RTVSPropertyOp48
 70
     1
102
RTVSPropertyOp49
 70
     1
102
RTVSPropertyOp50
 70
     1
102
RTVSPropertyOp51
 70
     0
102
RTVSPropertyOp52
 70
     0
102
RTVSPropertyOp53
 70
     1
102
RTVSPropertyOp54
 70
     1
102
RTVSPropertyOp55
 70
     1
102
RTVSPropertyOp56
 70
     1
102
RTVSPropertyOp57
 70
     1
102
RTVSPropertyOp58
 70
     1
102
RTVSPropertyOp59
 70
     1
102
RTVSPropertyOp60
 70
     1
102
RTVSPropertyOp61
 70
     1
102
RTVSPropertyOp62
 70
     1
  0
XRECORD
  5
207E4
102
{ACAD_REACTORS
330
207E3
102
}
330
207E3
100
AcDbXrecord
280
     1
102
RTVSPost2010Prop28
280
     0
102
RTVSPost2010PropOp28
 70
     1
102
RTVSPost2010Prop29
280
     1
102
RTVSPost2010PropOp29
 70
     1
102
RTVSPost2010Prop30
280
     1
102
RTVSPost2010PropOp30
 70
     1
102
RTVSPost2010Prop31
280
     0
102
RTVSPost2010PropOp31
 70
     1
102
RTVSPost2010Prop32
280
     0
102
RTVSPost2010PropOp32
 70
     1
102
RTVSPost2010Prop33
280
     0
102
RTVSPost2010PropOp33
 70
     1
102
RTVSPost2010Prop34
280
     0
102
RTVSPost2010PropOp34
 70
     1
102
RTVSPost2010Prop35
280
     0
102
RTVSPost2010PropOp35
 70
     1
102
RTVSPost2010Prop36
280
     0
102
RTVSPost2010PropOp36
 70
     1
102
RTVSPost2010Prop37
 90
       50
102
RTVSPost2010PropOp37
 70
     1
102
RTVSPost2010Prop38
140
0.0
102
RTVSPost2010PropOp38
 70
     1
102
RTVSPost2010Prop39
140
1.0
102
RTVSPost2010PropOp39
 70
     1
102
RTVSPost2010Prop40
 90
        0
102
RTVSPost2010PropOp40
 70
     1
102
RTVSPost2010Prop41ColorIndex
 90
       18
102
RTVSPost2010Prop41ColorRGB
 90
        0
102
RTVSPost2010PropOp41
 70
     1
102
RTVSPost2010Prop42
 90
       50
102
RTVSPost2010PropOp42
 70
     1
102
RTVSPost2010Prop43
 90
        3
102
RTVSPost2010PropOp43
 70
     1
102
RTVSPost2010Prop44ColorIndex
 90
        5
102
RTVSPost2010Prop44ColorRGB
 90
      255
102
RTVSPost2010PropOp44
 70
     1
102
RTVSPost2010Prop45
280
     0
102
RTVSPost2010PropOp45
 70
     1
102
RTVSPost2010Prop46
 90
       50
102
RTVSPost2010PropOp46
 70
     1
102
RTVSPost2010Prop47
 90
       50
102
RTVSPost2010PropOp47
 70
     1
102
RTVSPost2010Prop48
 90
       50
102
RTVSPost2010PropOp48
 70
     1
102
RTVSPost2010Prop49
280
     0
102
RTVSPost2010PropOp49
 70
     1
102
RTVSPost2010Prop50
 90
       50
102
RTVSPost2010PropOp50
 70
     1
102
RTVSPost2010Prop51ColorIndex
 90
      256
102
RTVSPost2010Prop51ColorRGB
 90
-16777216
102
RTVSPost2010PropOp51
 70
     0
102
RTVSPost2010Prop52
140
1.0
102
RTVSPost2010PropOp52
 70
     0
102
RTVSPost2010Prop53
 90
        2
102
RTVSPost2010PropOp53
 70
     1
102
RTVSPost2010Prop54
  1
strokes_ogs.tif
102
RTVSPost2010PropOp54
 70
     1
102
RTVSPost2010Prop55
280
     0
102
RTVSPost2010PropOp55
 70
     1
102
RTVSPost2010Prop56
140
1.0
102
RTVSPost2010PropOp56
 70
     1
102
RTVSPost2010Prop57
140
1.0
102
RTVSPost2010PropOp57
 70
     1
102
RTVSPropertyOp0
 70
     1
102
RTVSPropertyOp1
 70
     1
102
RTVSPropertyOp2
 70
     1
102
RTVSPropertyOp3
 70
     1
102
RTVSPropertyOp4
 70
     1
102
RTVSPropertyOp5
 70
     1
102
RTVSPropertyOp6
 70
     1
102
RTVSPropertyOp7
 70
     1
102
RTVSPropertyOp8
 70
     1
102
RTVSPropertyOp9
 70
     1
102
RTVSPropertyOp10
 70
     1
102
RTVSPropertyOp11
 70
     1
102
RTVSPropertyOp12
 70
     1
102
RTVSPropertyOp13
 70
     1
102
RTVSPropertyOp14
 70
     1
102
RTVSPropertyOp15
 70
     1
102
RTVSPropertyOp16
 70
     1
102
RTVSPropertyOp17
 70
     1
102
RTVSPropertyOp18
 70
     1
102
RTVSPropertyOp19
 70
     1
102
RTVSPropertyOp20
 70
     1
102
RTVSPropertyOp21
 70
     1
102
RTVSPropertyOp22
 70
     1
102
RTVSPropertyOp23
 70
     1
102
RTVSPropertyOp24
 70
     1
102
RTVSPropertyOp25
 70
     1
102
RTVSPropertyOp26
 70
     1
102
RTVSPropertyOp27
 70
     1
102
RTVSPropertyOp28
 70
     1
102
RTVSPropertyOp29
 70
     1
102
RTVSPropertyOp30
 70
     1
102
RTVSPropertyOp31
 70
     1
102
RTVSPropertyOp32
 70
     1
102
RTVSPropertyOp33
 70
     1
102
RTVSPropertyOp34
 70
     1
102
RTVSPropertyOp35
 70
     1
102
RTVSPropertyOp36
 70
     1
102
RTVSPropertyOp37
 70
     1
102
RTVSPropertyOp38
 70
     1
102
RTVSPropertyOp39
 70
     1
102
RTVSPropertyOp40
 70
     1
102
RTVSPropertyOp41
 70
     1
102
RTVSPropertyOp42
 70
     1
102
RTVSPropertyOp43
 70
     1
102
RTVSPropertyOp44
 70
     1
102
RTVSPropertyOp45
 70
     1
102
RTVSPropertyOp46
 70
     1
102
RTVSPropertyOp47
 70
     1
102
RTVSPropertyOp48
 70
     1
102
RTVSPropertyOp49
 70
     1
102
RTVSPropertyOp50
 70
     1
102
RTVSPropertyOp51
 70
     0
102
RTVSPropertyOp52
 70
     0
102
RTVSPropertyOp53
 70
     1
102
RTVSPropertyOp54
 70
     1
102
RTVSPropertyOp55
 70
     1
102
RTVSPropertyOp56
 70
     1
102
RTVSPropertyOp57
 70
     1
102
RTVSPropertyOp58
 70
     1
102
RTVSPropertyOp59
 70
     1
102
RTVSPropertyOp60
 70
     1
102
RTVSPropertyOp61
 70
     1
102
RTVSPropertyOp62
 70
     1
  0
XRECORD
  5
207DE
102
{ACAD_REACTORS
330
207DD
102
}
330
207DD
100
AcDbXrecord
280
     1
102
RTVSPost2010Prop28
280
     0
102
RTVSPost2010PropOp28
 70
     1
102
RTVSPost2010Prop29
280
     1
102
RTVSPost2010PropOp29
 70
     1
102
RTVSPost2010Prop30
280
     1
102
RTVSPost2010PropOp30
 70
     1
102
RTVSPost2010Prop31
280
     0
102
RTVSPost2010PropOp31
 70
     1
102
RTVSPost2010Prop32
280
     0
102
RTVSPost2010PropOp32
 70
     1
102
RTVSPost2010Prop33
280
     0
102
RTVSPost2010PropOp33
 70
     1
102
RTVSPost2010Prop34
280
     0
102
RTVSPost2010PropOp34
 70
     1
102
RTVSPost2010Prop35
280
     0
102
RTVSPost2010PropOp35
 70
     1
102
RTVSPost2010Prop36
280
     0
102
RTVSPost2010PropOp36
 70
     1
102
RTVSPost2010Prop37
 90
       50
102
RTVSPost2010PropOp37
 70
     1
102
RTVSPost2010Prop38
140
0.0
102
RTVSPost2010PropOp38
 70
     1
102
RTVSPost2010Prop39
140
1.0
102
RTVSPost2010PropOp39
 70
     1
102
RTVSPost2010Prop40
 90
        0
102
RTVSPost2010PropOp40
 70
     1
102
RTVSPost2010Prop41ColorIndex
 90
       18
102
RTVSPost2010Prop41ColorRGB
 90
        0
102
RTVSPost2010PropOp41
 70
     1
102
RTVSPost2010Prop42
 90
       50
102
RTVSPost2010PropOp42
 70
     1
102
RTVSPost2010Prop43
 90
        3
102
RTVSPost2010PropOp43
 70
     1
102
RTVSPost2010Prop44ColorIndex
 90
        5
102
RTVSPost2010Prop44ColorRGB
 90
      255
102
RTVSPost2010PropOp44
 70
     1
102
RTVSPost2010Prop45
280
     0
102
RTVSPost2010PropOp45
 70
     1
102
RTVSPost2010Prop46
 90
       50
102
RTVSPost2010PropOp46
 70
     1
102
RTVSPost2010Prop47
 90
       50
102
RTVSPost2010PropOp47
 70
     1
102
RTVSPost2010Prop48
 90
       50
102
RTVSPost2010PropOp48
 70
     1
102
RTVSPost2010Prop49
280
     0
102
RTVSPost2010PropOp49
 70
     1
102
RTVSPost2010Prop50
 90
       50
102
RTVSPost2010PropOp50
 70
     1
102
RTVSPost2010Prop51ColorIndex
 90
      256
102
RTVSPost2010Prop51ColorRGB
 90
-16777216
102
RTVSPost2010PropOp51
 70
     0
102
RTVSPost2010Prop52
140
1.0
102
RTVSPost2010PropOp52
 70
     0
102
RTVSPost2010Prop53
 90
        2
102
RTVSPost2010PropOp53
 70
     1
102
RTVSPost2010Prop54
  1
strokes_ogs.tif
102
RTVSPost2010PropOp54
 70
     1
102
RTVSPost2010Prop55
280
     0
102
RTVSPost2010PropOp55
 70
     1
102
RTVSPost2010Prop56
140
1.0
102
RTVSPost2010PropOp56
 70
     1
102
RTVSPost2010Prop57
140
1.0
102
RTVSPost2010PropOp57
 70
     1
102
RTVSPropertyOp0
 70
     1
102
RTVSPropertyOp1
 70
     1
102
RTVSPropertyOp2
 70
     1
102
RTVSPropertyOp3
 70
     1
102
RTVSPropertyOp4
 70
     1
102
RTVSPropertyOp5
 70
     1
102
RTVSPropertyOp6
 70
     1
102
RTVSPropertyOp7
 70
     1
102
RTVSPropertyOp8
 70
     1
102
RTVSPropertyOp9
 70
     1
102
RTVSPropertyOp10
 70
     1
102
RTVSPropertyOp11
 70
     1
102
RTVSPropertyOp12
 70
     1
102
RTVSPropertyOp13
 70
     1
102
RTVSPropertyOp14
 70
     1
102
RTVSPropertyOp15
 70
     1
102
RTVSPropertyOp16
 70
     1
102
RTVSPropertyOp17
 70
     1
102
RTVSPropertyOp18
 70
     1
102
RTVSPropertyOp19
 70
     1
102
RTVSPropertyOp20
 70
     1
102
RTVSPropertyOp21
 70
     1
102
RTVSPropertyOp22
 70
     1
102
RTVSPropertyOp23
 70
     1
102
RTVSPropertyOp24
 70
     1
102
RTVSPropertyOp25
 70
     1
102
RTVSPropertyOp26
 70
     1
102
RTVSPropertyOp27
 70
     1
102
RTVSPropertyOp28
 70
     1
102
RTVSPropertyOp29
 70
     1
102
RTVSPropertyOp30
 70
     1
102
RTVSPropertyOp31
 70
     1
102
RTVSPropertyOp32
 70
     1
102
RTVSPropertyOp33
 70
     1
102
RTVSPropertyOp34
 70
     1
102
RTVSPropertyOp35
 70
     1
102
RTVSPropertyOp36
 70
     1
102
RTVSPropertyOp37
 70
     1
102
RTVSPropertyOp38
 70
     1
102
RTVSPropertyOp39
 70
     1
102
RTVSPropertyOp40
 70
     1
102
RTVSPropertyOp41
 70
     1
102
RTVSPropertyOp42
 70
     1
102
RTVSPropertyOp43
 70
     1
102
RTVSPropertyOp44
 70
     1
102
RTVSPropertyOp45
 70
     1
102
RTVSPropertyOp46
 70
     1
102
RTVSPropertyOp47
 70
     1
102
RTVSPropertyOp48
 70
     1
102
RTVSPropertyOp49
 70
     1
102
RTVSPropertyOp50
 70
     1
102
RTVSPropertyOp51
 70
     0
102
RTVSPropertyOp52
 70
     0
102
RTVSPropertyOp53
 70
     1
102
RTVSPropertyOp54
 70
     1
102
RTVSPropertyOp55
 70
     1
102
RTVSPropertyOp56
 70
     1
102
RTVSPropertyOp57
 70
     1
102
RTVSPropertyOp58
 70
     1
102
RTVSPropertyOp59
 70
     1
102
RTVSPropertyOp60
 70
     1
102
RTVSPropertyOp61
 70
     1
102
RTVSPropertyOp62
 70
     1
  0
XRECORD
  5
207E0
102
{ACAD_REACTORS
330
207DF
102
}
330
207DF
100
AcDbXrecord
280
     1
102
RTVSPost2010Prop28
280
     0
102
RTVSPost2010PropOp28
 70
     1
102
RTVSPost2010Prop29
280
     1
102
RTVSPost2010PropOp29
 70
     1
102
RTVSPost2010Prop30
280
     1
102
RTVSPost2010PropOp30
 70
     1
102
RTVSPost2010Prop31
280
     0
102
RTVSPost2010PropOp31
 70
     1
102
RTVSPost2010Prop32
280
     0
102
RTVSPost2010PropOp32
 70
     1
102
RTVSPost2010Prop33
280
     0
102
RTVSPost2010PropOp33
 70
     1
102
RTVSPost2010Prop34
280
     0
102
RTVSPost2010PropOp34
 70
     1
102
RTVSPost2010Prop35
280
     0
102
RTVSPost2010PropOp35
 70
     1
102
RTVSPost2010Prop36
280
     0
102
RTVSPost2010PropOp36
 70
     1
102
RTVSPost2010Prop37
 90
       50
102
RTVSPost2010PropOp37
 70
     1
102
RTVSPost2010Prop38
140
0.0
102
RTVSPost2010PropOp38
 70
     1
102
RTVSPost2010Prop39
140
1.0
102
RTVSPost2010PropOp39
 70
     1
102
RTVSPost2010Prop40
 90
        0
102
RTVSPost2010PropOp40
 70
     1
102
RTVSPost2010Prop41ColorIndex
 90
       18
102
RTVSPost2010Prop41ColorRGB
 90
        0
102
RTVSPost2010PropOp41
 70
     1
102
RTVSPost2010Prop42
 90
       50
102
RTVSPost2010PropOp42
 70
     1
102
RTVSPost2010Prop43
 90
        3
102
RTVSPost2010PropOp43
 70
     1
102
RTVSPost2010Prop44ColorIndex
 90
        5
102
RTVSPost2010Prop44ColorRGB
 90
      255
102
RTVSPost2010PropOp44
 70
     1
102
RTVSPost2010Prop45
280
     0
102
RTVSPost2010PropOp45
 70
     1
102
RTVSPost2010Prop46
 90
       50
102
RTVSPost2010PropOp46
 70
     1
102
RTVSPost2010Prop47
 90
       50
102
RTVSPost2010PropOp47
 70
     1
102
RTVSPost2010Prop48
 90
       50
102
RTVSPost2010PropOp48
 70
     1
102
RTVSPost2010Prop49
280
     0
102
RTVSPost2010PropOp49
 70
     1
102
RTVSPost2010Prop50
 90
       50
102
RTVSPost2010PropOp50
 70
     1
102
RTVSPost2010Prop51ColorIndex
 90
      256
102
RTVSPost2010Prop51ColorRGB
 90
-16777216
102
RTVSPost2010PropOp51
 70
     0
102
RTVSPost2010Prop52
140
1.0
102
RTVSPost2010PropOp52
 70
     0
102
RTVSPost2010Prop53
 90
        2
102
RTVSPost2010PropOp53
 70
     1
102
RTVSPost2010Prop54
  1
strokes_ogs.tif
102
RTVSPost2010PropOp54
 70
     1
102
RTVSPost2010Prop55
280
     0
102
RTVSPost2010PropOp55
 70
     1
102
RTVSPost2010Prop56
140
1.0
102
RTVSPost2010PropOp56
 70
     1
102
RTVSPost2010Prop57
140
1.0
102
RTVSPost2010PropOp57
 70
     1
102
RTVSPropertyOp0
 70
     1
102
RTVSPropertyOp1
 70
     1
102
RTVSPropertyOp2
 70
     1
102
RTVSPropertyOp3
 70
     1
102
RTVSPropertyOp4
 70
     1
102
RTVSPropertyOp5
 70
     1
102
RTVSPropertyOp6
 70
     1
102
RTVSPropertyOp7
 70
     1
102
RTVSPropertyOp8
 70
     1
102
RTVSPropertyOp9
 70
     1
102
RTVSPropertyOp10
 70
     1
102
RTVSPropertyOp11
 70
     1
102
RTVSPropertyOp12
 70
     1
102
RTVSPropertyOp13
 70
     1
102
RTVSPropertyOp14
 70
     1
102
RTVSPropertyOp15
 70
     1
102
RTVSPropertyOp16
 70
     1
102
RTVSPropertyOp17
 70
     1
102
RTVSPropertyOp18
 70
     1
102
RTVSPropertyOp19
 70
     1
102
RTVSPropertyOp20
 70
     1
102
RTVSPropertyOp21
 70
     1
102
RTVSPropertyOp22
 70
     1
102
RTVSPropertyOp23
 70
     1
102
RTVSPropertyOp24
 70
     1
102
RTVSPropertyOp25
 70
     1
102
RTVSPropertyOp26
 70
     1
102
RTVSPropertyOp27
 70
     1
102
RTVSPropertyOp28
 70
     1
102
RTVSPropertyOp29
 70
     1
102
RTVSPropertyOp30
 70
     1
102
RTVSPropertyOp31
 70
     1
102
RTVSPropertyOp32
 70
     1
102
RTVSPropertyOp33
 70
     1
102
RTVSPropertyOp34
 70
     1
102
RTVSPropertyOp35
 70
     1
102
RTVSPropertyOp36
 70
     1
102
RTVSPropertyOp37
 70
     1
102
RTVSPropertyOp38
 70
     1
102
RTVSPropertyOp39
 70
     1
102
RTVSPropertyOp40
 70
     1
102
RTVSPropertyOp41
 70
     1
102
RTVSPropertyOp42
 70
     1
102
RTVSPropertyOp43
 70
     1
102
RTVSPropertyOp44
 70
     1
102
RTVSPropertyOp45
 70
     1
102
RTVSPropertyOp46
 70
     1
102
RTVSPropertyOp47
 70
     1
102
RTVSPropertyOp48
 70
     1
102
RTVSPropertyOp49
 70
     1
102
RTVSPropertyOp50
 70
     1
102
RTVSPropertyOp51
 70
     0
102
RTVSPropertyOp52
 70
     0
102
RTVSPropertyOp53
 70
     1
102
RTVSPropertyOp54
 70
     1
102
RTVSPropertyOp55
 70
     1
102
RTVSPropertyOp56
 70
     1
102
RTVSPropertyOp57
 70
     1
102
RTVSPropertyOp58
 70
     1
102
RTVSPropertyOp59
 70
     1
102
RTVSPropertyOp60
 70
     1
102
RTVSPropertyOp61
 70
     1
102
RTVSPropertyOp62
 70
     1
  0
XRECORD
  5
207C3
102
{ACAD_REACTORS
330
207C2
102
}
330
207C2
100
AcDbXrecord
280
     1
102
RTVSPost2010Prop28
280
     0
102
RTVSPost2010PropOp28
 70
     1
102
RTVSPost2010Prop29
280
     1
102
RTVSPost2010PropOp29
 70
     1
102
RTVSPost2010Prop30
280
     1
102
RTVSPost2010PropOp30
 70
     1
102
RTVSPost2010Prop31
280
     0
102
RTVSPost2010PropOp31
 70
     1
102
RTVSPost2010Prop32
280
     0
102
RTVSPost2010PropOp32
 70
     1
102
RTVSPost2010Prop33
280
     0
102
RTVSPost2010PropOp33
 70
     1
102
RTVSPost2010Prop34
280
     0
102
RTVSPost2010PropOp34
 70
     1
102
RTVSPost2010Prop35
280
     0
102
RTVSPost2010PropOp35
 70
     1
102
RTVSPost2010Prop36
280
     0
102
RTVSPost2010PropOp36
 70
     1
102
RTVSPost2010Prop37
 90
       50
102
RTVSPost2010PropOp37
 70
     1
102
RTVSPost2010Prop38
140
0.0
102
RTVSPost2010PropOp38
 70
     1
102
RTVSPost2010Prop39
140
1.0
102
RTVSPost2010PropOp39
 70
     1
102
RTVSPost2010Prop40
 90
        0
102
RTVSPost2010PropOp40
 70
     1
102
RTVSPost2010Prop41ColorIndex
 90
       18
102
RTVSPost2010Prop41ColorRGB
 90
        0
102
RTVSPost2010PropOp41
 70
     1
102
RTVSPost2010Prop42
 90
       50
102
RTVSPost2010PropOp42
 70
     1
102
RTVSPost2010Prop43
 90
        3
102
RTVSPost2010PropOp43
 70
     1
102
RTVSPost2010Prop44ColorIndex
 90
        5
102
RTVSPost2010Prop44ColorRGB
 90
      255
102
RTVSPost2010PropOp44
 70
     1
102
RTVSPost2010Prop45
280
     0
102
RTVSPost2010PropOp45
 70
     1
102
RTVSPost2010Prop46
 90
       50
102
RTVSPost2010PropOp46
 70
     1
102
RTVSPost2010Prop47
 90
       50
102
RTVSPost2010PropOp47
 70
     1
102
RTVSPost2010Prop48
 90
       50
102
RTVSPost2010PropOp48
 70
     1
102
RTVSPost2010Prop49
280
     0
102
RTVSPost2010PropOp49
 70
     1
102
RTVSPost2010Prop50
 90
       50
102
RTVSPost2010PropOp50
 70
     1
102
RTVSPost2010Prop51ColorIndex
 90
      256
102
RTVSPost2010Prop51ColorRGB
 90
-16777216
102
RTVSPost2010PropOp51
 70
     0
102
RTVSPost2010Prop52
140
1.0
102
RTVSPost2010PropOp52
 70
     0
102
RTVSPost2010Prop53
 90
        2
102
RTVSPost2010PropOp53
 70
     1
102
RTVSPost2010Prop54
  1
strokes_ogs.tif
102
RTVSPost2010PropOp54
 70
     1
102
RTVSPost2010Prop55
280
     0
102
RTVSPost2010PropOp55
 70
     1
102
RTVSPost2010Prop56
140
1.0
102
RTVSPost2010PropOp56
 70
     1
102
RTVSPost2010Prop57
140
1.0
102
RTVSPost2010PropOp57
 70
     1
102
RTVSPropertyOp0
 70
     1
102
RTVSPropertyOp1
 70
     1
102
RTVSPropertyOp2
 70
     1
102
RTVSPropertyOp3
 70
     1
102
RTVSPropertyOp4
 70
     1
102
RTVSPropertyOp5
 70
     1
102
RTVSPropertyOp6
 70
     1
102
RTVSPropertyOp7
 70
     1
102
RTVSPropertyOp8
 70
     1
102
RTVSPropertyOp9
 70
     1
102
RTVSPropertyOp10
 70
     1
102
RTVSPropertyOp11
 70
     1
102
RTVSPropertyOp12
 70
     1
102
RTVSPropertyOp13
 70
     1
102
RTVSPropertyOp14
 70
     1
102
RTVSPropertyOp15
 70
     1
102
RTVSPropertyOp16
 70
     1
102
RTVSPropertyOp17
 70
     1
102
RTVSPropertyOp18
 70
     1
102
RTVSPropertyOp19
 70
     1
102
RTVSPropertyOp20
 70
     1
102
RTVSPropertyOp21
 70
     1
102
RTVSPropertyOp22
 70
     1
102
RTVSPropertyOp23
 70
     1
102
RTVSPropertyOp24
 70
     1
102
RTVSPropertyOp25
 70
     1
102
RTVSPropertyOp26
 70
     1
102
RTVSPropertyOp27
 70
     1
102
RTVSPropertyOp28
 70
     1
102
RTVSPropertyOp29
 70
     1
102
RTVSPropertyOp30
 70
     1
102
RTVSPropertyOp31
 70
     1
102
RTVSPropertyOp32
 70
     1
102
RTVSPropertyOp33
 70
     1
102
RTVSPropertyOp34
 70
     1
102
RTVSPropertyOp35
 70
     1
102
RTVSPropertyOp36
 70
     1
102
RTVSPropertyOp37
 70
     1
102
RTVSPropertyOp38
 70
     1
102
RTVSPropertyOp39
 70
     1
102
RTVSPropertyOp40
 70
     1
102
RTVSPropertyOp41
 70
     1
102
RTVSPropertyOp42
 70
     1
102
RTVSPropertyOp43
 70
     1
102
RTVSPropertyOp44
 70
     1
102
RTVSPropertyOp45
 70
     1
102
RTVSPropertyOp46
 70
     1
102
RTVSPropertyOp47
 70
     1
102
RTVSPropertyOp48
 70
     1
102
RTVSPropertyOp49
 70
     1
102
RTVSPropertyOp50
 70
     1
102
RTVSPropertyOp51
 70
     0
102
RTVSPropertyOp52
 70
     0
102
RTVSPropertyOp53
 70
     1
102
RTVSPropertyOp54
 70
     1
102
RTVSPropertyOp55
 70
     1
102
RTVSPropertyOp56
 70
     1
102
RTVSPropertyOp57
 70
     1
102
RTVSPropertyOp58
 70
     1
102
RTVSPropertyOp59
 70
     1
102
RTVSPropertyOp60
 70
     1
102
RTVSPropertyOp61
 70
     1
102
RTVSPropertyOp62
 70
     1
  0
XRECORD
  5
207DA
102
{ACAD_REACTORS
330
207D9
102
}
330
207D9
100
AcDbXrecord
280
     1
102
RTVSPost2010Prop28
280
     0
102
RTVSPost2010PropOp28
 70
     1
102
RTVSPost2010Prop29
280
     1
102
RTVSPost2010PropOp29
 70
     1
102
RTVSPost2010Prop30
280
     1
102
RTVSPost2010PropOp30
 70
     1
102
RTVSPost2010Prop31
280
     0
102
RTVSPost2010PropOp31
 70
     1
102
RTVSPost2010Prop32
280
     0
102
RTVSPost2010PropOp32
 70
     1
102
RTVSPost2010Prop33
280
     0
102
RTVSPost2010PropOp33
 70
     1
102
RTVSPost2010Prop34
280
     0
102
RTVSPost2010PropOp34
 70
     1
102
RTVSPost2010Prop35
280
     0
102
RTVSPost2010PropOp35
 70
     1
102
RTVSPost2010Prop36
280
     0
102
RTVSPost2010PropOp36
 70
     1
102
RTVSPost2010Prop37
 90
       50
102
RTVSPost2010PropOp37
 70
     1
102
RTVSPost2010Prop38
140
0.0
102
RTVSPost2010PropOp38
 70
     1
102
RTVSPost2010Prop39
140
1.0
102
RTVSPost2010PropOp39
 70
     1
102
RTVSPost2010Prop40
 90
        0
102
RTVSPost2010PropOp40
 70
     1
102
RTVSPost2010Prop41ColorIndex
 90
       18
102
RTVSPost2010Prop41ColorRGB
 90
        0
102
RTVSPost2010PropOp41
 70
     1
102
RTVSPost2010Prop42
 90
       50
102
RTVSPost2010PropOp42
 70
     1
102
RTVSPost2010Prop43
 90
        3
102
RTVSPost2010PropOp43
 70
     1
102
RTVSPost2010Prop44ColorIndex
 90
        5
102
RTVSPost2010Prop44ColorRGB
 90
      255
102
RTVSPost2010PropOp44
 70
     1
102
RTVSPost2010Prop45
280
     0
102
RTVSPost2010PropOp45
 70
     1
102
RTVSPost2010Prop46
 90
       50
102
RTVSPost2010PropOp46
 70
     1
102
RTVSPost2010Prop47
 90
       50
102
RTVSPost2010PropOp47
 70
     1
102
RTVSPost2010Prop48
 90
       50
102
RTVSPost2010PropOp48
 70
     1
102
RTVSPost2010Prop49
280
     0
102
RTVSPost2010PropOp49
 70
     1
102
RTVSPost2010Prop50
 90
       50
102
RTVSPost2010PropOp50
 70
     1
102
RTVSPost2010Prop51ColorIndex
 90
      256
102
RTVSPost2010Prop51ColorRGB
 90
-16777216
102
RTVSPost2010PropOp51
 70
     0
102
RTVSPost2010Prop52
140
1.0
102
RTVSPost2010PropOp52
 70
     0
102
RTVSPost2010Prop53
 90
        2
102
RTVSPost2010PropOp53
 70
     1
102
RTVSPost2010Prop54
  1
strokes_ogs.tif
102
RTVSPost2010PropOp54
 70
     1
102
RTVSPost2010Prop55
280
     0
102
RTVSPost2010PropOp55
 70
     1
102
RTVSPost2010Prop56
140
1.0
102
RTVSPost2010PropOp56
 70
     1
102
RTVSPost2010Prop57
140
1.0
102
RTVSPost2010PropOp57
 70
     1
102
RTVSPropertyOp0
 70
     1
102
RTVSPropertyOp1
 70
     1
102
RTVSPropertyOp2
 70
     1
102
RTVSPropertyOp3
 70
     1
102
RTVSPropertyOp4
 70
     1
102
RTVSPropertyOp5
 70
     1
102
RTVSPropertyOp6
 70
     1
102
RTVSPropertyOp7
 70
     1
102
RTVSPropertyOp8
 70
     1
102
RTVSPropertyOp9
 70
     1
102
RTVSPropertyOp10
 70
     1
102
RTVSPropertyOp11
 70
     1
102
RTVSPropertyOp12
 70
     1
102
RTVSPropertyOp13
 70
     1
102
RTVSPropertyOp14
 70
     1
102
RTVSPropertyOp15
 70
     1
102
RTVSPropertyOp16
 70
     1
102
RTVSPropertyOp17
 70
     1
102
RTVSPropertyOp18
 70
     1
102
RTVSPropertyOp19
 70
     1
102
RTVSPropertyOp20
 70
     1
102
RTVSPropertyOp21
 70
     1
102
RTVSPropertyOp22
 70
     1
102
RTVSPropertyOp23
 70
     1
102
RTVSPropertyOp24
 70
     1
102
RTVSPropertyOp25
 70
     1
102
RTVSPropertyOp26
 70
     1
102
RTVSPropertyOp27
 70
     1
102
RTVSPropertyOp28
 70
     1
102
RTVSPropertyOp29
 70
     1
102
RTVSPropertyOp30
 70
     1
102
RTVSPropertyOp31
 70
     1
102
RTVSPropertyOp32
 70
     1
102
RTVSPropertyOp33
 70
     1
102
RTVSPropertyOp34
 70
     1
102
RTVSPropertyOp35
 70
     1
102
RTVSPropertyOp36
 70
     1
102
RTVSPropertyOp37
 70
     1
102
RTVSPropertyOp38
 70
     1
102
RTVSPropertyOp39
 70
     1
102
RTVSPropertyOp40
 70
     1
102
RTVSPropertyOp41
 70
     1
102
RTVSPropertyOp42
 70
     1
102
RTVSPropertyOp43
 70
     1
102
RTVSPropertyOp44
 70
     1
102
RTVSPropertyOp45
 70
     1
102
RTVSPropertyOp46
 70
     1
102
RTVSPropertyOp47
 70
     1
102
RTVSPropertyOp48
 70
     1
102
RTVSPropertyOp49
 70
     1
102
RTVSPropertyOp50
 70
     1
102
RTVSPropertyOp51
 70
     0
102
RTVSPropertyOp52
 70
     0
102
RTVSPropertyOp53
 70
     1
102
RTVSPropertyOp54
 70
     1
102
RTVSPropertyOp55
 70
     1
102
RTVSPropertyOp56
 70
     1
102
RTVSPropertyOp57
 70
     1
102
RTVSPropertyOp58
 70
     1
102
RTVSPropertyOp59
 70
     1
102
RTVSPropertyOp60
 70
     1
102
RTVSPropertyOp61
 70
     1
102
RTVSPropertyOp62
 70
     1
  0
XRECORD
  5
207E2
102
{ACAD_REACTORS
330
207E1
102
}
330
207E1
100
AcDbXrecord
280
     1
102
RTVSPost2010Prop28
280
     0
102
RTVSPost2010PropOp28
 70
     1
102
RTVSPost2010Prop29
280
     1
102
RTVSPost2010PropOp29
 70
     1
102
RTVSPost2010Prop30
280
     1
102
RTVSPost2010PropOp30
 70
     1
102
RTVSPost2010Prop31
280
     0
102
RTVSPost2010PropOp31
 70
     1
102
RTVSPost2010Prop32
280
     0
102
RTVSPost2010PropOp32
 70
     1
102
RTVSPost2010Prop33
280
     0
102
RTVSPost2010PropOp33
 70
     1
102
RTVSPost2010Prop34
280
     0
102
RTVSPost2010PropOp34
 70
     1
102
RTVSPost2010Prop35
280
     0
102
RTVSPost2010PropOp35
 70
     1
102
RTVSPost2010Prop36
280
     0
102
RTVSPost2010PropOp36
 70
     1
102
RTVSPost2010Prop37
 90
       50
102
RTVSPost2010PropOp37
 70
     1
102
RTVSPost2010Prop38
140
0.0
102
RTVSPost2010PropOp38
 70
     1
102
RTVSPost2010Prop39
140
1.0
102
RTVSPost2010PropOp39
 70
     1
102
RTVSPost2010Prop40
 90
        0
102
RTVSPost2010PropOp40
 70
     1
102
RTVSPost2010Prop41ColorIndex
 90
       18
102
RTVSPost2010Prop41ColorRGB
 90
        0
102
RTVSPost2010PropOp41
 70
     1
102
RTVSPost2010Prop42
 90
       50
102
RTVSPost2010PropOp42
 70
     1
102
RTVSPost2010Prop43
 90
        3
102
RTVSPost2010PropOp43
 70
     1
102
RTVSPost2010Prop44ColorIndex
 90
        5
102
RTVSPost2010Prop44ColorRGB
 90
      255
102
RTVSPost2010PropOp44
 70
     1
102
RTVSPost2010Prop45
280
     0
102
RTVSPost2010PropOp45
 70
     1
102
RTVSPost2010Prop46
 90
       50
102
RTVSPost2010PropOp46
 70
     1
102
RTVSPost2010Prop47
 90
       50
102
RTVSPost2010PropOp47
 70
     1
102
RTVSPost2010Prop48
 90
       50
102
RTVSPost2010PropOp48
 70
     1
102
RTVSPost2010Prop49
280
     0
102
RTVSPost2010PropOp49
 70
     1
102
RTVSPost2010Prop50
 90
       50
102
RTVSPost2010PropOp50
 70
     1
102
RTVSPost2010Prop51ColorIndex
 90
      256
102
RTVSPost2010Prop51ColorRGB
 90
-16777216
102
RTVSPost2010PropOp51
 70
     0
102
RTVSPost2010Prop52
140
1.0
102
RTVSPost2010PropOp52
 70
     0
102
RTVSPost2010Prop53
 90
        2
102
RTVSPost2010PropOp53
 70
     1
102
RTVSPost2010Prop54
  1
strokes_ogs.tif
102
RTVSPost2010PropOp54
 70
     1
102
RTVSPost2010Prop55
280
     0
102
RTVSPost2010PropOp55
 70
     1
102
RTVSPost2010Prop56
140
1.0
102
RTVSPost2010PropOp56
 70
     1
102
RTVSPost2010Prop57
140
1.0
102
RTVSPost2010PropOp57
 70
     1
102
RTVSPropertyOp0
 70
     1
102
RTVSPropertyOp1
 70
     1
102
RTVSPropertyOp2
 70
     1
102
RTVSPropertyOp3
 70
     1
102
RTVSPropertyOp4
 70
     1
102
RTVSPropertyOp5
 70
     1
102
RTVSPropertyOp6
 70
     1
102
RTVSPropertyOp7
 70
     1
102
RTVSPropertyOp8
 70
     1
102
RTVSPropertyOp9
 70
     1
102
RTVSPropertyOp10
 70
     1
102
RTVSPropertyOp11
 70
     1
102
RTVSPropertyOp12
 70
     1
102
RTVSPropertyOp13
 70
     1
102
RTVSPropertyOp14
 70
     1
102
RTVSPropertyOp15
 70
     1
102
RTVSPropertyOp16
 70
     1
102
RTVSPropertyOp17
 70
     1
102
RTVSPropertyOp18
 70
     1
102
RTVSPropertyOp19
 70
     1
102
RTVSPropertyOp20
 70
     1
102
RTVSPropertyOp21
 70
     1
102
RTVSPropertyOp22
 70
     1
102
RTVSPropertyOp23
 70
     1
102
RTVSPropertyOp24
 70
     1
102
RTVSPropertyOp25
 70
     1
102
RTVSPropertyOp26
 70
     1
102
RTVSPropertyOp27
 70
     1
102
RTVSPropertyOp28
 70
     1
102
RTVSPropertyOp29
 70
     1
102
RTVSPropertyOp30
 70
     1
102
RTVSPropertyOp31
 70
     1
102
RTVSPropertyOp32
 70
     1
102
RTVSPropertyOp33
 70
     1
102
RTVSPropertyOp34
 70
     1
102
RTVSPropertyOp35
 70
     1
102
RTVSPropertyOp36
 70
     1
102
RTVSPropertyOp37
 70
     1
102
RTVSPropertyOp38
 70
     1
102
RTVSPropertyOp39
 70
     1
102
RTVSPropertyOp40
 70
     1
102
RTVSPropertyOp41
 70
     1
102
RTVSPropertyOp42
 70
     1
102
RTVSPropertyOp43
 70
     1
102
RTVSPropertyOp44
 70
     1
102
RTVSPropertyOp45
 70
     1
102
RTVSPropertyOp46
 70
     1
102
RTVSPropertyOp47
 70
     1
102
RTVSPropertyOp48
 70
     1
102
RTVSPropertyOp49
 70
     1
102
RTVSPropertyOp50
 70
     1
102
RTVSPropertyOp51
 70
     0
102
RTVSPropertyOp52
 70
     0
102
RTVSPropertyOp53
 70
     1
102
RTVSPropertyOp54
 70
     1
102
RTVSPropertyOp55
 70
     1
102
RTVSPropertyOp56
 70
     1
102
RTVSPropertyOp57
 70
     1
102
RTVSPropertyOp58
 70
     1
102
RTVSPropertyOp59
 70
     1
102
RTVSPropertyOp60
 70
     1
102
RTVSPropertyOp61
 70
     1
102
RTVSPropertyOp62
 70
     1
  0
ENDSEC
  0
EOF
