  0
SECTION
  2
HEADER
  9
$ACADVER
  1
AC1018
  9
$ACADMAINTVER
 70
   104
  9
$DWGCODEPAGE
  3
ANSI_1252
  9
$LASTSAVEDBY
  1
TFassnacht
  9
$INSBASE
 10
0.0
 20
0.0
 30
0.0
  9
$EXTMIN
 10
-0.0000263792462647
 20
-0.0000588802649872
 30
0.0
  9
$EXTMAX
 10
198.001573460875
 20
126.0009591998387
 30
0.0
  9
$LIMMIN
 10
0.0
 20
0.0
  9
$LIMMAX
 10
17.0
 20
11.0
  9
$ORTHOMODE
 70
     1
  9
$REGENMODE
 70
     1
  9
$FILLMODE
 70
     1
  9
$QTEXTMODE
 70
     0
  9
$MIRRTEXT
 70
     0
  9
$LTSCALE
 40
1.0
  9
$ATTMODE
 70
     2
  9
$TEXTSIZE
 40
0.085
  9
$TRACEWID
 40
0.05
  9
$TEXTSTYLE
  7
STANDARD
  9
$CLAYER
  8
0
  9
$CELTYPE
  6
BYLAYER
  9
$CECOLOR
 62
   256
  9
$CELTSCALE
 40
1.0
  9
$DISPSILH
 70
     0
  9
$DIMSCALE
 40
1.0
  9
$DIMASZ
 40
0.1328125
  9
$DIMEXO
 40
0.0859375
  9
$DIMDLI
 40
0.171875
  9
$DIMRND
 40
0.0
  9
$DIMDLE
 40
0.0
  9
$DIMEXE
 40
0.0234375
  9
$DIMTP
 40
0.0
  9
$DIMTM
 40
0.0
  9
$DIMTXT
 40
0.109375
  9
$DIMCEN
 40
0.04296875
  9
$DIMTSZ
 40
0.0
  9
$DIMTOL
 70
     0
  9
$DIMLIM
 70
     0
  9
$DIMTIH
 70
     0
  9
$DIMTOH
 70
     0
  9
$DIMSE1
 70
     0
  9
$DIMSE2
 70
     0
  9
$DIMTAD
 70
     1
  9
$DIMZIN
 70
     0
  9
$DIMBLK
  1

  9
$DIMASO
 70
     1
  9
$DIMSHO
 70
     1
  9
$DIMPOST
  1

  9
$DIMAPOST
  1

  9
$DIMALT
 70
     0
  9
$DIMALTD
 70
     2
  9
$DIMALTF
 40
25.4
  9
$DIMLFAC
 40
48.0000768
  9
$DIMTOFL
 70
     0
  9
$DIMTVP
 40
0.0
  9
$DIMTIX
 70
     0
  9
$DIMSOXD
 70
     0
  9
$DIMSAH
 70
     0
  9
$DIMBLK1
  1

  9
$DIMBLK2
  1

  9
$DIMSTYLE
  2
Q_SCALE_FULLDIM
  9
$DIMCLRD
 70
     4
  9
$DIMCLRE
 70
     4
  9
$DIMCLRT
 70
     4
  9
$DIMTFAC
 40
1.0
  9
$DIMGAP
 40
0.04296875
  9
$DIMJUST
 70
     0
  9
$DIMSD1
 70
     0
  9
$DIMSD2
 70
     0
  9
$DIMTOLJ
 70
     1
  9
$DIMTZIN
 70
     0
  9
$DIMALTZ
 70
     0
  9
$DIMALTTZ
 70
     0
  9
$DIMUPT
 70
     0
  9
$DIMDEC
 70
     4
  9
$DIMTDEC
 70
     4
  9
$DIMALTU
 70
     2
  9
$DIMALTTD
 70
     2
  9
$DIMTXSTY
  7
STANDARD
  9
$DIMAUNIT
 70
     0
  9
$DIMADEC
 70
     0
  9
$DIMALTRND
 40
0.0
  9
$DIMAZIN
 70
     0
  9
$DIMDSEP
 70
    46
  9
$DIMATFIT
 70
     3
  9
$DIMFRAC
 70
     0
  9
$DIMLDRBLK
  1

  9
$DIMLUNIT
 70
     4
  9
$DIMLWD
 70
    -2
  9
$DIMLWE
 70
    -2
  9
$DIMTMOVE
 70
     0
  9
$LUNITS
 70
     5
  9
$LUPREC
 70
     8
  9
$SKETCHINC
 40
0.1
  9
$FILLETRAD
 40
0.0
  9
$AUNITS
 70
     0
  9
$AUPREC
 70
     0
  9
$MENU
  1
C:\ACADR13\WIN\SUPPORT\REPUBLIC
  9
$ELEVATION
 40
0.0
  9
$PELEVATION
 40
0.0
  9
$THICKNESS
 40
0.0
  9
$LIMCHECK
 70
     0
  9
$CHAMFERA
 40
0.0
  9
$CHAMFERB
 40
0.0
  9
$CHAMFERC
 40
0.0
  9
$CHAMFERD
 40
0.0
  9
$SKPOLY
 70
     0
  9
$TDCREATE
 40
2450834.604276620
  9
$TDUCREATE
 40
2450834.770943287
  9
$TDUPDATE
 40
2460202.420502639
  9
$TDUUPDATE
 40
2460202.587169305
  9
$TDINDWG
 40
3.9066582523
  9
$TDUSRTIMER
 40
3.9066582523
  9
$USRTIMER
 70
     1
  9
$ANGBASE
 50
0.0
  9
$ANGDIR
 70
     0
  9
$PDMODE
 70
     0
  9
$PDSIZE
 40
0.0
  9
$PLINEWID
 40
0.0
  9
$SPLFRAME
 70
     0
  9
$SPLINETYPE
 70
     6
  9
$SPLINESEGS
 70
     8
  9
$HANDSEED
  5
2029C
  9
$SURFTAB1
 70
     6
  9
$SURFTAB2
 70
     6
  9
$SURFTYPE
 70
     6
  9
$SURFU
 70
     6
  9
$SURFV
 70
     6
  9
$UCSBASE
  2

  9
$UCSNAME
  2

  9
$UCSORG
 10
0.0
 20
0.0
 30
0.0
  9
$UCSXDIR
 10
1.0
 20
0.0
 30
0.0
  9
$UCSYDIR
 10
0.0
 20
1.0
 30
0.0
  9
$UCSORTHOREF
  2

  9
$UCSORTHOVIEW
 70
     0
  9
$UCSORGTOP
 10
0.0
 20
0.0
 30
0.0
  9
$UCSORGBOTTOM
 10
0.0
 20
0.0
 30
0.0
  9
$UCSORGLEFT
 10
0.0
 20
0.0
 30
0.0
  9
$UCSORGRIGHT
 10
0.0
 20
0.0
 30
0.0
  9
$UCSORGFRONT
 10
0.0
 20
0.0
 30
0.0
  9
$UCSORGBACK
 10
0.0
 20
0.0
 30
0.0
  9
$PUCSBASE
  2

  9
$PUCSNAME
  2

  9
$PUCSORG
 10
0.0
 20
0.0
 30
0.0
  9
$PUCSXDIR
 10
1.0
 20
0.0
 30
0.0
  9
$PUCSYDIR
 10
0.0
 20
1.0
 30
0.0
  9
$PUCSORTHOREF
  2

  9
$PUCSORTHOVIEW
 70
     0
  9
$PUCSORGTOP
 10
0.0
 20
0.0
 30
0.0
  9
$PUCSORGBOTTOM
 10
0.0
 20
0.0
 30
0.0
  9
$PUCSORGLEFT
 10
0.0
 20
0.0
 30
0.0
  9
$PUCSORGRIGHT
 10
0.0
 20
0.0
 30
0.0
  9
$PUCSORGFRONT
 10
0.0
 20
0.0
 30
0.0
  9
$PUCSORGBACK
 10
0.0
 20
0.0
 30
0.0
  9
$USERI1
 70
     0
  9
$USERI2
 70
     0
  9
$USERI3
 70
     0
  9
$USERI4
 70
     0
  9
$USERI5
 70
     0
  9
$USERR1
 40
0.0
  9
$USERR2
 40
0.0
  9
$USERR3
 40
0.0
  9
$USERR4
 40
0.0
  9
$USERR5
 40
0.0
  9
$WORLDVIEW
 70
     1
  9
$SHADEDGE
 70
     3
  9
$SHADEDIF
 70
    70
  9
$TILEMODE
 70
     1
  9
$MAXACTVP
 70
    16
  9
$PINSBASE
 10
0.0
 20
0.0
 30
0.0
  9
$PLIMCHECK
 70
     0
  9
$PEXTMIN
 10
1.000000000000000E+20
 20
1.000000000000000E+20
 30
1.000000000000000E+20
  9
$PEXTMAX
 10
-1.000000000000000E+20
 20
-1.000000000000000E+20
 30
-1.000000000000000E+20
  9
$PLIMMIN
 10
0.0
 20
0.0
  9
$PLIMMAX
 10
12.0
 20
9.0
  9
$UNITMODE
 70
     0
  9
$VISRETAIN
 70
     0
  9
$PLINEGEN
 70
     0
  9
$PSLTSCALE
 70
     1
  9
$TREEDEPTH
 70
  3020
  9
$CMLSTYLE
  2
STANDARD
  9
$CMLJUST
 70
     0
  9
$CMLSCALE
 40
1.0
  9
$PROXYGRAPHICS
 70
     1
  9
$MEASUREMENT
 70
     0
  9
$CELWEIGHT
370
    -1
  9
$ENDCAPS
280
     0
  9
$JOINSTYLE
280
     0
  9
$LWDISPLAY
290
     0
  9
$INSUNITS
 70
     0
  9
$HYPERLINKBASE
  1

  9
$STYLESHEET
  1
monochrome.ctb
  9
$XEDIT
290
     1
  9
$CEPSNTYPE
380
     0
  9
$PSTYLEMODE
290
     1
  9
$FINGERPRINTGUID
  2
{8006B5C0-AD62-11D3-96B1-005004D188FB}
  9
$VERSIONGUID
  2
{52A7AC47-EF3F-4B8F-8FAB-66F36C130188}
  9
$EXTNAMES
290
     1
  9
$PSVPSCALE
 40
0.0
  9
$OLESTARTUP
290
     0
  9
$SORTENTS
280
    96
  9
$INDEXCTL
280
     0
  9
$HIDETEXT
280
     0
  9
$XCLIPFRAME
290
     0
  9
$HALOGAP
280
     0
  9
$OBSCOLOR
 70
   257
  9
$OBSLTYPE
280
     0
  9
$INTERSECTIONDISPLAY
280
     0
  9
$INTERSECTIONCOLOR
 70
   257
  9
$DIMASSOC
280
     1
  9
$PROJECTNAME
  1

  0
ENDSEC
  0
SECTION
  2
CLASSES
  0
CLASS
  1
ACDBDICTIONARYWDFLT
  2
AcDbDictionaryWithDefault
  3
ObjectDBX Classes
 90
        0
 91
        1
280
     0
281
     0
  0
CLASS
  1
PLOTSETTINGS
  2
AcDbPlotSettings
  3
ObjectDBX Classes
 90
        0
 91
        2
280
     0
281
     0
  0
CLASS
  1
IMAGEDEF
  2
AcDbRasterImageDef
  3
ISM
 90
        0
 91
        1
280
     0
281
     0
  0
CLASS
  1
DICTIONARYVAR
  2
AcDbDictionaryVar
  3
ObjectDBX Classes
 90
        0
 91
        6
280
     0
281
     0
  0
CLASS
  1
MATERIAL
  2
AcDbMaterial
  3
ObjectDBX Classes
 90
     1153
 91
        3
280
     0
281
     0
  0
CLASS
  1
VISUALSTYLE
  2
AcDbVisualStyle
  3
ObjectDBX Classes
 90
     4095
 91
       26
280
     0
281
     0
  0
CLASS
  1
TABLESTYLE
  2
AcDbTableStyle
  3
ObjectDBX Classes
 90
     4095
 91
        1
280
     0
281
     0
  0
CLASS
  1
SORTENTSTABLE
  2
AcDbSortentsTable
  3
ObjectDBX Classes
 90
        0
 91
        3
280
     0
281
     0
  0
CLASS
  1
SCALE
  2
AcDbScale
  3
ObjectDBX Classes
 90
     1153
 91
       33
280
     0
281
     0
  0
CLASS
  1
MLEADERSTYLE
  2
AcDbMLeaderStyle
  3
ACDB_MLEADERSTYLE_CLASS
 90
     4095
 91
        1
280
     0
281
     0
  0
CLASS
  1
CELLSTYLEMAP
  2
AcDbCellStyleMap
  3
ObjectDBX Classes
 90
     1152
 91
        2
280
     0
281
     0
  0
CLASS
  1
AEC_REFEDIT_STATUS_TRACKER
  2
AecDbRefEditStatusTracker
  3
AecArchBase70|Product Desc: Autodesk Architectural Desktop 2007 |Company: Autodesk,Inc. |WEB Address: www.autodesk.com
 90
      129
 91
        0
280
     0
281
     0
  0
CLASS
  1
NPOCOLLECTION
  2
AcDbImpNonPersistentObjectsCollection
  3
ObjectDBX Classes
 90
     1153
 91
        0
280
     0
281
     0
  0
CLASS
  1
ACDBSECTIONVIEWSTYLE
  2
AcDbSectionViewStyle
  3
ObjectDBX Classes
 90
     1025
 91
        1
280
     0
281
     0
  0
CLASS
  1
ACDBDETAILVIEWSTYLE
  2
AcDbDetailViewStyle
  3
ObjectDBX Classes
 90
     1025
 91
        1
280
     0
281
     0
  0
CLASS
  1
LSINTERNALCOMPONENT
  2
AcDbLSInternalComponent
  3
AcDgnLS
 90
        0
 91
       76
280
     0
281
     0
  0
ENDSEC
  0
SECTION
  2
TABLES
  0
TABLE
  2
VPORT
  5
8
102
{ACAD_XDICTIONARY
360
1857C
102
}
330
0
100
AcDbSymbolTable
 70
     1
  0
VPORT
  5
18345
330
8
100
AcDbSymbolTableRecord
100
AcDbViewportTableRecord
  2
*Active
 70
     0
 10
0.0
 20
0.0
 11
1.0
 21
1.0
 12
99.00079134765043
 22
63.00242036549099
 13
0.0
 23
0.0
 14
1.0
 24
1.0
 15
0.0
 25
0.0
 16
0.0
 26
0.0
 36
1.0
 17
0.0
 27
0.0
 37
0.0
 40
127.2224822188921
 41
2.13301282051282
 42
50.0
 43
0.0
 44
0.0
 50
0.0
 51
0.0
 71
     0
 72
   100
 73
     1
 74
     0
 75
     0
 76
     0
 77
     0
 78
     0
281
     0
 65
     1
110
0.0
120
0.0
130
0.0
111
1.0
121
0.0
131
0.0
112
0.0
122
1.0
132
0.0
 79
     0
146
0.0
1001
ACAD_NAV_VCDISPLAY
1070
     3
  0
ENDTAB
  0
TABLE
  2
LTYPE
  5
5
330
0
100
AcDbSymbolTable
 70
     4
  0
LTYPE
  5
14
330
5
100
AcDbSymbolTableRecord
100
AcDbLinetypeTableRecord
  2
BYBLOCK
 70
     0
  3

 72
    65
 73
     0
 40
0.0
  0
LTYPE
  5
15
330
5
100
AcDbSymbolTableRecord
100
AcDbLinetypeTableRecord
  2
BYLAYER
 70
     0
  3

 72
    65
 73
     0
 40
0.0
  0
LTYPE
  5
16
330
5
100
AcDbSymbolTableRecord
100
AcDbLinetypeTableRecord
  2
CONTINUOUS
 70
     0
  3
Solid line
 72
    65
 73
     0
 40
0.0
  0
LTYPE
  5
19547
330
5
100
AcDbSymbolTableRecord
100
AcDbLinetypeTableRecord
  2
PHANTOM2
 70
     0
  3
Phantom (.5x) ___ _ _ ___ _ _ ___ _ _ ___ _ _
 72
    65
 73
     6
 40
1.25
 49
0.625
 74
     0
 49
-0.125
 74
     0
 49
0.125
 74
     0
 49
-0.125
 74
     0
 49
0.125
 74
     0
 49
-0.125
 74
     0
  0
LTYPE
  5
1E739
330
5
100
AcDbSymbolTableRecord
100
AcDbLinetypeTableRecord
  2
DASHED2
 70
     0
  3
Dashed (.5x) _ _ _ _ _ _ _ _ _ _ _ _ _ _ _ _ _
 72
    65
 73
     2
 40
0.375
 49
0.25
 74
     0
 49
-0.125
 74
     0
  0
LTYPE
  5
1E73A
330
5
100
AcDbSymbolTableRecord
100
AcDbLinetypeTableRecord
  2
HS
 70
     0
  3
HEAVY_SOLID
 72
    65
 73
     0
 40
0.0
  0
ENDTAB
  0
TABLE
  2
LAYER
  5
2
102
{ACAD_XDICTIONARY
360
18C2C
102
}
330
0
100
AcDbSymbolTable
 70
    19
  0
LAYER
  5
F
102
{ACAD_XDICTIONARY
360
18BD0
102
}
330
2
100
AcDbSymbolTableRecord
100
AcDbLayerTableRecord
  2
0
 70
     0
 62
     7
  6
CONTINUOUS
370
    -3
390
5D95
  0
LAYER
  5
36
102
{ACAD_XDICTIONARY
360
18BD2
102
}
330
2
100
AcDbSymbolTableRecord
100
AcDbLayerTableRecord
  2
TEXT
 70
     0
 62
     2
  6
CONTINUOUS
370
    -3
390
5D95
  0
LAYER
  5
14178
102
{ACAD_XDICTIONARY
360
18BD6
102
}
330
2
100
AcDbSymbolTableRecord
100
AcDbLayerTableRecord
  2
locker
 70
     0
 62
     1
  6
CONTINUOUS
370
    -3
390
5D95
  0
LAYER
  5
19CB4
330
2
100
AcDbSymbolTableRecord
100
AcDbLayerTableRecord
  2
Defpoints
 70
     0
 62
     7
  6
CONTINUOUS
290
     0
370
    -3
390
5D95
  0
LAYER
  5
1A808
102
{ACAD_XDICTIONARY
360
1A809
102
}
330
2
100
AcDbSymbolTableRecord
100
AcDbLayerTableRecord
  2
border1
 70
     0
 62
     1
  6
CONTINUOUS
370
    -3
390
5D95
  0
LAYER
  5
1A80A
102
{ACAD_XDICTIONARY
360
1A80B
102
}
330
2
100
AcDbSymbolTableRecord
100
AcDbLayerTableRecord
  2
dim
 70
     0
 62
     4
  6
CONTINUOUS
370
    -3
390
5D95
  0
LAYER
  5
1A80C
102
{ACAD_XDICTIONARY
360
1A80D
102
}
330
2
100
AcDbSymbolTableRecord
100
AcDbLayerTableRecord
  2
wall
 70
     0
 62
    42
  6
CONTINUOUS
370
    -3
390
5D95
  0
LAYER
  5
1A80E
102
{ACAD_XDICTIONARY
360
1A80F
102
}
330
2
100
AcDbSymbolTableRecord
100
AcDbLayerTableRecord
  2
diamonds
 70
     0
 62
     6
  6
CONTINUOUS
370
    15
390
5D95
  0
LAYER
  5
1A812
330
2
100
AcDbSymbolTableRecord
100
AcDbLayerTableRecord
  2
elevation text
 70
     0
 62
     7
  6
CONTINUOUS
370
    -3
390
5D95
1001
AcAecLayerStandard
1000

1000

1001
AcCmTransparency
1071
        0
  0
LAYER
  5
1E73B
102
{ACAD_XDICTIONARY
360
1E73C
102
}
330
2
100
AcDbSymbolTableRecord
100
AcDbLayerTableRecord
  2
frame
 70
     0
 62
     1
  6
CONTINUOUS
370
    -3
390
5D95
  0
LAYER
  5
1E73D
330
2
100
AcDbSymbolTableRecord
100
AcDbLayerTableRecord
  2
top
 70
     0
 62
     6
  6
CONTINUOUS
370
    35
390
5D95
  0
LAYER
  5
1E73E
330
2
100
AcDbSymbolTableRecord
100
AcDbLayerTableRecord
  2
door
 70
     0
 62
     3
  6
CONTINUOUS
370
    -3
390
5D95
  0
LAYER
  5
1E73F
102
{ACAD_XDICTIONARY
360
1E740
102
}
330
2
100
AcDbSymbolTableRecord
100
AcDbLayerTableRecord
  2
ELEVATION
 70
     0
 62
     3
  6
CONTINUOUS
370
    -3
390
5D95
  0
LAYER
  5
1E741
102
{ACAD_XDICTIONARY
360
1E742
102
}
330
2
100
AcDbSymbolTableRecord
100
AcDbLayerTableRecord
  2
ELEV HIDDEN
 70
     0
 62
     1
  6
DASHED2
370
    -3
390
5D95
  0
LAYER
  5
1E743
330
2
100
AcDbSymbolTableRecord
100
AcDbLayerTableRecord
  2
HANDLE
 70
     0
 62
     5
  6
CONTINUOUS
370
    -3
390
5D95
  0
LAYER
  5
1E744
102
{ACAD_XDICTIONARY
360
1E745
102
}
330
2
100
AcDbSymbolTableRecord
100
AcDbLayerTableRecord
  2
OBJECT
 70
     0
 62
     3
  6
CONTINUOUS
370
    -3
390
5D95
  0
LAYER
  5
1E746
102
{ACAD_XDICTIONARY
360
1E747
102
}
330
2
100
AcDbSymbolTableRecord
100
AcDbLayerTableRecord
  2
0 OBJECT BORDER
 70
     0
 62
     1
  6
CONTINUOUS
370
    -3
390
5D95
  0
LAYER
  5
1E748
102
{ACAD_XDICTIONARY
360
1E749
102
}
330
2
100
AcDbSymbolTableRecord
100
AcDbLayerTableRecord
  2
0 DIAMONDS
 70
     0
 62
     3
  6
CONTINUOUS
370
    -3
390
5D95
  0
LAYER
  5
1EFB8
102
{ACAD_XDICTIONARY
360
1EFB9
102
}
330
2
100
AcDbSymbolTableRecord
100
AcDbLayerTableRecord
  2
coat rod
 70
     0
 62
     4
  6
CONTINUOUS
370
    -3
390
5D95
  0
ENDTAB
  0
TABLE
  2
STYLE
  5
3
330
0
100
AcDbSymbolTable
 70
     3
  0
STYLE
  5
10
330
3
100
AcDbSymbolTableRecord
100
AcDbTextStyleTableRecord
  2
STANDARD
 70
     0
 40
0.0
 41
1.0
 50
0.0
 71
     0
 42
0.085
  3
txt
  4

  0
STYLE
  5
14154
330
3
100
AcDbSymbolTableRecord
100
AcDbTextStyleTableRecord
  2
ROMANS
 70
     0
 40
0.0
 41
1.0
 50
0.0
 71
     0
 42
0.085
  3
romans
  4

  0
STYLE
  5
1E74A
330
3
100
AcDbSymbolTableRecord
100
AcDbTextStyleTableRecord
  2
ELEVATION
 70
     0
 40
1.5
 41
1.0
 50
0.0
 71
     0
 42
1.5
  3
SIMPLEX.shx
  4

  0
ENDTAB
  0
TABLE
  2
VIEW
  5
6
330
0
100
AcDbSymbolTable
 70
     0
  0
ENDTAB
  0
TABLE
  2
UCS
  5
7
330
0
100
AcDbSymbolTable
 70
     0
  0
ENDTAB
  0
TABLE
  2
APPID
  5
9
330
0
100
AcDbSymbolTable
 70
     9
  0
APPID
  5
11
330
9
100
AcDbSymbolTableRecord
100
AcDbRegAppTableRecord
  2
ACAD
 70
     0
  0
APPID
  5
18543
330
9
100
AcDbSymbolTableRecord
100
AcDbRegAppTableRecord
  2
ACAD_EXEMPT_FROM_CAD_STANDARDS
 70
     0
  0
APPID
  5
1857B
330
9
100
AcDbSymbolTableRecord
100
AcDbRegAppTableRecord
  2
ACAD_PSEXT
 70
     0
  0
APPID
  5
1953B
330
9
100
AcDbSymbolTableRecord
100
AcDbRegAppTableRecord
  2
ACAD_MLEADERVER
 70
     0
  0
APPID
  5
19557
330
9
100
AcDbSymbolTableRecord
100
AcDbRegAppTableRecord
  2
ACAD_NAV_VCDISPLAY
 70
     0
  0
APPID
  5
1A813
330
9
100
AcDbSymbolTableRecord
100
AcDbRegAppTableRecord
  2
AcAecLayerStandard
 70
     0
  0
APPID
  5
1A814
330
9
100
AcDbSymbolTableRecord
100
AcDbRegAppTableRecord
  2
AcCmTransparency
 70
     0
  0
APPID
  5
1E74D
330
9
100
AcDbSymbolTableRecord
100
AcDbRegAppTableRecord
  2
ACAD_DSTYLE_DIMJAG
 70
     0
  0
APPID
  5
1E74E
330
9
100
AcDbSymbolTableRecord
100
AcDbRegAppTableRecord
  2
ACAD_DSTYLE_DIMTALN
 70
     0
  0
ENDTAB
  0
TABLE
  2
DIMSTYLE
  5
A
330
0
100
AcDbSymbolTable
 70
     2
100
AcDbDimStyleTable
 71
     1
340
E4
  0
DIMSTYLE
105
E4
330
A
100
AcDbSymbolTableRecord
100
AcDbDimStyleTableRecord
  2
Q_SCALE_FULLDIM
 70
     0
 41
0.1328125
 42
0.0859375
 43
0.171875
 44
0.0234375
 73
     0
 74
     0
 77
     1
140
0.109375
141
0.04296875
144
48.0000768
147
0.04296875
176
     4
177
     4
178
     4
277
     4
340
10
  0
DIMSTYLE
105
18C2B
330
A
100
AcDbSymbolTableRecord
100
AcDbDimStyleTableRecord
  2
Standard
 70
     0
340
10
  0
ENDTAB
  0
TABLE
  2
BLOCK_RECORD
  5
1
330
0
100
AcDbSymbolTable
 70
     3
  0
BLOCK_RECORD
  5
1A
102
{ACAD_XDICTIONARY
360
183EF
102
}
330
1
100
AcDbSymbolTableRecord
100
AcDbBlockTableRecord
  2
*MODEL_SPACE
340
5D98
  0
BLOCK_RECORD
  5
17
330
1
100
AcDbSymbolTableRecord
100
AcDbBlockTableRecord
  2
*PAPER_SPACE
340
5D99
  0
BLOCK_RECORD
  5
1E707
102
{ACAD_XDICTIONARY
360
1E708
102
}
330
1
100
AcDbSymbolTableRecord
100
AcDbBlockTableRecord
  2
A$C0da8e90c
340
0
102
{BLKREFS
331
1FF9E
331
20007
102
}
1001
ACAD
1000
DesignCenter Data
1002
{
1070
     1
1070
     1
1002
}
  0
BLOCK_RECORD
  5
1E72C
102
{ACAD_XDICTIONARY
360
1E72D
102
}
330
1
100
AcDbSymbolTableRecord
100
AcDbBlockTableRecord
  2
A$C6895fdcc
340
0
102
{BLKREFS
331
200E1
331
200E2
331
200E3
331
200E4
331
200E5
331
200E6
331
200E7
331
200E8
331
200E9
331
200EA
331
200EB
331
200EC
331
200ED
331
200EE
331
200EF
331
200F0
331
200F1
331
200F2
331
200F3
331
200F4
331
200F5
331
200F6
331
200F7
331
200F8
331
200F9
331
20170
331
20171
331
20172
331
20173
331
20174
331
20175
331
20176
331
20177
331
20178
331
20179
331
2017A
331
2017B
331
2017C
331
2017D
331
2017E
331
2017F
331
20180
331
20181
331
20182
331
20183
331
20184
331
20185
331
20186
331
20187
331
20188
331
20189
331
2018A
331
2018B
331
2018C
331
2018D
331
2018E
331
2018F
331
20190
331
20191
331
20192
331
20193
331
20194
331
20195
331
20196
331
20197
331
20198
331
20199
331
2019A
331
2019B
331
2019C
331
2019D
331
2019E
331
2019F
331
201A0
331
201A1
331
201A2
331
201A3
331
201A4
331
201A5
331
201A6
331
201A7
331
201A8
331
201A9
331
201AA
331
201AB
331
201AC
331
201AD
331
201AE
331
201AF
331
201B0
331
201B1
331
201B2
331
201B3
331
201B4
331
201B5
331
201B6
331
201B7
331
1FF9F
331
1FFA0
331
1FFA1
331
1FFA2
331
1FFA3
331
1FFA4
331
1FFA5
331
1FFA6
331
1FFA7
331
1FFA8
331
1FFA9
331
1FFAA
331
1FFAB
331
1FFAC
331
1FFAD
331
1FFAE
331
1FFAF
331
1FFB0
331
1FFB1
331
1FFB2
331
1FFB3
331
1FFB4
331
1FFB5
331
1FFB6
331
1FFB7
331
1FFB8
331
1FFB9
331
1FFBA
331
1FFBB
331
1FFBC
331
1FFBD
331
1FFBE
331
1FFBF
331
1FFC0
331
1FFC1
331
1FFC2
331
1FFC3
331
1FFC4
331
1FFC5
331
1FFC6
331
1FFC7
331
1FFC8
331
1FFC9
331
1FFCA
331
1FFCB
331
1FFCC
331
1FFCD
331
1FFCE
331
1FFCF
331
1FFD0
331
1FFD1
331
1FFD2
331
1FFD3
331
1FFD4
331
1FFD5
331
1FFD6
331
1FFD7
331
1FFD8
331
1FFD9
331
1FFDA
331
1FFDB
331
1FFDC
331
1FFDD
331
1FFDE
331
1FFDF
331
1FFE0
331
1FFE1
331
1FFE2
331
1FFE3
331
1FFE4
331
1FFE5
331
1FFE6
102
}
  0
BLOCK_RECORD
  5
1EFAB
330
1
100
AcDbSymbolTableRecord
100
AcDbBlockTableRecord
  2
ARRO2
340
0
102
{BLKREFS
331
2010C
102
}
  0
ENDTAB
  0
ENDSEC
  0
SECTION
  2
BLOCKS
  0
BLOCK
  5
1B
330
1A
100
AcDbEntity
  8
0
100
AcDbBlockBegin
  2
*MODEL_SPACE
 70
     0
 10
0.0
 20
0.0
 30
0.0
  3
*MODEL_SPACE
  1

  0
ENDBLK
  5
1C
330
1A
100
AcDbEntity
  8
0
100
AcDbBlockEnd
  0
BLOCK
  5
18
330
17
100
AcDbEntity
 67
     1
  8
0
100
AcDbBlockBegin
  2
*PAPER_SPACE
 70
     0
 10
0.0
 20
0.0
 30
0.0
  3
*PAPER_SPACE
  1

  0
ENDBLK
  5
19
330
17
100
AcDbEntity
 67
     1
  8
0
100
AcDbBlockEnd
  0
BLOCK
  5
1E70A
330
1E707
100
AcDbEntity
  8
0
100
AcDbBlockBegin
  2
A$C0da8e90c
 70
     0
 10
0.0
 20
0.0
 30
0.0
  3
A$C0da8e90c
  1

  0
LINE
  5
1E70B
330
1E707
100
AcDbEntity
  8
HANDLE
100
AcDbLine
 10
-1.193640979519827
 20
4.734373926643332
 30
0.0
 11
2.306359020480172
 21
4.734373926643332
 31
0.0
  0
LINE
  5
1E70C
330
1E707
100
AcDbEntity
  8
HANDLE
100
AcDbLine
 10
-1.326697382190772
 20
4.984373926643332
 30
0.0
 11
2.439415423151118
 21
4.984373926643332
 31
0.0
  0
ARC
  5
1E70D
330
1E707
100
AcDbEntity
  8
HANDLE
100
AcDbCircle
 10
2.439415423151118
 20
4.859373926643332
 30
0.0
 40
0.125
100
AcDbArc
 50
356.4236656250027
 51
90.0
  0
ARC
  5
1E70E
330
1E707
100
AcDbEntity
  8
HANDLE
100
AcDbCircle
 10
-1.326697382190772
 20
4.859373926643332
 30
0.0
 40
0.125
100
AcDbArc
 50
90.0
 51
183.5763343749973
  0
LINE
  5
1E70F
330
1E707
100
AcDbEntity
  8
HANDLE
100
AcDbLine
 10
-0.8811409795198272
 20
-0.265626073356664
 30
0.0
 11
1.993859020480172
 21
-0.265626073356664
 31
0.0
  0
LINE
  5
1E710
330
1E707
100
AcDbEntity
  8
HANDLE
100
AcDbLine
 10
-0.9985723821907726
 20
-0.515626073356664
 30
0.0
 11
2.111290423151118
 21
-0.515626073356664
 31
0.0
  0
ARC
  5
1E711
330
1E707
100
AcDbEntity
  8
HANDLE
100
AcDbCircle
 10
2.111290423151118
 20
-0.390626073356664
 30
0.0
 40
0.125
100
AcDbArc
 50
270.0
 51
356.4236656250027
  0
LINE
  5
1E712
330
1E707
100
AcDbEntity
  8
HANDLE
100
AcDbLine
 10
2.306359020480172
 20
4.734373926643332
 30
0.0
 11
1.993859020480172
 21
-0.265626073356664
 31
0.0
  0
LINE
  5
1E713
330
1E707
100
AcDbEntity
  8
HANDLE
100
AcDbLine
 10
2.564171995461478
 20
4.851576640873933
 30
0.0
 11
2.236046995461478
 21
-0.3984233591260633
 31
0.0
  0
LINE
  5
1E714
330
1E707
100
AcDbEntity
  8
HANDLE
100
AcDbLine
 10
-0.8811409795198272
 20
-0.265626073356664
 30
0.0
 11
-1.193640979519827
 21
4.734373926643332
 31
0.0
  0
LINE
  5
1E715
330
1E707
100
AcDbEntity
  8
HANDLE
100
AcDbLine
 10
-1.123328954501133
 20
-0.3984233591260633
 30
0.0
 11
-1.451453954501133
 21
4.851576640873933
 31
0.0
  0
ARC
  5
1E716
330
1E707
100
AcDbEntity
  8
HANDLE
100
AcDbCircle
 10
-0.9985723821907726
 20
-0.390626073356664
 30
0.0
 40
0.125
100
AcDbArc
 50
183.5763343749973
 51
270.0
  0
LINE
  5
1E717
330
1E707
100
AcDbEntity
  8
HANDLE
100
AcDbLine
 10
-1.193640979519827
 20
4.734373926643332
 30
0.0
 11
-1.417800786960228
 21
4.944961131524742
 31
0.0
  0
LINE
  5
1E718
330
1E707
100
AcDbEntity
  8
HANDLE
100
AcDbLine
 10
2.306359020480172
 20
4.734373926643332
 30
0.0
 11
2.530518827920573
 21
4.944961131524742
 31
0.0
  0
LINE
  5
1E719
330
1E707
100
AcDbEntity
  8
HANDLE
100
AcDbLine
 10
1.993859020480172
 20
-0.265626073356664
 30
0.0
 11
2.196877628032538
 21
-0.4817294781261197
 31
0.0
  0
LINE
  5
1E71A
330
1E707
100
AcDbEntity
  8
HANDLE
100
AcDbLine
 10
-0.8811409795198272
 20
-0.265626073356664
 30
0.0
 11
-1.084159587072193
 21
-0.4817294781261197
 31
0.0
  0
LINE
  5
1E71B
330
1E707
100
AcDbEntity
  8
HANDLE
100
AcDbLine
 10
0.4063590204801671
 20
4.67287392664333
 30
0.0
 11
0.4063590204801671
 21
3.826873926643333
 31
0.0
  0
LINE
  5
1E71C
330
1E707
100
AcDbEntity
  8
HANDLE
100
AcDbLine
 10
0.2753590204801668
 20
4.732873926643332
 30
0.0
 11
0.2753590204801668
 21
4.734373926643332
 31
0.0
  0
ARC
  5
1E71D
330
1E707
100
AcDbEntity
  8
HANDLE
100
AcDbCircle
 10
0.3053590204801679
 20
4.732873926643332
 30
0.0
 40
0.03
100
AcDbArc
 50
180.0
 51
270.0
  0
LINE
  5
1E71E
330
1E707
100
AcDbEntity
  8
HANDLE
100
AcDbLine
 10
0.7063590204801642
 20
4.67287392664333
 30
0.0
 11
0.7063590204801784
 21
3.826873926643333
 31
0.0
  0
LINE
  5
1E71F
330
1E707
100
AcDbEntity
  8
HANDLE
100
AcDbLine
 10
0.8373590204801786
 20
4.732873926643332
 30
0.0
 11
0.8373590204801786
 21
4.734373926643332
 31
0.0
  0
ARC
  5
1E720
330
1E707
100
AcDbEntity
  8
HANDLE
100
AcDbCircle
 10
0.8073590204801774
 20
4.732873926643332
 30
0.0
 40
0.03
100
AcDbArc
 50
270.0
 51
0.0
  0
ARC
  5
1E721
330
1E707
100
AcDbEntity
  8
HANDLE
100
AcDbCircle
 10
0.6763590204801773
 20
3.826873926643333
 30
0.0
 40
0.03
100
AcDbArc
 50
270.0
 51
0.0
  0
LINE
  5
1E722
330
1E707
100
AcDbEntity
  8
HANDLE
100
AcDbLine
 10
0.4363590204801682
 20
3.796873926643332
 30
0.0
 11
0.6763590204801773
 21
3.796873926643332
 31
0.0
  0
ARC
  5
1E723
330
1E707
100
AcDbEntity
  8
HANDLE
100
AcDbCircle
 10
0.4363590204801682
 20
3.826873926643333
 30
0.0
 40
0.03
100
AcDbArc
 50
180.0
 51
270.0
  0
LINE
  5
1E724
330
1E707
100
AcDbEntity
  8
HANDLE
100
AcDbLine
 10
0.3053590204801679
 20
4.702873926643331
 30
0.0
 11
0.3763590204801659
 21
4.702873926643331
 31
0.0
  0
ARC
  5
1E725
330
1E707
100
AcDbEntity
  8
HANDLE
100
AcDbCircle
 10
0.3763590204801659
 20
4.67287392664333
 30
0.0
 40
0.03
100
AcDbArc
 50
0.0
 51
90.0
  0
LINE
  5
1E726
330
1E707
100
AcDbEntity
  8
HANDLE
100
AcDbLine
 10
0.7363590204801654
 20
4.702873926643331
 30
0.0
 11
0.8073590204801774
 21
4.702873926643331
 31
0.0
  0
ARC
  5
1E727
330
1E707
100
AcDbEntity
  8
HANDLE
100
AcDbCircle
 10
0.7363590204801654
 20
4.67287392664333
 30
0.0
 40
0.03
100
AcDbArc
 50
90.0000000000004
 51
180.0000000000004
  0
CIRCLE
  5
1E728
330
1E707
100
AcDbEntity
  8
HANDLE
100
AcDbCircle
 10
0.5563590204801728
 20
2.92587392664333
 30
0.0
 40
0.109375
  0
CIRCLE
  5
1E729
330
1E707
100
AcDbEntity
  8
HANDLE
100
AcDbCircle
 10
0.5563590204801728
 20
1.832873926643333
 30
0.0
 40
0.328125
  0
CIRCLE
  5
1E72A
330
1E707
100
AcDbEntity
  8
HANDLE
100
AcDbCircle
 10
0.5563590204801728
 20
0.7398739266433303
 30
0.0
 40
0.109375
  0
ENDBLK
  5
1E72B
330
1E707
100
AcDbEntity
  8
0
100
AcDbBlockEnd
  0
BLOCK
  5
1E72F
330
1E72C
100
AcDbEntity
  8
0
100
AcDbBlockBegin
  2
A$C6895fdcc
 70
     0
 10
0.0
 20
0.0
 30
0.0
  3
A$C6895fdcc
  1

  0
LINE
  5
1E730
330
1E72C
100
AcDbEntity
  8
0 DIAMONDS
  6
HS
100
AcDbLine
 10
0.0493175358351437
 20
-0.4993160339145107
 30
0.0
 11
0.2376805279272958
 21
-0.1171560233942728
 31
0.0
  0
LINE
  5
1E731
330
1E72C
100
AcDbEntity
  8
0 DIAMONDS
  6
HS
100
AcDbLine
 10
-0.2376957833475899
 20
-0.1171615137482149
 30
0.0
 11
-0.0493344904461992
 21
-0.4993181026238745
 31
0.0
  0
LINE
  5
1E732
330
1E72C
100
AcDbEntity
  8
0 DIAMONDS
  6
HS
100
AcDbLine
 10
-0.2377137994262739
 20
0.1171702978554094
 30
0.0
 11
-0.0493502209792496
 21
0.4993257693549822
 31
0.0
  0
LINE
  5
1E733
330
1E72C
100
AcDbEntity
  8
0 DIAMONDS
  6
HS
100
AcDbLine
 10
0.04933636347414
 20
0.4993074427929969
 30
0.0
 11
0.2376951826445293
 21
0.1171538946400688
 31
0.0
  0
ARC
  5
1E734
330
1E72C
100
AcDbEntity
  8
0 DIAMONDS
  6
HS
100
AcDbCircle
 10
0.0
 20
0.0
 30
0.0
 40
0.2649999856948853
100
AcDbArc
 50
153.7617513501023
 51
206.2382450074554
  0
ARC
  5
1E735
330
1E72C
100
AcDbEntity
  8
0 DIAMONDS
  6
HS
100
AcDbCircle
 10
0.0
 20
0.4749984741210938
 30
0.0
 40
0.0549999997019768
100
AcDbArc
 50
26.23804875311714
 51
153.7619562559177
  0
ARC
  5
1E736
330
1E72C
100
AcDbEntity
  8
0 DIAMONDS
  6
HS
100
AcDbCircle
 10
0.0
 20
-0.4749984741210938
 30
0.0
 40
0.0549999997019768
100
AcDbArc
 50
206.2380437440823
 51
333.7619512468829
  0
ARC
  5
1E737
330
1E72C
100
AcDbEntity
  8
0 DIAMONDS
  6
HS
100
AcDbCircle
 10
0.0
 20
0.0
 30
0.0
 40
0.2649999856948853
100
AcDbArc
 50
333.7617531715091
 51
26.2382468284909
  0
ENDBLK
  5
1E738
330
1E72C
100
AcDbEntity
  8
0
100
AcDbBlockEnd
  0
BLOCK
  5
1EFAC
330
1EFAB
100
AcDbEntity
  8
0
100
AcDbBlockBegin
  2
ARRO2
 70
     0
 10
0.0
 20
0.0
 30
0.0
  3
ARRO2
  1

  0
LINE
  5
1EFAD
330
1EFAB
100
AcDbEntity
  8
coat rod
100
AcDbLine
 10
-0.124999999999992
 20
-0.0200000000000005
 30
0.0
 11
0.000000000000008
 21
-0.0000000000000009
 31
0.0
  0
LINE
  5
1EFAE
330
1EFAB
100
AcDbEntity
  8
coat rod
100
AcDbLine
 10
0.000000000000008
 20
-0.0000000000000009
 30
0.0
 11
-0.124999999999992
 21
0.0199999999999996
 31
0.0
  0
LINE
  5
1EFAF
330
1EFAB
100
AcDbEntity
  8
coat rod
100
AcDbLine
 10
-0.124999999999992
 20
-0.0099999999999998
 30
0.0
 11
0.000000000000008
 21
-0.0000000000000009
 31
0.0
  0
LINE
  5
1EFB0
330
1EFAB
100
AcDbEntity
  8
coat rod
100
AcDbLine
 10
-0.124999999999992
 20
0.0099999999999998
 30
0.0
 11
0.0000000000000089
 21
-0.0000000000000009
 31
0.0
  0
LINE
  5
1EFB1
330
1EFAB
100
AcDbEntity
  8
coat rod
100
AcDbLine
 10
-0.124999999999992
 20
-0.0200000000000005
 30
0.0
 11
-0.124999999999992
 21
0.0199999999999996
 31
0.0
  0
LINE
  5
1EFB2
330
1EFAB
100
AcDbEntity
  8
coat rod
100
AcDbLine
 10
0.1250000000000124
 20
0.0199999999999987
 30
0.0
 11
0.1250000000000124
 21
-0.0200000000000014
 31
0.0
  0
LINE
  5
1EFB3
330
1EFAB
100
AcDbEntity
  8
coat rod
100
AcDbLine
 10
0.1250000000000124
 20
-0.0100000000000016
 30
0.0
 11
0.0000000000000115
 21
-0.0000000000000009
 31
0.0
  0
LINE
  5
1EFB4
330
1EFAB
100
AcDbEntity
  8
coat rod
100
AcDbLine
 10
0.1250000000000124
 20
0.009999999999998
 30
0.0
 11
0.0000000000000124
 21
-0.0000000000000009
 31
0.0
  0
LINE
  5
1EFB5
330
1EFAB
100
AcDbEntity
  8
coat rod
100
AcDbLine
 10
0.0000000000000124
 20
-0.0000000000000009
 30
0.0
 11
0.1250000000000124
 21
-0.0200000000000014
 31
0.0
  0
LINE
  5
1EFB6
330
1EFAB
100
AcDbEntity
  8
coat rod
100
AcDbLine
 10
0.1250000000000124
 20
0.0199999999999987
 30
0.0
 11
0.0000000000000124
 21
-0.0000000000000009
 31
0.0
  0
ENDBLK
  5
1EFB7
330
1EFAB
100
AcDbEntity
  8
0
100
AcDbBlockEnd
  0
ENDSEC
  0
SECTION
  2
ENTITIES
  0
TEXT
  5
16791
330
1A
100
AcDbEntity
  8
TEXT
100
AcDbText
 10
8.224565459720466
 20
15.70316061444471
 30
0.0
 40
0.125
  1

100
AcDbText
  0
TEXT
  5
17A1C
330
1A
100
AcDbEntity
  8
locker
100
AcDbText
 10
27.151014806888
 20
31.71777575150072
 30
0.0
 40
0.085
  1
 
 72
     1
 11
27.19351480688799
 21
31.71777575150072
 31
0.0
100
AcDbText
  0
LWPOLYLINE
  5
1FF8B
330
1A
100
AcDbEntity
  8
border1
100
AcDbPolyline
 90
        4
 70
     1
 43
0.0
 10
-0.0000263792462647
 20
126.0009591998387
 10
198.001573460875
 20
126.0009591998387
 10
198.001573460875
 20
-0.0000588802649872
 10
-0.0000263792462647
 20
-0.0000588802649872
  0
LINE
  5
1FF8C
330
1A
100
AcDbEntity
  8
ELEVATION
100
AcDbLine
 10
49.20811671869159
 20
33.99121881661449
 30
0.0
 11
49.70808618621231
 21
33.99121881661449
 31
0.0
  0
LINE
  5
1FF8D
330
1A
100
AcDbEntity
  8
ELEVATION
100
AcDbLine
 10
63.20808578388096
 20
33.99121881661449
 30
0.0
 11
63.70812391595245
 21
33.99121881661449
 31
0.0
  0
LINE
  5
1FF8E
330
1A
100
AcDbEntity
  8
ELEVATION
100
AcDbLine
 10
63.20808578388096
 20
90.61621677143012
 30
0.0
 11
63.70812391595245
 21
90.61621677143012
 31
0.0
  0
LINE
  5
1FF8F
330
1A
100
AcDbEntity
  8
ELEVATION
100
AcDbLine
 10
49.20811671869159
 20
90.61621677143012
 30
0.0
 11
49.70808618621231
 21
90.61621677143012
 31
0.0
  0
LINE
  5
1FF90
330
1A
100
AcDbEntity
  8
ELEVATION
100
AcDbLine
 10
50.03627983958722
 20
33.4287188333783
 30
0.0
 11
62.91127945960761
 21
33.4287188333783
 31
0.0
  0
LINE
  5
1FF91
330
1A
100
AcDbEntity
  8
ELEVATION
100
AcDbLine
 10
50.03627983958722
 20
91.24121675466813
 30
0.0
 11
62.91127945960761
 21
91.24121675466813
 31
0.0
  0
LINE
  5
1FF92
330
1A
100
AcDbEntity
  8
ELEVATION
100
AcDbLine
 10
50.03627983958722
 20
33.4287188333783
 30
0.0
 11
50.03627983958722
 21
91.24121675466813
 31
0.0
  0
LINE
  5
1FF93
330
1A
100
AcDbEntity
  8
ELEVATION
100
AcDbLine
 10
62.91127945960761
 20
33.4287188333783
 30
0.0
 11
62.91127945960761
 21
91.24121675466813
 31
0.0
  0
ARC
  5
1FF94
330
1A
100
AcDbEntity
  8
ELEVATION
100
AcDbCircle
 10
49.70815485076309
 20
33.74121119467236
 30
0.0
 40
0.25
100
AcDbArc
 50
0.0
 51
89.99998201364064
  0
ARC
  5
1FF95
330
1A
100
AcDbEntity
  8
ELEVATION
100
AcDbCircle
 10
49.20818538324238
 20
33.74121119467236
 30
0.0
 40
0.25
100
AcDbArc
 50
89.99998201364064
 51
180.0000186693157
  0
ARC
  5
1FF96
330
1A
100
AcDbEntity
  8
ELEVATION
100
AcDbCircle
 10
63.70814680413605
 20
33.74121119467236
 30
0.0
 40
0.25
100
AcDbArc
 50
0.0
 51
89.99998201364064
  0
ARC
  5
1FF97
330
1A
100
AcDbEntity
  8
ELEVATION
100
AcDbCircle
 10
63.20815444843174
 20
33.74121119467236
 30
0.0
 40
0.25
100
AcDbArc
 50
89.99998201364064
 51
180.0000186693157
  0
ARC
  5
1FF98
330
1A
100
AcDbEntity
  8
ELEVATION
100
AcDbCircle
 10
63.70814680413605
 20
90.86624728155767
 30
0.0
 40
0.25
100
AcDbArc
 50
270.0000179859425
 51
0.0
  0
ARC
  5
1FF99
330
1A
100
AcDbEntity
  8
ELEVATION
100
AcDbCircle
 10
63.20815444843174
 20
90.86624728155767
 30
0.0
 40
0.25
100
AcDbArc
 50
180.0000223118192
 51
270.0000589670775
  0
ARC
  5
1FF9A
330
1A
100
AcDbEntity
  8
ELEVATION
100
AcDbCircle
 10
49.70815485076309
 20
90.86624728155767
 30
0.0
 40
0.25
100
AcDbArc
 50
270.0000179859425
 51
0.0
  0
ARC
  5
1FF9B
330
1A
100
AcDbEntity
  8
ELEVATION
100
AcDbCircle
 10
49.20818538324238
 20
90.86624728155767
 30
0.0
 40
0.25
100
AcDbArc
 50
180.0000223118192
 51
270.0000589670775
  0
LWPOLYLINE
  5
1FF9C
330
1A
100
AcDbEntity
  8
ELEVATION
100
AcDbPolyline
 90
        4
 70
     1
 43
0.0
 10
48.95808620856406
 20
32.30371886690591
 10
63.95808620856406
 20
32.30371886690591
 10
63.95808620856406
 20
92.30371886690591
 10
48.95808620856406
 20
92.30371886690591
  0
LWPOLYLINE
  5
1FF9D
330
1A
100
AcDbEntity
  8
ELEVATION
100
AcDbPolyline
 90
        4
 70
     1
 43
0.0
 10
49.95808620856405
 20
33.30371886690591
 10
62.95808620856405
 20
33.30371886690591
 10
62.95808620856405
 20
91.30371886690591
 10
49.95808620856405
 20
91.30371886690591
  0
INSERT
  5
1FF9E
330
1A
100
AcDbEntity
  8
OBJECT
100
AcDbBlockReference
  2
A$C0da8e90c
 10
53.13002983958722
 20
63.25709609966179
 30
0.0
  0
INSERT
  5
1FF9F
330
1A
100
AcDbEntity
  8
OBJECT
100
AcDbBlockReference
  2
A$C6895fdcc
 10
58.47377964959742
 20
88.24121675466813
 30
0.0
  0
INSERT
  5
1FFA0
330
1A
100
AcDbEntity
  8
OBJECT
100
AcDbBlockReference
  2
A$C6895fdcc
 10
59.47377964959741
 20
88.24121675466813
 30
0.0
  0
INSERT
  5
1FFA1
330
1A
100
AcDbEntity
  8
OBJECT
100
AcDbBlockReference
  2
A$C6895fdcc
 10
54.47377964959741
 20
88.24121675466813
 30
0.0
  0
INSERT
  5
1FFA2
330
1A
100
AcDbEntity
  8
OBJECT
100
AcDbBlockReference
  2
A$C6895fdcc
 10
53.47377964959742
 20
88.24121675466813
 30
0.0
  0
INSERT
  5
1FFA3
330
1A
100
AcDbEntity
  8
OBJECT
100
AcDbBlockReference
  2
A$C6895fdcc
 10
58.97377964959741
 20
87.49121675466813
 30
0.0
  0
INSERT
  5
1FFA4
330
1A
100
AcDbEntity
  8
OBJECT
100
AcDbBlockReference
  2
A$C6895fdcc
 10
53.97377964959741
 20
87.49121675466813
 30
0.0
  0
INSERT
  5
1FFA5
330
1A
100
AcDbEntity
  8
OBJECT
100
AcDbBlockReference
  2
A$C6895fdcc
 10
59.47377964959741
 20
86.74121675466812
 30
0.0
  0
INSERT
  5
1FFA6
330
1A
100
AcDbEntity
  8
OBJECT
100
AcDbBlockReference
  2
A$C6895fdcc
 10
53.47377964959742
 20
86.74121675466812
 30
0.0
  0
INSERT
  5
1FFA7
330
1A
100
AcDbEntity
  8
OBJECT
100
AcDbBlockReference
  2
A$C6895fdcc
 10
59.47377964959741
 20
85.24121675466814
 30
0.0
  0
INSERT
  5
1FFA8
330
1A
100
AcDbEntity
  8
OBJECT
100
AcDbBlockReference
  2
A$C6895fdcc
 10
53.47377964959742
 20
85.24121675466814
 30
0.0
  0
INSERT
  5
1FFA9
330
1A
100
AcDbEntity
  8
OBJECT
100
AcDbBlockReference
  2
A$C6895fdcc
 10
59.47377964959741
 20
83.74121675466813
 30
0.0
  0
INSERT
  5
1FFAA
330
1A
100
AcDbEntity
  8
OBJECT
100
AcDbBlockReference
  2
A$C6895fdcc
 10
53.47377964959742
 20
83.74121675466813
 30
0.0
  0
INSERT
  5
1FFAB
330
1A
100
AcDbEntity
  8
OBJECT
100
AcDbBlockReference
  2
A$C6895fdcc
 10
59.47377964959741
 20
82.24121675466813
 30
0.0
  0
INSERT
  5
1FFAC
330
1A
100
AcDbEntity
  8
OBJECT
100
AcDbBlockReference
  2
A$C6895fdcc
 10
53.47377964959742
 20
82.24121675466813
 30
0.0
  0
INSERT
  5
1FFAD
330
1A
100
AcDbEntity
  8
OBJECT
100
AcDbBlockReference
  2
A$C6895fdcc
 10
59.47377964959741
 20
80.74121675466813
 30
0.0
  0
INSERT
  5
1FFAE
330
1A
100
AcDbEntity
  8
OBJECT
100
AcDbBlockReference
  2
A$C6895fdcc
 10
53.47377964959742
 20
80.74121675466813
 30
0.0
  0
INSERT
  5
1FFAF
330
1A
100
AcDbEntity
  8
OBJECT
100
AcDbBlockReference
  2
A$C6895fdcc
 10
59.47377964959741
 20
79.24121675466813
 30
0.0
  0
INSERT
  5
1FFB0
330
1A
100
AcDbEntity
  8
OBJECT
100
AcDbBlockReference
  2
A$C6895fdcc
 10
53.47377964959742
 20
79.24121675466813
 30
0.0
  0
INSERT
  5
1FFB1
330
1A
100
AcDbEntity
  8
OBJECT
100
AcDbBlockReference
  2
A$C6895fdcc
 10
59.47377964959741
 20
77.74121675466813
 30
0.0
  0
INSERT
  5
1FFB2
330
1A
100
AcDbEntity
  8
OBJECT
100
AcDbBlockReference
  2
A$C6895fdcc
 10
53.47377964959742
 20
77.74121675466813
 30
0.0
  0
INSERT
  5
1FFB3
330
1A
100
AcDbEntity
  8
OBJECT
100
AcDbBlockReference
  2
A$C6895fdcc
 10
59.47377964959741
 20
76.24121675466813
 30
0.0
  0
INSERT
  5
1FFB4
330
1A
100
AcDbEntity
  8
OBJECT
100
AcDbBlockReference
  2
A$C6895fdcc
 10
53.47377964959742
 20
76.24121675466813
 30
0.0
  0
INSERT
  5
1FFB5
330
1A
100
AcDbEntity
  8
OBJECT
100
AcDbBlockReference
  2
A$C6895fdcc
 10
59.47377964959741
 20
74.74121675466813
 30
0.0
  0
INSERT
  5
1FFB6
330
1A
100
AcDbEntity
  8
OBJECT
100
AcDbBlockReference
  2
A$C6895fdcc
 10
53.47377964959742
 20
74.74121675466813
 30
0.0
  0
INSERT
  5
1FFB7
330
1A
100
AcDbEntity
  8
OBJECT
100
AcDbBlockReference
  2
A$C6895fdcc
 10
59.47377964959741
 20
73.24121675466813
 30
0.0
  0
INSERT
  5
1FFB8
330
1A
100
AcDbEntity
  8
OBJECT
100
AcDbBlockReference
  2
A$C6895fdcc
 10
53.47377964959742
 20
73.24121675466813
 30
0.0
  0
INSERT
  5
1FFB9
330
1A
100
AcDbEntity
  8
OBJECT
100
AcDbBlockReference
  2
A$C6895fdcc
 10
58.97377964959741
 20
72.49121675466813
 30
0.0
  0
INSERT
  5
1FFBA
330
1A
100
AcDbEntity
  8
OBJECT
100
AcDbBlockReference
  2
A$C6895fdcc
 10
53.97377964959741
 20
72.49121675466813
 30
0.0
  0
INSERT
  5
1FFBB
330
1A
100
AcDbEntity
  8
OBJECT
100
AcDbBlockReference
  2
A$C6895fdcc
 10
59.47377964959741
 20
71.74121675466813
 30
0.0
  0
INSERT
  5
1FFBC
330
1A
100
AcDbEntity
  8
OBJECT
100
AcDbBlockReference
  2
A$C6895fdcc
 10
53.47377964959742
 20
71.74121675466813
 30
0.0
  0
INSERT
  5
1FFBD
330
1A
100
AcDbEntity
  8
OBJECT
100
AcDbBlockReference
  2
A$C6895fdcc
 10
58.97377964959741
 20
70.99121675466813
 30
0.0
  0
INSERT
  5
1FFBE
330
1A
100
AcDbEntity
  8
OBJECT
100
AcDbBlockReference
  2
A$C6895fdcc
 10
53.97377964959741
 20
70.99121675466813
 30
0.0
  0
INSERT
  5
1FFBF
330
1A
100
AcDbEntity
  8
OBJECT
100
AcDbBlockReference
  2
A$C6895fdcc
 10
58.47377964959742
 20
58.92871675466813
 30
0.0
  0
INSERT
  5
1FFC0
330
1A
100
AcDbEntity
  8
OBJECT
100
AcDbBlockReference
  2
A$C6895fdcc
 10
59.47377964959741
 20
58.92871675466813
 30
0.0
  0
INSERT
  5
1FFC1
330
1A
100
AcDbEntity
  8
OBJECT
100
AcDbBlockReference
  2
A$C6895fdcc
 10
54.47377964959741
 20
58.92871675466813
 30
0.0
  0
INSERT
  5
1FFC2
330
1A
100
AcDbEntity
  8
OBJECT
100
AcDbBlockReference
  2
A$C6895fdcc
 10
53.47377964959742
 20
58.92871675466813
 30
0.0
  0
INSERT
  5
1FFC3
330
1A
100
AcDbEntity
  8
OBJECT
100
AcDbBlockReference
  2
A$C6895fdcc
 10
58.97377964959741
 20
58.17871675466813
 30
0.0
  0
INSERT
  5
1FFC4
330
1A
100
AcDbEntity
  8
OBJECT
100
AcDbBlockReference
  2
A$C6895fdcc
 10
53.97377964959741
 20
58.17871675466813
 30
0.0
  0
INSERT
  5
1FFC5
330
1A
100
AcDbEntity
  8
OBJECT
100
AcDbBlockReference
  2
A$C6895fdcc
 10
59.47377964959741
 20
57.42871675466813
 30
0.0
  0
INSERT
  5
1FFC6
330
1A
100
AcDbEntity
  8
OBJECT
100
AcDbBlockReference
  2
A$C6895fdcc
 10
53.47377964959742
 20
57.42871675466813
 30
0.0
  0
INSERT
  5
1FFC7
330
1A
100
AcDbEntity
  8
OBJECT
100
AcDbBlockReference
  2
A$C6895fdcc
 10
59.47377964959741
 20
55.92871675466813
 30
0.0
  0
INSERT
  5
1FFC8
330
1A
100
AcDbEntity
  8
OBJECT
100
AcDbBlockReference
  2
A$C6895fdcc
 10
53.47377964959742
 20
55.92871675466813
 30
0.0
  0
INSERT
  5
1FFC9
330
1A
100
AcDbEntity
  8
OBJECT
100
AcDbBlockReference
  2
A$C6895fdcc
 10
59.47377964959741
 20
54.42871675466813
 30
0.0
  0
INSERT
  5
1FFCA
330
1A
100
AcDbEntity
  8
OBJECT
100
AcDbBlockReference
  2
A$C6895fdcc
 10
53.47377964959742
 20
54.42871675466813
 30
0.0
  0
INSERT
  5
1FFCB
330
1A
100
AcDbEntity
  8
OBJECT
100
AcDbBlockReference
  2
A$C6895fdcc
 10
59.47377964959741
 20
52.92871675466813
 30
0.0
  0
INSERT
  5
1FFCC
330
1A
100
AcDbEntity
  8
OBJECT
100
AcDbBlockReference
  2
A$C6895fdcc
 10
53.47377964959742
 20
52.92871675466813
 30
0.0
  0
INSERT
  5
1FFCD
330
1A
100
AcDbEntity
  8
OBJECT
100
AcDbBlockReference
  2
A$C6895fdcc
 10
59.47377964959741
 20
51.42871675466813
 30
0.0
  0
INSERT
  5
1FFCE
330
1A
100
AcDbEntity
  8
OBJECT
100
AcDbBlockReference
  2
A$C6895fdcc
 10
53.47377964959742
 20
51.42871675466813
 30
0.0
  0
INSERT
  5
1FFCF
330
1A
100
AcDbEntity
  8
OBJECT
100
AcDbBlockReference
  2
A$C6895fdcc
 10
59.47377964959741
 20
49.92871675466813
 30
0.0
  0
INSERT
  5
1FFD0
330
1A
100
AcDbEntity
  8
OBJECT
100
AcDbBlockReference
  2
A$C6895fdcc
 10
53.47377964959742
 20
49.92871675466813
 30
0.0
  0
INSERT
  5
1FFD1
330
1A
100
AcDbEntity
  8
OBJECT
100
AcDbBlockReference
  2
A$C6895fdcc
 10
59.47377964959741
 20
48.42871675466813
 30
0.0
  0
INSERT
  5
1FFD2
330
1A
100
AcDbEntity
  8
OBJECT
100
AcDbBlockReference
  2
A$C6895fdcc
 10
53.47377964959742
 20
48.42871675466813
 30
0.0
  0
INSERT
  5
1FFD3
330
1A
100
AcDbEntity
  8
OBJECT
100
AcDbBlockReference
  2
A$C6895fdcc
 10
59.47377964959741
 20
46.92871675466813
 30
0.0
  0
INSERT
  5
1FFD4
330
1A
100
AcDbEntity
  8
OBJECT
100
AcDbBlockReference
  2
A$C6895fdcc
 10
53.47377964959742
 20
46.92871675466813
 30
0.0
  0
INSERT
  5
1FFD5
330
1A
100
AcDbEntity
  8
OBJECT
100
AcDbBlockReference
  2
A$C6895fdcc
 10
59.47377964959741
 20
45.42871675466813
 30
0.0
  0
INSERT
  5
1FFD6
330
1A
100
AcDbEntity
  8
OBJECT
100
AcDbBlockReference
  2
A$C6895fdcc
 10
53.47377964959742
 20
45.42871675466813
 30
0.0
  0
INSERT
  5
1FFD7
330
1A
100
AcDbEntity
  8
OBJECT
100
AcDbBlockReference
  2
A$C6895fdcc
 10
59.47377964959741
 20
43.92871675466813
 30
0.0
  0
INSERT
  5
1FFD8
330
1A
100
AcDbEntity
  8
OBJECT
100
AcDbBlockReference
  2
A$C6895fdcc
 10
53.47377964959742
 20
43.92871675466813
 30
0.0
  0
INSERT
  5
1FFD9
330
1A
100
AcDbEntity
  8
OBJECT
100
AcDbBlockReference
  2
A$C6895fdcc
 10
59.47377964959741
 20
42.42871675466813
 30
0.0
  0
INSERT
  5
1FFDA
330
1A
100
AcDbEntity
  8
OBJECT
100
AcDbBlockReference
  2
A$C6895fdcc
 10
53.47377964959742
 20
42.42871675466813
 30
0.0
  0
INSERT
  5
1FFDB
330
1A
100
AcDbEntity
  8
OBJECT
100
AcDbBlockReference
  2
A$C6895fdcc
 10
59.47377964959741
 20
40.92871675466812
 30
0.0
  0
INSERT
  5
1FFDC
330
1A
100
AcDbEntity
  8
OBJECT
100
AcDbBlockReference
  2
A$C6895fdcc
 10
53.47377964959742
 20
40.92871675466812
 30
0.0
  0
INSERT
  5
1FFDD
330
1A
100
AcDbEntity
  8
OBJECT
100
AcDbBlockReference
  2
A$C6895fdcc
 10
59.47377964959741
 20
39.42871675466813
 30
0.0
  0
INSERT
  5
1FFDE
330
1A
100
AcDbEntity
  8
OBJECT
100
AcDbBlockReference
  2
A$C6895fdcc
 10
53.47377964959742
 20
39.42871675466813
 30
0.0
  0
INSERT
  5
1FFDF
330
1A
100
AcDbEntity
  8
OBJECT
100
AcDbBlockReference
  2
A$C6895fdcc
 10
59.47377964959741
 20
37.92871675466813
 30
0.0
  0
INSERT
  5
1FFE0
330
1A
100
AcDbEntity
  8
OBJECT
100
AcDbBlockReference
  2
A$C6895fdcc
 10
53.47377964959742
 20
37.92871675466813
 30
0.0
  0
INSERT
  5
1FFE1
330
1A
100
AcDbEntity
  8
OBJECT
100
AcDbBlockReference
  2
A$C6895fdcc
 10
58.97377964959741
 20
37.17871675466813
 30
0.0
  0
INSERT
  5
1FFE2
330
1A
100
AcDbEntity
  8
OBJECT
100
AcDbBlockReference
  2
A$C6895fdcc
 10
53.97377964959741
 20
37.17871675466813
 30
0.0
  0
INSERT
  5
1FFE3
330
1A
100
AcDbEntity
  8
OBJECT
100
AcDbBlockReference
  2
A$C6895fdcc
 10
59.47377964959741
 20
36.42871675466813
 30
0.0
  0
INSERT
  5
1FFE4
330
1A
100
AcDbEntity
  8
OBJECT
100
AcDbBlockReference
  2
A$C6895fdcc
 10
53.47377964959742
 20
36.42871675466813
 30
0.0
  0
INSERT
  5
1FFE5
330
1A
100
AcDbEntity
  8
OBJECT
100
AcDbBlockReference
  2
A$C6895fdcc
 10
58.97377964959741
 20
35.67871675466813
 30
0.0
  0
INSERT
  5
1FFE6
330
1A
100
AcDbEntity
  8
OBJECT
100
AcDbBlockReference
  2
A$C6895fdcc
 10
53.97377964959741
 20
35.67871675466813
 30
0.0
  0
CIRCLE
  5
1FFE7
330
1A
100
AcDbEntity
  8
ELEVATION
100
AcDbCircle
 10
57.55188953108882
 20
90.05376225163855
 30
0.0
 40
0.0625000100000004
  0
CIRCLE
  5
1FFE8
330
1A
100
AcDbEntity
  8
ELEVATION
100
AcDbCircle
 10
55.36437398778071
 20
90.05376225163855
 30
0.0
 40
0.0625000100000004
  0
LINE
  5
1FFE9
330
1A
100
AcDbEntity
  8
0 OBJECT BORDER
100
AcDbLine
 10
55.0928218308909
 20
89.56876221282801
 30
0.0
 11
57.82342631952634
 21
89.56876221282801
 31
0.0
  0
ARC
  5
1FFEA
330
1A
100
AcDbEntity
  8
0 OBJECT BORDER
100
AcDbCircle
 10
55.31438382319902
 20
90.06426225248651
 30
0.0
 40
0.187500015
100
AcDbArc
 50
104.3102750721047
 51
169.6338360115885
  0
ARC
  5
1FFEB
330
1A
100
AcDbEntity
  8
0 OBJECT BORDER
100
AcDbCircle
 10
57.60186432733462
 20
90.06426225248651
 30
0.0
 40
0.187500015
100
AcDbArc
 50
10.36616398841153
 51
75.68972492789528
  0
LINE
  5
1FFEC
330
1A
100
AcDbEntity
  8
0 OBJECT BORDER
100
AcDbLine
 10
55.05493435590324
 20
89.68794044521564
 30
0.0
 11
55.12994420121685
 21
90.09800068004915
 31
0.0
  0
ARC
  5
1FFED
330
1A
100
AcDbEntity
  8
0 OBJECT BORDER
100
AcDbCircle
 10
55.23937397776899
 20
89.65420201765301
 30
0.0
 40
0.187500015
100
AcDbArc
 50
169.6338360115885
 51
200.2926116435396
  0
ARC
  5
1FFEE
330
1A
100
AcDbEntity
  8
0 OBJECT BORDER
100
AcDbCircle
 10
55.0928218308909
 20
89.60001221533094
 30
0.0
 40
0.0312500025
100
AcDbArc
 50
200.2926116435396
 51
270.0
  0
LINE
  5
1FFEF
330
1A
100
AcDbEntity
  8
0 OBJECT BORDER
100
AcDbLine
 10
57.86131379474682
 20
89.68794044521564
 30
0.0
 11
57.78630394931679
 21
90.09800068004915
 31
0.0
  0
ARC
  5
1FFF0
330
1A
100
AcDbEntity
  8
0 OBJECT BORDER
100
AcDbCircle
 10
57.67687417288107
 20
89.65420201765301
 30
0.0
 40
0.187500015
100
AcDbArc
 50
339.7073883564605
 51
10.36616398841153
  0
ARC
  5
1FFF1
330
1A
100
AcDbEntity
  8
0 OBJECT BORDER
100
AcDbCircle
 10
57.82342631952634
 20
89.60001221533094
 30
0.0
 40
0.0312500025
100
AcDbArc
 50
270.0
 51
339.7073883564605
  0
LINE
  5
1FFF2
330
1A
100
AcDbEntity
  8
0 OBJECT BORDER
100
AcDbLine
 10
56.36543427315337
 20
90.52587657207551
 30
0.0
 11
55.26803892199677
 21
90.24594440836153
 31
0.0
  0
LINE
  5
1FFF3
330
1A
100
AcDbEntity
  8
0 OBJECT BORDER
100
AcDbLine
 10
56.55081387749669
 20
90.52587657207551
 30
0.0
 11
57.64820922853687
 21
90.24594440836153
 31
0.0
  0
ARC
  5
1FFF4
330
1A
100
AcDbEntity
  8
0 OBJECT BORDER
100
AcDbCircle
 10
56.45812407520861
 20
90.16251226032546
 30
0.0
 40
0.37500003
100
AcDbArc
 50
75.68972492789528
 51
104.3102750721047
  0
LINE
  5
1FFF5
330
1A
100
AcDbEntity
  8
ELEVATION
100
AcDbLine
 10
64.20811671869159
 20
33.99121881661449
 30
0.0
 11
64.70808618621231
 21
33.99121881661449
 31
0.0
  0
LINE
  5
1FFF6
330
1A
100
AcDbEntity
  8
ELEVATION
100
AcDbLine
 10
78.20808578388096
 20
33.99121881661449
 30
0.0
 11
78.70812391595245
 21
33.99121881661449
 31
0.0
  0
LINE
  5
1FFF7
330
1A
100
AcDbEntity
  8
ELEVATION
100
AcDbLine
 10
78.20808578388096
 20
90.61621677143012
 30
0.0
 11
78.70812391595245
 21
90.61621677143012
 31
0.0
  0
LINE
  5
1FFF8
330
1A
100
AcDbEntity
  8
ELEVATION
100
AcDbLine
 10
64.20811671869159
 20
90.61621677143012
 30
0.0
 11
64.70808618621231
 21
90.61621677143012
 31
0.0
  0
LINE
  5
1FFF9
330
1A
100
AcDbEntity
  8
ELEVATION
100
AcDbLine
 10
65.03627983958722
 20
33.4287188333783
 30
0.0
 11
77.91127945960761
 21
33.4287188333783
 31
0.0
  0
LINE
  5
1FFFA
330
1A
100
AcDbEntity
  8
ELEVATION
100
AcDbLine
 10
65.03627983958722
 20
91.24121675466813
 30
0.0
 11
77.91127945960761
 21
91.24121675466813
 31
0.0
  0
LINE
  5
1FFFB
330
1A
100
AcDbEntity
  8
ELEVATION
100
AcDbLine
 10
65.03627983958722
 20
33.4287188333783
 30
0.0
 11
65.03627983958722
 21
91.24121675466813
 31
0.0
  0
LINE
  5
1FFFC
330
1A
100
AcDbEntity
  8
ELEVATION
100
AcDbLine
 10
77.91127945960761
 20
33.4287188333783
 30
0.0
 11
77.91127945960761
 21
91.24121675466813
 31
0.0
  0
ARC
  5
1FFFD
330
1A
100
AcDbEntity
  8
ELEVATION
100
AcDbCircle
 10
64.70815485076309
 20
33.74121119467236
 30
0.0
 40
0.25
100
AcDbArc
 50
0.0
 51
89.99998201364064
  0
ARC
  5
1FFFE
330
1A
100
AcDbEntity
  8
ELEVATION
100
AcDbCircle
 10
64.20818538324238
 20
33.74121119467236
 30
0.0
 40
0.25
100
AcDbArc
 50
89.99998201364064
 51
180.0000186693157
  0
ARC
  5
1FFFF
330
1A
100
AcDbEntity
  8
ELEVATION
100
AcDbCircle
 10
78.70814680413605
 20
33.74121119467236
 30
0.0
 40
0.25
100
AcDbArc
 50
0.0
 51
89.99998201364064
  0
ARC
  5
20000
330
1A
100
AcDbEntity
  8
ELEVATION
100
AcDbCircle
 10
78.20815444843174
 20
33.74121119467236
 30
0.0
 40
0.25
100
AcDbArc
 50
89.99998201364064
 51
180.0000186693157
  0
ARC
  5
20001
330
1A
100
AcDbEntity
  8
ELEVATION
100
AcDbCircle
 10
78.70814680413605
 20
90.86624728155767
 30
0.0
 40
0.25
100
AcDbArc
 50
270.0000179859425
 51
0.0
  0
ARC
  5
20002
330
1A
100
AcDbEntity
  8
ELEVATION
100
AcDbCircle
 10
78.20815444843174
 20
90.86624728155767
 30
0.0
 40
0.25
100
AcDbArc
 50
180.0000223118192
 51
270.0000589670775
  0
ARC
  5
20003
330
1A
100
AcDbEntity
  8
ELEVATION
100
AcDbCircle
 10
64.70815485076309
 20
90.86624728155767
 30
0.0
 40
0.25
100
AcDbArc
 50
270.0000179859425
 51
0.0
  0
ARC
  5
20004
330
1A
100
AcDbEntity
  8
ELEVATION
100
AcDbCircle
 10
64.20818538324238
 20
90.86624728155767
 30
0.0
 40
0.25
100
AcDbArc
 50
180.0000223118192
 51
270.0000589670775
  0
LWPOLYLINE
  5
20005
330
1A
100
AcDbEntity
  8
ELEVATION
100
AcDbPolyline
 90
        4
 70
     1
 43
0.0
 10
63.95808620856406
 20
32.30371886690591
 10
78.95808620856406
 20
32.30371886690591
 10
78.95808620856406
 20
92.30371886690591
 10
63.95808620856406
 20
92.30371886690591
  0
LWPOLYLINE
  5
20006
330
1A
100
AcDbEntity
  8
ELEVATION
100
AcDbPolyline
 90
        4
 70
     1
 43
0.0
 10
64.95808620856405
 20
33.30371886690591
 10
77.95808620856405
 20
33.30371886690591
 10
77.95808620856405
 20
91.30371886690591
 10
64.95808620856405
 20
91.30371886690591
  0
INSERT
  5
20007
330
1A
100
AcDbEntity
  8
OBJECT
100
AcDbBlockReference
  2
A$C0da8e90c
 10
68.13002983958722
 20
63.25709609966179
 30
0.0
  0
CIRCLE
  5
20008
330
1A
100
AcDbEntity
  8
ELEVATION
100
AcDbCircle
 10
72.55188953108882
 20
90.05376225163855
 30
0.0
 40
0.0625000100000004
  0
CIRCLE
  5
20009
330
1A
100
AcDbEntity
  8
ELEVATION
100
AcDbCircle
 10
70.36437398778071
 20
90.05376225163855
 30
0.0
 40
0.0625000100000004
  0
LINE
  5
2000A
330
1A
100
AcDbEntity
  8
0 OBJECT BORDER
100
AcDbLine
 10
70.0928218308909
 20
89.56876221282801
 30
0.0
 11
72.82342631952634
 21
89.56876221282801
 31
0.0
  0
ARC
  5
2000B
330
1A
100
AcDbEntity
  8
0 OBJECT BORDER
100
AcDbCircle
 10
70.31438382319902
 20
90.06426225248651
 30
0.0
 40
0.187500015
100
AcDbArc
 50
104.3102750721047
 51
169.6338360115885
  0
ARC
  5
2000C
330
1A
100
AcDbEntity
  8
0 OBJECT BORDER
100
AcDbCircle
 10
72.60186432733462
 20
90.06426225248651
 30
0.0
 40
0.187500015
100
AcDbArc
 50
10.36616398841153
 51
75.68972492789528
  0
LINE
  5
2000D
330
1A
100
AcDbEntity
  8
0 OBJECT BORDER
100
AcDbLine
 10
70.05493435590324
 20
89.68794044521564
 30
0.0
 11
70.12994420121685
 21
90.09800068004915
 31
0.0
  0
ARC
  5
2000E
330
1A
100
AcDbEntity
  8
0 OBJECT BORDER
100
AcDbCircle
 10
70.23937397776899
 20
89.65420201765301
 30
0.0
 40
0.187500015
100
AcDbArc
 50
169.6338360115885
 51
200.2926116435396
  0
ARC
  5
2000F
330
1A
100
AcDbEntity
  8
0 OBJECT BORDER
100
AcDbCircle
 10
70.0928218308909
 20
89.60001221533094
 30
0.0
 40
0.0312500025
100
AcDbArc
 50
200.2926116435396
 51
270.0
  0
LINE
  5
20010
330
1A
100
AcDbEntity
  8
0 OBJECT BORDER
100
AcDbLine
 10
72.86131379474682
 20
89.68794044521564
 30
0.0
 11
72.78630394931679
 21
90.09800068004915
 31
0.0
  0
ARC
  5
20011
330
1A
100
AcDbEntity
  8
0 OBJECT BORDER
100
AcDbCircle
 10
72.67687417288107
 20
89.65420201765301
 30
0.0
 40
0.187500015
100
AcDbArc
 50
339.7073883564605
 51
10.36616398841153
  0
ARC
  5
20012
330
1A
100
AcDbEntity
  8
0 OBJECT BORDER
100
AcDbCircle
 10
72.82342631952634
 20
89.60001221533094
 30
0.0
 40
0.0312500025
100
AcDbArc
 50
270.0
 51
339.7073883564605
  0
LINE
  5
20013
330
1A
100
AcDbEntity
  8
0 OBJECT BORDER
100
AcDbLine
 10
71.36543427315337
 20
90.52587657207551
 30
0.0
 11
70.26803892199677
 21
90.24594440836153
 31
0.0
  0
LINE
  5
20014
330
1A
100
AcDbEntity
  8
0 OBJECT BORDER
100
AcDbLine
 10
71.55081387749669
 20
90.52587657207551
 30
0.0
 11
72.64820922853687
 21
90.24594440836153
 31
0.0
  0
ARC
  5
20015
330
1A
100
AcDbEntity
  8
0 OBJECT BORDER
100
AcDbCircle
 10
71.45812407520861
 20
90.16251226032546
 30
0.0
 40
0.37500003
100
AcDbArc
 50
75.68972492789528
 51
104.3102750721047
  0
LINE
  5
20016
330
1A
100
AcDbEntity
  8
ELEVATION
100
AcDbLine
 10
79.20811671869159
 20
33.99121881661449
 30
0.0
 11
79.70808618621231
 21
33.99121881661449
 31
0.0
  0
LINE
  5
20017
330
1A
100
AcDbEntity
  8
ELEVATION
100
AcDbLine
 10
93.20808578388096
 20
33.99121881661449
 30
0.0
 11
93.70812391595245
 21
33.99121881661449
 31
0.0
  0
LINE
  5
20018
330
1A
100
AcDbEntity
  8
ELEVATION
100
AcDbLine
 10
93.20808578388096
 20
90.61621677143012
 30
0.0
 11
93.70812391595245
 21
90.61621677143012
 31
0.0
  0
LINE
  5
20019
330
1A
100
AcDbEntity
  8
ELEVATION
100
AcDbLine
 10
79.20811671869159
 20
90.61621677143012
 30
0.0
 11
79.70808618621231
 21
90.61621677143012
 31
0.0
  0
ARC
  5
2001A
330
1A
100
AcDbEntity
  8
ELEVATION
100
AcDbCircle
 10
79.70815485076309
 20
33.74121119467236
 30
0.0
 40
0.25
100
AcDbArc
 50
0.0
 51
89.99998201364064
  0
ARC
  5
2001B
330
1A
100
AcDbEntity
  8
ELEVATION
100
AcDbCircle
 10
79.20818538324238
 20
33.74121119467236
 30
0.0
 40
0.25
100
AcDbArc
 50
89.99998201364064
 51
180.0000186693157
  0
ARC
  5
2001C
330
1A
100
AcDbEntity
  8
ELEVATION
100
AcDbCircle
 10
93.70814680413605
 20
33.74121119467236
 30
0.0
 40
0.25
100
AcDbArc
 50
0.0
 51
89.99998201364064
  0
ARC
  5
2001D
330
1A
100
AcDbEntity
  8
ELEVATION
100
AcDbCircle
 10
93.20815444843175
 20
33.74121119467236
 30
0.0
 40
0.25
100
AcDbArc
 50
89.99998201364064
 51
180.0000186693157
  0
ARC
  5
2001E
330
1A
100
AcDbEntity
  8
ELEVATION
100
AcDbCircle
 10
93.70814680413605
 20
90.86624728155767
 30
0.0
 40
0.25
100
AcDbArc
 50
270.0000179859425
 51
0.0
  0
ARC
  5
2001F
330
1A
100
AcDbEntity
  8
ELEVATION
100
AcDbCircle
 10
93.20815444843175
 20
90.86624728155767
 30
0.0
 40
0.25
100
AcDbArc
 50
180.0000223118192
 51
270.0000589670775
  0
ARC
  5
20020
330
1A
100
AcDbEntity
  8
ELEVATION
100
AcDbCircle
 10
79.70815485076309
 20
90.86624728155767
 30
0.0
 40
0.25
100
AcDbArc
 50
270.0000179859425
 51
0.0
  0
ARC
  5
20021
330
1A
100
AcDbEntity
  8
ELEVATION
100
AcDbCircle
 10
79.20818538324238
 20
90.86624728155767
 30
0.0
 40
0.25
100
AcDbArc
 50
180.0000223118192
 51
270.0000589670775
  0
LWPOLYLINE
  5
20022
330
1A
100
AcDbEntity
  8
ELEVATION
100
AcDbPolyline
 90
        4
 70
     1
 43
0.0
 10
78.95808620856406
 20
32.30371886690591
 10
93.95808620856405
 20
32.30371886690591
 10
93.95808620856405
 20
92.30371886690591
 10
78.95808620856406
 20
92.30371886690591
  0
LWPOLYLINE
  5
20023
330
1A
100
AcDbEntity
  8
ELEVATION
100
AcDbPolyline
 90
        4
 70
     1
 43
0.0
 10
79.95808620856405
 20
33.30371886690591
 10
92.95808620856405
 20
33.30371886690591
 10
92.95808620856405
 20
91.30371886690591
 10
79.95808620856405
 20
91.30371886690591
  0
LINE
  5
20024
330
1A
100
AcDbEntity
  8
top
100
AcDbLine
 10
92.95808620856405
 20
80.30371798692248
 30
0.0
 11
79.95808620856405
 21
80.30371798692248
 31
0.0
  0
LINE
  5
20025
330
1A
100
AcDbEntity
  8
top
100
AcDbLine
 10
92.95808620856405
 20
79.3053184368855
 30
0.0
 11
79.95808620856405
 21
79.3053184368855
 31
0.0
  0
LINE
  5
20026
330
1A
100
AcDbEntity
  8
ELEV HIDDEN
100
AcDbLine
 10
79.15272745014954
 20
78.50159989394342
 30
0.0
 11
78.9581778954016
 21
78.50159989394342
 31
0.0
  0
LINE
  5
20027
330
1A
100
AcDbEntity
  8
ELEV HIDDEN
100
AcDbLine
 10
79.15268167378235
 20
76.83543173070757
 30
0.0
 11
79.15268167378235
 21
78.50155411757623
 31
0.0
  0
LINE
  5
20028
330
1A
100
AcDbEntity
  8
ELEV HIDDEN
100
AcDbLine
 10
79.28506692374504
 20
76.30840843098304
 30
0.0
 11
79.28506692374504
 21
76.68654410086856
 31
0.0
  0
LINE
  5
20029
330
1A
100
AcDbEntity
  8
ELEVATION
100
AcDbLine
 10
81.11784885683301
 20
76.73088964246563
 30
0.0
 11
80.89319642194459
 21
76.76251600753494
 31
0.0
  0
LINE
  5
2002A
330
1A
100
AcDbEntity
  8
ELEVATION
100
AcDbLine
 10
80.85614153341884
 20
76.50004319909021
 30
0.0
 11
80.78059733530244
 21
76.14919744346662
 31
0.0
  0
LINE
  5
2002B
330
1A
100
AcDbEntity
  8
ELEVATION
100
AcDbLine
 10
81.08083598840313
 20
76.4684368773087
 30
0.0
 11
81.00263300207007
 21
76.1028988434773
 31
0.0
  0
ARC
  5
2002C
330
1A
100
AcDbEntity
  8
ELEV HIDDEN
100
AcDbCircle
 10
79.30388101009885
 20
76.83669058076884
 30
0.0
 40
0.1512499853596096
100
AcDbArc
 50
179.5523425716557
 51
262.8209545920916
  0
ARC
  5
2002D
330
1A
100
AcDbEntity
  8
ELEV HIDDEN
100
AcDbCircle
 10
80.04124671077443
 20
76.30847709553382
 30
0.0
 40
0.9831249718926855
100
AcDbArc
 50
180.0000478113242
 51
265.1494548733024
  0
ARC
  5
2002E
330
1A
100
AcDbEntity
  8
ELEV HIDDEN
100
AcDbCircle
 10
80.04124671077443
 20
76.30847709553382
 30
0.0
 40
0.7562499715015301
100
AcDbArc
 50
179.9999658490541
 51
263.6891057871726
  0
ARC
  5
2002F
330
1A
100
AcDbEntity
  8
ELEVATION
100
AcDbCircle
 10
81.02209690127347
 20
76.6104637808694
 30
0.0
 40
0.1535922131361898
100
AcDbArc
 50
292.488861612087
 51
51.49507242701283
  0
ARC
  5
20030
330
1A
100
AcDbEntity
  8
ELEVATION
100
AcDbCircle
 10
80.95187595609605
 20
76.62030569952003
 30
0.0
 40
0.1535922131361898
100
AcDbArc
 50
112.5049995271877
 51
231.5111727765856
  0
ARC
  5
20031
330
1A
100
AcDbEntity
  8
ELEVATION
100
AcDbCircle
 10
80.04124671077443
 20
76.30847709553382
 30
0.0
 40
0.7562499715015301
100
AcDbArc
 50
263.6891057871726
 51
347.8381018708311
  0
ARC
  5
20032
330
1A
100
AcDbEntity
  8
ELEVATION
100
AcDbCircle
 10
80.04124671077443
 20
76.30847709553382
 30
0.0
 40
0.9831249718926855
100
AcDbArc
 50
265.1494548733024
 51
347.9298859531442
  0
LINE
  5
20033
330
1A
100
AcDbEntity
  8
ELEV HIDDEN
100
AcDbLine
 10
93.76344496697857
 20
78.50159989394342
 30
0.0
 11
93.95799452172651
 21
78.50159989394342
 31
0.0
  0
LINE
  5
20034
330
1A
100
AcDbEntity
  8
ELEV HIDDEN
100
AcDbLine
 10
93.76349074334575
 20
76.83543173070757
 30
0.0
 11
93.76349074334575
 21
78.50155411757623
 31
0.0
  0
LINE
  5
20035
330
1A
100
AcDbEntity
  8
ELEV HIDDEN
100
AcDbLine
 10
93.63110549338307
 20
76.30840843098304
 30
0.0
 11
93.63110549338307
 21
76.68654410086856
 31
0.0
  0
LINE
  5
20036
330
1A
100
AcDbEntity
  8
ELEVATION
100
AcDbLine
 10
91.7983235602951
 20
76.73088964246563
 30
0.0
 11
92.02297599518351
 21
76.76251600753494
 31
0.0
  0
LINE
  5
20037
330
1A
100
AcDbEntity
  8
ELEVATION
100
AcDbLine
 10
92.06003088370925
 20
76.50004319909021
 30
0.0
 11
92.13557508182566
 21
76.14919744346662
 31
0.0
  0
LINE
  5
20038
330
1A
100
AcDbEntity
  8
ELEVATION
100
AcDbLine
 10
91.83533642872498
 20
76.4684368773087
 30
0.0
 11
91.91353941505804
 21
76.1028988434773
 31
0.0
  0
ARC
  5
20039
330
1A
100
AcDbEntity
  8
ELEV HIDDEN
100
AcDbCircle
 10
93.61229140702926
 20
76.83669058076884
 30
0.0
 40
0.1512499853596096
100
AcDbArc
 50
277.1790454074948
 51
0.4476574283442726
  0
ARC
  5
2003A
330
1A
100
AcDbEntity
  8
ELEV HIDDEN
100
AcDbCircle
 10
92.87492570635368
 20
76.30847709553382
 30
0.0
 40
0.9831249718926855
100
AcDbArc
 50
274.8505451271129
 51
359.9999521886758
  0
ARC
  5
2003B
330
1A
100
AcDbEntity
  8
ELEV HIDDEN
100
AcDbCircle
 10
92.87492570635368
 20
76.30847709553382
 30
0.0
 40
0.7562499715015301
100
AcDbArc
 50
276.3108942132417
 51
0.0000341509458501
  0
ARC
  5
2003C
330
1A
100
AcDbEntity
  8
ELEVATION
100
AcDbCircle
 10
91.89407551585464
 20
76.6104637808694
 30
0.0
 40
0.1535922131361898
100
AcDbArc
 50
128.5049275729871
 51
247.5111383879129
  0
ARC
  5
2003D
330
1A
100
AcDbEntity
  8
ELEVATION
100
AcDbCircle
 10
91.96429646103206
 20
76.62030569952003
 30
0.0
 40
0.1535922131361898
100
AcDbArc
 50
308.4888272234145
 51
67.49500047238723
  0
ARC
  5
2003E
330
1A
100
AcDbEntity
  8
ELEVATION
100
AcDbCircle
 10
92.87492570635368
 20
76.30847709553382
 30
0.0
 40
0.7562499715015301
100
AcDbArc
 50
192.161898129067
 51
276.3108942132417
  0
ARC
  5
2003F
330
1A
100
AcDbEntity
  8
ELEVATION
100
AcDbCircle
 10
92.87492570635368
 20
76.30847709553382
 30
0.0
 40
0.9831249718926855
100
AcDbArc
 50
192.0701140469577
 51
274.8505451271129
  0
ARC
  5
20040
330
1A
100
AcDbEntity
  8
ELEVATION
100
AcDbCircle
 10
88.35171713356976
 20
77.83022082459684
 30
0.0
 40
0.1535922131361898
100
AcDbArc
 50
112.5049635552304
 51
231.5111197291055
  0
ARC
  5
20041
330
1A
100
AcDbEntity
  8
ELEVATION
100
AcDbCircle
 10
88.42193807874719
 20
77.82042468230975
 30
0.0
 40
0.1535922131361898
100
AcDbArc
 50
292.4888802811068
 51
51.4950706056664
  0
ARC
  5
20042
330
1A
100
AcDbEntity
  8
ELEVATION
100
AcDbCircle
 10
87.4412252173497
 20
77.5183922206088
 30
0.0
 40
0.7562499715015301
100
AcDbArc
 50
179.9999640278024
 51
347.8380385779381
  0
ARC
  5
20043
330
1A
100
AcDbEntity
  8
ELEVATION
100
AcDbCircle
 10
87.4412252173497
 20
77.5183922206088
 30
0.0
 40
0.9831249718926855
100
AcDbArc
 50
180.0000359720934
 51
347.9298741138383
  0
ARC
  5
20044
330
1A
100
AcDbEntity
  8
ELEVATION
100
AcDbCircle
 10
84.56436373082397
 20
77.83022082459684
 30
0.0
 40
0.1535922131361898
100
AcDbArc
 50
308.4888340534527
 51
67.49500047238723
  0
ARC
  5
20045
330
1A
100
AcDbEntity
  8
ELEVATION
100
AcDbCircle
 10
84.49414278564654
 20
77.82042468230975
 30
0.0
 40
0.1535922131361898
100
AcDbArc
 50
128.5049275729871
 51
247.5111383879129
  0
ARC
  5
20046
330
1A
100
AcDbEntity
  8
ELEVATION
100
AcDbCircle
 10
85.47494719977839
 20
77.5183922206088
 30
0.0
 40
0.7562499715015301
100
AcDbArc
 50
192.1619254498943
 51
0.0000359720933958
  0
ARC
  5
20047
330
1A
100
AcDbEntity
  8
ELEVATION
100
AcDbCircle
 10
85.47494719977839
 20
77.5183922206088
 30
0.0
 40
0.9831249718926855
100
AcDbArc
 50
192.0701277073997
 51
359.9999640278024
  0
ARC
  5
20048
330
1A
100
AcDbEntity
  8
ELEVATION
100
AcDbCircle
 10
86.21231290046125
 20
78.04665148220919
 30
0.0
 40
0.1512499853596096
100
AcDbArc
 50
277.1790385775369
 51
0.4476591359436744
  0
ARC
  5
20049
330
1A
100
AcDbEntity
  8
ELEVATION
100
AcDbCircle
 10
86.70390529303404
 20
78.04665148220919
 30
0.0
 40
0.1512499853596096
100
AcDbArc
 50
179.5523407503488
 51
262.8209800921308
  0
ARC
  5
2004A
330
1A
100
AcDbEntity
  8
ELEV HIDDEN
100
AcDbCircle
 10
86.59042568215955
 20
79.91927105530703
 30
0.0
 40
0.1323437539534642
100
AcDbArc
 50
89.99998201364064
 51
179.9999640278024
  0
ARC
  5
2004B
330
1A
100
AcDbEntity
  8
ELEV HIDDEN
100
AcDbCircle
 10
86.32574673496856
 20
79.91927105530703
 30
0.0
 40
0.1323437539534642
100
AcDbArc
 50
0.0
 51
89.99998201364064
  0
ARC
  5
2004C
330
1A
100
AcDbEntity
  8
ELEV HIDDEN
100
AcDbCircle
 10
86.32574673496856
 20
79.91927105530703
 30
0.0
 40
0.0378124963399024
100
AcDbArc
 50
0.0
 51
89.99998201364064
  0
ARC
  5
2004D
330
1A
100
AcDbEntity
  8
ELEV HIDDEN
100
AcDbCircle
 10
86.59042568215955
 20
79.91927105530703
 30
0.0
 40
0.0378124963399024
100
AcDbArc
 50
89.99998201364064
 51
179.9999640278024
  0
ARC
  5
2004E
330
1A
100
AcDbEntity
  8
ELEVATION
100
AcDbCircle
 10
86.37848110839696
 20
76.90965810789021
 30
0.0
 40
0.1512499853596096
100
AcDbArc
 50
192.9718766023021
 51
257.0276855821467
  0
ARC
  5
2004F
330
1A
100
AcDbEntity
  8
ELEVATION
100
AcDbCircle
 10
86.5374624269025
 20
76.90965810789021
 30
0.0
 40
0.1512499853596096
100
AcDbArc
 50
282.9723503898188
 51
347.0281662000227
  0
ARC
  5
20050
330
1A
100
AcDbEntity
  8
ELEVATION
100
AcDbCircle
 10
86.46664638897346
 20
76.6154076283783
 30
0.0
 40
0.1803770309574297
100
AcDbArc
 50
305.5025524050591
 51
54.49744759494091
  0
ARC
  5
20051
330
1A
100
AcDbEntity
  8
ELEVATION
100
AcDbCircle
 10
86.4492513699588
 20
76.6154076283783
 30
0.0
 40
0.1803770309574297
100
AcDbArc
 50
125.5025403382986
 51
234.4974423588557
  0
ARC
  5
20052
330
1A
100
AcDbEntity
  8
ELEVATION
100
AcDbCircle
 10
86.45804043219687
 20
75.43886347398984
 30
0.0
 40
0.1134375001955777
100
AcDbArc
 50
180.0000359720934
 51
0.0
  0
LINE
  5
20053
330
1A
100
AcDbEntity
  8
ELEV HIDDEN
100
AcDbLine
 10
86.55266018035764
 20
79.36501081791902
 30
0.0
 11
86.55266018035764
 21
79.91927105530703
 31
0.0
  0
LINE
  5
20054
330
1A
100
AcDbEntity
  8
ELEV HIDDEN
100
AcDbLine
 10
86.45804043219687
 20
79.38322981151578
 30
0.0
 11
86.45804043219687
 21
79.91927105530703
 31
0.0
  0
LINE
  5
20055
330
1A
100
AcDbEntity
  8
ELEV HIDDEN
100
AcDbLine
 10
86.36355801313767
 20
79.36491926518647
 30
0.0
 11
86.36355801313767
 21
79.91927105530703
 31
0.0
  0
LINE
  5
20056
330
1A
100
AcDbEntity
  8
ELEVATION
100
AcDbLine
 10
86.68490810121875
 20
78.04747545679311
 30
0.0
 11
86.68490810121875
 21
78.50157700575983
 31
0.0
  0
LINE
  5
20057
330
1A
100
AcDbEntity
  8
ELEVATION
100
AcDbLine
 10
86.23117276317499
 20
78.02522814300392
 30
0.0
 11
86.23117276317499
 21
78.50157700575983
 31
0.0
  0
LINE
  5
20058
330
1A
100
AcDbEntity
  8
ELEVATION
100
AcDbLine
 10
86.23108121044788
 20
78.50166855849238
 30
0.0
 11
86.36351223677047
 21
78.50166855849238
 31
0.0
  0
LINE
  5
20059
330
1A
100
AcDbEntity
  8
ELEVATION
100
AcDbLine
 10
88.40235200970345
 20
77.31295909137407
 30
0.0
 11
88.48055890710384
 21
77.67854311421252
 31
0.0
  0
LINE
  5
2005A
330
1A
100
AcDbEntity
  8
ELEVATION
100
AcDbLine
 10
88.18160301275202
 20
77.35880769001415
 30
0.0
 11
88.25715399585897
 21
77.70969879540462
 31
0.0
  0
LINE
  5
2005B
330
1A
100
AcDbEntity
  8
ELEVATION
100
AcDbLine
 10
88.29276891391783
 20
77.97248998200666
 30
0.0
 11
88.51752071949887
 21
77.94091282503905
 31
0.0
  0
LINE
  5
2005C
330
1A
100
AcDbEntity
  8
ELEVATION
100
AcDbLine
 10
86.68490810121875
 20
77.5183922206088
 30
0.0
 11
86.68490810121875
 21
77.8965050023071
 31
0.0
  0
LINE
  5
2005D
330
1A
100
AcDbEntity
  8
ELEVATION
100
AcDbLine
 10
84.43521757666166
 20
77.67840669032193
 30
0.0
 11
84.51341489810147
 21
77.31286743104647
 31
0.0
  0
LINE
  5
2005E
330
1A
100
AcDbEntity
  8
ELEVATION
100
AcDbLine
 10
84.66063861224393
 20
77.71007965154058
 30
0.0
 11
84.73631298697
 21
77.35907464723823
 31
0.0
  0
LINE
  5
2005F
330
1A
100
AcDbEntity
  8
ELEVATION
100
AcDbLine
 10
84.39853614724416
 20
77.94046876004722
 30
0.0
 11
84.62319239544013
 21
77.97206796882346
 31
0.0
  0
LINE
  5
20060
330
1A
100
AcDbEntity
  8
ELEVATION
100
AcDbLine
 10
86.23117276317499
 20
77.5183922206088
 30
0.0
 11
86.23117276317499
 21
77.8965050023071
 31
0.0
  0
LINE
  5
20061
330
1A
100
AcDbEntity
  8
ELEV HIDDEN
100
AcDbLine
 10
86.59042568215955
 20
80.05165630526608
 30
0.0
 11
87.28993432830611
 21
80.05165630526608
 31
0.0
  0
LINE
  5
20062
330
1A
100
AcDbEntity
  8
ELEV HIDDEN
100
AcDbLine
 10
86.59042568215955
 20
79.95708233347613
 30
0.0
 11
87.28993432830611
 21
79.95708233347613
 31
0.0
  0
LINE
  5
20063
330
1A
100
AcDbEntity
  8
ELEVATION
100
AcDbLine
 10
86.36355801313767
 20
78.04536974396615
 30
0.0
 11
86.36355801313767
 21
79.21788557816217
 31
0.0
  0
LINE
  5
20064
330
1A
100
AcDbEntity
  8
ELEVATION
100
AcDbLine
 10
86.55266018035764
 20
78.04536974396615
 30
0.0
 11
86.55266018035764
 21
79.21797713089472
 31
0.0
  0
LINE
  5
20065
330
1A
100
AcDbEntity
  8
ELEVATION
100
AcDbLine
 10
86.45804043219687
 20
77.5183922206088
 30
0.0
 11
86.45804043219687
 21
79.23619612449147
 31
0.0
  0
LINE
  5
20066
330
1A
100
AcDbEntity
  8
ELEV HIDDEN
100
AcDbLine
 10
87.2899801046733
 20
79.95708233347613
 30
0.0
 11
87.2899801046733
 21
80.05156475253533
 31
0.0
  0
LINE
  5
20067
330
1A
100
AcDbEntity
  8
ELEV HIDDEN
100
AcDbLine
 10
85.62623808882198
 20
79.95708233347613
 30
0.0
 11
85.62623808882198
 21
80.05156475253533
 31
0.0
  0
LINE
  5
20068
330
1A
100
AcDbEntity
  8
ELEV HIDDEN
100
AcDbLine
 10
85.62619231245481
 20
79.95708233347613
 30
0.0
 11
86.32574673496856
 21
79.95708233347613
 31
0.0
  0
LINE
  5
20069
330
1A
100
AcDbEntity
  8
ELEV HIDDEN
100
AcDbLine
 10
85.62619231245481
 20
80.05165630526608
 30
0.0
 11
86.32574673496856
 21
80.05165630526608
 31
0.0
  0
LINE
  5
2006A
330
1A
100
AcDbEntity
  8
ELEVATION
100
AcDbLine
 10
86.57142849033698
 20
75.43877192125728
 30
0.0
 11
86.57142849033698
 21
76.4685570468173
 31
0.0
  0
LINE
  5
2006B
330
1A
100
AcDbEntity
  8
ELEVATION
100
AcDbLine
 10
86.34456082132237
 20
75.43877192125728
 30
0.0
 11
86.34456082132237
 21
76.4685570468173
 31
0.0
  0
LINE
  5
2006C
330
1A
100
AcDbEntity
  8
ELEVATION
100
AcDbLine
 10
86.55261440399044
 20
78.50166855849238
 30
0.0
 11
86.68486232485156
 21
78.50166855849238
 31
0.0
  0
LINE
  5
2006D
330
1A
100
AcDbEntity
  8
door
100
AcDbLine
 10
130.9567462880877
 20
33.42871886690591
 30
0.0
 11
131.6982462880915
 21
33.42871886690591
 31
0.0
  0
LINE
  5
2006E
330
1A
100
AcDbEntity
  8
door
100
AcDbLine
 10
130.9567462880877
 20
33.49971886690582
 30
0.0
 11
131.6982462880915
 21
33.49971886690582
 31
0.0
  0
ARC
  5
2006F
330
1A
100
AcDbEntity
  8
door
100
AcDbCircle
 10
130.9567462880877
 20
33.49971886690582
 30
0.0
 40
0.071
100
AcDbArc
 50
180.0
 51
270.0
  0
LINE
  5
20070
330
1A
100
AcDbEntity
  8
door
100
AcDbLine
 10
131.7294962880769
 20
91.24121890043353
 30
0.0
 11
131.7294962880769
 21
91.17021890043361
 31
0.0
  0
LINE
  5
20071
330
1A
100
AcDbEntity
  8
door
100
AcDbLine
 10
130.9567462880804
 20
91.24121890043353
 30
0.0
 11
131.7294962880769
 21
91.24121890043353
 31
0.0
  0
ARC
  5
20072
330
1A
100
AcDbEntity
  8
door
100
AcDbCircle
 10
130.9567462880804
 20
91.17021890043361
 30
0.0
 40
0.071
100
AcDbArc
 50
90.0
 51
180.0
  0
LINE
  5
20073
330
1A
100
AcDbEntity
  8
door
100
AcDbLine
 10
130.9567462880804
 20
91.17021890043361
 30
0.0
 11
131.7294962880769
 21
91.17021890043361
 31
0.0
  0
LINE
  5
20074
330
1A
100
AcDbEntity
  8
door
100
AcDbLine
 10
130.8857462880769
 20
91.17021890043361
 30
0.0
 11
130.8857462880914
 21
33.49971886690582
 31
0.0
  0
LINE
  5
20075
330
1A
100
AcDbEntity
  8
door
100
AcDbLine
 10
130.9567462880804
 20
91.17021890043361
 30
0.0
 11
130.9567462880877
 21
33.49971886690582
 31
0.0
  0
LINE
  5
20076
330
1A
100
AcDbEntity
  8
frame
100
AcDbLine
 10
130.9567462880877
 20
32.30371886690591
 30
0.0
 11
131.6044962880914
 21
32.30371886690591
 31
0.0
  0
ARC
  5
20077
330
1A
100
AcDbEntity
  8
frame
100
AcDbCircle
 10
130.9567462880877
 20
32.37471886690582
 30
0.0
 40
0.071
100
AcDbArc
 50
180.0
 51
270.0
  0
LINE
  5
20078
330
1A
100
AcDbEntity
  8
frame
100
AcDbLine
 10
130.9567462880877
 20
33.30371886690591
 30
0.0
 11
132.3544962880914
 21
33.30371886690591
 31
0.0
  0
ARC
  5
20079
330
1A
100
AcDbEntity
  8
frame
100
AcDbCircle
 10
130.9567462880877
 20
33.232718866906
 30
0.0
 40
0.071
100
AcDbArc
 50
90.0
 51
180.0
  0
LINE
  5
2007A
330
1A
100
AcDbEntity
  8
frame
100
AcDbLine
 10
130.8857462880914
 20
33.232718866906
 30
0.0
 11
130.8857462880914
 21
32.37471886690582
 31
0.0
  0
LINE
  5
2007B
330
1A
100
AcDbEntity
  8
frame
100
AcDbLine
 10
130.9638712880914
 20
33.22559386690591
 30
0.0
 11
132.3544962880914
 21
33.22559386690591
 31
0.0
  0
LINE
  5
2007C
330
1A
100
AcDbEntity
  8
frame
100
AcDbLine
 10
130.9638712880914
 20
33.22559386690591
 30
0.0
 11
130.9638712880914
 21
32.38184386690591
 31
0.0
  0
LINE
  5
2007D
330
1A
100
AcDbEntity
  8
frame
100
AcDbLine
 10
130.9638712880914
 20
32.38184386690591
 30
0.0
 11
131.6044962880914
 21
32.38184386690591
 31
0.0
  0
LINE
  5
2007E
330
1A
100
AcDbEntity
  8
frame
100
AcDbLine
 10
131.6044962880914
 20
32.30371886690591
 30
0.0
 11
131.6044962880914
 21
32.38184386690591
 31
0.0
  0
LINE
  5
2007F
330
1A
100
AcDbEntity
  8
frame
100
AcDbLine
 10
132.3544962880914
 20
33.22559386690591
 30
0.0
 11
132.3544962880914
 21
33.30371886690591
 31
0.0
  0
LINE
  5
20080
330
1A
100
AcDbEntity
  8
frame
100
AcDbLine
 10
130.9567462880804
 20
91.30371886690591
 30
0.0
 11
131.6044962880769
 21
91.30371886690591
 31
0.0
  0
ARC
  5
20081
330
1A
100
AcDbEntity
  8
frame
100
AcDbCircle
 10
130.9567462880804
 20
91.37471886690581
 30
0.0
 40
0.071
100
AcDbArc
 50
180.0
 51
270.0
  0
LINE
  5
20082
330
1A
100
AcDbEntity
  8
frame
100
AcDbLine
 10
130.9567462880804
 20
92.30371886690591
 30
0.0
 11
132.3544962880769
 21
92.30371886690591
 31
0.0
  0
ARC
  5
20083
330
1A
100
AcDbEntity
  8
frame
100
AcDbCircle
 10
130.9567462880804
 20
92.232718866906
 30
0.0
 40
0.071
100
AcDbArc
 50
90.0
 51
180.0
  0
LINE
  5
20084
330
1A
100
AcDbEntity
  8
frame
100
AcDbLine
 10
130.8857462880769
 20
92.232718866906
 30
0.0
 11
130.8857462880769
 21
91.37471886690581
 31
0.0
  0
LINE
  5
20085
330
1A
100
AcDbEntity
  8
frame
100
AcDbLine
 10
130.9638712880769
 20
92.22559386690591
 30
0.0
 11
132.3544962880769
 21
92.22559386690591
 31
0.0
  0
LINE
  5
20086
330
1A
100
AcDbEntity
  8
frame
100
AcDbLine
 10
130.9638712880769
 20
92.22559386690591
 30
0.0
 11
130.9638712880769
 21
91.38184386690591
 31
0.0
  0
LINE
  5
20087
330
1A
100
AcDbEntity
  8
frame
100
AcDbLine
 10
130.9638712880769
 20
91.38184386690591
 30
0.0
 11
131.6044962880769
 21
91.38184386690591
 31
0.0
  0
LINE
  5
20088
330
1A
100
AcDbEntity
  8
frame
100
AcDbLine
 10
131.6044962880769
 20
91.30371886690591
 30
0.0
 11
131.6044962880769
 21
91.38184386690591
 31
0.0
  0
LINE
  5
20089
330
1A
100
AcDbEntity
  8
frame
100
AcDbLine
 10
132.3544962880769
 20
92.22559386690591
 30
0.0
 11
132.3544962880769
 21
92.30371886690591
 31
0.0
  0
LINE
  5
2008A
330
1A
100
AcDbEntity
  8
frame
100
AcDbLine
 10
145.9482462880696
 20
92.27613174778889
 30
0.0
 11
145.9482462880842
 21
32.4011317477889
 31
0.0
  0
LINE
  5
2008B
330
1A
100
AcDbEntity
  8
frame
100
AcDbLine
 10
146.0107462880696
 20
92.27613174778889
 30
0.0
 11
146.0107462880842
 21
32.4011317477889
 31
0.0
  0
LINE
  5
2008C
330
1A
100
AcDbEntity
  8
frame
100
AcDbLine
 10
145.9482462880696
 20
92.27613174778889
 30
0.0
 11
146.0107462880696
 21
92.27613174778889
 31
0.0
  0
LINE
  5
2008D
330
1A
100
AcDbEntity
  8
frame
100
AcDbLine
 10
145.9482462880842
 20
32.4011317477889
 30
0.0
 11
146.0107462880842
 21
32.4011317477889
 31
0.0
  0
LINE
  5
2008E
330
1A
100
AcDbEntity
  8
door
100
AcDbLine
 10
131.6982462880915
 20
33.42871886690591
 30
0.0
 11
131.6982462880915
 21
33.49971886690582
 31
0.0
  0
TEXT
  5
2008F
330
1A
100
AcDbEntity
  8
TEXT
100
AcDbText
 10
117.5060154560779
 20
58.86846620855329
 30
0.0
 40
1.68
  1
LOCKER HEIGHT
 50
90.0
  7
ROMANS
 72
     1
 11
117.5060154560779
 21
68.98846620855329
 31
0.0
100
AcDbText
  0
LINE
  5
20090
330
1A
100
AcDbEntity
  8
dim
100
AcDbLine
 10
129.5540154560876
 20
32.30371486690638
 30
0.0
 11
117.5540154560876
 21
32.30371486690638
 31
0.0
  0
LINE
  5
20091
330
1A
100
AcDbEntity
  8
dim
100
AcDbLine
 10
118.9940154560827
 20
32.30371486690638
 30
0.0
 11
118.9940154560754
 21
92.30371486690637
 31
0.0
  0
LINE
  5
20092
330
1A
100
AcDbEntity
  8
dim
100
AcDbLine
 10
118.5140154560867
 20
35.30371486690638
 30
0.0
 11
119.4740154560859
 21
35.30371486690638
 31
0.0
  0
LINE
  5
20093
330
1A
100
AcDbEntity
  8
dim
100
AcDbLine
 10
119.2340154560879
 20
35.30371486690638
 30
0.0
 11
118.9940154560827
 21
32.30371486690638
 31
0.0
  0
LINE
  5
20094
330
1A
100
AcDbEntity
  8
dim
100
AcDbLine
 10
118.7540154560847
 20
35.30371486690638
 30
0.0
 11
118.9940154560827
 21
32.30371486690638
 31
0.0
  0
LINE
  5
20095
330
1A
100
AcDbEntity
  8
dim
100
AcDbLine
 10
118.9940154560827
 20
32.30371486690638
 30
0.0
 11
119.4740154560859
 21
35.30371486690638
 31
0.0
  0
LINE
  5
20096
330
1A
100
AcDbEntity
  8
dim
100
AcDbLine
 10
118.5140154560867
 20
35.30371486690638
 30
0.0
 11
118.9940154560827
 21
32.30371486690638
 31
0.0
  0
LINE
  5
20097
330
1A
100
AcDbEntity
  8
dim
100
AcDbLine
 10
124.9940154560827
 20
32.30371486690638
 30
0.0
 11
124.9940154560827
 21
29.30366662672532
 31
0.0
  0
LINE
  5
20098
330
1A
100
AcDbEntity
  8
dim
100
AcDbLine
 10
124.9940154560754
 20
92.30371486690637
 30
0.0
 11
124.9940154560827
 21
33.30361246690518
 31
0.0
  0
LINE
  5
20099
330
1A
100
AcDbEntity
  8
dim
100
AcDbLine
 10
129.5540154560876
 20
33.30361246690518
 30
0.0
 11
124.9940154560827
 21
33.30361246690518
 31
0.0
  0
LINE
  5
2009A
330
1A
100
AcDbEntity
  8
dim
100
AcDbLine
 10
124.9940154560827
 20
33.30361246690518
 30
0.0
 11
123.5060154560851
 21
33.30361246690518
 31
0.0
  0
TEXT
  5
2009B
330
1A
100
AcDbEntity
  8
elevation text
100
AcDbText
 10
123.5060154560851
 20
28.58784069981345
 30
0.0
 40
2.04
  1
1"
 50
90.0
  7
ROMANS
 72
     1
 11
123.5060154560851
 21
30.43355498552774
 31
0.0
100
AcDbText
  0
TEXT
  5
2009C
330
1A
100
AcDbEntity
  8
elevation text
100
AcDbText
 10
123.5060154560851
 20
53.27745994979637
 30
0.0
 40
2.04
  1
47"
 50
90.0
  7
ROMANS
 72
     1
 11
123.5060154560851
 21
55.94888852122494
 31
0.0
100
AcDbText
  0
LINE
  5
2009D
330
1A
100
AcDbEntity
  8
dim
100
AcDbLine
 10
119.4740154560713
 20
89.30371486690455
 30
0.0
 11
118.5140154560795
 21
89.30371486690455
 31
0.0
  0
LINE
  5
2009E
330
1A
100
AcDbEntity
  8
dim
100
AcDbLine
 10
118.7540154560702
 20
89.30371486690455
 30
0.0
 11
118.9940154560754
 21
92.30371486690456
 31
0.0
  0
LINE
  5
2009F
330
1A
100
AcDbEntity
  8
dim
100
AcDbLine
 10
119.2340154560734
 20
89.30371486690455
 30
0.0
 11
118.9940154560754
 21
92.30371486690456
 31
0.0
  0
LINE
  5
200A0
330
1A
100
AcDbEntity
  8
dim
100
AcDbLine
 10
118.9940154560754
 20
92.30371486690456
 30
0.0
 11
118.5140154560795
 21
89.30371486690455
 31
0.0
  0
LINE
  5
200A1
330
1A
100
AcDbEntity
  8
dim
100
AcDbLine
 10
119.4740154560713
 20
89.30371486690455
 30
0.0
 11
118.9940154560754
 21
92.30371486690456
 31
0.0
  0
LINE
  5
200A2
330
1A
100
AcDbEntity
  8
dim
100
AcDbLine
 10
125.4740154560713
 20
89.30371486690455
 30
0.0
 11
124.5140154560795
 21
89.30371486690455
 31
0.0
  0
LINE
  5
200A3
330
1A
100
AcDbEntity
  8
dim
100
AcDbLine
 10
124.7540154560702
 20
89.30371486690455
 30
0.0
 11
124.9940154560754
 21
92.30371486690456
 31
0.0
  0
LINE
  5
200A4
330
1A
100
AcDbEntity
  8
dim
100
AcDbLine
 10
125.2340154560734
 20
89.30371486690455
 30
0.0
 11
124.9940154560754
 21
92.30371486690456
 31
0.0
  0
LINE
  5
200A5
330
1A
100
AcDbEntity
  8
dim
100
AcDbLine
 10
124.9940154560754
 20
92.30371486690456
 30
0.0
 11
124.5140154560795
 21
89.30371486690455
 31
0.0
  0
LINE
  5
200A6
330
1A
100
AcDbEntity
  8
dim
100
AcDbLine
 10
125.4740154560713
 20
89.30371486690455
 30
0.0
 11
124.9940154560754
 21
92.30371486690456
 31
0.0
  0
LINE
  5
200A7
330
1A
100
AcDbEntity
  8
dim
100
AcDbLine
 10
124.5140077376491
 20
29.30366662672532
 30
0.0
 11
125.4740231745163
 21
29.30366662672532
 31
0.0
  0
LINE
  5
200A8
330
1A
100
AcDbEntity
  8
dim
100
AcDbLine
 10
125.2340193152995
 20
29.30366662672532
 30
0.0
 11
124.9940154560827
 21
32.30371486690638
 31
0.0
  0
LINE
  5
200A9
330
1A
100
AcDbEntity
  8
dim
100
AcDbLine
 10
124.7540115968659
 20
29.30366662672532
 30
0.0
 11
124.9940154560827
 21
32.30371486690638
 31
0.0
  0
LINE
  5
200AA
330
1A
100
AcDbEntity
  8
dim
100
AcDbLine
 10
124.9940154560827
 20
32.30371486690638
 30
0.0
 11
125.4740231745163
 21
29.30366662672532
 31
0.0
  0
LINE
  5
200AB
330
1A
100
AcDbEntity
  8
dim
100
AcDbLine
 10
124.5140077376491
 20
29.30366662672532
 30
0.0
 11
124.9940154560827
 21
32.30371486690638
 31
0.0
  0
LINE
  5
200AC
330
1A
100
AcDbEntity
  8
dim
100
AcDbLine
 10
124.5140154560868
 20
36.30361246690518
 30
0.0
 11
125.4740154560859
 21
36.30361246690518
 31
0.0
  0
LINE
  5
200AD
330
1A
100
AcDbEntity
  8
dim
100
AcDbLine
 10
125.2340154560879
 20
36.30361246690518
 30
0.0
 11
124.9940154560827
 21
33.30361246690518
 31
0.0
  0
LINE
  5
200AE
330
1A
100
AcDbEntity
  8
dim
100
AcDbLine
 10
124.7540154560847
 20
36.30361246690518
 30
0.0
 11
124.9940154560827
 21
33.30361246690518
 31
0.0
  0
LINE
  5
200AF
330
1A
100
AcDbEntity
  8
dim
100
AcDbLine
 10
124.9940154560827
 20
33.30361246690518
 30
0.0
 11
125.4740154560859
 21
36.30361246690518
 31
0.0
  0
LINE
  5
200B0
330
1A
100
AcDbEntity
  8
dim
100
AcDbLine
 10
124.5140154560868
 20
36.30361246690518
 30
0.0
 11
124.9940154560827
 21
33.30361246690518
 31
0.0
  0
LINE
  5
200B1
330
1A
100
AcDbEntity
  8
dim
100
AcDbLine
 10
129.5540154560731
 20
92.30371486690637
 30
0.0
 11
117.5540154560731
 21
92.30371486690637
 31
0.0
  0
TEXT
  5
200B2
330
1A
100
AcDbEntity
  8
elevation text
100
AcDbText
 10
117.5060154560851
 20
50.61036238962268
 30
0.0
 40
2.04
  1
60"
 50
90.0
  7
ROMANS
 72
     1
 11
117.5060154560851
 21
53.33036238962268
 31
0.0
100
AcDbText
  0
LINE
  5
200B3
330
1A
100
AcDbEntity
  8
wall
100
AcDbLine
 10
146.0732470380899
 20
96.40113174778889
 30
0.0
 11
146.0732470380899
 21
32.4011317477889
 31
0.0
  0
LINE
  5
200B4
330
1A
100
AcDbEntity
  8
wall
100
AcDbLine
 10
144.5876951818427
 20
86.44362377879771
 30
0.0
 11
150.9172536458136
 21
86.44362377879771
 31
0.0
  0
LINE
  5
200B5
330
1A
100
AcDbEntity
  8
top
370
    35
100
AcDbLine
 10
145.8541860680343
 20
33.24871901190818
 30
0.0
 11
132.6194656963707
 21
33.24871901190818
 31
0.0
  0
ARC
  5
200B6
330
1A
100
AcDbEntity
  8
top
370
    35
100
AcDbCircle
 10
132.6194656963707
 20
33.19371900312581
 30
0.0
 40
0.0550000088000004
100
AcDbArc
 50
90.0
 51
134.9999999998526
  0
LINE
  5
200B7
330
1A
100
AcDbEntity
  8
top
370
    35
100
AcDbLine
 10
144.7529358917163
 20
32.40496887686641
 30
0.0
 11
133.112309029304
 21
32.40496887686641
 31
0.0
  0
LINE
  5
200B8
330
1A
100
AcDbEntity
  8
top
370
    35
100
AcDbLine
 10
145.8541860680343
 20
33.19371900312581
 30
0.0
 11
144.7529358917163
 21
33.19371900312581
 31
0.0
  0
LINE
  5
200B9
330
1A
100
AcDbEntity
  8
top
370
    35
100
AcDbLine
 10
133.112309029304
 20
33.24871901190818
 30
0.0
 11
133.112309029304
 21
32.40496887686641
 31
0.0
  0
LINE
  5
200BA
330
1A
100
AcDbEntity
  8
top
370
    35
100
AcDbLine
 10
144.7529358917163
 20
33.24871901190818
 30
0.0
 11
144.7529358917163
 21
32.40496887686641
 31
0.0
  0
LINE
  5
200BB
330
1A
100
AcDbEntity
  8
top
370
    35
100
AcDbLine
 10
132.5341839368702
 20
33.18621900189646
 30
0.0
 11
132.5805748172351
 21
33.23260988226139
 31
0.0
  0
LINE
  5
200BC
330
1A
100
AcDbEntity
  8
top
370
    35
100
AcDbLine
 10
132.5730748160058
 20
33.14732812270268
 30
0.0
 11
132.6194656963707
 21
33.19371900312581
 31
0.0
  0
ARC
  5
200BD
330
1A
100
AcDbEntity
  8
top
370
    35
100
AcDbCircle
 10
132.5341839368702
 20
33.18621900189646
 30
0.0
 40
0.0550000088000004
100
AcDbArc
 50
270.0
 51
314.9999999998526
  0
LINE
  5
200BE
330
1A
100
AcDbEntity
  8
top
370
    35
100
AcDbLine
 10
131.0029336916995
 20
33.13121899305588
 30
0.0
 11
131.0029336916995
 21
32.71746892686679
 31
0.0
  0
LINE
  5
200BF
330
1A
100
AcDbEntity
  8
top
370
    35
100
AcDbLine
 10
131.0579337007148
 20
33.13121899305588
 30
0.0
 11
131.0579337007148
 21
32.71746892686679
 31
0.0
  0
LINE
  5
200C0
330
1A
100
AcDbEntity
  8
top
370
    35
100
AcDbLine
 10
131.0579337007148
 20
33.18621900189646
 30
0.0
 11
132.5341839368702
 21
33.18621900189646
 31
0.0
  0
ARC
  5
200C1
330
1A
100
AcDbEntity
  8
top
370
    35
100
AcDbCircle
 10
131.0579337007148
 20
33.13121899305588
 30
0.0
 40
0.0550000088000004
100
AcDbArc
 50
90.0
 51
180.0
  0
LINE
  5
200C2
330
1A
100
AcDbEntity
  8
top
370
    35
100
AcDbLine
 10
131.0579337007148
 20
33.13121899305588
 30
0.0
 11
132.5341839368702
 21
33.13121899305588
 31
0.0
  0
LINE
  5
200C3
330
1A
100
AcDbEntity
  8
top
370
    35
100
AcDbLine
 10
133.112309029304
 20
33.19371900312581
 30
0.0
 11
132.6194656963707
 21
33.19371900312581
 31
0.0
  0
LINE
  5
200C4
330
1A
100
AcDbEntity
  8
top
370
    35
100
AcDbLine
 10
131.0029336916995
 20
32.71746892686679
 30
0.0
 11
131.0579337007148
 21
32.71746892686679
 31
0.0
  0
LINE
  5
200C5
330
1A
100
AcDbEntity
  8
top
370
    35
100
AcDbLine
 10
145.9091860768167
 20
33.19371900312581
 30
0.0
 11
145.9091860768167
 21
32.40496887686641
 31
0.0
  0
ARC
  5
200C6
330
1A
100
AcDbEntity
  8
top
370
    35
100
AcDbCircle
 10
145.8541860680343
 20
33.19371900312581
 30
0.0
 40
0.0550000088000004
100
AcDbArc
 50
0.0
 51
90.0
  0
LINE
  5
200C7
330
1A
100
AcDbEntity
  8
top
370
    35
100
AcDbLine
 10
145.8541860680343
 20
33.19371900312581
 30
0.0
 11
145.8541860680343
 21
32.40496887686641
 31
0.0
  0
LINE
  5
200C8
330
1A
100
AcDbEntity
  8
top
370
    35
100
AcDbLine
 10
145.9091860768167
 20
32.40496887686641
 30
0.0
 11
145.8541860680343
 21
32.40496887686641
 31
0.0
  0
LINE
  5
200C9
330
1A
100
AcDbEntity
  8
top
370
    35
100
AcDbLine
 10
145.8541860680197
 20
92.24871901190818
 30
0.0
 11
132.6194656963562
 21
92.24871901190818
 31
0.0
  0
ARC
  5
200CA
330
1A
100
AcDbEntity
  8
top
370
    35
100
AcDbCircle
 10
132.6194656963562
 20
92.1937190031258
 30
0.0
 40
0.0550000088000004
100
AcDbArc
 50
90.0
 51
134.9999999998526
  0
LINE
  5
200CB
330
1A
100
AcDbEntity
  8
top
370
    35
100
AcDbLine
 10
144.7529358917018
 20
91.40496887686641
 30
0.0
 11
133.1123090292894
 21
91.40496887686641
 31
0.0
  0
LINE
  5
200CC
330
1A
100
AcDbEntity
  8
top
370
    35
100
AcDbLine
 10
145.8541860680197
 20
92.1937190031258
 30
0.0
 11
144.7529358917018
 21
92.1937190031258
 31
0.0
  0
LINE
  5
200CD
330
1A
100
AcDbEntity
  8
top
370
    35
100
AcDbLine
 10
133.1123090292894
 20
92.24871901190818
 30
0.0
 11
133.1123090292894
 21
91.40496887686641
 31
0.0
  0
LINE
  5
200CE
330
1A
100
AcDbEntity
  8
top
370
    35
100
AcDbLine
 10
144.7529358917018
 20
92.24871901190818
 30
0.0
 11
144.7529358917018
 21
91.40496887686641
 31
0.0
  0
LINE
  5
200CF
330
1A
100
AcDbEntity
  8
top
370
    35
100
AcDbLine
 10
132.5341839368557
 20
92.18621900189646
 30
0.0
 11
132.5805748172206
 21
92.23260988226138
 31
0.0
  0
LINE
  5
200D0
330
1A
100
AcDbEntity
  8
top
370
    35
100
AcDbLine
 10
132.5730748159912
 20
92.14732812270268
 30
0.0
 11
132.6194656963562
 21
92.1937190031258
 31
0.0
  0
ARC
  5
200D1
330
1A
100
AcDbEntity
  8
top
370
    35
100
AcDbCircle
 10
132.5341839368557
 20
92.18621900189646
 30
0.0
 40
0.0550000088000004
100
AcDbArc
 50
270.0
 51
314.9999999998526
  0
LINE
  5
200D2
330
1A
100
AcDbEntity
  8
top
370
    35
100
AcDbLine
 10
131.002933691685
 20
92.13121899305589
 30
0.0
 11
131.002933691685
 21
91.71746892686678
 31
0.0
  0
LINE
  5
200D3
330
1A
100
AcDbEntity
  8
top
370
    35
100
AcDbLine
 10
131.0579337007002
 20
92.13121899305589
 30
0.0
 11
131.0579337007002
 21
91.71746892686678
 31
0.0
  0
LINE
  5
200D4
330
1A
100
AcDbEntity
  8
top
370
    35
100
AcDbLine
 10
131.0579337007002
 20
92.18621900189646
 30
0.0
 11
132.5341839368557
 21
92.18621900189646
 31
0.0
  0
ARC
  5
200D5
330
1A
100
AcDbEntity
  8
top
370
    35
100
AcDbCircle
 10
131.0579337007002
 20
92.13121899305589
 30
0.0
 40
0.0550000088000004
100
AcDbArc
 50
90.0
 51
180.0
  0
LINE
  5
200D6
330
1A
100
AcDbEntity
  8
top
370
    35
100
AcDbLine
 10
131.0579337007002
 20
92.13121899305589
 30
0.0
 11
132.5341839368557
 21
92.13121899305589
 31
0.0
  0
LINE
  5
200D7
330
1A
100
AcDbEntity
  8
top
370
    35
100
AcDbLine
 10
133.1123090292894
 20
92.1937190031258
 30
0.0
 11
132.6194656963562
 21
92.1937190031258
 31
0.0
  0
LINE
  5
200D8
330
1A
100
AcDbEntity
  8
top
370
    35
100
AcDbLine
 10
131.002933691685
 20
91.71746892686678
 30
0.0
 11
131.0579337007002
 21
91.71746892686678
 31
0.0
  0
LINE
  5
200D9
330
1A
100
AcDbEntity
  8
top
370
    35
100
AcDbLine
 10
145.9091860768021
 20
92.1937190031258
 30
0.0
 11
145.9091860768021
 21
91.40496887686641
 31
0.0
  0
ARC
  5
200DA
330
1A
100
AcDbEntity
  8
top
370
    35
100
AcDbCircle
 10
145.8541860680197
 20
92.1937190031258
 30
0.0
 40
0.0550000088000004
100
AcDbArc
 50
0.0
 51
90.0
  0
LINE
  5
200DB
330
1A
100
AcDbEntity
  8
top
370
    35
100
AcDbLine
 10
145.8541860680197
 20
92.1937190031258
 30
0.0
 11
145.8541860680197
 21
91.40496887686641
 31
0.0
  0
LINE
  5
200DC
330
1A
100
AcDbEntity
  8
top
370
    35
100
AcDbLine
 10
145.9091860768021
 20
91.40496887686641
 30
0.0
 11
145.8541860680197
 21
91.40496887686641
 31
0.0
  0
LINE
  5
200DD
330
1A
100
AcDbEntity
  8
diamonds
  6
PHANTOM2
 62
     2
 48
2.0
100
AcDbLine
 10
134.1275410920716
 20
36.57842986778815
 30
0.0
 11
134.1275410920716
 21
88.74174910152579
 31
0.0
  0
LINE
  5
200DE
330
1A
100
AcDbEntity
  8
diamonds
  6
PHANTOM2
 62
     2
 48
2.0
100
AcDbLine
 10
142.8774194610014
 20
36.57842986778815
 30
0.0
 11
142.8774194609941
 21
88.74174910152579
 31
0.0
  0
LINE
  5
200DF
330
1A
100
AcDbEntity
  8
diamonds
  6
PHANTOM2
 62
     2
 48
2.0
100
AcDbLine
 10
133.3618626478928
 20
87.86921716682627
 30
0.0
 11
143.5143289777552
 21
87.86921716682627
 31
0.0
  0
LINE
  5
200E0
330
1A
100
AcDbEntity
  8
diamonds
  6
PHANTOM2
 62
     2
 48
2.0
100
AcDbLine
 10
133.1389580584146
 20
37.7754029220414
 30
0.0
 11
143.5124327001176
 21
37.7754029220414
 31
0.0
  0
INSERT
  5
200E1
330
1A
100
AcDbEntity
  8
OBJECT
100
AcDbBlockReference
  2
A$C6895fdcc
 10
134.1274495393372
 20
87.88165693366682
 30
0.0
  0
INSERT
  5
200E2
330
1A
100
AcDbEntity
  8
OBJECT
100
AcDbBlockReference
  2
A$C6895fdcc
 10
135.8774534939657
 20
87.88165693366682
 30
0.0
  0
INSERT
  5
200E3
330
1A
100
AcDbEntity
  8
OBJECT
100
AcDbBlockReference
  2
A$C6895fdcc
 10
137.6274498193161
 20
87.88165693366682
 30
0.0
  0
INSERT
  5
200E4
330
1A
100
AcDbEntity
  8
OBJECT
100
AcDbBlockReference
  2
A$C6895fdcc
 10
139.3774499592473
 20
87.88165693366682
 30
0.0
  0
INSERT
  5
200E5
330
1A
100
AcDbEntity
  8
OBJECT
100
AcDbBlockReference
  2
A$C6895fdcc
 10
141.1274424700168
 20
87.88165693366682
 30
0.0
  0
INSERT
  5
200E6
330
1A
100
AcDbEntity
  8
OBJECT
100
AcDbBlockReference
  2
A$C6895fdcc
 10
142.8774464246453
 20
87.88165693366682
 30
0.0
  0
INSERT
  5
200E7
330
1A
100
AcDbEntity
  8
OBJECT
100
AcDbBlockReference
  2
A$C6895fdcc
 10
142.8774464246453
 20
86.13166442301372
 30
0.0
  0
INSERT
  5
200E8
330
1A
100
AcDbEntity
  8
OBJECT
100
AcDbBlockReference
  2
A$C6895fdcc
 10
142.8774464246453
 20
84.38166428302428
 30
0.0
  0
INSERT
  5
200E9
330
1A
100
AcDbEntity
  8
OBJECT
100
AcDbBlockReference
  2
A$C6895fdcc
 10
141.1274424700168
 20
86.13166442301372
 30
0.0
  0
INSERT
  5
200EA
330
1A
100
AcDbEntity
  8
OBJECT
100
AcDbBlockReference
  2
A$C6895fdcc
 10
135.8774534939657
 20
86.13166442301372
 30
0.0
  0
INSERT
  5
200EB
330
1A
100
AcDbEntity
  8
OBJECT
100
AcDbBlockReference
  2
A$C6895fdcc
 10
134.1274495393372
 20
86.13166442301372
 30
0.0
  0
INSERT
  5
200EC
330
1A
100
AcDbEntity
  8
OBJECT
100
AcDbBlockReference
  2
A$C6895fdcc
 10
134.1274495393372
 20
84.38166428302428
 30
0.0
  0
INSERT
  5
200ED
330
1A
100
AcDbEntity
  8
OBJECT
100
AcDbBlockReference
  2
A$C6895fdcc
 10
142.8774464246453
 20
84.38166428302428
 30
0.0
  0
INSERT
  5
200EE
330
1A
100
AcDbEntity
  8
OBJECT
100
AcDbBlockReference
  2
A$C6895fdcc
 10
134.1274225756933
 20
41.2879160466
 30
0.0
  0
INSERT
  5
200EF
330
1A
100
AcDbEntity
  8
OBJECT
100
AcDbBlockReference
  2
A$C6895fdcc
 10
134.1274225756933
 20
39.53791590661058
 30
0.0
  0
INSERT
  5
200F0
330
1A
100
AcDbEntity
  8
OBJECT
100
AcDbBlockReference
  2
A$C6895fdcc
 10
135.8774265303218
 20
39.53791590661058
 30
0.0
  0
INSERT
  5
200F1
330
1A
100
AcDbEntity
  8
OBJECT
100
AcDbBlockReference
  2
A$C6895fdcc
 10
134.1274225756933
 20
37.78790050777388
 30
0.0
  0
INSERT
  5
200F2
330
1A
100
AcDbEntity
  8
OBJECT
100
AcDbBlockReference
  2
A$C6895fdcc
 10
135.8774265303218
 20
37.78790050777388
 30
0.0
  0
INSERT
  5
200F3
330
1A
100
AcDbEntity
  8
OBJECT
100
AcDbBlockReference
  2
A$C6895fdcc
 10
137.6274228556722
 20
37.78790050777388
 30
0.0
  0
INSERT
  5
200F4
330
1A
100
AcDbEntity
  8
OBJECT
100
AcDbBlockReference
  2
A$C6895fdcc
 10
139.3774229956034
 20
37.78790050777388
 30
0.0
  0
INSERT
  5
200F5
330
1A
100
AcDbEntity
  8
OBJECT
100
AcDbBlockReference
  2
A$C6895fdcc
 10
141.1274155063729
 20
37.78790050777388
 30
0.0
  0
INSERT
  5
200F6
330
1A
100
AcDbEntity
  8
OBJECT
100
AcDbBlockReference
  2
A$C6895fdcc
 10
142.8774194610014
 20
37.78790050777388
 30
0.0
  0
INSERT
  5
200F7
330
1A
100
AcDbEntity
  8
OBJECT
100
AcDbBlockReference
  2
A$C6895fdcc
 10
141.1274155063729
 20
39.53791590661058
 30
0.0
  0
INSERT
  5
200F8
330
1A
100
AcDbEntity
  8
OBJECT
100
AcDbBlockReference
  2
A$C6895fdcc
 10
142.8774194610014
 20
39.53791590661058
 30
0.0
  0
INSERT
  5
200F9
330
1A
100
AcDbEntity
  8
OBJECT
100
AcDbBlockReference
  2
A$C6895fdcc
 10
142.8774194610014
 20
41.2879160466
 30
0.0
  0
LINE
  5
200FA
330
1A
100
AcDbEntity
  8
top
100
AcDbLine
 10
145.8541865478837
 20
80.31871734304331
 30
0.0
 11
132.2141838855677
 21
80.31871734304331
 31
0.0
  0
LINE
  5
200FB
330
1A
100
AcDbEntity
  8
top
100
AcDbLine
 10
144.7529363720314
 20
79.47496720800154
 30
0.0
 11
133.1123090292894
 21
79.47496720800154
 31
0.0
  0
LINE
  5
200FC
330
1A
100
AcDbEntity
  8
top
100
AcDbLine
 10
145.8541865478837
 20
80.26371733426094
 30
0.0
 11
144.7529363720314
 21
80.26371733426094
 31
0.0
  0
LINE
  5
200FD
330
1A
100
AcDbEntity
  8
top
100
AcDbLine
 10
133.1123090292894
 20
80.31871734304331
 30
0.0
 11
133.1123090292894
 21
79.47496720800154
 31
0.0
  0
LINE
  5
200FE
330
1A
100
AcDbEntity
  8
top
100
AcDbLine
 10
144.7529363720314
 20
80.31871734304331
 30
0.0
 11
144.7529363720314
 21
79.47496720800154
 31
0.0
  0
LINE
  5
200FF
330
1A
100
AcDbEntity
  8
top
100
AcDbLine
 10
132.1591838770182
 20
80.26371733426094
 30
0.0
 11
132.1591838770182
 21
79.37371719187104
 31
0.0
  0
LINE
  5
20100
330
1A
100
AcDbEntity
  8
top
100
AcDbLine
 10
132.2141838855677
 20
80.26371733426094
 30
0.0
 11
132.2141838855677
 21
79.37371719187104
 31
0.0
  0
ARC
  5
20101
330
1A
100
AcDbEntity
  8
top
100
AcDbCircle
 10
132.2141838855677
 20
80.26371733426094
 30
0.0
 40
0.0550000088000004
100
AcDbArc
 50
90.0
 51
180.0
  0
LINE
  5
20102
330
1A
100
AcDbEntity
  8
top
100
AcDbLine
 10
133.1123090292894
 20
80.26371733426094
 30
0.0
 11
132.2141838855677
 21
80.26371733426094
 31
0.0
  0
LINE
  5
20103
330
1A
100
AcDbEntity
  8
top
100
AcDbLine
 10
145.9091865568989
 20
80.26371733426094
 30
0.0
 11
145.9091865568989
 21
79.47496720800154
 31
0.0
  0
ARC
  5
20104
330
1A
100
AcDbEntity
  8
top
100
AcDbCircle
 10
145.8541865478837
 20
80.26371733426094
 30
0.0
 40
0.0550000088000004
100
AcDbArc
 50
0.0
 51
90.0
  0
LINE
  5
20105
330
1A
100
AcDbEntity
  8
top
100
AcDbLine
 10
145.8541865478837
 20
80.26371733426094
 30
0.0
 11
145.8541865478837
 21
79.47496720800154
 31
0.0
  0
LINE
  5
20106
330
1A
100
AcDbEntity
  8
top
100
AcDbLine
 10
145.9091865568989
 20
79.47496720800154
 30
0.0
 11
145.8541865478837
 21
79.47496720800154
 31
0.0
  0
ARC
  5
20107
330
1A
100
AcDbEntity
  8
top
100
AcDbCircle
 10
132.2141838855677
 20
79.37371719187104
 30
0.0
 40
0.0550000088000004
100
AcDbArc
 50
180.0
 51
314.9999999998526
  0
LINE
  5
20108
330
1A
100
AcDbEntity
  8
top
100
AcDbLine
 10
132.2141838855677
 20
79.37371719187104
 30
0.0
 11
132.6172348153413
 21
79.77676812164464
 31
0.0
  0
LINE
  5
20109
330
1A
100
AcDbEntity
  8
top
100
AcDbLine
 10
132.2530747647033
 20
79.33482631267725
 30
0.0
 11
132.6561256944769
 21
79.73787724245084
 31
0.0
  0
LINE
  5
2010A
330
1A
100
AcDbEntity
  8
top
100
AcDbLine
 10
132.6172348153413
 20
79.77676812164464
 30
0.0
 11
132.6561256944769
 21
79.73787724245084
 31
0.0
  0
LINE
  5
2010B
330
1A
100
AcDbEntity
  8
dim
100
AcDbLine
 10
129.554015128022
 20
80.30371798063606
 30
0.0
 11
124.9940143983913
 21
80.30371798063606
 31
0.0
  0
INSERT
  5
2010C
330
1A
100
AcDbEntity
  8
dim
100
AcDbBlockReference
  2
ARRO2
 10
124.9940143983913
 20
80.30371798063606
 30
0.0
 41
24.0
 42
24.0
 43
24.0
 50
90.0
  0
TEXT
  5
2010D
330
1A
100
AcDbEntity
  8
elevation text
100
AcDbText
 10
123.5060141601934
 20
83.92670540583486
 30
0.0
 40
2.040000326400013
  1
12"
 50
90.0
  7
ROMANS
 72
     1
 11
123.5060141601934
 21
86.74384871372058
 31
0.0
100
AcDbText
  0
LINE
  5
2010E
330
1A
100
AcDbEntity
  8
dim
100
AcDbLine
 10
124.9940143983913
 20
80.30371798063606
 30
0.0
 11
123.5060141601934
 21
80.30371798063606
 31
0.0
  0
LINE
  5
2010F
330
1A
100
AcDbEntity
  8
wall
100
AcDbLine
 10
146.0732470380899
 20
36.40113174778889
 30
0.0
 11
148.3292650860821
 21
38.6571497957957
 31
0.0
  0
LINE
  5
20110
330
1A
100
AcDbEntity
  8
wall
100
AcDbLine
 10
146.0732470380899
 20
32.4011317477889
 30
0.0
 11
148.3292650860821
 21
34.6571497957957
 31
0.0
  0
LINE
  5
20111
330
1A
100
AcDbEntity
  8
wall
100
AcDbLine
 10
146.0732470380899
 20
34.4011317477889
 30
0.0
 11
148.3292650860821
 21
36.65714979579571
 31
0.0
  0
LINE
  5
20112
330
1A
100
AcDbEntity
  8
wall
100
AcDbLine
 10
146.0732470380899
 20
40.40113174778889
 30
0.0
 11
148.3292650860821
 21
42.6571497957957
 31
0.0
  0
LINE
  5
20113
330
1A
100
AcDbEntity
  8
wall
100
AcDbLine
 10
146.0732470380899
 20
38.4011317477889
 30
0.0
 11
148.3292650860821
 21
40.6571497957957
 31
0.0
  0
LINE
  5
20114
330
1A
100
AcDbEntity
  8
wall
100
AcDbLine
 10
146.0732470380899
 20
44.40113174778889
 30
0.0
 11
148.3292650860821
 21
46.6571497957957
 31
0.0
  0
LINE
  5
20115
330
1A
100
AcDbEntity
  8
wall
100
AcDbLine
 10
146.0732470380899
 20
42.4011317477889
 30
0.0
 11
148.3292650860821
 21
44.6571497957957
 31
0.0
  0
LINE
  5
20116
330
1A
100
AcDbEntity
  8
wall
100
AcDbLine
 10
146.0732470380899
 20
48.40113174778889
 30
0.0
 11
148.3292650860821
 21
50.65714979579571
 31
0.0
  0
LINE
  5
20117
330
1A
100
AcDbEntity
  8
wall
100
AcDbLine
 10
146.0732470380899
 20
46.40113174778889
 30
0.0
 11
148.3292650860821
 21
48.6571497957957
 31
0.0
  0
LINE
  5
20118
330
1A
100
AcDbEntity
  8
wall
100
AcDbLine
 10
146.0732470380899
 20
52.4011317477889
 30
0.0
 11
148.3292650860821
 21
54.6571497957957
 31
0.0
  0
LINE
  5
20119
330
1A
100
AcDbEntity
  8
wall
100
AcDbLine
 10
146.0732470380899
 20
50.40113174778889
 30
0.0
 11
148.3292650860821
 21
52.6571497957957
 31
0.0
  0
LINE
  5
2011A
330
1A
100
AcDbEntity
  8
wall
100
AcDbLine
 10
146.0732470380899
 20
56.40113174778889
 30
0.0
 11
148.3292650860821
 21
58.6571497957957
 31
0.0
  0
LINE
  5
2011B
330
1A
100
AcDbEntity
  8
wall
100
AcDbLine
 10
146.0732470380899
 20
54.4011317477889
 30
0.0
 11
148.3292650860821
 21
56.6571497957957
 31
0.0
  0
LINE
  5
2011C
330
1A
100
AcDbEntity
  8
wall
100
AcDbLine
 10
146.0732470380899
 20
58.40113174778889
 30
0.0
 11
148.3292650860821
 21
60.65714979579571
 31
0.0
  0
LINE
  5
2011D
330
1A
100
AcDbEntity
  8
wall
100
AcDbLine
 10
146.0732470380899
 20
60.40113174778889
 30
0.0
 11
148.3292650860821
 21
62.6571497957957
 31
0.0
  0
LINE
  5
2011E
330
1A
100
AcDbEntity
  8
wall
100
AcDbLine
 10
146.0732470380899
 20
64.4011317477889
 30
0.0
 11
148.3292650860821
 21
66.6571497957957
 31
0.0
  0
LINE
  5
2011F
330
1A
100
AcDbEntity
  8
wall
100
AcDbLine
 10
146.0732470380899
 20
62.4011317477889
 30
0.0
 11
148.3292650860821
 21
64.6571497957957
 31
0.0
  0
LINE
  5
20120
330
1A
100
AcDbEntity
  8
wall
100
AcDbLine
 10
146.0732470380899
 20
68.40113174778889
 30
0.0
 11
148.3292650860821
 21
70.65714979579571
 31
0.0
  0
LINE
  5
20121
330
1A
100
AcDbEntity
  8
wall
100
AcDbLine
 10
146.0732470380899
 20
66.40113174778889
 30
0.0
 11
148.3292650860821
 21
68.6571497957957
 31
0.0
  0
LINE
  5
20122
330
1A
100
AcDbEntity
  8
wall
100
AcDbLine
 10
146.0732470380899
 20
72.4011317477889
 30
0.0
 11
148.3292650860821
 21
74.6571497957957
 31
0.0
  0
LINE
  5
20123
330
1A
100
AcDbEntity
  8
wall
100
AcDbLine
 10
146.0732470380899
 20
70.40113174778889
 30
0.0
 11
148.3292650860821
 21
72.6571497957957
 31
0.0
  0
LINE
  5
20124
330
1A
100
AcDbEntity
  8
wall
100
AcDbLine
 10
146.0732470380899
 20
76.40113174778889
 30
0.0
 11
148.3292650860821
 21
78.6571497957957
 31
0.0
  0
LINE
  5
20125
330
1A
100
AcDbEntity
  8
wall
100
AcDbLine
 10
146.0732470380899
 20
74.4011317477889
 30
0.0
 11
148.3292650860821
 21
76.6571497957957
 31
0.0
  0
LINE
  5
20126
330
1A
100
AcDbEntity
  8
wall
100
AcDbLine
 10
146.0732470380899
 20
78.40113174778889
 30
0.0
 11
148.3292650860821
 21
80.65714979579571
 31
0.0
  0
LINE
  5
20127
330
1A
100
AcDbEntity
  8
wall
100
AcDbLine
 10
146.0732470380899
 20
80.40113174778889
 30
0.0
 11
148.3292650860821
 21
82.6571497957957
 31
0.0
  0
LINE
  5
20128
330
1A
100
AcDbEntity
  8
wall
100
AcDbLine
 10
146.0732470380899
 20
84.4011317477889
 30
0.0
 11
148.3292650860821
 21
86.6571497957957
 31
0.0
  0
LINE
  5
20129
330
1A
100
AcDbEntity
  8
wall
100
AcDbLine
 10
146.0732470380899
 20
82.40113174778889
 30
0.0
 11
148.3292650860821
 21
84.65714979579571
 31
0.0
  0
LINE
  5
2012A
330
1A
100
AcDbEntity
  8
wall
100
AcDbLine
 10
146.0732470380899
 20
88.4011317477889
 30
0.0
 11
148.3292650860821
 21
90.65714979579571
 31
0.0
  0
LINE
  5
2012B
330
1A
100
AcDbEntity
  8
wall
100
AcDbLine
 10
146.0732470380899
 20
86.40113174778889
 30
0.0
 11
148.3292650860821
 21
88.65714979579569
 31
0.0
  0
LINE
  5
2012C
330
1A
100
AcDbEntity
  8
wall
100
AcDbLine
 10
146.0732470380899
 20
92.40113174778889
 30
0.0
 11
148.3292650860821
 21
94.65714979579571
 31
0.0
  0
LINE
  5
2012D
330
1A
100
AcDbEntity
  8
wall
100
AcDbLine
 10
146.0732470380899
 20
90.40113174778889
 30
0.0
 11
148.3292650860821
 21
92.6571497957957
 31
0.0
  0
LINE
  5
2012E
330
1A
100
AcDbEntity
  8
wall
100
AcDbLine
 10
146.0732470380899
 20
94.4011317477889
 30
0.0
 11
148.0732470380826
 21
96.40113174778889
 31
0.0
  0
MTEXT
  5
2012F
330
1A
100
AcDbEntity
  8
ELEVATION
100
AcDbMText
 10
153.2507269883645
 20
87.23724032513564
 30
0.0
 40
1.5
 41
22.51445628941201
 71
     1
 72
     5
  1
ANCHORING BY ERECTOR
  7
ELEVATION
 73
     1
 44
1.0
  0
MTEXT
  5
20130
330
1A
100
AcDbEntity
  8
ELEVATION
100
AcDbMText
 10
153.2507269883645
 20
77.64389782931539
 30
0.0
 40
1.5
 41
22.51445628941201
 71
     1
 72
     5
  1
DIAMOND PERFORATED SIDES
  7
ELEVATION
 73
     1
 44
1.0
  0
LINE
  5
20131
330
1A
100
AcDbEntity
  8
dim
100
AcDbLine
 10
146.0107462880842
 20
21.18885424457039
 30
0.0
 11
130.8857462880914
 21
21.18885424457039
 31
0.0
  0
LINE
  5
20132
330
1A
100
AcDbEntity
  8
dim
100
AcDbLine
 10
146.0732470380826
 20
21.18885424456676
 30
0.0
 11
152.0732470380826
 21
21.18885424456676
 31
0.0
  0
LINE
  5
20133
330
1A
100
AcDbEntity
  8
dim
100
AcDbLine
 10
133.8857462880914
 20
21.66885424456996
 30
0.0
 11
133.8857462880914
 21
20.70885424457083
 31
0.0
  0
LINE
  5
20134
330
1A
100
AcDbEntity
  8
dim
100
AcDbLine
 10
133.8857462880914
 20
20.94885424457061
 30
0.0
 11
130.8857462880914
 21
21.18885424457039
 31
0.0
  0
LINE
  5
20135
330
1A
100
AcDbEntity
  8
dim
100
AcDbLine
 10
133.8857462880914
 20
21.42885424457018
 30
0.0
 11
130.8857462880914
 21
21.18885424457039
 31
0.0
  0
LINE
  5
20136
330
1A
100
AcDbEntity
  8
dim
100
AcDbLine
 10
130.8857462880914
 20
21.18885424457039
 30
0.0
 11
133.8857462880914
 21
20.70885424457083
 31
0.0
  0
LINE
  5
20137
330
1A
100
AcDbEntity
  8
dim
100
AcDbLine
 10
133.8857462880914
 20
21.66885424456996
 30
0.0
 11
130.8857462880914
 21
21.18885424457039
 31
0.0
  0
LINE
  5
20138
330
1A
100
AcDbEntity
  8
dim
100
AcDbLine
 10
149.0732470380826
 20
21.66885424456632
 30
0.0
 11
149.0732470380826
 21
20.70885424456719
 31
0.0
  0
LINE
  5
20139
330
1A
100
AcDbEntity
  8
dim
100
AcDbLine
 10
149.0732470380826
 20
20.94885424456879
 30
0.0
 11
146.0732470380826
 21
21.18885424456676
 31
0.0
  0
LINE
  5
2013A
330
1A
100
AcDbEntity
  8
dim
100
AcDbLine
 10
149.0732470380826
 20
21.42885424456836
 30
0.0
 11
146.0732470380826
 21
21.18885424456676
 31
0.0
  0
LINE
  5
2013B
330
1A
100
AcDbEntity
  8
dim
100
AcDbLine
 10
146.0732470380826
 20
21.18885424456676
 30
0.0
 11
149.0732470380826
 21
20.70885424456719
 31
0.0
  0
LINE
  5
2013C
330
1A
100
AcDbEntity
  8
dim
100
AcDbLine
 10
149.0732470380826
 20
21.66885424456632
 30
0.0
 11
146.0732470380826
 21
21.18885424456676
 31
0.0
  0
LINE
  5
2013D
330
1A
100
AcDbEntity
  8
dim
100
AcDbLine
 10
130.8857462880914
 20
19.7008542445692
 30
0.0
 11
130.8857462880914
 21
24.21285424456983
 31
0.0
  0
LINE
  5
2013E
330
1A
100
AcDbEntity
  8
dim
100
AcDbLine
 10
146.0107462880842
 20
19.7008542445692
 30
0.0
 11
146.0107462880842
 21
24.21285424456983
 31
0.0
  0
LINE
  5
2013F
330
1A
100
AcDbEntity
  8
dim
100
AcDbLine
 10
146.0732470380826
 20
19.70085424456738
 30
0.0
 11
146.0732470380826
 21
24.21285424456801
 31
0.0
  0
TEXT
  5
20140
330
1A
100
AcDbEntity
  8
elevation text
100
AcDbText
 10
149.2154168469659
 20
22.34805424456863
 30
0.0
 40
2.04
  1
1/8"
  7
ROMANS
 72
     1
 11
153.1011311326802
 21
22.34805424456863
 31
0.0
100
AcDbText
  0
LINE
  5
20141
330
1A
100
AcDbEntity
  8
dim
100
AcDbLine
 10
143.0107462880842
 20
21.66885424456996
 30
0.0
 11
143.0107462880842
 21
20.70885424457083
 31
0.0
  0
LINE
  5
20142
330
1A
100
AcDbEntity
  8
dim
100
AcDbLine
 10
143.0107462880842
 20
20.94885424457061
 30
0.0
 11
146.0107462880842
 21
21.18885424457039
 31
0.0
  0
LINE
  5
20143
330
1A
100
AcDbEntity
  8
dim
100
AcDbLine
 10
143.0107462880842
 20
21.42885424457018
 30
0.0
 11
146.0107462880842
 21
21.18885424457039
 31
0.0
  0
LINE
  5
20144
330
1A
100
AcDbEntity
  8
dim
100
AcDbLine
 10
146.0107462880842
 20
21.18885424457039
 30
0.0
 11
143.0107462880842
 21
20.70885424457083
 31
0.0
  0
LINE
  5
20145
330
1A
100
AcDbEntity
  8
dim
100
AcDbLine
 10
143.0107462880842
 20
21.66885424456996
 30
0.0
 11
146.0107462880842
 21
21.18885424457039
 31
0.0
  0
MTEXT
  5
20146
330
1A
100
AcDbEntity
  8
ELEVATION
100
AcDbMText
 10
139.5594498611826
 20
17.11752679401434
 30
0.0
 40
1.5
 41
18.70534557438077
 71
     5
 72
     5
  1
SINGLE ROW\PEND ELEVATION
  7
ELEVATION
 73
     1
 44
1.0
  0
LINE
  5
20147
330
1A
100
AcDbEntity
  8
dim
100
AcDbLine
 10
63.95808620857133
 20
21.22708603718456
 30
0.0
 11
49.00515815488325
 21
21.22708603718456
 31
0.0
  0
LINE
  5
20148
330
1A
100
AcDbEntity
  8
dim
100
AcDbLine
 10
51.95808639110328
 20
21.70708607555389
 30
0.0
 11
51.95808639110328
 21
20.74708599881524
 31
0.0
  0
LINE
  5
20149
330
1A
100
AcDbEntity
  8
dim
100
AcDbLine
 10
51.95808639110328
 20
20.98708601795625
 30
0.0
 11
48.9580861511713
 21
21.22708603718456
 31
0.0
  0
LINE
  5
2014A
330
1A
100
AcDbEntity
  8
dim
100
AcDbLine
 10
51.95808639110328
 20
21.46708605641288
 30
0.0
 11
48.9580861511713
 21
21.22708603718456
 31
0.0
  0
LINE
  5
2014B
330
1A
100
AcDbEntity
  8
dim
100
AcDbLine
 10
48.9580861511713
 20
21.22708603718456
 30
0.0
 11
51.95808639110328
 21
20.74708599881524
 31
0.0
  0
LINE
  5
2014C
330
1A
100
AcDbEntity
  8
dim
100
AcDbLine
 10
51.95808639110328
 20
21.70708607555389
 30
0.0
 11
48.9580861511713
 21
21.22708603718456
 31
0.0
  0
LINE
  5
2014D
330
1A
100
AcDbEntity
  8
dim
100
AcDbLine
 10
48.9580861511713
 20
19.73908591813779
 30
0.0
 11
48.9580861511713
 21
24.25108627910049
 31
0.0
  0
LINE
  5
2014E
330
1A
100
AcDbEntity
  8
dim
100
AcDbLine
 10
63.95808620856406
 20
19.73908591813779
 30
0.0
 11
63.95808620856406
 21
24.25108627910049
 31
0.0
  0
LINE
  5
2014F
330
1A
100
AcDbEntity
  8
dim
100
AcDbLine
 10
60.95808596852293
 20
21.70708607555389
 30
0.0
 11
60.95808596852293
 21
20.74708599881524
 31
0.0
  0
LINE
  5
20150
330
1A
100
AcDbEntity
  8
dim
100
AcDbLine
 10
60.95808596852293
 20
20.98708601795625
 30
0.0
 11
63.95808620857133
 21
21.22708603718456
 31
0.0
  0
LINE
  5
20151
330
1A
100
AcDbEntity
  8
dim
100
AcDbLine
 10
60.95808596852293
 20
21.46708605641288
 30
0.0
 11
63.95808620857133
 21
21.22708603718456
 31
0.0
  0
LINE
  5
20152
330
1A
100
AcDbEntity
  8
dim
100
AcDbLine
 10
63.95808620857133
 20
21.22708603718456
 30
0.0
 11
60.95808596852293
 21
20.74708599881524
 31
0.0
  0
LINE
  5
20153
330
1A
100
AcDbEntity
  8
dim
100
AcDbLine
 10
60.95808596852293
 20
21.70708607555389
 30
0.0
 11
63.95808620857133
 21
21.22708603718456
 31
0.0
  0
LINE
  5
20154
330
1A
100
AcDbEntity
  8
dim
100
AcDbLine
 10
78.95808620857133
 20
21.22708603718456
 30
0.0
 11
64.00515815488325
 21
21.22708603718456
 31
0.0
  0
LINE
  5
20155
330
1A
100
AcDbEntity
  8
dim
100
AcDbLine
 10
66.95808639110328
 20
21.70708607555389
 30
0.0
 11
66.95808639110328
 21
20.74708599881524
 31
0.0
  0
LINE
  5
20156
330
1A
100
AcDbEntity
  8
dim
100
AcDbLine
 10
66.95808639110328
 20
20.98708601795625
 30
0.0
 11
63.9580861511713
 21
21.22708603718456
 31
0.0
  0
LINE
  5
20157
330
1A
100
AcDbEntity
  8
dim
100
AcDbLine
 10
66.95808639110328
 20
21.46708605641288
 30
0.0
 11
63.9580861511713
 21
21.22708603718456
 31
0.0
  0
LINE
  5
20158
330
1A
100
AcDbEntity
  8
dim
100
AcDbLine
 10
63.9580861511713
 20
21.22708603718456
 30
0.0
 11
66.95808639110328
 21
20.74708599881524
 31
0.0
  0
LINE
  5
20159
330
1A
100
AcDbEntity
  8
dim
100
AcDbLine
 10
66.95808639110328
 20
21.70708607555389
 30
0.0
 11
63.9580861511713
 21
21.22708603718456
 31
0.0
  0
LINE
  5
2015A
330
1A
100
AcDbEntity
  8
dim
100
AcDbLine
 10
63.9580861511713
 20
19.73908591813779
 30
0.0
 11
63.9580861511713
 21
24.25108627910049
 31
0.0
  0
LINE
  5
2015B
330
1A
100
AcDbEntity
  8
dim
100
AcDbLine
 10
78.95808620856406
 20
19.73908591813779
 30
0.0
 11
78.95808620856406
 21
24.25108627910049
 31
0.0
  0
LINE
  5
2015C
330
1A
100
AcDbEntity
  8
dim
100
AcDbLine
 10
75.95808596852293
 20
21.70708607555389
 30
0.0
 11
75.95808596852293
 21
20.74708599881524
 31
0.0
  0
LINE
  5
2015D
330
1A
100
AcDbEntity
  8
dim
100
AcDbLine
 10
75.95808596852293
 20
20.98708601795625
 30
0.0
 11
78.95808620857133
 21
21.22708603718456
 31
0.0
  0
LINE
  5
2015E
330
1A
100
AcDbEntity
  8
dim
100
AcDbLine
 10
75.95808596852293
 20
21.46708605641288
 30
0.0
 11
78.95808620857133
 21
21.22708603718456
 31
0.0
  0
LINE
  5
2015F
330
1A
100
AcDbEntity
  8
dim
100
AcDbLine
 10
78.95808620857133
 20
21.22708603718456
 30
0.0
 11
75.95808596852293
 21
20.74708599881524
 31
0.0
  0
LINE
  5
20160
330
1A
100
AcDbEntity
  8
dim
100
AcDbLine
 10
75.95808596852293
 20
21.70708607555389
 30
0.0
 11
78.95808620857133
 21
21.22708603718456
 31
0.0
  0
MTEXT
  5
20161
330
1A
100
AcDbEntity
  8
ELEVATION
100
AcDbMText
 10
87.82528755586827
 20
22.37044839713053
 30
0.0
 40
1.5
 41
16.72806135042629
 71
     5
 72
     5
  1
{\H0.8333x;INTERIOR\PELEVATION}
  7
ELEVATION
 73
     1
 44
1.0
  0
MTEXT
  5
20162
330
1A
100
AcDbEntity
  8
ELEVATION
100
AcDbMText
 10
44.86373733878281
 20
68.55137194587951
 30
0.0
 40
1.5
 41
21.86809248175996
 71
     3
 72
     5
  1
RECESSED HANDLE
  7
ELEVATION
 73
     1
 44
1.0
  0
MTEXT
  5
20163
330
1A
100
AcDbEntity
  8
ELEVATION
100
AcDbMText
 10
44.86703707397828
 20
65.24958767174394
 30
0.0
 40
1.5
 41
21.11797386984599
 71
     3
 72
     5
  1
LOCK HOLE FILLER
  7
ELEVATION
 73
     1
 44
1.0
  0
MTEXT
  5
20164
330
1A
100
AcDbEntity
  8
ELEVATION
100
AcDbMText
 10
44.70815487311483
 20
90.32349667216113
 30
0.0
 40
1.5
 41
17.95216092238024
 71
     3
 72
     5
  1
NUMBER PLATE
  7
ELEVATION
 73
     1
 44
1.0
  0
MTEXT
  5
20165
330
1A
100
AcDbEntity
  8
ELEVATION
100
AcDbMText
 10
44.86373733877553
 20
85.50237217287394
 30
0.0
 40
1.5
 41
27.99094968113787
 71
     3
 72
     5
  1
1-DOUBLE & 3-SINGLE PRONG HOOKS
  7
ELEVATION
 73
     1
 44
1.0
  0
MTEXT
  5
20166
330
1A
100
AcDbEntity
  8
ELEVATION
100
AcDbMText
 10
44.86373733877553
 20
79.63817836249109
 30
0.0
 40
1.5
 41
29.66639667126583
 71
     3
 72
     5
  1
SHELF
  7
ELEVATION
 73
     1
 44
1.0
1001
ACAD
1000
ACAD_MTEXT_DEFINED_HEIGHT_BEGIN
1070
    46
1040
1.051387094485107
1000
ACAD_MTEXT_DEFINED_HEIGHT_END
  0
MTEXT
  5
20167
330
1A
100
AcDbEntity
  8
ELEVATION
100
AcDbMText
 10
44.86373733878281
 20
35.87814947551851
 30
0.0
 40
1.5
 41
35.03720885620714
 71
     3
 72
     5
  1
DIAMOND PERFORATED DOORS
  7
ELEVATION
 73
     1
 44
1.0
  0
LINE
  5
20168
330
1A
100
AcDbEntity
  8
diamonds
  6
PHANTOM2
 62
     2
 48
2.0
100
AcDbLine
 10
53.47387120235362
 20
70.7968673450996
 30
0.0
 11
53.47387120233179
 21
89.10130892252709
 31
0.0
  0
LINE
  5
20169
330
1A
100
AcDbEntity
  8
diamonds
  6
PHANTOM2
 62
     2
 48
2.0
100
AcDbLine
 10
52.70819275815302
 20
88.22877698782759
 30
0.0
 11
60.20805539227149
 21
88.22877698782576
 31
0.0
  0
LINE
  5
2016A
330
1A
100
AcDbEntity
  8
diamonds
  6
PHANTOM2
 62
     2
 48
2.0
100
AcDbLine
 10
59.47387120234634
 20
70.7968673450996
 30
0.0
 11
59.47387120233179
 21
89.10130892252709
 31
0.0
  0
LINE
  5
2016B
330
1A
100
AcDbEntity
  8
diamonds
  6
PHANTOM2
 62
     2
 48
2.0
100
AcDbLine
 10
52.70819275815302
 20
70.99121676309187
 30
0.0
 11
60.20805539227149
 21
70.99121676309187
 31
0.0
  0
LINE
  5
2016C
330
1A
100
AcDbEntity
  8
diamonds
  6
PHANTOM2
 62
     2
 48
2.0
100
AcDbLine
 10
53.47387120236817
 20
35.4843673450996
 30
0.0
 11
53.47387120233179
 21
59.7888089225271
 31
0.0
  0
LINE
  5
2016D
330
1A
100
AcDbEntity
  8
diamonds
  6
PHANTOM2
 62
     2
 48
2.0
100
AcDbLine
 10
52.70819275815302
 20
58.91627698782759
 30
0.0
 11
60.20805539227149
 21
58.91627698782577
 31
0.0
  0
LINE
  5
2016E
330
1A
100
AcDbEntity
  8
diamonds
  6
PHANTOM2
 62
     2
 48
2.0
100
AcDbLine
 10
59.47387120235362
 20
35.4843673450996
 30
0.0
 11
59.47387120233179
 21
59.7888089225271
 31
0.0
  0
LINE
  5
2016F
330
1A
100
AcDbEntity
  8
diamonds
  6
PHANTOM2
 62
     2
 48
2.0
100
AcDbLine
 10
52.70819275815302
 20
35.67871676309187
 30
0.0
 11
60.20805539227149
 21
35.67871676309187
 31
0.0
  0
INSERT
  5
20170
330
1A
100
AcDbEntity
  8
OBJECT
100
AcDbBlockReference
  2
A$C6895fdcc
 10
73.47377964959742
 20
88.24121675466813
 30
0.0
  0
INSERT
  5
20171
330
1A
100
AcDbEntity
  8
OBJECT
100
AcDbBlockReference
  2
A$C6895fdcc
 10
74.47377964959741
 20
88.24121675466813
 30
0.0
  0
INSERT
  5
20172
330
1A
100
AcDbEntity
  8
OBJECT
100
AcDbBlockReference
  2
A$C6895fdcc
 10
69.47377964959741
 20
88.24121675466813
 30
0.0
  0
INSERT
  5
20173
330
1A
100
AcDbEntity
  8
OBJECT
100
AcDbBlockReference
  2
A$C6895fdcc
 10
68.47377964959742
 20
88.24121675466813
 30
0.0
  0
INSERT
  5
20174
330
1A
100
AcDbEntity
  8
OBJECT
100
AcDbBlockReference
  2
A$C6895fdcc
 10
73.97377964959741
 20
87.49121675466813
 30
0.0
  0
INSERT
  5
20175
330
1A
100
AcDbEntity
  8
OBJECT
100
AcDbBlockReference
  2
A$C6895fdcc
 10
68.97377964959741
 20
87.49121675466813
 30
0.0
  0
INSERT
  5
20176
330
1A
100
AcDbEntity
  8
OBJECT
100
AcDbBlockReference
  2
A$C6895fdcc
 10
74.47377964959741
 20
86.74121675466812
 30
0.0
  0
INSERT
  5
20177
330
1A
100
AcDbEntity
  8
OBJECT
100
AcDbBlockReference
  2
A$C6895fdcc
 10
68.47377964959742
 20
86.74121675466812
 30
0.0
  0
INSERT
  5
20178
330
1A
100
AcDbEntity
  8
OBJECT
100
AcDbBlockReference
  2
A$C6895fdcc
 10
74.47377964959741
 20
85.24121675466814
 30
0.0
  0
INSERT
  5
20179
330
1A
100
AcDbEntity
  8
OBJECT
100
AcDbBlockReference
  2
A$C6895fdcc
 10
68.47377964959742
 20
85.24121675466814
 30
0.0
  0
INSERT
  5
2017A
330
1A
100
AcDbEntity
  8
OBJECT
100
AcDbBlockReference
  2
A$C6895fdcc
 10
74.47377964959741
 20
83.74121675466813
 30
0.0
  0
INSERT
  5
2017B
330
1A
100
AcDbEntity
  8
OBJECT
100
AcDbBlockReference
  2
A$C6895fdcc
 10
68.47377964959742
 20
83.74121675466813
 30
0.0
  0
INSERT
  5
2017C
330
1A
100
AcDbEntity
  8
OBJECT
100
AcDbBlockReference
  2
A$C6895fdcc
 10
74.47377964959741
 20
82.24121675466813
 30
0.0
  0
INSERT
  5
2017D
330
1A
100
AcDbEntity
  8
OBJECT
100
AcDbBlockReference
  2
A$C6895fdcc
 10
68.47377964959742
 20
82.24121675466813
 30
0.0
  0
INSERT
  5
2017E
330
1A
100
AcDbEntity
  8
OBJECT
100
AcDbBlockReference
  2
A$C6895fdcc
 10
74.47377964959741
 20
80.74121675466813
 30
0.0
  0
INSERT
  5
2017F
330
1A
100
AcDbEntity
  8
OBJECT
100
AcDbBlockReference
  2
A$C6895fdcc
 10
68.47377964959742
 20
80.74121675466813
 30
0.0
  0
INSERT
  5
20180
330
1A
100
AcDbEntity
  8
OBJECT
100
AcDbBlockReference
  2
A$C6895fdcc
 10
74.47377964959741
 20
79.24121675466813
 30
0.0
  0
INSERT
  5
20181
330
1A
100
AcDbEntity
  8
OBJECT
100
AcDbBlockReference
  2
A$C6895fdcc
 10
68.47377964959742
 20
79.24121675466813
 30
0.0
  0
INSERT
  5
20182
330
1A
100
AcDbEntity
  8
OBJECT
100
AcDbBlockReference
  2
A$C6895fdcc
 10
74.47377964959741
 20
77.74121675466813
 30
0.0
  0
INSERT
  5
20183
330
1A
100
AcDbEntity
  8
OBJECT
100
AcDbBlockReference
  2
A$C6895fdcc
 10
68.47377964959742
 20
77.74121675466813
 30
0.0
  0
INSERT
  5
20184
330
1A
100
AcDbEntity
  8
OBJECT
100
AcDbBlockReference
  2
A$C6895fdcc
 10
74.47377964959741
 20
76.24121675466813
 30
0.0
  0
INSERT
  5
20185
330
1A
100
AcDbEntity
  8
OBJECT
100
AcDbBlockReference
  2
A$C6895fdcc
 10
68.47377964959742
 20
76.24121675466813
 30
0.0
  0
INSERT
  5
20186
330
1A
100
AcDbEntity
  8
OBJECT
100
AcDbBlockReference
  2
A$C6895fdcc
 10
74.47377964959741
 20
74.74121675466813
 30
0.0
  0
INSERT
  5
20187
330
1A
100
AcDbEntity
  8
OBJECT
100
AcDbBlockReference
  2
A$C6895fdcc
 10
68.47377964959742
 20
74.74121675466813
 30
0.0
  0
INSERT
  5
20188
330
1A
100
AcDbEntity
  8
OBJECT
100
AcDbBlockReference
  2
A$C6895fdcc
 10
74.47377964959741
 20
73.24121675466813
 30
0.0
  0
INSERT
  5
20189
330
1A
100
AcDbEntity
  8
OBJECT
100
AcDbBlockReference
  2
A$C6895fdcc
 10
68.47377964959742
 20
73.24121675466813
 30
0.0
  0
INSERT
  5
2018A
330
1A
100
AcDbEntity
  8
OBJECT
100
AcDbBlockReference
  2
A$C6895fdcc
 10
73.97377964959741
 20
72.49121675466813
 30
0.0
  0
INSERT
  5
2018B
330
1A
100
AcDbEntity
  8
OBJECT
100
AcDbBlockReference
  2
A$C6895fdcc
 10
68.97377964959741
 20
72.49121675466813
 30
0.0
  0
INSERT
  5
2018C
330
1A
100
AcDbEntity
  8
OBJECT
100
AcDbBlockReference
  2
A$C6895fdcc
 10
74.47377964959741
 20
71.74121675466813
 30
0.0
  0
INSERT
  5
2018D
330
1A
100
AcDbEntity
  8
OBJECT
100
AcDbBlockReference
  2
A$C6895fdcc
 10
68.47377964959742
 20
71.74121675466813
 30
0.0
  0
INSERT
  5
2018E
330
1A
100
AcDbEntity
  8
OBJECT
100
AcDbBlockReference
  2
A$C6895fdcc
 10
73.97377964959741
 20
70.99121675466813
 30
0.0
  0
INSERT
  5
2018F
330
1A
100
AcDbEntity
  8
OBJECT
100
AcDbBlockReference
  2
A$C6895fdcc
 10
68.97377964959741
 20
70.99121675466813
 30
0.0
  0
INSERT
  5
20190
330
1A
100
AcDbEntity
  8
OBJECT
100
AcDbBlockReference
  2
A$C6895fdcc
 10
73.47377964959742
 20
58.92871675466813
 30
0.0
  0
INSERT
  5
20191
330
1A
100
AcDbEntity
  8
OBJECT
100
AcDbBlockReference
  2
A$C6895fdcc
 10
74.47377964959741
 20
58.92871675466813
 30
0.0
  0
INSERT
  5
20192
330
1A
100
AcDbEntity
  8
OBJECT
100
AcDbBlockReference
  2
A$C6895fdcc
 10
69.47377964959741
 20
58.92871675466813
 30
0.0
  0
INSERT
  5
20193
330
1A
100
AcDbEntity
  8
OBJECT
100
AcDbBlockReference
  2
A$C6895fdcc
 10
68.47377964959742
 20
58.92871675466813
 30
0.0
  0
INSERT
  5
20194
330
1A
100
AcDbEntity
  8
OBJECT
100
AcDbBlockReference
  2
A$C6895fdcc
 10
73.97377964959741
 20
58.17871675466813
 30
0.0
  0
INSERT
  5
20195
330
1A
100
AcDbEntity
  8
OBJECT
100
AcDbBlockReference
  2
A$C6895fdcc
 10
68.97377964959741
 20
58.17871675466813
 30
0.0
  0
INSERT
  5
20196
330
1A
100
AcDbEntity
  8
OBJECT
100
AcDbBlockReference
  2
A$C6895fdcc
 10
74.47377964959741
 20
57.42871675466813
 30
0.0
  0
INSERT
  5
20197
330
1A
100
AcDbEntity
  8
OBJECT
100
AcDbBlockReference
  2
A$C6895fdcc
 10
68.47377964959742
 20
57.42871675466813
 30
0.0
  0
INSERT
  5
20198
330
1A
100
AcDbEntity
  8
OBJECT
100
AcDbBlockReference
  2
A$C6895fdcc
 10
74.47377964959741
 20
55.92871675466813
 30
0.0
  0
INSERT
  5
20199
330
1A
100
AcDbEntity
  8
OBJECT
100
AcDbBlockReference
  2
A$C6895fdcc
 10
68.47377964959742
 20
55.92871675466813
 30
0.0
  0
INSERT
  5
2019A
330
1A
100
AcDbEntity
  8
OBJECT
100
AcDbBlockReference
  2
A$C6895fdcc
 10
74.47377964959741
 20
54.42871675466813
 30
0.0
  0
INSERT
  5
2019B
330
1A
100
AcDbEntity
  8
OBJECT
100
AcDbBlockReference
  2
A$C6895fdcc
 10
68.47377964959742
 20
54.42871675466813
 30
0.0
  0
INSERT
  5
2019C
330
1A
100
AcDbEntity
  8
OBJECT
100
AcDbBlockReference
  2
A$C6895fdcc
 10
74.47377964959741
 20
52.92871675466813
 30
0.0
  0
INSERT
  5
2019D
330
1A
100
AcDbEntity
  8
OBJECT
100
AcDbBlockReference
  2
A$C6895fdcc
 10
68.47377964959742
 20
52.92871675466813
 30
0.0
  0
INSERT
  5
2019E
330
1A
100
AcDbEntity
  8
OBJECT
100
AcDbBlockReference
  2
A$C6895fdcc
 10
74.47377964959741
 20
51.42871675466813
 30
0.0
  0
INSERT
  5
2019F
330
1A
100
AcDbEntity
  8
OBJECT
100
AcDbBlockReference
  2
A$C6895fdcc
 10
68.47377964959742
 20
51.42871675466813
 30
0.0
  0
INSERT
  5
201A0
330
1A
100
AcDbEntity
  8
OBJECT
100
AcDbBlockReference
  2
A$C6895fdcc
 10
74.47377964959741
 20
49.92871675466813
 30
0.0
  0
INSERT
  5
201A1
330
1A
100
AcDbEntity
  8
OBJECT
100
AcDbBlockReference
  2
A$C6895fdcc
 10
68.47377964959742
 20
49.92871675466813
 30
0.0
  0
INSERT
  5
201A2
330
1A
100
AcDbEntity
  8
OBJECT
100
AcDbBlockReference
  2
A$C6895fdcc
 10
74.47377964959741
 20
48.42871675466813
 30
0.0
  0
INSERT
  5
201A3
330
1A
100
AcDbEntity
  8
OBJECT
100
AcDbBlockReference
  2
A$C6895fdcc
 10
68.47377964959742
 20
48.42871675466813
 30
0.0
  0
INSERT
  5
201A4
330
1A
100
AcDbEntity
  8
OBJECT
100
AcDbBlockReference
  2
A$C6895fdcc
 10
74.47377964959741
 20
46.92871675466813
 30
0.0
  0
INSERT
  5
201A5
330
1A
100
AcDbEntity
  8
OBJECT
100
AcDbBlockReference
  2
A$C6895fdcc
 10
68.47377964959742
 20
46.92871675466813
 30
0.0
  0
INSERT
  5
201A6
330
1A
100
AcDbEntity
  8
OBJECT
100
AcDbBlockReference
  2
A$C6895fdcc
 10
74.47377964959741
 20
45.42871675466813
 30
0.0
  0
INSERT
  5
201A7
330
1A
100
AcDbEntity
  8
OBJECT
100
AcDbBlockReference
  2
A$C6895fdcc
 10
68.47377964959742
 20
45.42871675466813
 30
0.0
  0
INSERT
  5
201A8
330
1A
100
AcDbEntity
  8
OBJECT
100
AcDbBlockReference
  2
A$C6895fdcc
 10
74.47377964959741
 20
43.92871675466813
 30
0.0
  0
INSERT
  5
201A9
330
1A
100
AcDbEntity
  8
OBJECT
100
AcDbBlockReference
  2
A$C6895fdcc
 10
68.47377964959742
 20
43.92871675466813
 30
0.0
  0
INSERT
  5
201AA
330
1A
100
AcDbEntity
  8
OBJECT
100
AcDbBlockReference
  2
A$C6895fdcc
 10
74.47377964959741
 20
42.42871675466813
 30
0.0
  0
INSERT
  5
201AB
330
1A
100
AcDbEntity
  8
OBJECT
100
AcDbBlockReference
  2
A$C6895fdcc
 10
68.47377964959742
 20
42.42871675466813
 30
0.0
  0
INSERT
  5
201AC
330
1A
100
AcDbEntity
  8
OBJECT
100
AcDbBlockReference
  2
A$C6895fdcc
 10
74.47377964959741
 20
40.92871675466812
 30
0.0
  0
INSERT
  5
201AD
330
1A
100
AcDbEntity
  8
OBJECT
100
AcDbBlockReference
  2
A$C6895fdcc
 10
68.47377964959742
 20
40.92871675466812
 30
0.0
  0
INSERT
  5
201AE
330
1A
100
AcDbEntity
  8
OBJECT
100
AcDbBlockReference
  2
A$C6895fdcc
 10
74.47377964959741
 20
39.42871675466813
 30
0.0
  0
INSERT
  5
201AF
330
1A
100
AcDbEntity
  8
OBJECT
100
AcDbBlockReference
  2
A$C6895fdcc
 10
68.47377964959742
 20
39.42871675466813
 30
0.0
  0
INSERT
  5
201B0
330
1A
100
AcDbEntity
  8
OBJECT
100
AcDbBlockReference
  2
A$C6895fdcc
 10
74.47377964959741
 20
37.92871675466813
 30
0.0
  0
INSERT
  5
201B1
330
1A
100
AcDbEntity
  8
OBJECT
100
AcDbBlockReference
  2
A$C6895fdcc
 10
68.47377964959742
 20
37.92871675466813
 30
0.0
  0
INSERT
  5
201B2
330
1A
100
AcDbEntity
  8
OBJECT
100
AcDbBlockReference
  2
A$C6895fdcc
 10
73.97377964959741
 20
37.17871675466813
 30
0.0
  0
INSERT
  5
201B3
330
1A
100
AcDbEntity
  8
OBJECT
100
AcDbBlockReference
  2
A$C6895fdcc
 10
68.97377964959741
 20
37.17871675466813
 30
0.0
  0
INSERT
  5
201B4
330
1A
100
AcDbEntity
  8
OBJECT
100
AcDbBlockReference
  2
A$C6895fdcc
 10
74.47377964959741
 20
36.42871675466813
 30
0.0
  0
INSERT
  5
201B5
330
1A
100
AcDbEntity
  8
OBJECT
100
AcDbBlockReference
  2
A$C6895fdcc
 10
68.47377964959742
 20
36.42871675466813
 30
0.0
  0
INSERT
  5
201B6
330
1A
100
AcDbEntity
  8
OBJECT
100
AcDbBlockReference
  2
A$C6895fdcc
 10
73.97377964959741
 20
35.67871675466813
 30
0.0
  0
INSERT
  5
201B7
330
1A
100
AcDbEntity
  8
OBJECT
100
AcDbBlockReference
  2
A$C6895fdcc
 10
68.97377964959741
 20
35.67871675466813
 30
0.0
  0
LINE
  5
201B8
330
1A
100
AcDbEntity
  8
diamonds
  6
PHANTOM2
 62
     2
 48
2.0
100
AcDbLine
 10
68.47387120235362
 20
70.7968673450996
 30
0.0
 11
68.47387120233179
 21
89.10130892252709
 31
0.0
  0
LINE
  5
201B9
330
1A
100
AcDbEntity
  8
diamonds
  6
PHANTOM2
 62
     2
 48
2.0
100
AcDbLine
 10
67.70819275815302
 20
88.22877698782759
 30
0.0
 11
75.20805539227149
 21
88.22877698782576
 31
0.0
  0
LINE
  5
201BA
330
1A
100
AcDbEntity
  8
diamonds
  6
PHANTOM2
 62
     2
 48
2.0
100
AcDbLine
 10
74.47387120234634
 20
70.7968673450996
 30
0.0
 11
74.47387120233179
 21
89.10130892252709
 31
0.0
  0
LINE
  5
201BB
330
1A
100
AcDbEntity
  8
diamonds
  6
PHANTOM2
 62
     2
 48
2.0
100
AcDbLine
 10
67.70819275815302
 20
70.99121676309187
 30
0.0
 11
75.20805539227149
 21
70.99121676309187
 31
0.0
  0
LINE
  5
201BC
330
1A
100
AcDbEntity
  8
diamonds
  6
PHANTOM2
 62
     2
 48
2.0
100
AcDbLine
 10
68.47387120236817
 20
35.4843673450996
 30
0.0
 11
68.47387120233179
 21
59.7888089225271
 31
0.0
  0
LINE
  5
201BD
330
1A
100
AcDbEntity
  8
diamonds
  6
PHANTOM2
 62
     2
 48
2.0
100
AcDbLine
 10
67.70819275815302
 20
58.91627698782759
 30
0.0
 11
75.20805539227149
 21
58.91627698782577
 31
0.0
  0
LINE
  5
201BE
330
1A
100
AcDbEntity
  8
diamonds
  6
PHANTOM2
 62
     2
 48
2.0
100
AcDbLine
 10
74.47387120235362
 20
35.4843673450996
 30
0.0
 11
74.47387120233179
 21
59.7888089225271
 31
0.0
  0
LINE
  5
201BF
330
1A
100
AcDbEntity
  8
diamonds
  6
PHANTOM2
 62
     2
 48
2.0
100
AcDbLine
 10
67.70819275815302
 20
35.67871676309187
 30
0.0
 11
75.20805539227149
 21
35.67871676309187
 31
0.0
  0
ENDSEC
  0
SECTION
  2
OBJECTS
  0
DICTIONARY
  5
C
330
0
100
AcDbDictionary
281
     1
  3
ACAD_CIP_PREVIOUS_PRODUCT_INFO
350
1954F
  3
ACAD_COLOR
350
152C8
  3
ACAD_DETAILVIEWSTYLE
350
19549
  3
ACAD_DGNLINESTYLECOMP
350
1E8EC
  3
ACAD_GROUP
350
D
  3
ACAD_IMAGE_DICT
350
D338
  3
ACAD_LAYOUT
350
5D96
  3
ACAD_MATERIAL
350
152C7
  3
ACAD_MLEADERSTYLE
350
18BCA
  3
ACAD_MLINESTYLE
350
E
  3
ACAD_PLOTSETTINGS
350
5D97
  3
ACAD_PLOTSTYLENAME
350
5D94
  3
ACAD_SCALELIST
350
18BA8
  3
ACAD_SECTIONVIEWSTYLE
350
19546
  3
ACAD_TABLESTYLE
350
1835B
  3
ACAD_VISUALSTYLE
350
1834A
  3
AcadDim
350
16861
  3
ACDB_RECOMPOSE_DATA
350
20260
  3
AcDbVariableDictionary
350
F6BD
  3
AEC_PROPERTY_SET_DEFS
350
19250
  3
BNS_SELSET
350
54CC
  0
DICTIONARY
  5
1857C
330
8
100
AcDbDictionary
280
     1
281
     1
  0
DICTIONARY
  5
18C2C
330
2
100
AcDbDictionary
280
     1
281
     1
  3
ACAD_LAYERSTATES
360
18C2D
  0
DICTIONARY
  5
18BD0
330
F
100
AcDbDictionary
280
     1
281
     1
  3
ADSK_XREC_LAYER_RECONCILED
360
18BD1
  0
DICTIONARY
  5
18BD2
330
36
100
AcDbDictionary
280
     1
281
     1
  3
ADSK_XREC_LAYER_RECONCILED
360
18BD3
  0
DICTIONARY
  5
18BD6
330
14178
100
AcDbDictionary
280
     1
281
     1
  3
ADSK_XREC_LAYER_RECONCILED
360
18BD7
  0
DICTIONARY
  5
1A809
330
1A808
100
AcDbDictionary
280
     1
281
     1
  0
DICTIONARY
  5
1A80B
330
1A80A
100
AcDbDictionary
280
     1
281
     1
  0
DICTIONARY
  5
1A80D
330
1A80C
100
AcDbDictionary
280
     1
281
     1
  0
DICTIONARY
  5
1A80F
330
1A80E
100
AcDbDictionary
280
     1
281
     1
  0
DICTIONARY
  5
1E73C
330
1E73B
100
AcDbDictionary
280
     1
281
     1
  0
DICTIONARY
  5
1E740
330
1E73F
100
AcDbDictionary
280
     1
281
     1
  0
DICTIONARY
  5
1E742
330
1E741
100
AcDbDictionary
280
     1
281
     1
  0
DICTIONARY
  5
1E745
330
1E744
100
AcDbDictionary
280
     1
281
     1
  0
DICTIONARY
  5
1E747
330
1E746
100
AcDbDictionary
280
     1
281
     1
  0
DICTIONARY
  5
1E749
330
1E748
100
AcDbDictionary
280
     1
281
     1
  0
DICTIONARY
  5
1EFB9
330
1EFB8
100
AcDbDictionary
280
     1
281
     1
  0
DICTIONARY
  5
183EF
330
1A
100
AcDbDictionary
280
     1
281
     1
  3
ACAD_SORTENTS
360
183F0
  0
DICTIONARY
  5
1E708
330
1E707
100
AcDbDictionary
280
     1
281
     1
  3
ACAD_SORTENTS
360
1E709
  0
DICTIONARY
  5
1E72D
330
1E72C
100
AcDbDictionary
280
     1
281
     1
  3
ACAD_SORTENTS
360
1E72E
  0
XRECORD
  5
1954F
102
{ACAD_REACTORS
330
C
102
}
330
C
100
AcDbXrecord
280
     1
300
AMECH_PP
300
2013
300
AMECH_PP_F_S
  0
DICTIONARY
  5
152C8
102
{ACAD_REACTORS
330
C
102
}
330
C
100
AcDbDictionary
281
     1
  0
DICTIONARY
  5
19549
102
{ACAD_REACTORS
330
C
102
}
330
C
100
AcDbDictionary
281
     1
  3
Imperial24
350
1954A
  0
DICTIONARY
  5
1E8EC
102
{ACAD_REACTORS
330
C
102
}
330
C
100
AcDbDictionary
280
     1
281
     1
  3
Base$0$base5.14.12$0$DGN2
360
1E8ED
  3
Base$0$base5.14.12$0$DGN3
360
1E8EE
  3
Base$0$DGN2
360
1E8EF
  3
Base$0$DGN3
360
1E8F0
  3
Base$0$DGN7
360
1E8F1
  3
Base$0$etopo$0$DGN2
360
1E8F2
  3
Base$0$etopo$0$DGN3
360
1E8F3
  3
Base$0$X103294002ebs01$0$DGN2
360
1E8F4
  3
Base$0$X103294002ebs01$0$DGN3
360
1E8F5
  3
Base$0$X103294002ebs01$0$etopo$0$DGN2
360
1E8F6
  3
Base$0$X103294002ebs01$0$etopo$0$DGN3
360
1E8F7
  3
Base$0$X103294002pbs01$0$DGN2
360
1E8F8
  3
Base$0$X103294002pbs01$0$DGN3
360
1E8F9
  3
Base$0$X103294002pbs01$0$etopo$0$DGN2
360
1E8FA
  3
Base$0$X103294002pbs01$0$etopo$0$DGN3
360
1E8FB
  3
Base$0$X103294002pto01$0$DGN2
360
1E8FC
  3
Base$0$X103294002pto01$0$DGN3
360
1E8FD
  3
Base$0$X103294002pto01$0$etopo$0$DGN2
360
1E8FE
  3
Base$0$X103294002pto01$0$etopo$0$DGN3
360
1E8FF
  3
base5.14.12$0$DGN2
360
1E900
  3
base5.14.12$0$DGN3
360
1E901
  3
DGN2
360
1E902
  3
DGN3
360
1E903
  3
DGN7
360
1E904
  3
etopo$0$DGN2
360
1E905
  3
etopo$0$DGN3
360
1E906
  3
TB_24X36_SUB$0$base5.14.12$0$DGN2
360
1E907
  3
TB_24X36_SUB$0$base5.14.12$0$DGN3
360
1E908
  3
TB_24X36_SUB$0$DGN2
360
1E909
  3
TB_24X36_SUB$0$DGN3
360
1E90A
  3
TB_24X36_SUB$0$DGN7
360
1E90B
  3
TB_24X36_SUB$0$etopo$0$DGN2
360
1E90C
  3
TB_24X36_SUB$0$etopo$0$DGN3
360
1E90D
  3
TB_24X36_SUB$0$X103294002ebs01$0$DGN2
360
1E90E
  3
TB_24X36_SUB$0$X103294002ebs01$0$DGN3
360
1E90F
  3
TB_24X36_SUB$0$X103294002ebs01$0$etopo$0$DGN2
360
1E910
  3
TB_24X36_SUB$0$X103294002ebs01$0$etopo$0$DGN3
360
1E911
  3
TB_24X36_SUB$0$X103294002pbs01$0$DGN2
360
1E912
  3
TB_24X36_SUB$0$X103294002pbs01$0$DGN3
360
1E913
  3
TB_24X36_SUB$0$X103294002pbs01$0$etopo$0$DGN2
360
1E914
  3
TB_24X36_SUB$0$X103294002pbs01$0$etopo$0$DGN3
360
1E915
  3
TB_24X36_SUB$0$X103294002pto01$0$DGN2
360
1E916
  3
TB_24X36_SUB$0$X103294002pto01$0$DGN3
360
1E917
  3
TB_24X36_SUB$0$X103294002pto01$0$etopo$0$DGN2
360
1E918
  3
TB_24X36_SUB$0$X103294002pto01$0$etopo$0$DGN3
360
1E919
  3
Topo$0$base5.14.12$0$DGN2
360
1E91A
  3
Topo$0$base5.14.12$0$DGN3
360
1E91B
  3
Topo$0$DGN2
360
1E91C
  3
Topo$0$DGN3
360
1E91D
  3
Topo$0$DGN7
360
1E91E
  3
Topo$0$etopo$0$DGN2
360
1E91F
  3
Topo$0$etopo$0$DGN3
360
1E920
  3
Topo$0$X103294002ebs01$0$DGN2
360
1E921
  3
Topo$0$X103294002ebs01$0$DGN3
360
1E922
  3
Topo$0$X103294002ebs01$0$etopo$0$DGN2
360
1E923
  3
Topo$0$X103294002ebs01$0$etopo$0$DGN3
360
1E924
  3
Topo$0$X103294002pbs01$0$DGN2
360
1E925
  3
Topo$0$X103294002pbs01$0$DGN3
360
1E926
  3
Topo$0$X103294002pbs01$0$etopo$0$DGN2
360
1E927
  3
Topo$0$X103294002pbs01$0$etopo$0$DGN3
360
1E928
  3
Topo$0$X103294002pto01$0$DGN2
360
1E929
  3
Topo$0$X103294002pto01$0$DGN3
360
1E92A
  3
Topo$0$X103294002pto01$0$etopo$0$DGN2
360
1E92B
  3
Topo$0$X103294002pto01$0$etopo$0$DGN3
360
1E92C
  3
X103294002ebs01$0$DGN2
360
1E92D
  3
X103294002ebs01$0$DGN3
360
1E92E
  3
X103294002ebs01$0$etopo$0$DGN2
360
1E92F
  3
X103294002ebs01$0$etopo$0$DGN3
360
1E930
  3
X103294002pbs01$0$DGN2
360
1E931
  3
X103294002pbs01$0$DGN3
360
1E932
  3
X103294002pbs01$0$etopo$0$DGN2
360
1E933
  3
X103294002pbs01$0$etopo$0$DGN3
360
1E934
  3
X103294002pto01$0$DGN2
360
1E935
  3
X103294002pto01$0$DGN3
360
1E936
  3
X103294002pto01$0$etopo$0$DGN2
360
1E937
  3
X103294002pto01$0$etopo$0$DGN3
360
1E938
  0
DICTIONARY
  5
D
102
{ACAD_REACTORS
330
C
102
}
330
C
100
AcDbDictionary
281
     1
  0
DICTIONARY
  5
D338
102
{ACAD_REACTORS
330
C
102
}
330
C
100
AcDbDictionary
281
     1
  3
BENCH_WITH_BRACKET_SUPPORT
350
D339
  0
DICTIONARY
  5
5D96
102
{ACAD_REACTORS
330
C
102
}
330
C
100
AcDbDictionary
281
     1
  3
Layout1
350
5D99
  3
Model
350
5D98
  0
DICTIONARY
  5
152C7
102
{ACAD_REACTORS
330
C
102
}
330
C
100
AcDbDictionary
281
     1
  3
ByBlock
350
18348
  3
ByLayer
350
18347
  3
Global
350
18349
  0
DICTIONARY
  5
18BCA
102
{ACAD_REACTORS
330
C
102
}
330
C
100
AcDbDictionary
281
     1
  3
Standard
350
18BCB
  0
DICTIONARY
  5
E
102
{ACAD_REACTORS
330
C
102
}
330
C
100
AcDbDictionary
281
     1
  3
STANDARD
350
13
  0
DICTIONARY
  5
5D97
102
{ACAD_REACTORS
330
C
102
}
330
C
100
AcDbDictionary
281
     1
  3
LASERJET5000 (MODEL)
350
7F14
  3
OCE 22x34 (MODEL)
350
D238
  0
ACDBDICTIONARYWDFLT
  5
5D94
102
{ACAD_REACTORS
330
C
102
}
330
C
100
AcDbDictionary
281
     1
  3
Normal
350
5D95
100
AcDbDictionaryWithDefault
340
5D95
  0
DICTIONARY
  5
18BA8
102
{ACAD_REACTORS
330
C
102
}
330
C
100
AcDbDictionary
281
     1
  3
A0
350
18BA9
  3
A1
350
18BAA
  3
A2
350
18BAB
  3
A3
350
18BAC
  3
A4
350
18BAD
  3
A5
350
18BAE
  3
A6
350
18BAF
  3
A7
350
18BB0
  3
A8
350
18BB1
  3
A9
350
18BB2
  3
B0
350
18BB3
  3
B1
350
18BB4
  3
B2
350
18BB5
  3
B3
350
18BB6
  3
B4
350
18BB7
  3
B5
350
18BB8
  3
B6
350
18BB9
  3
B7
350
18BBA
  3
B8
350
18BBB
  3
B9
350
18BBC
  3
C0
350
18BBD
  3
C1
350
18BBE
  3
C2
350
18BBF
  3
C3
350
18BC0
  3
C4
350
18BC1
  3
C5
350
18BC2
  3
C6
350
18BC3
  3
C7
350
18BC4
  3
C8
350
18BC5
  3
C9
350
18BC6
  3
D0
350
18BC7
  3
D1
350
18BC8
  3
D2
350
18BC9
  0
DICTIONARY
  5
19546
102
{ACAD_REACTORS
330
C
102
}
330
C
100
AcDbDictionary
281
     1
  3
Imperial24
350
19548
  0
DICTIONARY
  5
1835B
102
{ACAD_REACTORS
330
C
102
}
330
C
100
AcDbDictionary
281
     1
  3
Standard
350
1835C
  0
DICTIONARY
  5
1834A
102
{ACAD_REACTORS
330
C
102
}
330
C
100
AcDbDictionary
281
     1
  3
2dWireframe
350
18350
  3
3D Hidden
350
18B33
  3
3dWireframe
350
18B32
  3
Basic
350
1834F
  3
Brighten
350
18356
  3
ColorChange
350
1835A
  3
Conceptual
350
18B34
  3
Dim
350
18355
  3
EdgeColorOff
350
18BA7
  3
Facepattern
350
18359
  3
Flat
350
1834B
  3
FlatWithEdges
350
1834C
  3
Gouraud
350
1834D
  3
GouraudWithEdges
350
1834E
  3
Hidden
350
19540
  3
JitterOff
350
18BA5
  3
Linepattern
350
18358
  3
OverhangOff
350
18BA6
  3
Realistic
350
18B35
  3
Shaded
350
19545
  3
Shaded with edges
350
19544
  3
Shades of Gray
350
19541
  3
Sketchy
350
19542
  3
Thicken
350
18357
  3
Wireframe
350
1953F
  3
X-Ray
350
19543
  0
XRECORD
  5
16861
102
{ACAD_REACTORS
330
C
102
}
330
C
100
AcDbXrecord
280
     1
 90
   990106
  3

 60
     0
 61
     0
 62
     1
 63
     3
 64
     0
 65
     0
 66
     0
 67
     3
 68
     1
 69
     0
 70
     0
 71
     0
 72
     0
 40
0.0
170
     0
340
0
  0
XRECORD
  5
20260
102
{ACAD_REACTORS
330
C
102
}
330
C
100
AcDbXrecord
280
     1
 90
        1
330
1835C
  0
DICTIONARY
  5
F6BD
102
{ACAD_REACTORS
330
C
102
}
330
C
100
AcDbDictionary
281
     1
  3
CANNOSCALE
350
1953D
  3
CMLEADERSTYLE
350
1953C
  3
CTABLESTYLE
350
185A4
  3
CVIEWDETAILSTYLE
350
1959E
  3
CVIEWSECTIONSTYLE
350
1959F
  3
SORTENTS
350
F6BE
  0
DICTIONARY
  5
19250
102
{ACAD_REACTORS
330
C
102
}
330
C
100
AcDbDictionary
281
     1
  0
DICTIONARY
  5
54CC
102
{ACAD_REACTORS
330
C
102
}
330
0
100
AcDbDictionary
281
     1
  3
BNS_SS01
350
5508
  3
BNS_SS02
350
5509
  3
BNS_SS03
350
550A
  3
BNS_SS04
350
550B
  0
DICTIONARY
  5
18C2D
102
{ACAD_REACTORS
330
18C2C
102
}
330
18C2C
100
AcDbDictionary
281
     1
  0
XRECORD
  5
18BD1
102
{ACAD_REACTORS
330
18BD0
102
}
330
18BD0
100
AcDbXrecord
280
     1
290
     1
  0
XRECORD
  5
18BD3
102
{ACAD_REACTORS
330
18BD2
102
}
330
18BD2
100
AcDbXrecord
280
     1
290
     1
  0
XRECORD
  5
18BD7
102
{ACAD_REACTORS
330
18BD6
102
}
330
18BD6
100
AcDbXrecord
280
     1
290
     1
  0
SORTENTSTABLE
  5
183F0
102
{ACAD_REACTORS
330
183EF
102
}
330
183EF
100
AcDbSortentsTable
330
1A
331
16791
  5
16791
331
17A1C
  5
17F3F
  0
SORTENTSTABLE
  5
1E709
102
{ACAD_REACTORS
330
1E708
102
}
330
1E708
100
AcDbSortentsTable
330
1E707
  0
SORTENTSTABLE
  5
1E72E
102
{ACAD_REACTORS
330
1E72D
102
}
330
1E72D
100
AcDbSortentsTable
330
1E72C
  0
ACDBDETAILVIEWSTYLE
  5
1954A
102
{ACAD_REACTORS
330
19549
102
}
330
19549
100
AcDbModelDocViewStyle
 70
     0
  3
Imperial24
290
     0
100
AcDbDetailViewStyle
 70
     0
 71
     0
 90
        3
 71
     1
340
10
 62
   256
 40
0.24
340
0
 62
   256
 40
0.24
300

 40
0.36
280
     3
 71
     2
340
16
 90
       25
 62
   256
 71
     3
340
10
 62
   256
 40
0.24
 90
        1
 40
0.75
 90
        1
300
%<\AcVar ViewType \f "%tc1">% %<\AcVar ViewDetailId>%\PSCALE %<\AcVar ViewScale \f "%sn">%
 71
     4
340
16
 90
       25
 62
   256
340
16
 90
       25
 62
   256
280
     0
  0
IMAGEDEF
  5
D339
102
{ACAD_REACTORS
330
D338
102
}
330
D338
100
AcDbRasterImageDef
 90
        0
  1
C:\Lockers\Ll4802\bench with bracket support.tif
 10
1676.0
 20
893.0
 11
0.127
 21
0.127
280
     1
281
     5
  0
LAYOUT
  5
5D99
102
{ACAD_REACTORS
330
5D96
102
}
330
5D96
100
AcDbPlotSettings
  1

  2
HP LaserJet 4MV
  4

  6

 40
0.0
 41
0.0
 42
0.0
 43
0.0
 44
0.0
 45
0.0
 46
0.0
 47
0.0
 48
0.0
 49
0.0
140
0.0
141
0.0
142
1.0
143
1.0
 70
   688
 72
     0
 73
     0
 74
     5
  7

 75
    16
147
1.0
 76
     0
 77
     2
 78
   300
148
0.0
149
0.0
100
AcDbLayout
  1
Layout1
 70
     1
 71
     1
 10
0.0
 20
0.0
 11
12.0
 21
9.0
 12
0.0
 22
0.0
 32
0.0
 14
1.000000000000000E+20
 24
1.000000000000000E+20
 34
1.000000000000000E+20
 15
-1.000000000000000E+20
 25
-1.000000000000000E+20
 35
-1.000000000000000E+20
146
0.0
 13
0.0
 23
0.0
 33
0.0
 16
1.0
 26
0.0
 36
0.0
 17
0.0
 27
1.0
 37
0.0
 76
     0
330
17
  0
LAYOUT
  5
5D98
102
{ACAD_XDICTIONARY
360
19508
102
}
102
{ACAD_REACTORS
330
5D96
102
}
330
5D96
100
AcDbPlotSettings
  1

  2
\\REPUBLIC01\LJ5000 CAD
  4
Letter
  6

 40
7.143749713897705
 41
6.720394611358642
 42
7.14373779296875
 43
3.757080078125
 44
215.8999938964844
 45
279.3999938964844
 46
34.1028580007554
 47
42.37165097832487
 48
0.0
 49
0.0
140
0.0
141
0.0
142
1.0
143
1.0
 70
 11956
 72
     0
 73
     1
 74
     1
  7
monochrome.ctb
 75
    16
147
1.0
 76
     1
 77
     2
 78
   300
148
-343.5033005404355
149
-709.2483680669708
100
AcDbLayout
  1
Model
 70
     1
 71
     0
 10
0.0
 20
0.0
 11
12.0
 21
9.0
 12
0.0
 22
0.0
 32
0.0
 14
0.0
 24
0.0
 34
0.0
 15
0.0
 25
0.0
 35
0.0
146
0.0
 13
0.0
 23
0.0
 33
0.0
 16
1.0
 26
0.0
 36
0.0
 17
0.0
 27
1.0
 37
0.0
 76
     0
330
1A
331
18345
1001
ACAD_PSEXT
1000
\\REPUBLIC01\LJ5000 CAD
1000
HP LaserJet 5000 Series PCL6
1000
Cad room
1000

1070
     0
  0
MATERIAL
  5
18348
102
{ACAD_XDICTIONARY
360
20263
102
}
102
{ACAD_REACTORS
330
152C7
102
}
330
152C7
100
AcDbMaterial
  1
ByBlock
 73
     1
 78
     1
172
     1
176
     1
270
     1
274
     1
  0
MATERIAL
  5
18347
102
{ACAD_XDICTIONARY
360
20261
102
}
102
{ACAD_REACTORS
330
152C7
102
}
330
152C7
100
AcDbMaterial
  1
ByLayer
 73
     1
 78
     1
172
     1
176
     1
270
     1
274
     1
  0
MATERIAL
  5
18349
102
{ACAD_XDICTIONARY
360
20265
102
}
102
{ACAD_REACTORS
330
152C7
102
}
330
152C7
100
AcDbMaterial
  1
Global
 73
     1
 78
     1
172
     1
176
     1
270
     1
274
     1
  0
MLEADERSTYLE
  5
18BCB
102
{ACAD_REACTORS
330
18BCA
102
}
330
18BCA
100
AcDbMLeaderStyle
170
     2
171
     1
172
     0
 90
        2
 40
0.0
 41
0.0
173
     1
 91
-1056964608
340
14
 92
       -2
290
     1
 42
0.09
291
     1
 43
0.36
  3
Standard
 44
0.18
300

342
10
174
     1
178
     6
175
     1
176
     0
 93
-1056964608
 45
0.18
292
     0
297
     0
 46
0.18
 94
-1056964608
 47
1.0
 49
1.0
140
1.0
293
     1
141
0.0
294
     1
177
     0
142
1.0
295
     0
296
     0
143
0.125
1001
ACAD_MLEADERVER
1070
     2
  0
MLINESTYLE
  5
13
102
{ACAD_REACTORS
330
E
102
}
330
E
100
AcDbMlineStyle
  2
STANDARD
 70
     0
  3

 62
     0
 51
90.0
 52
90.0
 71
     2
 49
0.5
 62
   256
  6
BYLAYER
 49
-0.5
 62
   256
  6
BYLAYER
  0
PLOTSETTINGS
  5
7F14
102
{ACAD_REACTORS
330
5D97
102
}
330
5D97
100
AcDbPlotSettings
  1
LASERJET5000 (MODEL)
  2
LaserJet 5000 (CAD Room)
  4
11x17
  6

 40
5.027083396911621
 41
5.027085304260253
 42
5.027099609375
 43
5.027069091796875
 44
279.3999938964844
 45
431.7999877929687
 46
-0.762
 47
12.7
 48
0.0
 49
0.0
140
0.0
141
0.0
142
1.0
143
2.0
 70
  1712
 72
     0
 73
     1
 74
     1
  7
HP LaserJet.ctb
 75
    17
147
0.5
 76
     0
 77
     2
 78
   300
148
-9.836719936971038
149
0.0347099098089075
  0
PLOTSETTINGS
  5
D238
102
{ACAD_REACTORS
330
5D97
102
}
330
5D97
100
AcDbPlotSettings
  1
OCE 22x34 (MODEL)
  2
oce34x22.pc3
  4
ANSI_expand_D_(22.00_x_34.00_Inches)
  6

 40
0.7937499880790711
 41
0.7937499880790711
 42
0.79376220703125
 43
0.79376220703125
 44
558.7999877929687
 45
863.5999755859375
 46
0.0
 47
17.78
 48
0.0
 49
0.0
140
0.0
141
0.0
142
1.0
143
1.0
 70
  1712
 72
     0
 73
     1
 74
     1
  7
OCE 22x34.ctb
 75
    16
147
1.0
 76
     0
 77
     2
 78
   300
148
0.0624224285698944
149
0.0260279300389826
  0
ACDBPLACEHOLDER
  5
5D95
102
{ACAD_REACTORS
330
5D94
102
}
330
5D94
  0
SCALE
  5
18BA9
102
{ACAD_REACTORS
330
18BA8
102
}
330
18BA8
100
AcDbScale
 70
     0
300
1:1
140
1.0
141
1.0
290
     1
  0
SCALE
  5
18BAA
102
{ACAD_REACTORS
330
18BA8
102
}
330
18BA8
100
AcDbScale
 70
     0
300
1:2
140
1.0
141
2.0
290
     0
  0
SCALE
  5
18BAB
102
{ACAD_REACTORS
330
18BA8
102
}
330
18BA8
100
AcDbScale
 70
     0
300
1:4
140
1.0
141
4.0
290
     0
  0
SCALE
  5
18BAC
102
{ACAD_REACTORS
330
18BA8
102
}
330
18BA8
100
AcDbScale
 70
     0
300
1:5
140
1.0
141
5.0
290
     0
  0
SCALE
  5
18BAD
102
{ACAD_REACTORS
330
18BA8
102
}
330
18BA8
100
AcDbScale
 70
     0
300
1:8
140
1.0
141
8.0
290
     0
  0
SCALE
  5
18BAE
102
{ACAD_REACTORS
330
18BA8
102
}
330
18BA8
100
AcDbScale
 70
     0
300
1:10
140
1.0
141
10.0
290
     0
  0
SCALE
  5
18BAF
102
{ACAD_REACTORS
330
18BA8
102
}
330
18BA8
100
AcDbScale
 70
     0
300
1:16
140
1.0
141
16.0
290
     0
  0
SCALE
  5
18BB0
102
{ACAD_REACTORS
330
18BA8
102
}
330
18BA8
100
AcDbScale
 70
     0
300
1:20
140
1.0
141
20.0
290
     0
  0
SCALE
  5
18BB1
102
{ACAD_REACTORS
330
18BA8
102
}
330
18BA8
100
AcDbScale
 70
     0
300
1:30
140
1.0
141
30.0
290
     0
  0
SCALE
  5
18BB2
102
{ACAD_REACTORS
330
18BA8
102
}
330
18BA8
100
AcDbScale
 70
     0
300
1:40
140
1.0
141
40.0
290
     0
  0
SCALE
  5
18BB3
102
{ACAD_REACTORS
330
18BA8
102
}
330
18BA8
100
AcDbScale
 70
     0
300
1:50
140
1.0
141
50.0
290
     0
  0
SCALE
  5
18BB4
102
{ACAD_REACTORS
330
18BA8
102
}
330
18BA8
100
AcDbScale
 70
     0
300
1:100
140
1.0
141
100.0
290
     0
  0
SCALE
  5
18BB5
102
{ACAD_REACTORS
330
18BA8
102
}
330
18BA8
100
AcDbScale
 70
     0
300
2:1
140
2.0
141
1.0
290
     0
  0
SCALE
  5
18BB6
102
{ACAD_REACTORS
330
18BA8
102
}
330
18BA8
100
AcDbScale
 70
     0
300
4:1
140
4.0
141
1.0
290
     0
  0
SCALE
  5
18BB7
102
{ACAD_REACTORS
330
18BA8
102
}
330
18BA8
100
AcDbScale
 70
     0
300
8:1
140
8.0
141
1.0
290
     0
  0
SCALE
  5
18BB8
102
{ACAD_REACTORS
330
18BA8
102
}
330
18BA8
100
AcDbScale
 70
     0
300
10:1
140
10.0
141
1.0
290
     0
  0
SCALE
  5
18BB9
102
{ACAD_REACTORS
330
18BA8
102
}
330
18BA8
100
AcDbScale
 70
     0
300
100:1
140
100.0
141
1.0
290
     0
  0
SCALE
  5
18BBA
102
{ACAD_REACTORS
330
18BA8
102
}
330
18BA8
100
AcDbScale
 70
     0
300
1/128" = 1'-0"
140
0.0078125
141
12.0
290
     0
  0
SCALE
  5
18BBB
102
{ACAD_REACTORS
330
18BA8
102
}
330
18BA8
100
AcDbScale
 70
     0
300
1/64" = 1'-0"
140
0.015625
141
12.0
290
     0
  0
SCALE
  5
18BBC
102
{ACAD_REACTORS
330
18BA8
102
}
330
18BA8
100
AcDbScale
 70
     0
300
1/32" = 1'-0"
140
0.03125
141
12.0
290
     0
  0
SCALE
  5
18BBD
102
{ACAD_REACTORS
330
18BA8
102
}
330
18BA8
100
AcDbScale
 70
     0
300
1/16" = 1'-0"
140
0.0625
141
12.0
290
     0
  0
SCALE
  5
18BBE
102
{ACAD_REACTORS
330
18BA8
102
}
330
18BA8
100
AcDbScale
 70
     0
300
3/32" = 1'-0"
140
0.09375
141
12.0
290
     0
  0
SCALE
  5
18BBF
102
{ACAD_REACTORS
330
18BA8
102
}
330
18BA8
100
AcDbScale
 70
     0
300
1/8" = 1'-0"
140
0.125
141
12.0
290
     0
  0
SCALE
  5
18BC0
102
{ACAD_REACTORS
330
18BA8
102
}
330
18BA8
100
AcDbScale
 70
     0
300
3/16" = 1'-0"
140
0.1875
141
12.0
290
     0
  0
SCALE
  5
18BC1
102
{ACAD_REACTORS
330
18BA8
102
}
330
18BA8
100
AcDbScale
 70
     0
300
1/4" = 1'-0"
140
0.25
141
12.0
290
     0
  0
SCALE
  5
18BC2
102
{ACAD_REACTORS
330
18BA8
102
}
330
18BA8
100
AcDbScale
 70
     0
300
3/8" = 1'-0"
140
0.375
141
12.0
290
     0
  0
SCALE
  5
18BC3
102
{ACAD_REACTORS
330
18BA8
102
}
330
18BA8
100
AcDbScale
 70
     0
300
1/2" = 1'-0"
140
0.5
141
12.0
290
     0
  0
SCALE
  5
18BC4
102
{ACAD_REACTORS
330
18BA8
102
}
330
18BA8
100
AcDbScale
 70
     0
300
3/4" = 1'-0"
140
0.75
141
12.0
290
     0
  0
SCALE
  5
18BC5
102
{ACAD_REACTORS
330
18BA8
102
}
330
18BA8
100
AcDbScale
 70
     0
300
1" = 1'-0"
140
1.0
141
12.0
290
     0
  0
SCALE
  5
18BC6
102
{ACAD_REACTORS
330
18BA8
102
}
330
18BA8
100
AcDbScale
 70
     0
300
1-1/2" = 1'-0"
140
1.5
141
12.0
290
     0
  0
SCALE
  5
18BC7
102
{ACAD_REACTORS
330
18BA8
102
}
330
18BA8
100
AcDbScale
 70
     0
300
3" = 1'-0"
140
3.0
141
12.0
290
     0
  0
SCALE
  5
18BC8
102
{ACAD_REACTORS
330
18BA8
102
}
330
18BA8
100
AcDbScale
 70
     0
300
6" = 1'-0"
140
6.0
141
12.0
290
     0
  0
SCALE
  5
18BC9
102
{ACAD_REACTORS
330
18BA8
102
}
330
18BA8
100
AcDbScale
 70
     0
300
1'-0" = 1'-0"
140
12.0
141
12.0
290
     0
  0
ACDBSECTIONVIEWSTYLE
  5
19548
102
{ACAD_REACTORS
330
19546
102
}
330
19546
100
AcDbModelDocViewStyle
 70
     0
  3
Imperial24
290
     0
100
AcDbSectionViewStyle
 70
     0
 71
     0
 90
       78
 71
     1
340
10
 62
   256
 40
0.24
340
0
340
0
 62
   256
 40
0.24
300
I, O, Q, S, X, Z
 40
0.48
 90
        3
 40
0.18
 90
        1
 71
     2
340
19547
 90
       25
 62
   256
340
16
 90
       50
 62
   256
 40
0.24
 40
0.0
 40
0.24
 71
     3
340
10
 62
   256
 40
0.24
 90
        1
 40
0.75
 90
        1
300
%<\AcVar ViewType \f "%tc1">% %<\AcVar ViewSectionStartId>%-%<\AcVar ViewSectionEndId>%\PSCALE %<\AcVar ViewScale \f "%sn">%
 71
     4
 62
   256
 62
   257
300
ANSI31
 40
1.0
 90
        0
290
     0
290
     0
 90
        6
 40
0.0
 40
1.570796326794896
 40
0.2617993877991494
 40
1.308996938995747
 40
-0.2617993877991494
 40
1.832595714594046
  0
TABLESTYLE
  5
1835C
102
{ACAD_XDICTIONARY
360
1950A
102
}
102
{ACAD_REACTORS
330
1835B
102
}
330
1835B
100
AcDbTableStyle
  3
Standard
 70
     0
 71
     0
 40
0.06
 41
0.06
280
     0
281
     0
  7
STANDARD
140
0.18
170
     2
 62
     0
 63
     7
283
     0
274
    -2
284
     1
 64
     0
275
    -2
285
     1
 65
     0
276
    -2
286
     1
 66
     0
277
    -2
287
     1
 67
     0
278
    -2
288
     1
 68
     0
279
    -2
289
     1
 69
     0
  7
STANDARD
140
0.25
170
     5
 62
     0
 63
     7
283
     0
274
    -2
284
     1
 64
     0
275
    -2
285
     1
 65
     0
276
    -2
286
     1
 66
     0
277
    -2
287
     1
 67
     0
278
    -2
288
     1
 68
     0
279
    -2
289
     1
 69
     0
  7
STANDARD
140
0.18
170
     5
 62
     0
 63
     7
283
     0
274
    -2
284
     1
 64
     0
275
    -2
285
     1
 65
     0
276
    -2
286
     1
 66
     0
277
    -2
287
     1
 67
     0
278
    -2
288
     1
 68
     0
279
    -2
289
     1
 69
     0
  0
VISUALSTYLE
  5
18350
102
{ACAD_XDICTIONARY
360
20271
102
}
102
{ACAD_REACTORS
330
1834A
102
}
330
1834A
100
AcDbVisualStyle
  2
2dWireframe
 70
     4
 71
     0
 72
     2
 73
     0
 90
        0
 40
-0.6
 41
-30.0
 62
     5
 63
     7
421
 16777215
 74
     1
 91
        4
 64
     7
 65
   257
 75
     1
175
     1
 42
1.0
 92
        0
 66
   257
 43
1.0
 76
     1
 77
     6
 78
     2
 67
     7
 79
     5
170
     0
171
     0
290
     0
174
     0
 93
        1
 44
0.0
173
     0
291
     0
 45
0.0
1001
ACAD
1000
AcDbSavedByObjectVersion
1070
     0
  0
VISUALSTYLE
  5
18B33
102
{ACAD_XDICTIONARY
360
20282
102
}
102
{ACAD_REACTORS
330
1834A
102
}
330
1834A
100
AcDbVisualStyle
  2
3D Hidden
 70
     6
 71
     1
 72
     2
 73
     2
 90
        0
 40
-0.6
 41
-30.0
 62
     5
 63
     7
421
 16777215
 74
     2
 91
        2
 64
     7
 65
   257
 75
     2
175
     1
 42
40.0
 92
        0
 66
   257
 43
1.0
 76
     1
 77
     6
 78
     2
 67
     7
 79
     3
170
     0
171
     0
290
     0
174
     0
 93
        1
 44
0.0
173
     0
291
     0
 45
0.0
1001
ACAD
1000
AcDbSavedByObjectVersion
1070
     0
  0
VISUALSTYLE
  5
18B32
102
{ACAD_XDICTIONARY
360
20280
102
}
102
{ACAD_REACTORS
330
1834A
102
}
330
1834A
100
AcDbVisualStyle
  2
3dWireframe
 70
     5
 71
     0
 72
     2
 73
     0
 90
        0
 40
-0.6
 41
-30.0
 62
     5
 63
     7
421
 16777215
 74
     1
 91
        4
 64
     7
 65
   257
 75
     1
175
     1
 42
1.0
 92
        0
 66
   257
 43
1.0
 76
     1
 77
     6
 78
     2
 67
     7
 79
     5
170
     0
171
     0
290
     0
174
     0
 93
        1
 44
0.0
173
     0
291
     0
 45
0.0
1001
ACAD
1000
AcDbSavedByObjectVersion
1070
     0
  0
VISUALSTYLE
  5
1834F
102
{ACAD_XDICTIONARY
360
2026F
102
}
102
{ACAD_REACTORS
330
1834A
102
}
330
1834A
100
AcDbVisualStyle
  2
Basic
 70
     7
 71
     1
 72
     0
 73
     1
 90
        0
 40
-0.6
 41
-30.0
 62
     5
 63
     7
421
 16777215
 74
     0
 91
        4
 64
     7
 65
   257
 75
     1
175
     1
 42
1.0
 92
        8
 66
     7
 43
1.0
 76
     1
 77
     6
 78
     2
 67
     7
 79
     5
170
     0
171
     0
290
     0
174
     0
 93
        1
 44
0.0
173
     0
291
     1
 45
0.0
1001
ACAD
1000
AcDbSavedByObjectVersion
1070
     0
  0
VISUALSTYLE
  5
18356
102
{ACAD_XDICTIONARY
360
20275
102
}
102
{ACAD_REACTORS
330
1834A
102
}
330
1834A
100
AcDbVisualStyle
  2
Brighten
 70
    12
 71
     2
 72
     2
 73
     0
 90
        0
 40
-0.6
 41
-30.0
 62
     5
 63
     7
421
 16777215
 74
     1
 91
        4
 64
     7
 65
   257
 75
     1
175
     1
 42
1.0
 92
        8
 66
     7
 43
1.0
 76
     1
 77
     6
 78
     2
 67
     7
 79
     5
170
     0
171
     0
290
     0
174
     0
 93
        1
 44
50.0
173
     0
291
     1
 45
0.0
1001
ACAD
1000
AcDbSavedByObjectVersion
1070
     0
  0
VISUALSTYLE
  5
1835A
102
{ACAD_XDICTIONARY
360
2027D
102
}
102
{ACAD_REACTORS
330
1834A
102
}
330
1834A
100
AcDbVisualStyle
  2
ColorChange
 70
    16
 71
     2
 72
     2
 73
     3
 90
        0
 40
-0.6
 41
-30.0
 62
     5
 63
     8
421
  8421504
 74
     1
 91
        4
 64
     7
 65
   257
 75
     1
175
     1
 42
1.0
 92
        8
 66
     8
424
  8421504
 43
1.0
 76
     1
 77
     6
 78
     2
 67
     7
 79
     5
170
     0
171
     0
290
     0
174
     0
 93
        1
 44
0.0
173
     0
291
     1
 45
0.0
1001
ACAD
1000
AcDbSavedByObjectVersion
1070
     0
  0
VISUALSTYLE
  5
18B34
102
{ACAD_XDICTIONARY
360
20284
102
}
102
{ACAD_REACTORS
330
1834A
102
}
330
1834A
100
AcDbVisualStyle
  2
Conceptual
 70
     9
 71
     3
 72
     2
 73
     0
 90
        0
 40
-0.6
 41
-30.0
 62
     5
 63
     7
421
 16777215
 74
     2
 91
        2
 64
     7
 65
   257
 75
     1
175
     1
 42
40.0
 92
        8
 66
     7
 43
1.0
 76
     1
 77
     6
 78
     2
 67
     7
 79
     3
170
     0
171
     0
290
     0
174
     0
 93
        1
 44
0.0
173
     0
291
     0
 45
0.0
1001
ACAD
1000
AcDbSavedByObjectVersion
1070
     0
  0
VISUALSTYLE
  5
18355
102
{ACAD_XDICTIONARY
360
20273
102
}
102
{ACAD_REACTORS
330
1834A
102
}
330
1834A
100
AcDbVisualStyle
  2
Dim
 70
    11
 71
     2
 72
     2
 73
     0
 90
        0
 40
-0.6
 41
-30.0
 62
     5
 63
     7
421
 16777215
 74
     1
 91
        4
 64
     7
 65
   257
 75
     1
175
     1
 42
1.0
 92
        8
 66
     7
 43
1.0
 76
     1
 77
     6
 78
     2
 67
     7
 79
     5
170
     0
171
     0
290
     0
174
     0
 93
        1
 44
-50.0
173
     0
291
     1
 45
0.0
1001
ACAD
1000
AcDbSavedByObjectVersion
1070
     0
  0
VISUALSTYLE
  5
18BA7
102
{ACAD_XDICTIONARY
360
2028C
102
}
102
{ACAD_REACTORS
330
1834A
102
}
330
1834A
100
AcDbVisualStyle
  2
EdgeColorOff
 70
    22
 71
     2
 72
     2
 73
     0
 90
        0
 40
-0.6
 41
-30.0
 62
     5
 63
     7
421
 16777215
 74
     1
 91
        4
 64
     7
 65
   257
 75
     1
175
     1
 42
1.0
 92
        8
 66
     7
 43
1.0
 76
     1
 77
     6
 78
     2
 67
     7
 79
     5
170
     0
171
     0
290
     0
174
     0
 93
        1
 44
0.0
173
     0
291
     1
 45
0.0
1001
ACAD
1000
AcDbSavedByObjectVersion
1070
     0
  0
VISUALSTYLE
  5
18359
102
{ACAD_XDICTIONARY
360
2027B
102
}
102
{ACAD_REACTORS
330
1834A
102
}
330
1834A
100
AcDbVisualStyle
  2
Facepattern
 70
    15
 71
     2
 72
     2
 73
     0
 90
        0
 40
-0.6
 41
-30.0
 62
     5
 63
     7
421
 16777215
 74
     1
 91
        4
 64
     7
 65
   257
 75
     1
175
     1
 42
1.0
 92
        8
 66
     7
 43
1.0
 76
     1
 77
     6
 78
     2
 67
     7
 79
     5
170
     0
171
     0
290
     0
174
     0
 93
        1
 44
0.0
173
     0
291
     1
 45
0.0
1001
ACAD
1000
AcDbSavedByObjectVersion
1070
     0
  0
VISUALSTYLE
  5
1834B
102
{ACAD_XDICTIONARY
360
20267
102
}
102
{ACAD_REACTORS
330
1834A
102
}
330
1834A
100
AcDbVisualStyle
  2
Flat
 70
     0
 71
     2
 72
     1
 73
     1
 90
        2
 40
-0.6
 41
30.0
 62
     5
 63
     7
421
 16777215
 74
     0
 91
        4
 64
     7
 65
   257
 75
     1
175
     1
 42
1.0
 92
        8
 66
     7
 43
1.0
 76
     1
 77
     6
 78
     2
 67
     7
 79
     5
170
     0
171
     0
290
     0
174
     0
 93
       13
 44
0.0
173
     0
291
     1
 45
0.0
1001
ACAD
1000
AcDbSavedByObjectVersion
1070
     0
  0
VISUALSTYLE
  5
1834C
102
{ACAD_XDICTIONARY
360
20269
102
}
102
{ACAD_REACTORS
330
1834A
102
}
330
1834A
100
AcDbVisualStyle
  2
FlatWithEdges
 70
     1
 71
     2
 72
     1
 73
     1
 90
        2
 40
-0.6
 41
30.0
 62
     5
 63
     7
421
 16777215
 74
     1
 91
        4
 64
     7
 65
   257
 75
     1
175
     1
 42
1.0
 92
        0
 66
   257
 43
1.0
 76
     1
 77
     6
 78
     2
 67
     7
 79
     5
170
     0
171
     0
290
     0
174
     0
 93
       13
 44
0.0
173
     0
291
     1
 45
0.0
1001
ACAD
1000
AcDbSavedByObjectVersion
1070
     0
  0
VISUALSTYLE
  5
1834D
102
{ACAD_XDICTIONARY
360
2026B
102
}
102
{ACAD_REACTORS
330
1834A
102
}
330
1834A
100
AcDbVisualStyle
  2
Gouraud
 70
     2
 71
     2
 72
     2
 73
     1
 90
        2
 40
-0.6
 41
30.0
 62
     5
 63
     7
421
 16777215
 74
     0
 91
        4
 64
     7
 65
   257
 75
     1
175
     1
 42
1.0
 92
        0
 66
     7
 43
1.0
 76
     1
 77
     6
 78
     2
 67
     7
 79
     5
170
     0
171
     0
290
     0
174
     0
 93
       13
 44
0.0
173
     0
291
     1
 45
0.0
1001
ACAD
1000
AcDbSavedByObjectVersion
1070
     0
  0
VISUALSTYLE
  5
1834E
102
{ACAD_XDICTIONARY
360
2026D
102
}
102
{ACAD_REACTORS
330
1834A
102
}
330
1834A
100
AcDbVisualStyle
  2
GouraudWithEdges
 70
     3
 71
     2
 72
     2
 73
     1
 90
        2
 40
-0.6
 41
30.0
 62
     5
 63
     7
421
 16777215
 74
     1
 91
        4
 64
     7
 65
   257
 75
     1
175
     1
 42
1.0
 92
        0
 66
   257
 43
1.0
 76
     1
 77
     6
 78
     2
 67
     7
 79
     5
170
     0
171
     0
290
     0
174
     0
 93
       13
 44
0.0
173
     0
291
     1
 45
0.0
1001
ACAD
1000
AcDbSavedByObjectVersion
1070
     0
  0
VISUALSTYLE
  5
19540
102
{ACAD_XDICTIONARY
360
20290
102
}
102
{ACAD_REACTORS
330
1834A
102
}
330
1834A
100
AcDbVisualStyle
  2
Hidden
 70
     6
 71
     1
 72
     2
 73
     2
 90
        0
 40
-0.6
 41
-30.0
 62
     5
 63
     7
421
 16777215
 74
     2
 91
        2
 64
     7
 65
   257
 75
     2
175
     1
 42
40.0
 92
        0
 66
   257
 43
1.0
 76
     1
 77
     6
 78
     2
 67
     7
 79
     3
170
     0
171
     0
290
     0
174
     0
 93
        1
 44
0.0
173
     0
291
     0
 45
0.0
1001
ACAD
1000
AcDbSavedByObjectVersion
1070
     0
  0
VISUALSTYLE
  5
18BA5
102
{ACAD_XDICTIONARY
360
20288
102
}
102
{ACAD_REACTORS
330
1834A
102
}
330
1834A
100
AcDbVisualStyle
  2
JitterOff
 70
    20
 71
     2
 72
     2
 73
     0
 90
        0
 40
-0.6
 41
-30.0
 62
     5
 63
     7
421
 16777215
 74
     1
 91
        4
 64
     7
 65
   257
 75
     1
175
     1
 42
1.0
 92
       10
 66
     7
 43
1.0
 76
     1
 77
     6
 78
     2
 67
     7
 79
     5
170
     0
171
     0
290
     0
174
     0
 93
        1
 44
0.0
173
     0
291
     1
 45
0.0
1001
ACAD
1000
AcDbSavedByObjectVersion
1070
     0
  0
VISUALSTYLE
  5
18358
102
{ACAD_XDICTIONARY
360
20279
102
}
102
{ACAD_REACTORS
330
1834A
102
}
330
1834A
100
AcDbVisualStyle
  2
Linepattern
 70
    14
 71
     2
 72
     2
 73
     0
 90
        0
 40
-0.6
 41
-30.0
 62
     5
 63
     7
421
 16777215
 74
     1
 91
        4
 64
     7
 65
   257
 75
     7
175
     7
 42
1.0
 92
        8
 66
     7
 43
1.0
 76
     1
 77
     6
 78
     2
 67
     7
 79
     5
170
     0
171
     0
290
     0
174
     0
 93
        1
 44
0.0
173
     0
291
     1
 45
0.0
1001
ACAD
1000
AcDbSavedByObjectVersion
1070
     0
  0
VISUALSTYLE
  5
18BA6
102
{ACAD_XDICTIONARY
360
2028A
102
}
102
{ACAD_REACTORS
330
1834A
102
}
330
1834A
100
AcDbVisualStyle
  2
OverhangOff
 70
    21
 71
     2
 72
     2
 73
     0
 90
        0
 40
-0.6
 41
-30.0
 62
     5
 63
     7
421
 16777215
 74
     1
 91
        4
 64
     7
 65
   257
 75
     1
175
     1
 42
1.0
 92
        9
 66
     7
 43
1.0
 76
     1
 77
     6
 78
     2
 67
     7
 79
     5
170
     0
171
     0
290
     0
174
     0
 93
        1
 44
0.0
173
     0
291
     1
 45
0.0
1001
ACAD
1000
AcDbSavedByObjectVersion
1070
     0
  0
VISUALSTYLE
  5
18B35
102
{ACAD_XDICTIONARY
360
20286
102
}
102
{ACAD_REACTORS
330
1834A
102
}
330
1834A
100
AcDbVisualStyle
  2
Realistic
 70
     8
 71
     2
 72
     2
 73
     0
 90
        0
 40
-0.6
 41
-30.0
 62
     5
 63
     7
421
 16777215
 74
     1
 91
        0
 64
     7
 65
   257
 75
     1
175
     1
 42
1.0
 92
        8
 66
     8
424
  7895160
 43
1.0
 76
     1
 77
     6
 78
     2
 67
     7
 79
     5
170
     0
171
     0
290
     0
174
     0
 93
       13
 44
0.0
173
     0
291
     0
 45
0.0
1001
ACAD
1000
AcDbSavedByObjectVersion
1070
     0
  0
VISUALSTYLE
  5
19545
102
{ACAD_XDICTIONARY
360
2029A
102
}
102
{ACAD_REACTORS
330
1834A
102
}
330
1834A
100
AcDbVisualStyle
  2
Shaded
 70
    27
 71
     2
 72
     2
 73
     1
 90
        2
 40
-0.6
 41
30.0
 62
     5
 63
     7
421
 16777215
 74
     0
 91
        4
 64
     7
 65
   257
 75
     1
175
     1
 42
1.0
 92
        8
 66
   257
 43
1.0
 76
     1
 77
     6
 78
     2
 67
     8
425
  7895160
 79
     3
170
     0
171
     0
290
     0
174
     0
 93
        5
 44
0.0
173
     0
291
     0
 45
0.0
1001
ACAD
1000
AcDbSavedByObjectVersion
1070
     0
  0
VISUALSTYLE
  5
19544
102
{ACAD_XDICTIONARY
360
20298
102
}
102
{ACAD_REACTORS
330
1834A
102
}
330
1834A
100
AcDbVisualStyle
  2
Shaded with edges
 70
    26
 71
     2
 72
     2
 73
     1
 90
        2
 40
-0.6
 41
30.0
 62
     5
 63
     7
421
 16777215
 74
     1
 91
       10
 64
     7
 65
   257
 75
     2
175
     1
 42
1.0
 92
        8
 66
   257
 43
1.0
 76
     1
 77
     6
 78
     2
 67
     7
 79
     3
170
     0
171
     0
290
     0
174
     0
 93
        5
 44
0.0
173
     0
291
     0
 45
0.0
1001
ACAD
1000
AcDbSavedByObjectVersion
1070
     0
  0
VISUALSTYLE
  5
19541
102
{ACAD_XDICTIONARY
360
20292
102
}
102
{ACAD_REACTORS
330
1834A
102
}
330
1834A
100
AcDbVisualStyle
  2
Shades of Gray
 70
    23
 71
     2
 72
     2
 73
     3
 90
        0
 40
-0.6
 41
-30.0
 62
     5
 63
     7
421
 16777215
 74
     2
 91
        2
 64
     7
 65
     7
 75
     1
175
     1
 42
40.0
 92
        8
 66
     7
 43
1.0
 76
     1
 77
     6
 78
     2
 67
     7
 79
     3
170
     0
171
     0
290
     0
174
     0
 93
        1
 44
0.0
173
     0
291
     0
 45
0.0
1001
ACAD
1000
AcDbSavedByObjectVersion
1070
     0
  0
VISUALSTYLE
  5
19542
102
{ACAD_XDICTIONARY
360
20294
102
}
102
{ACAD_REACTORS
330
1834A
102
}
330
1834A
100
AcDbVisualStyle
  2
Sketchy
 70
    24
 71
     1
 72
     2
 73
     2
 90
        0
 40
-0.6
 41
-30.0
 62
     5
 63
     7
421
 16777215
 74
     2
 91
        2
 64
     7
 65
     7
 75
     1
175
     1
 42
40.0
 92
       11
 66
     7
 43
1.0
 76
     1
 77
     6
 78
     2
 67
     7
 79
     6
170
     0
171
     0
290
     0
174
     0
 93
        1
 44
0.0
173
     0
291
     0
 45
0.0
1001
ACAD
1000
AcDbSavedByObjectVersion
1070
     0
  0
VISUALSTYLE
  5
18357
102
{ACAD_XDICTIONARY
360
20277
102
}
102
{ACAD_REACTORS
330
1834A
102
}
330
1834A
100
AcDbVisualStyle
  2
Thicken
 70
    13
 71
     2
 72
     2
 73
     0
 90
        0
 40
-0.6
 41
-30.0
 62
     5
 63
     7
421
 16777215
 74
     1
 91
        4
 64
     7
 65
   257
 75
     1
175
     1
 42
1.0
 92
       12
 66
     7
 43
1.0
 76
     1
 77
     6
 78
     2
 67
     7
 79
     5
170
     0
171
     0
290
     0
174
     0
 93
        1
 44
0.0
173
     0
291
     1
 45
0.0
1001
ACAD
1000
AcDbSavedByObjectVersion
1070
     0
  0
VISUALSTYLE
  5
1953F
102
{ACAD_XDICTIONARY
360
2028E
102
}
102
{ACAD_REACTORS
330
1834A
102
}
330
1834A
100
AcDbVisualStyle
  2
Wireframe
 70
     5
 71
     0
 72
     2
 73
     0
 90
        0
 40
-0.6
 41
-30.0
 62
     5
 63
     7
421
 16777215
 74
     1
 91
        4
 64
     7
 65
   257
 75
     1
175
     1
 42
1.0
 92
        0
 66
   257
 43
1.0
 76
     1
 77
     6
 78
     2
 67
     7
 79
     3
170
     0
171
     0
290
     0
174
     0
 93
        1
 44
0.0
173
     0
291
     0
 45
0.0
1001
ACAD
1000
AcDbSavedByObjectVersion
1070
     0
  0
VISUALSTYLE
  5
19543
102
{ACAD_XDICTIONARY
360
20296
102
}
102
{ACAD_REACTORS
330
1834A
102
}
330
1834A
100
AcDbVisualStyle
  2
X-Ray
 70
    25
 71
     2
 72
     2
 73
     1
 90
        1
 40
0.5
 41
-30.0
 62
     5
 63
     7
421
 16777215
 74
     1
 91
        0
 64
     7
 65
   257
 75
     1
175
     1
 42
1.0
 92
        8
 66
     7
 43
1.0
 76
     1
 77
     6
 78
     2
 67
     7
 79
     3
170
     0
171
     0
290
     0
174
     0
 93
       13
 44
0.0
173
     0
291
     0
 45
0.0
1001
ACAD
1000
AcDbSavedByObjectVersion
1070
     0
  0
DICTIONARYVAR
  5
1953D
102
{ACAD_REACTORS
330
F6BD
102
}
330
F6BD
100
DictionaryVariables
280
     0
  1
1:1
  0
DICTIONARYVAR
  5
1953C
102
{ACAD_REACTORS
330
F6BD
102
}
330
F6BD
100
DictionaryVariables
280
     0
  1
STANDARD
  0
DICTIONARYVAR
  5
185A4
102
{ACAD_REACTORS
330
F6BD
102
}
330
F6BD
100
DictionaryVariables
280
     0
  1
STANDARD
  0
DICTIONARYVAR
  5
1959E
102
{ACAD_REACTORS
330
F6BD
102
}
330
F6BD
100
DictionaryVariables
280
     0
  1
Imperial24
  0
DICTIONARYVAR
  5
1959F
102
{ACAD_REACTORS
330
F6BD
102
}
330
F6BD
100
DictionaryVariables
280
     0
  1
Imperial24
  0
DICTIONARYVAR
  5
F6BE
102
{ACAD_REACTORS
330
F6BD
102
}
330
F6BD
100
DictionaryVariables
280
     0
  1
96
  0
XRECORD
  5
5508
102
{ACAD_REACTORS
330
54CC
102
}
330
0
100
AcDbXrecord
280
     1
330
0
330
0
330
0
330
0
330
0
330
0
330
0
330
0
330
0
330
0
330
0
330
0
330
0
330
0
330
0
330
0
330
0
330
0
330
0
330
0
330
0
330
0
330
0
330
0
330
0
330
0
330
0
330
0
330
0
330
0
330
0
330
0
330
0
330
0
330
0
330
0
330
0
330
0
330
0
330
0
330
0
330
0
330
0
330
0
330
0
330
0
330
0
330
0
330
0
330
0
330
0
330
0
330
0
330
0
330
0
330
0
330
0
330
0
330
0
330
0
330
0
330
0
330
0
330
0
330
0
330
0
330
0
330
0
330
0
330
0
330
0
330
0
330
0
  0
XRECORD
  5
5509
102
{ACAD_REACTORS
330
54CC
102
}
330
0
100
AcDbXrecord
280
     1
330
0
330
0
  0
XRECORD
  5
550A
102
{ACAD_REACTORS
330
54CC
102
}
330
0
100
AcDbXrecord
280
     1
330
0
  0
XRECORD
  5
550B
102
{ACAD_REACTORS
330
54CC
102
}
330
0
100
AcDbXrecord
280
     1
330
0
330
0
  0
DICTIONARY
  5
19508
330
5D98
100
AcDbDictionary
280
     1
281
     1
  3
ADSK_XREC_LAYOUTTHUMBNAIL
360
19509
  0
DICTIONARY
  5
20263
330
18348
100
AcDbDictionary
280
     1
281
     1
  3
ACAD_XREC_ROUNDTRIP
360
20264
  0
DICTIONARY
  5
20261
330
18347
100
AcDbDictionary
280
     1
281
     1
  3
ACAD_XREC_ROUNDTRIP
360
20262
  0
DICTIONARY
  5
20265
330
18349
100
AcDbDictionary
280
     1
281
     1
  3
ACAD_XREC_ROUNDTRIP
360
20266
  0
DICTIONARY
  5
1950A
330
1835C
100
AcDbDictionary
280
     1
281
     1
  3
ACAD_ROUNDTRIP_2008_TABLESTYLE_CELLSTYLEMAP
360
2025F
  3
ACAD_XREC_ROUNDTRIP
360
2027F
  0
DICTIONARY
  5
20271
330
18350
100
AcDbDictionary
280
     1
281
     1
  3
ACAD_XREC_ROUNDTRIP
360
20272
  0
DICTIONARY
  5
20282
330
18B33
100
AcDbDictionary
280
     1
281
     1
  3
ACAD_XREC_ROUNDTRIP
360
20283
  0
DICTIONARY
  5
20280
330
18B32
100
AcDbDictionary
280
     1
281
     1
  3
ACAD_XREC_ROUNDTRIP
360
20281
  0
DICTIONARY
  5
2026F
330
1834F
100
AcDbDictionary
280
     1
281
     1
  3
ACAD_XREC_ROUNDTRIP
360
20270
  0
DICTIONARY
  5
20275
330
18356
100
AcDbDictionary
280
     1
281
     1
  3
ACAD_XREC_ROUNDTRIP
360
20276
  0
DICTIONARY
  5
2027D
330
1835A
100
AcDbDictionary
280
     1
281
     1
  3
ACAD_XREC_ROUNDTRIP
360
2027E
  0
DICTIONARY
  5
20284
330
18B34
100
AcDbDictionary
280
     1
281
     1
  3
ACAD_XREC_ROUNDTRIP
360
20285
  0
DICTIONARY
  5
20273
330
18355
100
AcDbDictionary
280
     1
281
     1
  3
ACAD_XREC_ROUNDTRIP
360
20274
  0
DICTIONARY
  5
2028C
330
18BA7
100
AcDbDictionary
280
     1
281
     1
  3
ACAD_XREC_ROUNDTRIP
360
2028D
  0
DICTIONARY
  5
2027B
330
18359
100
AcDbDictionary
280
     1
281
     1
  3
ACAD_XREC_ROUNDTRIP
360
2027C
  0
DICTIONARY
  5
20267
330
1834B
100
AcDbDictionary
280
     1
281
     1
  3
ACAD_XREC_ROUNDTRIP
360
20268
  0
DICTIONARY
  5
20269
330
1834C
100
AcDbDictionary
280
     1
281
     1
  3
ACAD_XREC_ROUNDTRIP
360
2026A
  0
DICTIONARY
  5
2026B
330
1834D
100
AcDbDictionary
280
     1
281
     1
  3
ACAD_XREC_ROUNDTRIP
360
2026C
  0
DICTIONARY
  5
2026D
330
1834E
100
AcDbDictionary
280
     1
281
     1
  3
ACAD_XREC_ROUNDTRIP
360
2026E
  0
DICTIONARY
  5
20290
330
19540
100
AcDbDictionary
280
     1
281
     1
  3
ACAD_XREC_ROUNDTRIP
360
20291
  0
DICTIONARY
  5
20288
330
18BA5
100
AcDbDictionary
280
     1
281
     1
  3
ACAD_XREC_ROUNDTRIP
360
20289
  0
DICTIONARY
  5
20279
330
18358
100
AcDbDictionary
280
     1
281
     1
  3
ACAD_XREC_ROUNDTRIP
360
2027A
  0
DICTIONARY
  5
2028A
330
18BA6
100
AcDbDictionary
280
     1
281
     1
  3
ACAD_XREC_ROUNDTRIP
360
2028B
  0
DICTIONARY
  5
20286
330
18B35
100
AcDbDictionary
280
     1
281
     1
  3
ACAD_XREC_ROUNDTRIP
360
20287
  0
DICTIONARY
  5
2029A
330
19545
100
AcDbDictionary
280
     1
281
     1
  3
ACAD_XREC_ROUNDTRIP
360
2029B
  0
DICTIONARY
  5
20298
330
19544
100
AcDbDictionary
280
     1
281
     1
  3
ACAD_XREC_ROUNDTRIP
360
20299
  0
DICTIONARY
  5
20292
330
19541
100
AcDbDictionary
280
     1
281
     1
  3
ACAD_XREC_ROUNDTRIP
360
20293
  0
DICTIONARY
  5
20294
330
19542
100
AcDbDictionary
280
     1
281
     1
  3
ACAD_XREC_ROUNDTRIP
360
20295
  0
DICTIONARY
  5
20277
330
18357
100
AcDbDictionary
280
     1
281
     1
  3
ACAD_XREC_ROUNDTRIP
360
20278
  0
DICTIONARY
  5
2028E
330
1953F
100
AcDbDictionary
280
     1
281
     1
  3
ACAD_XREC_ROUNDTRIP
360
2028F
  0
DICTIONARY
  5
20296
330
19543
100
AcDbDictionary
280
     1
281
     1
  3
ACAD_XREC_ROUNDTRIP
360
20297
  0
XRECORD
  5
19509
102
{ACAD_REACTORS
330
19508
102
}
330
19508
100
AcDbXrecord
280
     1
310
280000000001000078000000010008000000000000780000010000000100000000010000000000000000000000000000C8C8C8FF000000FF000000FF000000FF000000FF000000FF000000FF000000FF000000FF330000FF660000FF990000FFCC0000FFFF0000FF003300FF333300FF663300FF993300FFCC3300FFFF3300
310
FF006600FF336600FF666600FF996600FFCC6600FFFF6600FF009900FF339900FF669900FF999900FFCC9900FFFF9900FF00CC00FF33CC00FF66CC00FF99CC00FFCCCC00FFFFCC00FF00FF00FF33FF00FF66FF00FF99FF00FFCCFF00FFFFFF00FF000033FF330033FF660033FF990033FFCC0033FFFF0033FF003333FF3333
310
33FF663333FF993333FFCC3333FFFF3333FF006633FF336633FF666633FF996633FFCC6633FFFF6633FF009933FF339933FF669933FF999933FFCC9933FFFF9933FF00CC33FF33CC33FF66CC33FF99CC33FFCCCC33FFFFCC33FF00FF33FF33FF33FF66FF33FF99FF33FFCCFF33FFFFFF33FF000066FF330066FF660066FF99
310
0066FFCC0066FFFF0066FF003366FF333366FF663366FF993366FFCC3366FFFF3366FF006666FF336666FF666666FF996666FFCC6666FFFF6666FF009966FF339966FF669966FF999966FFCC9966FFFF9966FF00CC66FF33CC66FF66CC66FF99CC66FFCCCC66FFFFCC66FF00FF66FF33FF66FF66FF66FF99FF66FFCCFF66FF
310
FFFF66FF000099FF330099FF660099FF990099FFCC0099FFFF0099FF003399FF333399FF663399FF993399FFCC3399FFFF3399FF006699FF336699FF666699FF996699FFCC6699FFFF6699FF009999FF339999FF669999FF999999FFCC9999FFFF9999FF00CC99FF33CC99FF66CC99FF99CC99FFCCCC99FFFFCC99FF00FF99
310
FF33FF99FF66FF99FF99FF99FFCCFF99FFFFFF99FF0000CCFF3300CCFF6600CCFF9900CCFFCC00CCFFFF00CCFF0033CCFF3333CCFF6633CCFF9933CCFFCC33CCFFFF33CCFF0066CCFF3366CCFF6666CCFF9966CCFFCC66CCFFFF66CCFF0099CCFF3399CCFF6699CCFF9999CCFFCC99CCFFFF99CCFF00CCCCFF33CCCCFF66CC
310
CCFF99CCCCFFCCCCCCFFFFCCCCFF00FFCCFF33FFCCFF66FFCCFF99FFCCFFCCFFCCFFFFFFCCFF0000FFFF3300FFFF6600FFFF9900FFFFCC00FFFFFF00FFFF0033FFFF3333FFFF6633FFFF9933FFFFCC33FFFFFF33FFFF0066FFFF3366FFFF6666FFFF9966FFFFCC66FFFFFF66FFFF0099FFFF3399FFFF6699FFFF9999FFFFCC
310
99FFFFFF99FFFF00CCFFFF33CCFFFF66CCFFFF99CCFFFFCCCCFFFFFFCCFFFF00FFFFFF33FFFFFF66FFFFFF99FFFFFFCCFFFFFFFFFFFFFF000000FF0D0D0DFF1A1A1AFF282828FF353535FF434343FF505050FF5D5D5DFF6B6B6BFF787878FF868686FF939393FFA1A1A1FFAEAEAEFFBBBBBBFFC9C9C9FFD6D6D6FFE4E4E4FF
310
F1F1F1FFFFFFFFFF000000FF000000FF000000FF000000FF000000FF000000FF000000FF000000FF000000FF000000FF00000000000000000000000000000000000000000000000000000000000000000000000000000000000000000000000000000000000000000000000000000000000000000000000000000000000000
310
00000000000000000000000000000000000000000000000000000000000000000000000000000000000000000000000000000000000000000000000000000000000000000000000000000000000000000000000000000000000000000000000000000000000000000000000000000000000000000000000000000000000000
310
000000000000000000000000000000000000000000000000000000000000000000000000000000000000000000000000000000000000000000000000000000000000000000000000000000000000000000000000BEBEBEBEBEBEBEBEBEBEBEBEBEBEBEBEBEBEBEBEBEBEBEBEBEBEBEBEBEBEBEBEBEBEBEBEBEBEBEBEBEBEBE
310
BEBEBEBEBEBEBEBEBEBEBEBEBEBEBEBEBEBEBEBEBEBEBEBEBEBEBEBEBEBEBEBEBEBEBEBEBEBEBEBEBEBEBEBEBEBEBEBEBEBEBEBEBEBEBEBEBEBEBEBEBEBEBEBEBEBEBEBEBEBEBEBEBEBEBEBEBEBEBEBEBEBEBEBEBEBEBEBEBEBEBEBEBEBEBEBEBEBEBEBEBEBEBEBEBEBEBEBEBEBEBEBEBEBEBEBEBEBEBEBEBEBEBEBEBEBEBE
310
BEBEBEBEBEBEBEBEBEBEBEBEBEBEBEBEBEBE0000000000000000000000000000000000000000000000000000000000000000000000000000000000000000000000000000000000000000000000000000000000000000BE00000000000000000000000000000000000000000000000000000000000000000000000000000000
310
00000000000000000000000000000000000000000000000000000000000000000000000000000000000000000000000000000000000000000000000000000000000000000000000000000000000000000000000000000000000000000000000000000000000000000000000000000000000000000000000000000000000000
310
00000000000000000000000000000000000000BE0000000000000000000000000000000000000000000000000000000000000000000000000000000000000000000000000000000000000000000000000000000000000000BE0000000000000000000000000000000000000000000000000000000000000000000000000000
310
00000000000000000000000000000000000000000000000000000000000000000000000000000000000000000000000000000000000000000000000000000000000000000000000000000000000000000000000000000000000000000000000000000000000000000000000000000000000000000000000000000000000000
310
000000000000000000000000000000000000000000BE0000000000000000000000000000000000000000000000000000000000000000000000000000000000000000000000000000000000000000000000000000000000000000BE000000000000000000000000000000000000000000000000000000000000000000000000
310
00000000000000000000000000000000000000000000000000000000000000000000000000000000000000000000000000000000000000000000000000000000000000000000000000000000000000000000000000000000000000000000000000000000000000000000000000000000000000000000000000000000000000
310
0000000000000000000000000000000000000000000000BE0000000000000000000000000000000000000000000000000000000000000000000000000000000000000000000000000000000000000000000000000000000000000000BE00000000000000000000000000000000000000000000000000000000000000000000
310
00000000000000000000000000000000000000000000000000000000000000000000000000000000000000000000000000000000000000000000000000000000000000000000000000000000000000000000000000000000000000000000000000000000000000000000000000000000000000000000000000000000000000
310
00000000000000000000000000000000000000000000000000BE0000000000000000000000000000000000000000000000000000000000000000000000000000000000000000000000000000000000000000000000000000000000000000BE0000000000000000000000000000000000000000000000000000000000000000
310
00000000000000000000000000000000000000000000000000000000000000000000000000000000000000000000000000000000000000000000000000000000000000000000000000000000000000000000000000000000000000000000000000000000000000000000000000000000000000000000000000000000000000
310
000000000000000000000000000000000000000000000000000000BE0000000000000000000000000000000000000000000000000000000000000000000000000000000000000000000000000000000000000000000000000000000000000000BE000000000000000000000000000000000000000000000000000000000000
310
00000000000000000000000000000000000000000000000000000000000000000000000000000000000000000000000000000000000000000000000000000000000000000000000000000000000000000000000000000000000000000000000000000000000000000000000000000000000000000000000000000000000000
310
0000000000000000000000000000000000000000000000000000000000BE0000000000000000000000000000000000000000000000000000000000000000000000000000000000000000000000000000000000000000000000000000000000000000BE00000000000000000000000000000000000000000000000000000000
310
00000000000000000000000000000000000000000000000000000000000000000000000000000000000000000000000000000000000000000000000000000000000000000000000000000000000000000000000000000000000000000000000000000000000000000000000000000000000000000000000000000000000000
310
00000000000000000000000000000000000000000000000000000000000000BE0000000000000000000000000000000000000000000000000000000000000000000000000000000000000000000000000000000000000000000000000000000000000000BE0000000000000000000000000000000000000000000000000000
310
00000000000000000000000000000000000000000000000000000000000000000000000000000000000000000000000000000000000000000000000000000000000000000000000000000000000000000000000000000000000000000000000000000000000000000000000000000000000000000000000000000000000000
310
000000000000000000000000000000000000000000000000000000000000000000BE0000000000000000000000000000000000000000000000000000000000000000000000000000000000000000000000000000000000000000000000000000000000000000BE000000000000000000000000000000000000000000000000
310
00000000000000000000000000000000000000000000000000000000000000000000000000000000000000000000000000000000000000000000000000000000000000000000000000000000000000000000000000000000000000000000000000000000000000000000000000000000000000000000000000000000000000
310
0000000000000000000000000000000000000000000000000000000000000000000000BE0000000000000000000000000000000000000000000000000000000000000000000000000000000000000000000000000000000000000000000000000000000000000000BE00000000000000000000000000000000000000000000
310
00000000000000000000000000000000000000000000000000000000000000000000000000000000000000000000000000000000000000000000000000000000000000000000000000000000000000000000000000000000000000000000000000000000000000000000000000000000000000000000000000000000000000
310
00000000000000000000000000000000000000000000000000000000000000000000000000BE0000000000000000000000000000000000000000000000000000000000000000000000000000000000000000000000000000000000000000000000000000000000000000BE0000000000000000000000000000000000000000
310
00000000000000000000000000000000000000000000000000000000000000000000000000000000000000000000000000000000000000000000000000000000000000000000000000000000000000000000000000000000000000000000000000000000000000000000000000000000000000000000000000000000000000
310
000000000000000000000000000000000000000000000000000000000000000000000000000000BE0000000000000000000000000000000000000000000000000000000000000000000000000000000000000000000000000000000000000000000000000000000000000000BE000000000000000000000000000000000000
310
00000000000000000000000000000000000000000000000000000000000000000000000000000000000000000000000000000000000000000000000000000000000000000000000000000000000000000000000000000000000000000000000000000000000000000000000000000000000000000000000000000000000000
310
0000000000000000000000000000000000000000000000000000000000000000000000000000000000BE0000000000000000000000000000000000000000000000000000000000000000000000000000000000000000000000000000000000000000000000000000000000000000BE00000000000000000000000000000000
310
00000000000000000000000000000000000000000000000000000000000000000000000000000000000000000000000000000000000000000000000000000000000000000000000000000000000000000000000000000000000000000000000000000000000000000000000000000000000000000000000000000000000000
310
00000000000000000000000000000000000000000000000000000000000000000000000000000000000000BE0000000000000000000000000000000000000000000000000000000000000000000000000000000000000000000000000000000000000000000000000000000000000000BE0000000000000000000000000000
310
00000000000000000000000000000000000000000000000000000000000000000000000000000000000000000000000000000000000000000000000000000000000000000000000000000000000000000000000000000000000000000000000000000000000000000000000000282828280028282828282828282828282800
310
000000000000000000000000000000000000000000000000000000000000000000000000000000000000000000BE0000000000000000000000000000000000000000000000000000000000000000000000000000000000000000000000000000000000000000000000000000000000000000BE000000000000000000000000
310
00000000000000000000000000000000000000000000000000000000000000000000000000000000000000000000000000000000000000000000000000000000000000000000000000000000000000000000000000000000000000000000000000000000000000000000000000000028282828002828282828282828282828
310
2800000000000000000000000000000000000000000000000000000000000000000000000000000000000000000000BE0000000000000000000000000000000000000000000000000000000000000000000000000000000000000000000000000000000000000000000000000000000000000000BE00000000000000000000
310
00000000000000000000000000000000000000000000000000000000000000000000000000000000000000000000000000000000000000000000000000000000000000000000000000000000000000000000000000000000000000000000000000000000000000000000000000000000000028282828282828280028282828
310
28000000000000000000000000000000000000000000000000000000000000000000000000000000000000000000000000BE0000000000000000000000000000000000000000000000000000000000000000000000000000000000000000000000000000000000000000000000000000000000000000BE0000000000000000
310
00000000000000000000000000000000000000000000000000000000000000000000000000000000000000000000000000000000000000000000000000000000000000000000000000000000000000000000000000000000000000000000000000000000000000000000000000000000000000002828282828282828002828
310
282828000000000000000000000000000000000000000000000000000000000000000000000000000000000000000000000000BE0000000000000000000000000000000000000000000000000000000000000000000000000000000000000000000000000000000000000000000000000000000000000000BE000000000000
310
0000000000000000000000000000000000000000000000000000000000000000000000000000002D00000000000000000000000000002D000000000000000000000000002D00000000000000000000000000000000000000000000000000000000000000000000000000000000000000000000002D00000000000000000000
310
000000002D000000000000000000000000000000000000000000000000000000000000000000000000000000000000000000000000BE0000000000000000000000000000000000000000000000000000000000000000000000000000000000000000000000000000000000000000000000000000000000000000BE00000000
310
00000000000000000000000000000000000000000000000000000000000000000000000000000000002D2D2D2D2D2D2D2D2D2D2D2D2D2D2D2D2D2D2D2D2D2D2D2D2D2D2D2D2D2D00000028282828282828282800000000000000000000000000000000000000000000000000000000000000000000002D2D2D2D2D2D2D2D2D
310
2D2D2D2D2D2D2D2D2D2D2D2D00000000000000000000000000000000000000000000000000000000000000000000000000000000000000BE0000000000000000000000000000000000000000000000000000000000000000000000000000000000000000000000000000000000000000000000000000000000000000BE0000
310
000000000000000000000000000000000000000000000000000000000000000000000000000000000000002D002D2D00000000000000002D2D002D2D2D00000000000000002D2D002D00000028282828282828282800000000000000000000000000000000000000000000000000000000000000000000002D002D2D000000
310
00000000002D2D002D002D2DF5F500F5F500000000000000000000000000000000000000000000000000000000000000000000000000000000BE0000000000000000000000000000000000000000000000000000000000000000000000000000000000000000000000000000000000000000000000000000000000000000BE
310
0000000000000000000000000000000000000000000000000000000000000000000000000000000000000000002D00000000000000000000000000002D000000000000000000000000002D00000028282828282828282800000000000000000000000000000000000000000000000000000000000000000000002D00000000
310
000000000000000000002D000000F5F500F5F500000000000000000000000000000000000000000000000000000000000000000000000000000000BE00000000000000000000000000000000000000000000000000000000000000000000000000000000000000000000000000000000000000000000000000000000000000
310
00BE0000000000000000000000000000000000000000000000000000000000000000000000000000000000000000002D00000000000000000000000000002D000000000000000000000000002D00000028282828282828282800000000000000000000000000000000000000000000000000000000000000000000002D0000
310
0000000000000000000000002D0000F5F500F5F5F5F5000000000000000000000000000000000000000000000000000000000000000000000000000000BE0000000000000000000000000000000000000000000000000000000000000000000000000000000000000000000000000000000000000000000000000000000000
310
000000BE000000000000000000000000000000000000000000000000000000000000000000000000000000000000000000000000000000000000000000000000000000000000000000000000000000000000000000000000000000000000000000000000000000000000000000000000000000000000000000000000000000
310
0000000000000000000000000000000000000000F50000F5000000000000000000000000000000000000000000000000000000000000000000000000000000BE000000000000000000000000000000000000000000000000000000000000000000000000000000000000000000000000000000000000000000000000000000
310
0000000000BE00000000000000000000000000000000000000000000000000000000000000000000000000000000000000000000000000000000000000000000000000000000000000000000000000000000000000000000000000000000000000000000000000000000000000000000000000000000000000000000000000
310
0000000000000000000000000000000000000000000000000000000000000000000000000000000000000000000000000000000000000000000000000000000000BE00000000000000000000000000000000000000000000000000000000000000000000000000000000000000000000000000000000000000000000000000
310
00000000000000BE0000000000000000000000000000000000000000000000000000000000000000000000000000000000000000000000000000000000000000000000000000000000000000000000000000000000000000000000000000000000000000000000000000000000000000000000000000000000000000000000
310
00000000000000000000000000000000000000000000000000000000000000000000000000000000000000000000000000000000000000000000000000000000000000BE0000000000000000000000000000000000000000000000000000000000000000000000000000000000000000000000000000000000000000000000
310
000000000000000000BE000000000000000000000000000000000000000000000000000000000000000000000000000000000000000000000000000000000000000000000000000000000000000000000000000000000000000000000000000000000000000000000000000000000000000000000000000000000000000000
310
000000000000000000000000000000000000000000000000000000000000000000000000000000000000000000000000000000000000000000000000000000000000000000BE000000000000000000000000000000000000000000000000000000000000000000000000000000000000000000000000000000000000000000
310
0000000000000000000000BE000000000000000000000000000000000000000000000000000000000000000000000000000000000000000000000000000000000000000000000000000000000000000000000000000000000000000000000000000000000000000000000000000000000000000000000000000000000000F5
310
F52D2D0000000000000000000000000000000000000000000000000000000000000000000000000000000000000000000000000000000000000000000000000000000000000000BE00000000000000000000000000000000000000000000000000000000000000000000000000000000000000000000000000000000000000
310
00000000000000000000000000BE0000000000000000000000000000000000000000000000000000000000000000000000000000000000000000000000000000000000000000000000000000000000000000000000000000000000000000000000000000000000000000000000000000000000000000000000000000000000
310
F5F5002D2D0000000000000000000000000000000000000000000000000000000000000000000000000000000000000000000000000000000000000000000000000000000000000000BE0000000000000000000000000000000000000000000000000000000000000000000000000000000000000000000000000000000000
310
000000000000000000000000000000BE000000000000000000000000000000000000000000000000000000000000000000000000000000000000000000000000000000000000000000000000000000000000000000000000000000000000000000000000000000000000000000000000000000000000000000000000000000
310
0000F5F500002D0000000000000000000000000000000000000000000000000000000000000000000000000000000000000000000000000000000000000000000000000000000000000000BE000000000000000000000000000000000000000000000000000000000000000000000000000000000000000000000000000000
310
0000000000000000000000000000000000BE00000000000000000000000000000000000000000000000000000000000000000000000000000000000000000028282828282828282828282828282828282828282828282828282828282828282828282828282828282828280000000000000000000000000000000000000000
310
002D2D2D2D2D2D2D2D2D2D2D2DBEC300C3C3C3C3C3C3C3C3C3C3C300C3000000000000000000000000000000000000000000000000000000000000000000000000000000000000000000000000BE00000000000000000000000000000000000000000000000000000000000000000000000000000000000000000000000000
310
00000000000000000000000000000000000000BE0000000000000000000000000000000000000000000000000000000000000000000000000000000000000000002828282828282828282828282828282828282828282828282828282828282828282828282828282828282828000000000000000000000000000000000000
310
000000002D000000002D2D2D2D2D2DBEC3C3C3C3C3C3C3C3C3C3C3C3C3C3C3AC0000000000000000000000000000000000000000000000000000000000000000000000000000000000000000000000BE0000000000000000000000000000000000000000000000000000000000000000000000000000000000000000000000
310
000000000000000000000000000000000000000000BE000000000000000000282828282828282828280028282828282828282828282828280028282828282828280000282800000028000000002800000028282800002800000000280000002828280000000000000000000000282800000000000000000000000000000000
310
0000000000002D2D000000002D00000000282800000000000000000000000000AC00AC00000000000000000000000000000000000000000000000000000000000000000000000000000000000000000000BE000000000000000000000000000000000000000000000000000000000000000000000000000000000000000000
310
0000000000000000000000000000000000000000000000BE00000000000000000028282828282828282828002828282828282828282828282828002828282828282828000028280000DCDCDCDCDCDCDCDC000028282800DCDCDCDCDCDCDCDC0000282828000000000000000000000028280000000000000000000000000000
310
00000000000000002D2D0000002D2D00000000282800000000000000000000000000ACAC0000000000000000000000000000000000000000000000000000000000000000000000000000000000000000000000BE00000000000000000000000000000000000000000000000000000000000000000000000000000000000000
310
00000000000000000000000000000000000000000000000000BE0000000000000000000000000000000000000000000000000000000000000000000000000000000000000000002828000028DC00000000DC2800002828280000DC28000000DC28000028282800000000000000000000002828000000000000000000000000
310
000000000000000000002D000000002D2D0000000028280028DC28002828002800DC0000AC00AC00000000000000000000000000000000000000000000000000000000000000000000000000000000000000000000BE0000000000000000000000000000000000000000000000000000000000000000000000000000000000
310
000000000000000000000000000000000000000000000000000000BE0000000000000000000000000000000000000000000000000000000000000000000000000000000000000000002828000028DC00000000DC2800002828280000DC00000000DC2800002828280000000000000000000000282800000000000000000000
310
0000000000000000000000002D00000000002D00000000282800DCDCDCDCDCDCDCDCDCDC0000ACAC0000000000000000000000000000000000000000000000000000000000000000000000000000000000000000000000BE000000000000000000000000000000000000000000000000000000000000000000000000000000
310
0000000000000000000000000000000000000000000000000000000000BE0000000000000000000000000000000000000000000000000000000000000000000000000000000000000000002828000028DC00000000DC2800002828280000DC00000000DC280000282828000000000000000000000028280000000000000000
310
00000000000000000000000000002D00000000002D0000000028280028DC28000000002800DC0000ACACAC00000000000000000000000000000000000000000000000000000000000000000000000000000000000000000000BE00000000000000000000000000000000000000000000000000000000000000000000000000
310
00000000000000000000000000000000000000000000000000000000000000BE0000000000000000000000000000000000000000000000000000000000000000000000000000000000000000002828000028DC00000000DC2800002828280000DC00000000DC28000028282800000000000000000000002828000000000000
310
000000000000000000000000000000002D00000000002D0000000028280028DC28000000002800DC0000ACAC0000000000000000000000000000000000000000000000000000000000000000000000000000000000000000000000BE0000000000000000000000000000000000000000000000000000000000000000000000
310
000000000000000000000000000000000000000000000000000000000000000000BE0000000000000000000000000000000000000000000000000000000000000000000000000000000000000000002828000028DC00000000DC2800002828280000DC00000000DC2800002828280000000000000000000000282800000000
310
0000000000000000000000000000000000002D00000000002D0000000028280028DC00000000000000DC0000ACACAC00000000000000000000000000000000000000000000000000000000000000000000000000000000000000000000BE000000000000000000000000000000000000000000000000000000000000000000
310
0000000000000000000000000000000000000000000000000000000000000000000000BE0000000000000000000000000000000000000000000000000000000000000000000000000000000000000000002828000028DC00000000DC2800002828280000DC00000000DC280000282828000000000000000000000028280000
310
00000000000000000000000000000000000000002D00000000002D0000000028280028DC00000000000000DC0000AC00AC00000000000000000000000000000000000000000000000000000000000000000000000000000000000000000000BE00000000000000000000000000000000000000000000000000000000000000
310
00000000000000000000000000000000000000000000000000000000000000000000000000BE0000000000000000000000000000000000000000000000000000000000000000000000000000000000000000002828000000DC00000000DC0000002828280000DC00000000DC00000028282800000000000000000000002828
310
000000000000000000000000000000000000000000002D00000000002D0000000028280000DC00000000000000DC0000ACAC0000000000000000000000000000000000000000000000000000000000000000000000000000000000000000000000BE0000000000000000000000000000000000000000000000000000000000
310
000000000000000000000000000000000000000000000000000000000000000000000000000000BE0000000000000000000000000000000000000000000000000000000000000000000000000000000000000000002828000028DC00000000DC2800002828280000DC00000000DC2800002828280000000000000000000000
310
2828000000000000000000000000000000000000000000002D00000000002D0000000028280000DC00000000000000DC0000AC00AC00000000000000000000000000000000000000000000000000000000000000000000000000000000000000000000BE000000000000000000000000000000000000000000000000000000
310
0000000000000000000000000000000000000000000000000000000000000000000000000000000000BE0000000000000000000000000000000000000000000000000000000000000000000000000000000000000000002828000028DC00000000DC2800002828280000DC00000000DC280000282828000000000000000000
310
00002828000000000000000000000000000000000000000000002D00000000002D0000000028280000DC00000000000000DC0000ACAC0000000000000000000000000000000000000000000000000000000000000000000000000000000000000000000000BE00000000000000000000000000000000000000000000000000
310
00000000000000000000000000000000000000000000000000000000000000000000000000000000000000BE0000000000000000000000000000000000000000000000000000000000000000000000000000000000000000002828000028DC00000000DC2800002828280000DC00000000DC28000028282800000000000000
310
000000002828000000000000000000000000000000000000000000002D00000000002D0000000028280000DC00000000000000DC0000AC00AC00000000000000000000000000000000000000000000000000000000000000000000000000000000000000000000BE0000000000000000000000000000000000000000000000
310
000000000000000000000000000000000000000000000000000000000000000000000000000000000000000000BE0000000000000000000000000000000000000000000000000000000000000000000000000000000000000000002828000028DC00000000DC2800002828280000DC00000000DC2800002828280000000000
310
0000000000002828000000000000000000000000000000000000000000002D00000000002D0000000028280000DC00000000000000DC0000ACAC0000000000000000000000000000000000000000000000000000000000000000000000000000000000000000000000BE000000000000000000000000000000000000000000
310
0000000000000000000000000000000000000000000000000000000000000000000000000000000000000000000000BE0000000000000000000000000000000000000000000000000000000000000000000000000000000000000000002828000028DC00000000DC2800002828280000DC00000000DC280000282828000000
310
00000000000000002828000000000000000000000000000000000000000000002D00000000002D0000000028280000DC00000000000000DC0000AC00AC00000000000000000000000000000000000000000000000000000000000000000000000000000000000000000000BE00000000000000000000000000000000000000
310
00000000000000000000000000000000000000000000000000000000000000000000000000000000000000000000000000BE0000000000000000000000000000000000000000000000000000000000000000000000000000000000000000002828000028DC00000000DC2800002828280000DC00000000DC28000028282800
310
000000000000000000002828000000000000000000000000000000000000000000002D00000000002D0000000028280000DC00000000000000DC0000ACAC0000000000000000000000000000000000000000000000000000000000000000000000000000000000000000000000BE0000000000000000000000000000000000
310
000000000000000000000000000000000000000000000000000000000000000000000000000000000000000000000000000000BE0000000000000000000000000000000000000000000000000000000000000000000000000000000000000000002828000000DC00000000DC0000002828280000DC00000000DC0000002828
310
280000000000000000000000282800000000000000000000000000000000000000F5F5F52D00000000002D0000000028280000DC00000000000000DC0000AC00AC00000000000000000000000000000000000000000000000000000000000000000000000000000000000000000000BE000000000000000000000000000000
310
0000000000000000000000000000000000000000000000000000000000000000000000000000000000000000000000000000000000BE0000000000000000000000000000000000000000000000000000000000000000000000000000000000000000002828000028DC00000000DC2800002828280000DC00000000DC280000
310
2828280000000000000000000000282800000000000000000000000000000000000000F5F5F52D00000000002D0000000028280000DC00000000000000DC0000ACAC0000000000000000000000000000000000000000000000000000000000000000000000000000000000000000000000BE00000000000000000000000000
310
00000000000000000000000000000000000000000000000000000000000000000000000000000000000000000000000000000000000000BE0000000000000000000000000000000000000000000000000000000000000000000000000000000000000000002828000028DC00000000DC2800002828280000DC00000000DC28
310
00002828280000000000000000000000282800000000000000000000000000000000000000F5F5F52D00000000002D0000000028280000DC00000000000000DC0000AC00AC00000000000000000000000000000000000000000000000000000000000000000000000000000000000000000000BE0000000000000000000000
310
000000000000000000000000000000000000000000000000000000000000000000000000000000000000000000000000000000000000000000BE0000000000000000000000000000000000000000000000000000000000000000000000000000000000000000002828000028DC00000000DC2800002828280000DC00000000
310
DC2800002828280000000000000000000000282800000000000000000000000000000000000000F5F5F52D000000F5002D0000000028280000DC00000000000000DC0000ACAC0000000000000000000000000000000000000000000000000000000000000000000000000000000000000000000000BE000000000000000000
310
0000000000000000000000000000000000000000000000000000000000000000000000000000000000000000000000000000000000000000000000BE0000000000000000000000000000000000000000000000000000000000000000000000000000000000000000002828000028DC00000000DC2800002828280000DC0000
310
0000DC2800002828280000000000000000000000282800000000000000000000000000000000000000F500002D0000F5F5F52D0000000028280000DC00000000000000DC0000ACACAC00000000000000000000000000000000000000000000000000000000000000000000000000000000000000000000BE00000000000000
310
00000000000000000000000000000000000000000000000000000000000000000000000000000000000000000000000000000000000000000000000000BE0000000000000000000000000000000000000000000000000000000000000000000000000000000000000000002828000028DC00000000DC2800002828280000DC
310
00000000DC2800002828280000000000000000000000282800000000000000000000000000000000000000F500002D0000F500F52D0000000028280000DC00000000000000DC0000ACAC0000000000000000000000000000000000000000000000000000000000000000000000000000000000000000000000BE0000000000
310
000000000000000000000000000000000000000000000000000000000000000000000000000000000000000000000000000000000000000000000000000000BE0000000000000000000000000000000000000000000000000000000000000000000000000000000000000000002828000028DC00000000DC28000028282800
310
00DC00000000DC28000028282800000000000000000000002828000000000000000000000000000000000000000000002D00F5F5F5002D0000000028280000DC00000000000000DC0000ACACAC00000000000000000000000000000000000000000000000000000000000000000000000000000000000000000000BE000000
310
0000000000000000000000000000000000000000000000000000000000000000000000000000000000000000000000000000000000000000000000000000000000BE0000000000000000000000000000000000000000000000000000000000000000000000000000000000000000002828000000DC28000028DC0000002828
310
280000DC28000028DC00000028282800000000000000000000002828000000000000000000000000000000000000000000002D00F5F500002D0000000028280000DC00000000000000DC0000AC00AC00000000000000000000000000000000000000000000000000000000000000000000000000000000000000000000BE00
310
00000000000000000000000000000000000000000000000000000000000000000000000000000000000000000000000000000000000000000000000000000000000000BE00000000000000000000000000000000000000000000000000000000000000000000000000000000000000000028280000DCDCDCDCDCDCDCDC0000
310
28282800DCDCDCDCDCDCDCDC00002828280000000000000000000000282800000000000000000000000000000000000000DCDCDC2D00000000002D0000000028280000DC00000000000000DC0000ACAC0000000000000000000000000000000000000000000000000000000000000000000000000000000000000000000000
310
BE0000000000000000000000000000000000000000000000000000000000000000000000000000000000000000000000000000000000000000000000000000000000000000BE000000000000000000000000000000000000000000000000000000000000000000000000000000000000000000282800000000000000000000
310
000028282800000000000000000000002828280000000000000000000000282800000000000000000000000000000000000000DCDCDC2D00000000002D0000000028280000DC00000000000000DC0000AC00AC0000000000000000000000000000000000000000000000000000000000000000000000000000000000000000
310
0000BE0000000000000000000000000000000000000000000000000000000000000000000000000000000000000000000000000000000000000000000000000000000000000000BE00000000000000000000000000000000000000000000000000000000000000000000000000000000000000000028280000000000000000
310
0000000028282800000000000000000000002828280000000000000000000000282800000000000000000000000000000000000000DCDCDC2D00000000002D0000000028280000DC00000000000000DC0000ACAC00000000000000000000000000000000000000000000000000000000000000000000000000000000000000
310
00000000BE0000000000000000000000000000000000000000000000000000000000000000000000000000000000000000000000000000000000000000000000000000000000000000BE0000000000000000000000000000000000000000000000000000000000000000000000000000000000000000002828000F0F0F0F00
310
0000000000002828280F0F0F0F0F0000000000002828280000000000000000000000282800000000000000000000000000000000000000DCDCDC2D00000000002D0000000028280000DC00000000000000DC0000AC00AC00000000000000000000000000000000000000000000000000000000000000000000000000000000
310
000000000000BE0000000000000000000000000000000000000000000000000000000000000000000000000000000000000000000000000000000000000000000000000000000000000000BE0000000000000000000000000000000000000000000028282828282800282828282828280028282828282800002828000F0F0F
310
0F000000000000002828280F0F0F0F0F0000000000002828280000000000000000000000282800000000000000000000000000000000000000DCDCDC2D00000000002D0000000028280000DC00000000000000DC0000ACAC000000000000000000000000000000000000000000000000000000000000000000000000000000
310
0000000000000000BE0000000000000000000000000000000000000000000000000000000000000000000000000000000000000000000000000000000000000000000000000000000000000000BE0000000000000000000000000000000000000000000028282828280000282828282800282828282828282800002828000F
310
0F0F0F000000000000002828280F0F0F0F0F0000000000002828280000000000000000000000282800000000000000000000000000000000000000DCDCDC2D00000000002D0000000028280000DC00000000000000DC0000AC00AC000000000000000000000000000000000000000000000000000000000000000000000000
310
00000000000000000000BE0000000000000000000000000000000000000000000000000000000000000000000000000000000000000000000000000000000000000000000000000000000000000000BE0000000000000000000000000000000000000000000028282828282800282828282828282828282828280000002828
310
000F000F000F0000000000002828280F000F000F0000000000002828280000000000000000000000282800000000000000000000000000000000000000DCDCDC2D00000000002D0000000028280000DC00000000000000DC0000ACAC0000000000000000000000000000000000000000000000000000000000000000000000
310
000000000000000000000000BE0000000000000000000000000000000000000000000000000000000000000000000000000000000000000000000000000000000000000000000000000000000000000000BE000000000000000000000000000000000000000000002828282828282828282828002828282828282828280000
310
2828000F000F000F0000000000002828280F000F000F0000000000002828280000000000000000000000282800000000000000000000000000000000000000DCDCDC2D00000000002D0000000028280000DC00000000000000DC0000AC00AC0000000000000000000000000000000000000000000000000000000000000000
310
0000000000000000000000000000BE0000000000000000000000000000000000000000000000000000000000000000000000000000000000000000000000000000000000000000000000000000000000000000BE00000000000000000000000000000000000000000000282828282828282828282800282828282828282800
310
00002828000F0F0F0F0F0000000000002828280F0F0F0F0F0000000000002828280000000000000000000000282800000000000000000000000000000000000000DCDCDC2D00000000002D0000000028280000DC00000000000000DC0000ACAC00000000000000000000000000000000000000000000000000000000000000
310
00000000000000000000000000000000BE0000000000000000000000000000000000000000000000000000000000000000000000000000000000000000000000000000000000000000000000000000000000000000BE0000000000000000000000000000000000000000000028282828282828282828280028282828282828
310
282800002828000000000000000000000000282828000000000000000000000028282800000000000000000000002828000000000000000000000000000000000000000000002D00000000002D0000000028280000DC00000000000000DC0000AC00AC00000000000000000000000000000000000000000000000000000000
310
000000000000000000000000000000000000BE0000000000000000000000000000000000000000000000000000000000000000000000000000000000000000000000000000000000000000000000000000000000000000BE000000000000000000000000000000000000000000000000000000000000000000000000000000
310
0000000000002828000000280000000028000000282828000028000000002800000028282800000000000000000000002828000000000000000000000000000000000000000000002D00000000002D0000000028280000DC00000000000000DC0000ACAC000000000000000000000000000000000000000000000000000000
310
0000000000000000000000000000000000000000BE0000000000000000000000000000000000000000000000000000000000000000000000000000000000000000000000000000000000000000000000000000000000000000BE00000000000000000000000000000000000000000000000000000000000000000000000000
310
000000000000000028280000DCDCDCDCDCDCDCDC000028282800DCDCDCDCDCDCDCDC00002828280000000000000000000000282800000000000000000000000000000000000000DCDCDC2D00000000002D0000000028280000DC00000000000000DC0000ACACAC000000000000000000000000000000000000000000000000
310
00000000000000000000000000000000000000000000BE0000000000000000000000000000000000000000000000000000000000000000000000000000000000000000000000000000000000000000000000000000000000000000BE0000000000000000000000000000000000000000000000000000000000000000000000
310
000000000000000000002828000028DC00000000DC2800002828280000DC28000000DC2800002828280000000000000000000000282800000000000000000000000000000000000000DCDCDC2D00000000002D0000000028280000DC00000000000000DC0000ACAC0000000000000000000000000000000000000000000000
310
000000000000000000000000000000000000000000000000BE0000000000000000000000000000000000000000000000000000000000000000000000000000000000000000000000000000000000000000000000000000000000000000BE000000000000000000000000000000000000000000000000000000000000000000
310
0000000000000000000000002828000028DC00000000DC2800002828280000DC00000000DC2800002828280000000000000000000000282800000000000000000000000000000000000000DCDCDC2D00000000002D0000000028280000DC00000000000000DC0000ACACAC0000002800282828282828282828282828000028
310
2828282800000000000000000000000000000000000000000000BE0000000000000000000000000000000000000000000000000000000000000000000000000000000000000000000000000000000000000000000000000000000000000000BE00000000000000000000000000000000000000000000000000000000000000
310
00000000000000000000000000002828000028DC00000000DC2800002828280000DC00000000DC2800002828280000000000000000000000282800000000000000000000000000000000000000DCDCDC2D00000000002D0000000028280000DC00000000000000DC0000AC00AC000000282828282828282828282828282828
310
28282828282828000000000000000000000000000000000000000000BE0000000000000000000000000000000000000000000000000000000000000000000000000000000000000000000000000000000000000000000000000000000000000000BE0000000000000000000000000000000000000000000000000000000000
310
000000000000000000000000000000002828000028DC00000000DC2800002828280000DC00000000DC28000028BE280000000000280000000028282800000000000000000000000000000000000000DCDCDC2D00000000002D0000000028280000DC00000000000000DC0000ACAC0000000028282828282828282828282828
310
280028282828282828000000000000000000000000000000000000000000BE0000000000000000000000000000000000000000000000000000000000000000000000000000000000000000000000000000000000000000000000000000000000000000BE000000000000000000000000000000000000000000000000000000
310
0000000000000000000000000000000000002828000028DC00000000DC2800002828280000DC00000000DC28000028BE282800002828282800000028BEBE00000000000000000000000000000000000000DCDCDC2D00000000002D0000000028280000DC00000000000000DC0000AC00AC0000002828282828282828282800
310
0000000000000000000000000000000000000000000000000000000000000000BE0000000000000000000000000000000000000000000000000000000000000000000000000000000000000000000000000000000000000000000000000000000000000000BE00000000000000000000000000000000000000000000000000
310
00000000000000000000000000000000000000002828000028DC00000000DC2800002828280000DC00000000DC28000028BE28000000282828282800000028BE00000000000000000000000000000000000000DCDCDC2D000000002D2D0000000028280000DC00000000000000DC0000ACAC00000000282828282828282828
310
28000000000000000000000000000000000000000000000000000000000000000000BE0000000000000000000000000000000000000000000000000000000000000000000000000000000000000000000000000000000000000000000000000000000000000000BE0000000000000000000000000000000000000000000000
310
000000000000000000000000002828282828280000002828000000DC00000000DC0000002828280000DC00000000DC00000028BE28000000280028280000000028BE00000000000000000000000000000000000000DCDCDC2D000000002D2D0000000028280000DC00000000000000DC0000AC00AC00000000000000000000
310
000000000000000000000000000000000000000000000000000000000000000000000000BE0000000000000000000000000000000000000000000000000000000000000000000000000000000000000000000000000000000000000000000000000000000000000000BE000000000000000000000000000000000000000000
310
0000000000000000000000000000002828282828282800002828000028DC00000000DC2800002828280000DC00000000DC2800002828C3C3C3C3C3BEBEC3C3C3C3C3C328000000000000000000000000000000000000000000002D00000000002D000000002828C3C3DCC3C3C3C3C3C3C3DCC300C3AC000000000000000000
310
0000000000000000000000000000000000000000000000000000000000000000000000000000BE0000000000000000000000000000000000000000000000000000000000000000000000000000000000000000000000000000000000000000000000000000000000000000BE00000000000000000000000000000000000000
310
00000000000000000000000000000000000000000000000000002828000028DC00000000DC2800002828280000DC00000000DC2800002828C3C3C3C3C3C3C3C3C3C3C3C3C328000000000000000000000000000000000000000000002D000000002D2D2D2D2D2D2828C3C3DCC3C3C3C3C3C3C3DCC3C3C300AC000000000000
310
00000000000000000000000000000000000000000000000000000000000000000000000000000000BE0000000000000000000000000000000000000000000000000000000000000000000000000000000000000000000000000000000000000000000000000000000000000000BE0000000000000000000000000000000000
310
000000000000000000282828282828282800282828282828282800002828000028DC00000000DC2800002828280000DC00000000DC28000028282800000000000000000000002828000000000000000000000000000000000000000000002D00000000002D0000000028280000DC00000000000000DC0000ACAC0000000000
310
000000000000000000000000000000000000000000000000000000000000000000000000000000000000BE0000000000000000000000000000000000000000000000000000000000000000000000000000000000000000000000000000000000000000000000000000000000000000BE000000000000000000000000000000
310
0000000000000000000000282828282828282800282828282828282800002828000028DC00000000DC2800002828280000DC00000000DC28000028282800000000000000000000002828000000000000000000000000000000000000000000002D000000002D2D0000000028280000DC00000000000000DC0000AC00AC0000
310
0028282828282828282828000000000000000000000000000000000000000000000000000000000000000000BE0000000000000000000000000000000000000000000000000000000000000000000000000000000000000000000000000000000000000000000000000000000000000000BE00000000000000000000000000
310
00000000280028282828282828282800282800282800282828282828282800002828000028DC00000000DC2800002828280000DC00000000DC28000028282800000000000000000000002828000000000000000000000000000000000000000000002D00000000002D0000000028280028DC00000000000000DC0000ACAC00
310
00000028282828282828282828000000000000000000000000000000000000000000000000000000000000000000BE0000000000000000000000000000000000000000000000000000000000000000000000000000000000000000000000000000000000000000000000000000000000000000BE0000000000000000000000
310
000000000028282828282828282828282800282800282828282828282828280000002828000028DC00000000DC2800002828280000DC00000000DC28000028282800000000000000000000002828000000000000000000000000000000000000000000002D0000F5F5F52D0000000028280028DC00000000000000DC0000AC
310
00AC00000028282828282828282828000000000000000000000000000000000000000000000000000000000000000000BE0000000000000000000000000000000000000000000000000000000000000000000000000000000000000000000000000000000000000000000000000000000000000000BE000000000000000000
310
0000000000000000280028282828282828282800280000282800282828282828282800002828000000DC00000000DC0000002828280000DC00000000DC00000028282800000000000000000000002828000000000000000000000000000000000000000000002D0000F500F52D0000000028280028DC28000000002800DCAC
310
ACACACACACAC0028282828282828282828282828002828280000000000000000000000000000000000000000000000000000BE0000000000000000000000000000000000000000000000000000000000000000000000000000000000000000000000000000000000000000000000000000000000000000BE00000000000000
310
00000000000000000000000000000000000000000000000000000000000000000000000000002828000028DC00000000DC2800002828280000DC28000000DC28000028282800000000000000000000002828000000000000000000000000000000000000000000002D0000F5F5F52D0000000028280028DC28002828002800
310
DC0000ACACAC00000000282828282828282828282828002828280000000000000000000000000000000000000000000000000000BE0000000000000000000000000000000000000000000000000000000000000000000000000000000000000000000000000000000000000000000000000000000000000000BE0000000000
310
0000000000000000000000000000000000000000000000000000000000000000000000000000000028280000DCDCDCDCDCDCDCDC000028282800DCDCDCDCDCDCDCDC000028282800000000000000000000002828000000000000000000000000000000000000000000002D00F5F500002D00000000282800DCDCDCDCDCDCDC
310
DCDCDC0000AC00AC00000000000000000000000000000000000000000000000000000000000000000000000000000000000000000000BE0000000000000000000000000000000000000000000000000000000000000000000000000000000000000000000000000000000000000000000000000000000000000000BE000000
310
0000000000000000000000000000000000000000000028282828282828282828282828282828280000002828000000DCBEBEBEBEDC0000002828280000DCBEBEBEBEDC00000028282800000000000000000000002828000000000000000000000000000000000000000000002D2DF5F5002D2D0000000028280000DC000000
310
00000000DC0000ACAC0000000000000000000000000000000000000000000000000000000000000000000000000000000000000000000000BE0000000000000000000000000000000000000000000000000000000000000000000000000000000000000000000000000000000000000000000000000000000000000000BE00
310
0000000000000000000000000000000000000000000000002828282828282828282828282828282828000000282800000000BEBEBEBE00000000282828000000BEBEBEBE0000000028282800000000000000000000002828000000000000000000000000000000000000000000002D2D0000002D2D00000000282800000000
310
000000000000000000AC00AC00000000000000000000000000000000000000000000000000000000000000000000000000000000000000000000BE0000000000000000000000000000000000000000000000000000000000000000000000000000000000000000000000000000000000000000000000000000000000000000
310
BE0000000000000000000000000000000000000000000000000000000000000000000000000000000000000000002828282828282828282828282828282828282828282828282828282828282828282828282828282828282828000000000000000000000000000000000000000000002D00000000002D00000000BEC300C3
310
C3C3C3C3C3C3C3C3C3C300C3AC0000000000000000000000000000000000000000000000000000000000000000000000000000000000000000000000BE000000000000000000000000000000000000000000000000000000000000000000000000000000000000000000000000000000000000000000000000000000000000
310
0000BE00000000000000000000000000000000000000000000000000000000000000000000000000000000000000000028282828282828282828282828282828282828282828282828282828282828282828282828282828282828280000000000000000000000000000000000000000002D2D2D2D2D2D2D2D2D2D2D2DBEC3
310
C3C3C3C3C3C3C3C3C3C3C3C3C3C300AC00000000000000000000000000000000000000000000000000000000000000000000000000000000000000000000BE00000000000000000000000000000000000000000000000000000000000000000000000000000000000000000000000000000000000000000000000000000000
310
00000000BE0000000000000000000000000000000000000000000000000000000000000000000000000000000000000000000000000000000000000000000000000000000000000000000000000000000000000000000000000000000000000000000000000000000000000000000000000000000000000000000000000000
310
000000000000000000000000000000ACAC0000000000000000000000000000000000000000000000000000000000000000000000000000000000000000000000BE0000000000000000000000000000000000000000000000000000000000000000000000000000000000000000000000000000000000000000000000000000
310
000000000000BE000000000000000000000000000000000000000000000000000000000000000000000000000000000000000000000000000000000000000000000000000000000000000000000000000000000000000000000000000000000000000000000000000000000000000000000000000000000000000000000000
310
0000000000000000000000000000000000AC00AC00000000000000000000000000000000000000000000000000000000000000000000000000000000000000000000BE000000000000000000000000000000000000000000000000000000000000000000000000000000000000000000000000000000000000000000000000
310
0000000000000000BE00000000000000000000000000000000000000000000000000000000000000000000000000000000000000000000000000000000000000000000000000000000000000000000000000000000000000000000000000000000000000000000000000000000000000000000000000000000000000000000
310
00000000000000000000000000000000000000ACAC0000000000000000000000000000000000000000000000000000000000000000000000000000000000000000000000BE00000000000000000000000000000000000000000000000000000000000000000000000000000000000000000000000000000000000000000000
310
00000000000000000000BE0000000000000000000000000000000000000000000000000000000000000000000000000000000000000000000000000000000000000000000000000000000000000000000000000000000000000000000000000000000000000000000000000000000000000000000000000000000000000000
310
000000000000000000000000000000000000000000AC00AC00000000000000000000000000000000000000000000000000000000000000000000000000000000000000000000BE0000000000000000000000000000000000000000000000000000000000000000000000000000000000000000000000000000000000000000
310
000000000000000000000000BE000000000000000000000000000000000000000000000000000000000000000000000000000000000000000000000000000000000000000000000000000000000000000000000000000000000000000000000000000000000000000000000000000000000000000000000000000000000000
310
000000000000000000000000000000000000000000000000000000000000000000000000000000000000000000000000000000000000000000000000000000000000000000000000BE000000000000000000000000000000000000000000000000000000000000000000000000000000000000000000000000000000000000
310
0000000000000000000000000000BE00000000000000000000000000000000000000000000000000000000000000000000000000000000000000000000000000000000000000000000000000000000000000000000000000000000000000000000000000000000000000000000000000000000000000000000000000000000
310
0000000000000000000000000000000000000000000000000000000000000000000000000000000000000000000000000000000000000000000000000000000000000000000000000000BE00000000000000000000000000000000000000000000000000000000000000000000000000000000000000000000000000000000
310
00000000000000000000000000000000BE0000000000000000000000000000000000000000000000000000000000000000000000000000000000000000000000000000000000000000000000000000000000000000000000000000000000000000000000000000000000000000000000000000000000000000000000000000
310
00000000000000000000000000000000000000000000000000000000000000000000000000000000000000000000000000000000000000000000000000000000000000000000000000000000BE0000000000000000000000000000000000000000000000000000000000000000000000000000000000000000000000000000
310
000000000000000000000000000000000000BE000000000000000000000000000000000000000000000000000000000000000000000000000000000000000000000000000000000000000000000000000000000000000000000000000000000000000000000000000000000000000000000000000000000000000000000000
310
000000000000000000000000000000000000000000000000000000000000000000000000000000000000000000000000000000000000000000000000000000000000000000000000000000000000BE000000000000000000000000000000000000000000000000000000000000000000000000000000000000000000000000
310
0000000000000000000000000000000000000000BE00000000000000000000000000000000000000000000000000000000000000000000000000000000000000000000000000000000000000000000000000000000000000000000000000000000000000000000000000000000000000000000000000000000000000000000
310
0000000000000000000000000000000000000000000000000000000000000000000000000000000000000000000000000000000000000000000000000000000000000000000000000000000000000000BE00000000000000000000000000000000000000000000000000000000000000000000000000000000000000000000
310
00000000000000000000000000000000000000000000BE0000000000000000000000000000000000000000000000000000000000000000000000000000000000000000000000000000000000000000000000000000000000000000000000000000000000000000000000000000000000000000000000000000000000000000
310
00000000000000000000000000000000000000000000000000000000000000000000000000000000000000000000000000000000000000000000000000000000000000000000000000000000000000000000BE0000000000000000000000000000000000000000000000000000000000000000000000000000000000000000
310
000000000000000000000000000000000000000000000000BE000000000000000000000000000000000000000000000000000000000000000000000000000000000000000000000000000000000000000000000000000000000000000000000000000000000000000000000000000000000000000000000000000000000000
310
000000000000000000000000000000000000000000000000000000000000000000000000000000000000000000000000000000000000000000000000000000000000000000000000000000000000000000000000BE000000000000000000000000000000000000000000000000000000000000000000000000000000000000
310
0000000000000000000000000000000000000000000000000000BE00000000000000000000000000000000000000000000000000000000000000000000000000000000000000000000000000000000000000000000000000000000000000000000000000000000000000000000000000000000000000000000000000000000
310
0000000000000000000000000000000000000000000000000000000000000000000000000000000000000000000000000000000000000000000000000000000000000000000000000000000000000000000000000000BE00000000000000000000000000000000000000000000000000000000000000000000000000000000
310
00000000000000000000000000000000000000000000000000000000BE0000000000000000000000000000000000000000000000000000000000000000000000000000000000000000000000000000000000000000000000000000000000000000000000000000000000000000000000000000000000000000000000000000
310
00000000000000000000000000000000000000000000000000000000000000000000000000000000000000000000000000000000000000000000000000000000000000000000000000000000000000000000000000000000BE0000000000000000000000000000000000000000000000000000000000000000000000000000
310
000000000000000000000000000000000000000000000000000000000000BE000000000000000000000000000000000000000000000000000000000000000000000000000000000000000000000000000000000000000000000000000000000000000000000000000000000000000000000000000000000000000000000000
310
000000000000000000000000000000000000000000000000000000000000000000000000000000000000000000000000000000000000000000000000000000000000000000000000000000000000000000000000000000000000BE000000000000000000000000000000000000000000000000000000000000000000000000
310
0000000000000000000000000000000000000000000000000000000000000000BE00000000000000000000000000000000000000000000000000000000000000000000000000000000000000000000000000000000000000000000000000000000000000000000000000000000000000000000000000000000000000000000
310
0000000000000000000000000000000000000000000000000000000000000000000000000000000000000000000000000000000000000000000000000000000000000000000000000000000000000000000000000000000000000000BE00000000000000000000000000000000000000000000000000000000000000000000
310
00000000000000000000000000000000000000000000000000000000000000000000BE0000000000000000000000000000000000000000000000000000000000000000000000000000000000000000000000000000000000000000000000000000000000000000000000000000000000000000000000000000000000000000
310
00000000000000000000000000000000000000000000000000000000000000000000000000000000000000000000000000000000000000000000000000000000000000000000000000000000000000000000000000000000000000000000BE0000000000000000000000000000000000000000000000000000000000000000
310
000000000000000000000000000000000000000000000000000000000000000000000000BE000000000000000000000000000000000000000000000000000000000000000000000000000000000000000000000000000000000000000000000000000000000000000000000000000000000000000000000000000000000000
310
000000000000000000000000000000000000000000000000000000000000000000000000000000000000000000000000000000000000000000000000000000000000000000000000000000000000000000000000000000000000000000000000BE000000000000000000000000000000000000000000000000000000000000
310
0000000000000000000000000000000000000000000000000000000000000000000000000000BE00000000000000000000000000000000000000000000000000000000000000000000000000000000000000000000000000000000000000000000000000000000000000000000000000000000000000000000000000000000
310
0000000000000000000000000000000000000000000000000000000000000000000000000000000000000000000000000000000000000000000000000000000000000000000000000000000000000000000000000000000000000000000000000000BE00000000000000000000000000000000000000000000000000000000
310
00000000000000000000000000000000000000000000000000000000000000000000000000000000BE0000000000000000000000000000000000000000000000000000000000000000000000000000000000000000000000000000000000000000000000000000000000000000000000000000000000000000000000000000
310
00000000000000000000000000000000000000000000000000000000000000000000000000000000000000000000000000000000000000000000000000000000000000000000000000000000000000000000000000000000000000000000000000000000BE0000000000000000000000000000000000000000000000000000
310
000000000000000000000000000000000000000000000000000000000000000000000000000000000000BE000000000000000000000000000000000000000000000000000000000000000000000000000000000000000000000000000000000000000000000000000000000000000000000000000000000000000000000000
310
000000000000000000000000000000000000000000000000000000000000000000000000000000000000000000000000000000000000000000000000000000000000000000000000000000000000000000000000000000000000000000000000000000000000BE000000000000000000000000000000000000000000000000
310
0000000000000000000000000000000000000000000000000000000000000000000000000000000000000000BE00000000000000000000000000000000000000000000000000000000000000000000000000000000000000000000000000000000000000000000000000000000000000000000000000000000000000000000
310
0000000000000000000000000000000000000000000000000000000000000000000000000000000000000000000000000000000000000000000000000000000000000000000000000000000000000000000000000000000000000000000000000000000000000000BE00000000000000000000000000000000000000000000
310
00000000000000000000000000000000000000000000000000000000000000000000000000000000000000000000BE0000000000000000000000000000000000000000000000000000000000000000000000000000000000000000000000000000000000000000000000000000000000000000000000000000000000000000
310
00000000000000000000000000000000000000000000000000000000000000000000000000000000000000000000000000000000000000000000000000000000000000000000000000000000000000000000000000000000000000000000000000000000000000000000BE0000000000000000000000000000000000000000
310
000000000000000000000000000000000000000000000000000000000000000000000000000000000000000000000000BE000000000000000000000000000000000000000000000000000000000000000000000000000000000000000000000000000000000000000000000000000000000000000000000000000000000000
310
000000000000000000000000000000000000000000000000000000000000000000000000000000000000000000000000000000000000000000000000000000000000000000000000000000000000000000000000000000000000000000000000000000000000000000000000BE000000000000000000000000000000000000
310
0000000000000000000000000000000000000000000000000000000000000000000000000000000000000000000000000000BE00000000000000000000000000000000000000000000000000000000000000000000000000000000000000000000000000000000000000000000000000000000000000000000000000000000
310
0000000000000000000000000000000000000000000000000000000000000000000000000000000000000000000000000000000000000000000000000000000000000000000000000000000000000000000000000000000000000000000000000000000000000000000000000000BE00000000000000000000000000000000
310
00000000000000000000000000000000000000000000000000000000000000000000000000000000000000000000000000000000BE0000000000000000000000000000000000000000000000000000000000000000000000000000000000000000000000000000000000000000000000000000000000000000000000000000
310
00000000000000000000000000000000000000000000000000000000000000000000000000000000000000000000000000000000000000000000000000000000000000000000000000000000000000000000000000000000000000000000000000000000000000000000000000000000BE0000000000000000000000000000
310
000000000000000000000000000000000000000000000000000000000000000000000000000000000000000000000000000000000000BE000000000000000000000000000000000000000000000000000000000000000000000000000000000000000000000000000000000000000000000000000000000000000000000000
310
000000000000000000000000000000000000000000000000000000000000000000000000000000000000000000000000000000000000000000000000000000000000000000000000000000000000000000000000000000000000000000000000000000000000000000000000000000000000BE000000000000000000000000
310
0000000000000000000000000000000000000000000000000000000000000000000000000000000000000000000000000000000000000000BE00000000000000000000000000000000000000000000000000000000000000000000000000000000000000000000000000000000000000000000000000000000000000000000
310
0000000000000000000000000000000000000000000000000000000000000000000000000000000000000000000000000000000000000000000000000000000000000000000000000000000000000000000000000000000000000000000000000000000000000000000000000000000000000000BE00000000000000000000
310
00000000000000000000000000000000000000000000000000000000000000000000000000000000000000000000000000000000000000000000BE0000000000000000000000000000000000000000000000000000000000000000000000000000000000000000000000000000000000000000000000000000000000000000
310
00000000000000000000000000000000000000000000000000000000000000000000000000000000000000000000000000000000000000000000000000000000000000000000000000000000000000000000000000000000000000000000000000000000000000000000000000000000000000000000BE0000000000000000
310
000000000000000000000000000000000000000000000000000000000000000000000000000000000000000000000000000000000000000000000000BE000000000000000000000000000000000000000000000000000000000000000000000000000000000000000000000000000000000000000000000000000000000000
310
000000000000000000000000000000000000000000000000000000000000000000000000000000000000000000000000000000000000000000000000000000000000000000000000000000000000000000000000000000000000000000000000000000000000000000000000000000000000000000000000BE000000000000
310
0000000000000000000000000000000000000000000000000000000000000000000000000000000000000000000000000000000000000000000000000000BE00000000000000000000000000000000000000000000000000000000000000000000000000000000000000000000000000000000000000000000000000000000
310
0000000000000000000000000000000000000000000000000000000000000000000000000000000000000000000000000000000000000000000000000000000000000000000000000000000000000000000000000000000000000000000000000000000000000000000000000000000000000000000000000000BE00000000
310
00000000000000000000000000000000000000000000000000000000000000000000000000000000000000000000000000000000000000000000000000000000BEBEBEBEBEBEBEBEBEBEBEBEBEBEBEBEBEBEBEBEBEBEBEBEBEBEBEBEBEBEBEBEBEBEBEBEBEBEBEBEBEBEBEBEBEBEBEBEBEBEBEBEBEBEBEBEBEBEBEBEBEBEBE
310
BEBEBEBEBEBEBEBEBEBEBEBEBEBEBEBEBEBEBEBEBEBEBEBEBEBEBEBEBEBEBEBEBEBEBEBEBEBEBEBEBEBEBEBEBEBEBEBEBEBEBEBEBEBEBEBEBEBEBEBEBEBEBEBEBEBEBEBEBEBEBEBEBEBEBEBEBEBEBEBEBEBEBEBEBEBEBEBEBEBEBEBEBEBEBEBEBEBEBEBEBEBEBEBEBEBEBEBEBEBEBEBEBEBEBEBEBEBEBEBEBEBEBEBEBE0000
310
00000000000000000000000000000000000000000000000000000000000000000000000000000000000000000000000000000000000000000000000000000000000000000000000000000000000000000000000000000000000000000000000000000000000000000000000000000000000000000000000000000000000000
310
00000000000000000000000000000000000000000000000000000000000000000000000000000000000000000000000000000000000000000000000000000000000000000000000000000000000000000000000000000000000000000000000000000000000000000000000000000000000000000000000000000000000000
310
00000000000000000000000000000000000000000000000000000000000000000000
  0
XRECORD
  5
20264
102
{ACAD_REACTORS
330
20263
102
}
330
20263
100
AcDbXrecord
280
     1
102
MATERIAL
148
0.0
149
0.0
149
0.0
 93
        0
 94
       63
282
     0
 72
     1
 77
     1
171
     1
175
     1
179
     1
273
     0
  0
XRECORD
  5
20262
102
{ACAD_REACTORS
330
20261
102
}
330
20261
100
AcDbXrecord
280
     1
102
MATERIAL
148
0.0
149
0.0
149
0.0
 93
        0
 94
       63
282
     0
 72
     1
 77
     1
171
     1
175
     1
179
     1
273
     0
  0
XRECORD
  5
20266
102
{ACAD_REACTORS
330
20265
102
}
330
20265
100
AcDbXrecord
280
     1
102
MATERIAL
148
0.0
149
0.0
149
0.0
 93
        0
 94
       63
282
     0
 72
     1
 77
     1
171
     1
175
     1
179
     1
273
     0
  0
CELLSTYLEMAP
  5
2025F
102
{ACAD_REACTORS
330
1950A
102
}
330
1950A
100
AcDbCellStyleMap
 90
        3
300
CELLSTYLE
  1
TABLEFORMAT_BEGIN
 90
        5
170
     1
 91
        0
 92
    32768
 62
   257
 93
        1
300
CONTENTFORMAT
  1
CONTENTFORMAT_BEGIN
 90
        0
 91
        0
 92
      512
 93
        0
300

 40
0.0
140
1.0
 94
        5
 62
     0
340
10
144
0.25
309
CONTENTFORMAT_END
171
     0
 94
        6
 95
        1
302
GRIDFORMAT
  1
GRIDFORMAT_BEGIN
 90
        0
 91
        1
 62
     0
 92
       -2
340
0
 93
        0
 40
0.045
309
GRIDFORMAT_END
 95
        2
302
GRIDFORMAT
  1
GRIDFORMAT_BEGIN
 90
        0
 91
        1
 62
     0
 92
       -2
340
0
 93
        0
 40
0.045
309
GRIDFORMAT_END
 95
        4
302
GRIDFORMAT
  1
GRIDFORMAT_BEGIN
 90
        0
 91
        1
 62
     0
 92
       -2
340
0
 93
        0
 40
0.045
309
GRIDFORMAT_END
 95
        8
302
GRIDFORMAT
  1
GRIDFORMAT_BEGIN
 90
        0
 91
        1
 62
     0
 92
       -2
340
0
 93
        0
 40
0.045
309
GRIDFORMAT_END
 95
       16
302
GRIDFORMAT
  1
GRIDFORMAT_BEGIN
 90
        0
 91
        1
 62
     0
 92
       -2
340
0
 93
        0
 40
0.045
309
GRIDFORMAT_END
 95
       32
302
GRIDFORMAT
  1
GRIDFORMAT_BEGIN
 90
        0
 91
        1
 62
     0
 92
       -2
340
0
 93
        0
 40
0.045
309
GRIDFORMAT_END
309
TABLEFORMAT_END
  1
CELLSTYLE_BEGIN
 90
        1
 91
        1
300
_TITLE
309
CELLSTYLE_END
300
CELLSTYLE
  1
TABLEFORMAT_BEGIN
 90
        5
170
     1
 91
        0
 92
        0
 62
   257
 93
        1
300
CONTENTFORMAT
  1
CONTENTFORMAT_BEGIN
 90
        0
 91
        0
 92
      512
 93
        0
300

 40
0.0
140
1.0
 94
        5
 62
     0
340
10
144
0.18
309
CONTENTFORMAT_END
171
     0
 94
        6
 95
        1
302
GRIDFORMAT
  1
GRIDFORMAT_BEGIN
 90
        0
 91
        1
 62
     0
 92
       -2
340
0
 93
        0
 40
0.045
309
GRIDFORMAT_END
 95
        2
302
GRIDFORMAT
  1
GRIDFORMAT_BEGIN
 90
        0
 91
        1
 62
     0
 92
       -2
340
0
 93
        0
 40
0.045
309
GRIDFORMAT_END
 95
        4
302
GRIDFORMAT
  1
GRIDFORMAT_BEGIN
 90
        0
 91
        1
 62
     0
 92
       -2
340
0
 93
        0
 40
0.045
309
GRIDFORMAT_END
 95
        8
302
GRIDFORMAT
  1
GRIDFORMAT_BEGIN
 90
        0
 91
        1
 62
     0
 92
       -2
340
0
 93
        0
 40
0.045
309
GRIDFORMAT_END
 95
       16
302
GRIDFORMAT
  1
GRIDFORMAT_BEGIN
 90
        0
 91
        1
 62
     0
 92
       -2
340
0
 93
        0
 40
0.045
309
GRIDFORMAT_END
 95
       32
302
GRIDFORMAT
  1
GRIDFORMAT_BEGIN
 90
        0
 91
        1
 62
     0
 92
       -2
340
0
 93
        0
 40
0.045
309
GRIDFORMAT_END
309
TABLEFORMAT_END
  1
CELLSTYLE_BEGIN
 90
        2
 91
        1
300
_HEADER
309
CELLSTYLE_END
300
CELLSTYLE
  1
TABLEFORMAT_BEGIN
 90
        5
170
     1
 91
        0
 92
        0
 62
   257
 93
        1
300
CONTENTFORMAT
  1
CONTENTFORMAT_BEGIN
 90
        0
 91
        0
 92
      512
 93
        0
300

 40
0.0
140
1.0
 94
        2
 62
     0
340
10
144
0.18
309
CONTENTFORMAT_END
171
     0
 94
        6
 95
        1
302
GRIDFORMAT
  1
GRIDFORMAT_BEGIN
 90
        0
 91
        1
 62
     0
 92
       -2
340
0
 93
        0
 40
0.045
309
GRIDFORMAT_END
 95
        2
302
GRIDFORMAT
  1
GRIDFORMAT_BEGIN
 90
        0
 91
        1
 62
     0
 92
       -2
340
0
 93
        0
 40
0.045
309
GRIDFORMAT_END
 95
        4
302
GRIDFORMAT
  1
GRIDFORMAT_BEGIN
 90
        0
 91
        1
 62
     0
 92
       -2
340
0
 93
        0
 40
0.045
309
GRIDFORMAT_END
 95
        8
302
GRIDFORMAT
  1
GRIDFORMAT_BEGIN
 90
        0
 91
        1
 62
     0
 92
       -2
340
0
 93
        0
 40
0.045
309
GRIDFORMAT_END
 95
       16
302
GRIDFORMAT
  1
GRIDFORMAT_BEGIN
 90
        0
 91
        1
 62
     0
 92
       -2
340
0
 93
        0
 40
0.045
309
GRIDFORMAT_END
 95
       32
302
GRIDFORMAT
  1
GRIDFORMAT_BEGIN
 90
        0
 91
        1
 62
     0
 92
       -2
340
0
 93
        0
 40
0.045
309
GRIDFORMAT_END
309
TABLEFORMAT_END
  1
CELLSTYLE_BEGIN
 90
        3
 91
        2
300
_DATA
309
CELLSTYLE_END
  0
XRECORD
  5
2027F
102
{ACAD_REACTORS
330
1950A
102
}
330
1950A
100
AcDbXrecord
280
     1
102
ACAD_ROUNDTRIP_PRE2007_TABLESTYLE
 90
      512
 91
        0
  1

 92
      512
 93
        0
  2

 94
      512
 95
        0
  3

  0
XRECORD
  5
20272
102
{ACAD_REACTORS
330
20271
102
}
330
20271
100
AcDbXrecord
280
     1
102
RTVSPost2010Prop28
280
     1
102
RTVSPost2010PropOp28
 70
     1
102
RTVSPost2010Prop29
280
     1
102
RTVSPost2010PropOp29
 70
     1
102
RTVSPost2010Prop30
280
     0
102
RTVSPost2010PropOp30
 70
     1
102
RTVSPost2010Prop31
280
     0
102
RTVSPost2010PropOp31
 70
     1
102
RTVSPost2010Prop32
280
     0
102
RTVSPost2010PropOp32
 70
     1
102
RTVSPost2010Prop33
280
     0
102
RTVSPost2010PropOp33
 70
     1
102
RTVSPost2010Prop34
280
     0
102
RTVSPost2010PropOp34
 70
     1
102
RTVSPost2010Prop35
280
     0
102
RTVSPost2010PropOp35
 70
     1
102
RTVSPost2010Prop36
280
     0
102
RTVSPost2010PropOp36
 70
     1
102
RTVSPost2010Prop37
 90
       50
102
RTVSPost2010PropOp37
 70
     1
102
RTVSPost2010Prop38
140
0.0
102
RTVSPost2010PropOp38
 70
     1
102
RTVSPost2010Prop39
140
1.0
102
RTVSPost2010PropOp39
 70
     1
102
RTVSPost2010Prop40
 90
        0
102
RTVSPost2010PropOp40
 70
     1
102
RTVSPost2010Prop41ColorIndex
 90
       18
102
RTVSPost2010Prop41ColorRGB
 90
        0
102
RTVSPost2010PropOp41
 70
     1
102
RTVSPost2010Prop42
 90
       50
102
RTVSPost2010PropOp42
 70
     1
102
RTVSPost2010Prop43
 90
        3
102
RTVSPost2010PropOp43
 70
     1
102
RTVSPost2010Prop44ColorIndex
 90
        5
102
RTVSPost2010Prop44ColorRGB
 90
      255
102
RTVSPost2010PropOp44
 70
     1
102
RTVSPost2010Prop45
280
     0
102
RTVSPost2010PropOp45
 70
     1
102
RTVSPost2010Prop46
 90
       50
102
RTVSPost2010PropOp46
 70
     1
102
RTVSPost2010Prop47
 90
       50
102
RTVSPost2010PropOp47
 70
     1
102
RTVSPost2010Prop48
 90
       50
102
RTVSPost2010PropOp48
 70
     1
102
RTVSPost2010Prop49
280
     0
102
RTVSPost2010PropOp49
 70
     1
102
RTVSPost2010Prop50
 90
       50
102
RTVSPost2010PropOp50
 70
     1
102
RTVSPost2010Prop51ColorIndex
 90
      256
102
RTVSPost2010Prop51ColorRGB
 90
-16777216
102
RTVSPost2010PropOp51
 70
     0
102
RTVSPost2010Prop52
140
1.0
102
RTVSPost2010PropOp52
 70
     0
102
RTVSPost2010Prop53
 90
        2
102
RTVSPost2010PropOp53
 70
     1
102
RTVSPost2010Prop54
  1
strokes_ogs.tif
102
RTVSPost2010PropOp54
 70
     1
102
RTVSPost2010Prop55
280
     0
102
RTVSPost2010PropOp55
 70
     1
102
RTVSPost2010Prop56
140
1.0
102
RTVSPost2010PropOp56
 70
     1
102
RTVSPost2010Prop57
140
1.0
102
RTVSPost2010PropOp57
 70
     1
102
RTVSPropertyOp0
 70
     1
102
RTVSPropertyOp1
 70
     1
102
RTVSPropertyOp2
 70
     1
102
RTVSPropertyOp3
 70
     1
102
RTVSPropertyOp4
 70
     1
102
RTVSPropertyOp5
 70
     1
102
RTVSPropertyOp6
 70
     1
102
RTVSPropertyOp7
 70
     1
102
RTVSPropertyOp8
 70
     1
102
RTVSPropertyOp9
 70
     1
102
RTVSPropertyOp10
 70
     1
102
RTVSPropertyOp11
 70
     1
102
RTVSPropertyOp12
 70
     1
102
RTVSPropertyOp13
 70
     1
102
RTVSPropertyOp14
 70
     1
102
RTVSPropertyOp15
 70
     1
102
RTVSPropertyOp16
 70
     1
102
RTVSPropertyOp17
 70
     1
102
RTVSPropertyOp18
 70
     1
102
RTVSPropertyOp19
 70
     1
102
RTVSPropertyOp20
 70
     1
102
RTVSPropertyOp21
 70
     1
102
RTVSPropertyOp22
 70
     1
102
RTVSPropertyOp23
 70
     1
102
RTVSPropertyOp24
 70
     1
102
RTVSPropertyOp25
 70
     1
102
RTVSPropertyOp26
 70
     1
102
RTVSPropertyOp27
 70
     1
102
RTVSPropertyOp28
 70
     1
102
RTVSPropertyOp29
 70
     1
102
RTVSPropertyOp30
 70
     1
102
RTVSPropertyOp31
 70
     1
102
RTVSPropertyOp32
 70
     1
102
RTVSPropertyOp33
 70
     1
102
RTVSPropertyOp34
 70
     1
102
RTVSPropertyOp35
 70
     1
102
RTVSPropertyOp36
 70
     1
102
RTVSPropertyOp37
 70
     1
102
RTVSPropertyOp38
 70
     1
102
RTVSPropertyOp39
 70
     1
102
RTVSPropertyOp40
 70
     1
102
RTVSPropertyOp41
 70
     1
102
RTVSPropertyOp42
 70
     1
102
RTVSPropertyOp43
 70
     1
102
RTVSPropertyOp44
 70
     1
102
RTVSPropertyOp45
 70
     1
102
RTVSPropertyOp46
 70
     1
102
RTVSPropertyOp47
 70
     1
102
RTVSPropertyOp48
 70
     1
102
RTVSPropertyOp49
 70
     1
102
RTVSPropertyOp50
 70
     1
102
RTVSPropertyOp51
 70
     0
102
RTVSPropertyOp52
 70
     0
102
RTVSPropertyOp53
 70
     1
102
RTVSPropertyOp54
 70
     1
102
RTVSPropertyOp55
 70
     1
102
RTVSPropertyOp56
 70
     1
102
RTVSPropertyOp57
 70
     1
102
RTVSPropertyOp58
 70
     1
102
RTVSPropertyOp59
 70
     1
102
RTVSPropertyOp60
 70
     1
102
RTVSPropertyOp61
 70
     1
102
RTVSPropertyOp62
 70
     1
  0
XRECORD
  5
20283
102
{ACAD_REACTORS
330
20282
102
}
330
20282
100
AcDbXrecord
280
     1
102
RTVSPost2010Prop28
280
     0
102
RTVSPost2010PropOp28
 70
     1
102
RTVSPost2010Prop29
280
     1
102
RTVSPost2010PropOp29
 70
     1
102
RTVSPost2010Prop30
280
     1
102
RTVSPost2010PropOp30
 70
     1
102
RTVSPost2010Prop31
280
     0
102
RTVSPost2010PropOp31
 70
     1
102
RTVSPost2010Prop32
280
     0
102
RTVSPost2010PropOp32
 70
     1
102
RTVSPost2010Prop33
280
     0
102
RTVSPost2010PropOp33
 70
     1
102
RTVSPost2010Prop34
280
     0
102
RTVSPost2010PropOp34
 70
     1
102
RTVSPost2010Prop35
280
     0
102
RTVSPost2010PropOp35
 70
     1
102
RTVSPost2010Prop36
280
     0
102
RTVSPost2010PropOp36
 70
     1
102
RTVSPost2010Prop37
 90
       50
102
RTVSPost2010PropOp37
 70
     1
102
RTVSPost2010Prop38
140
0.0
102
RTVSPost2010PropOp38
 70
     1
102
RTVSPost2010Prop39
140
1.0
102
RTVSPost2010PropOp39
 70
     1
102
RTVSPost2010Prop40
 90
        0
102
RTVSPost2010PropOp40
 70
     1
102
RTVSPost2010Prop41ColorIndex
 90
       18
102
RTVSPost2010Prop41ColorRGB
 90
        0
102
RTVSPost2010PropOp41
 70
     1
102
RTVSPost2010Prop42
 90
       50
102
RTVSPost2010PropOp42
 70
     1
102
RTVSPost2010Prop43
 90
        3
102
RTVSPost2010PropOp43
 70
     1
102
RTVSPost2010Prop44ColorIndex
 90
        5
102
RTVSPost2010Prop44ColorRGB
 90
      255
102
RTVSPost2010PropOp44
 70
     1
102
RTVSPost2010Prop45
280
     0
102
RTVSPost2010PropOp45
 70
     1
102
RTVSPost2010Prop46
 90
       50
102
RTVSPost2010PropOp46
 70
     1
102
RTVSPost2010Prop47
 90
       50
102
RTVSPost2010PropOp47
 70
     1
102
RTVSPost2010Prop48
 90
       50
102
RTVSPost2010PropOp48
 70
     1
102
RTVSPost2010Prop49
280
     0
102
RTVSPost2010PropOp49
 70
     1
102
RTVSPost2010Prop50
 90
       50
102
RTVSPost2010PropOp50
 70
     1
102
RTVSPost2010Prop51ColorIndex
 90
      256
102
RTVSPost2010Prop51ColorRGB
 90
-16777216
102
RTVSPost2010PropOp51
 70
     0
102
RTVSPost2010Prop52
140
1.0
102
RTVSPost2010PropOp52
 70
     0
102
RTVSPost2010Prop53
 90
        2
102
RTVSPost2010PropOp53
 70
     1
102
RTVSPost2010Prop54
  1
strokes_ogs.tif
102
RTVSPost2010PropOp54
 70
     1
102
RTVSPost2010Prop55
280
     0
102
RTVSPost2010PropOp55
 70
     1
102
RTVSPost2010Prop56
140
1.0
102
RTVSPost2010PropOp56
 70
     1
102
RTVSPost2010Prop57
140
1.0
102
RTVSPost2010PropOp57
 70
     1
102
RTVSPropertyOp0
 70
     1
102
RTVSPropertyOp1
 70
     1
102
RTVSPropertyOp2
 70
     1
102
RTVSPropertyOp3
 70
     1
102
RTVSPropertyOp4
 70
     1
102
RTVSPropertyOp5
 70
     1
102
RTVSPropertyOp6
 70
     1
102
RTVSPropertyOp7
 70
     1
102
RTVSPropertyOp8
 70
     1
102
RTVSPropertyOp9
 70
     1
102
RTVSPropertyOp10
 70
     1
102
RTVSPropertyOp11
 70
     1
102
RTVSPropertyOp12
 70
     1
102
RTVSPropertyOp13
 70
     1
102
RTVSPropertyOp14
 70
     1
102
RTVSPropertyOp15
 70
     1
102
RTVSPropertyOp16
 70
     1
102
RTVSPropertyOp17
 70
     1
102
RTVSPropertyOp18
 70
     1
102
RTVSPropertyOp19
 70
     1
102
RTVSPropertyOp20
 70
     1
102
RTVSPropertyOp21
 70
     1
102
RTVSPropertyOp22
 70
     1
102
RTVSPropertyOp23
 70
     1
102
RTVSPropertyOp24
 70
     1
102
RTVSPropertyOp25
 70
     1
102
RTVSPropertyOp26
 70
     1
102
RTVSPropertyOp27
 70
     1
102
RTVSPropertyOp28
 70
     1
102
RTVSPropertyOp29
 70
     1
102
RTVSPropertyOp30
 70
     1
102
RTVSPropertyOp31
 70
     1
102
RTVSPropertyOp32
 70
     1
102
RTVSPropertyOp33
 70
     1
102
RTVSPropertyOp34
 70
     1
102
RTVSPropertyOp35
 70
     1
102
RTVSPropertyOp36
 70
     1
102
RTVSPropertyOp37
 70
     1
102
RTVSPropertyOp38
 70
     1
102
RTVSPropertyOp39
 70
     1
102
RTVSPropertyOp40
 70
     1
102
RTVSPropertyOp41
 70
     1
102
RTVSPropertyOp42
 70
     1
102
RTVSPropertyOp43
 70
     1
102
RTVSPropertyOp44
 70
     1
102
RTVSPropertyOp45
 70
     1
102
RTVSPropertyOp46
 70
     1
102
RTVSPropertyOp47
 70
     1
102
RTVSPropertyOp48
 70
     1
102
RTVSPropertyOp49
 70
     1
102
RTVSPropertyOp50
 70
     1
102
RTVSPropertyOp51
 70
     0
102
RTVSPropertyOp52
 70
     0
102
RTVSPropertyOp53
 70
     1
102
RTVSPropertyOp54
 70
     1
102
RTVSPropertyOp55
 70
     1
102
RTVSPropertyOp56
 70
     1
102
RTVSPropertyOp57
 70
     1
102
RTVSPropertyOp58
 70
     1
102
RTVSPropertyOp59
 70
     1
102
RTVSPropertyOp60
 70
     1
102
RTVSPropertyOp61
 70
     1
102
RTVSPropertyOp62
 70
     1
  0
XRECORD
  5
20281
102
{ACAD_REACTORS
330
20280
102
}
330
20280
100
AcDbXrecord
280
     1
102
RTVSPost2010Prop28
280
     0
102
RTVSPost2010PropOp28
 70
     1
102
RTVSPost2010Prop29
280
     1
102
RTVSPost2010PropOp29
 70
     1
102
RTVSPost2010Prop30
280
     1
102
RTVSPost2010PropOp30
 70
     1
102
RTVSPost2010Prop31
280
     0
102
RTVSPost2010PropOp31
 70
     1
102
RTVSPost2010Prop32
280
     0
102
RTVSPost2010PropOp32
 70
     1
102
RTVSPost2010Prop33
280
     0
102
RTVSPost2010PropOp33
 70
     1
102
RTVSPost2010Prop34
280
     0
102
RTVSPost2010PropOp34
 70
     1
102
RTVSPost2010Prop35
280
     0
102
RTVSPost2010PropOp35
 70
     1
102
RTVSPost2010Prop36
280
     0
102
RTVSPost2010PropOp36
 70
     1
102
RTVSPost2010Prop37
 90
       50
102
RTVSPost2010PropOp37
 70
     1
102
RTVSPost2010Prop38
140
0.0
102
RTVSPost2010PropOp38
 70
     1
102
RTVSPost2010Prop39
140
1.0
102
RTVSPost2010PropOp39
 70
     1
102
RTVSPost2010Prop40
 90
        0
102
RTVSPost2010PropOp40
 70
     1
102
RTVSPost2010Prop41ColorIndex
 90
       18
102
RTVSPost2010Prop41ColorRGB
 90
        0
102
RTVSPost2010PropOp41
 70
     1
102
RTVSPost2010Prop42
 90
       50
102
RTVSPost2010PropOp42
 70
     1
102
RTVSPost2010Prop43
 90
        3
102
RTVSPost2010PropOp43
 70
     1
102
RTVSPost2010Prop44ColorIndex
 90
        5
102
RTVSPost2010Prop44ColorRGB
 90
      255
102
RTVSPost2010PropOp44
 70
     1
102
RTVSPost2010Prop45
280
     0
102
RTVSPost2010PropOp45
 70
     1
102
RTVSPost2010Prop46
 90
       50
102
RTVSPost2010PropOp46
 70
     1
102
RTVSPost2010Prop47
 90
       50
102
RTVSPost2010PropOp47
 70
     1
102
RTVSPost2010Prop48
 90
       50
102
RTVSPost2010PropOp48
 70
     1
102
RTVSPost2010Prop49
280
     0
102
RTVSPost2010PropOp49
 70
     1
102
RTVSPost2010Prop50
 90
       50
102
RTVSPost2010PropOp50
 70
     1
102
RTVSPost2010Prop51ColorIndex
 90
      256
102
RTVSPost2010Prop51ColorRGB
 90
-16777216
102
RTVSPost2010PropOp51
 70
     0
102
RTVSPost2010Prop52
140
1.0
102
RTVSPost2010PropOp52
 70
     0
102
RTVSPost2010Prop53
 90
        2
102
RTVSPost2010PropOp53
 70
     1
102
RTVSPost2010Prop54
  1
strokes_ogs.tif
102
RTVSPost2010PropOp54
 70
     1
102
RTVSPost2010Prop55
280
     0
102
RTVSPost2010PropOp55
 70
     1
102
RTVSPost2010Prop56
140
1.0
102
RTVSPost2010PropOp56
 70
     1
102
RTVSPost2010Prop57
140
1.0
102
RTVSPost2010PropOp57
 70
     1
102
RTVSPropertyOp0
 70
     1
102
RTVSPropertyOp1
 70
     1
102
RTVSPropertyOp2
 70
     1
102
RTVSPropertyOp3
 70
     1
102
RTVSPropertyOp4
 70
     1
102
RTVSPropertyOp5
 70
     1
102
RTVSPropertyOp6
 70
     1
102
RTVSPropertyOp7
 70
     1
102
RTVSPropertyOp8
 70
     1
102
RTVSPropertyOp9
 70
     1
102
RTVSPropertyOp10
 70
     1
102
RTVSPropertyOp11
 70
     1
102
RTVSPropertyOp12
 70
     1
102
RTVSPropertyOp13
 70
     1
102
RTVSPropertyOp14
 70
     1
102
RTVSPropertyOp15
 70
     1
102
RTVSPropertyOp16
 70
     1
102
RTVSPropertyOp17
 70
     1
102
RTVSPropertyOp18
 70
     1
102
RTVSPropertyOp19
 70
     1
102
RTVSPropertyOp20
 70
     1
102
RTVSPropertyOp21
 70
     1
102
RTVSPropertyOp22
 70
     1
102
RTVSPropertyOp23
 70
     1
102
RTVSPropertyOp24
 70
     1
102
RTVSPropertyOp25
 70
     1
102
RTVSPropertyOp26
 70
     1
102
RTVSPropertyOp27
 70
     1
102
RTVSPropertyOp28
 70
     1
102
RTVSPropertyOp29
 70
     1
102
RTVSPropertyOp30
 70
     1
102
RTVSPropertyOp31
 70
     1
102
RTVSPropertyOp32
 70
     1
102
RTVSPropertyOp33
 70
     1
102
RTVSPropertyOp34
 70
     1
102
RTVSPropertyOp35
 70
     1
102
RTVSPropertyOp36
 70
     1
102
RTVSPropertyOp37
 70
     1
102
RTVSPropertyOp38
 70
     1
102
RTVSPropertyOp39
 70
     1
102
RTVSPropertyOp40
 70
     1
102
RTVSPropertyOp41
 70
     1
102
RTVSPropertyOp42
 70
     1
102
RTVSPropertyOp43
 70
     1
102
RTVSPropertyOp44
 70
     1
102
RTVSPropertyOp45
 70
     1
102
RTVSPropertyOp46
 70
     1
102
RTVSPropertyOp47
 70
     1
102
RTVSPropertyOp48
 70
     1
102
RTVSPropertyOp49
 70
     1
102
RTVSPropertyOp50
 70
     1
102
RTVSPropertyOp51
 70
     0
102
RTVSPropertyOp52
 70
     0
102
RTVSPropertyOp53
 70
     1
102
RTVSPropertyOp54
 70
     1
102
RTVSPropertyOp55
 70
     1
102
RTVSPropertyOp56
 70
     1
102
RTVSPropertyOp57
 70
     1
102
RTVSPropertyOp58
 70
     1
102
RTVSPropertyOp59
 70
     1
102
RTVSPropertyOp60
 70
     1
102
RTVSPropertyOp61
 70
     1
102
RTVSPropertyOp62
 70
     1
  0
XRECORD
  5
20270
102
{ACAD_REACTORS
330
2026F
102
}
330
2026F
100
AcDbXrecord
280
     1
102
RTVSPost2010Prop28
280
     0
102
RTVSPost2010PropOp28
 70
     1
102
RTVSPost2010Prop29
280
     1
102
RTVSPost2010PropOp29
 70
     1
102
RTVSPost2010Prop30
280
     1
102
RTVSPost2010PropOp30
 70
     1
102
RTVSPost2010Prop31
280
     0
102
RTVSPost2010PropOp31
 70
     1
102
RTVSPost2010Prop32
280
     0
102
RTVSPost2010PropOp32
 70
     1
102
RTVSPost2010Prop33
280
     0
102
RTVSPost2010PropOp33
 70
     1
102
RTVSPost2010Prop34
280
     0
102
RTVSPost2010PropOp34
 70
     1
102
RTVSPost2010Prop35
280
     0
102
RTVSPost2010PropOp35
 70
     1
102
RTVSPost2010Prop36
280
     0
102
RTVSPost2010PropOp36
 70
     1
102
RTVSPost2010Prop37
 90
       50
102
RTVSPost2010PropOp37
 70
     1
102
RTVSPost2010Prop38
140
0.0
102
RTVSPost2010PropOp38
 70
     1
102
RTVSPost2010Prop39
140
1.0
102
RTVSPost2010PropOp39
 70
     1
102
RTVSPost2010Prop40
 90
        0
102
RTVSPost2010PropOp40
 70
     1
102
RTVSPost2010Prop41ColorIndex
 90
       18
102
RTVSPost2010Prop41ColorRGB
 90
        0
102
RTVSPost2010PropOp41
 70
     1
102
RTVSPost2010Prop42
 90
       50
102
RTVSPost2010PropOp42
 70
     1
102
RTVSPost2010Prop43
 90
        3
102
RTVSPost2010PropOp43
 70
     1
102
RTVSPost2010Prop44ColorIndex
 90
        5
102
RTVSPost2010Prop44ColorRGB
 90
      255
102
RTVSPost2010PropOp44
 70
     1
102
RTVSPost2010Prop45
280
     0
102
RTVSPost2010PropOp45
 70
     1
102
RTVSPost2010Prop46
 90
       50
102
RTVSPost2010PropOp46
 70
     1
102
RTVSPost2010Prop47
 90
       50
102
RTVSPost2010PropOp47
 70
     1
102
RTVSPost2010Prop48
 90
       50
102
RTVSPost2010PropOp48
 70
     1
102
RTVSPost2010Prop49
280
     0
102
RTVSPost2010PropOp49
 70
     1
102
RTVSPost2010Prop50
 90
       50
102
RTVSPost2010PropOp50
 70
     1
102
RTVSPost2010Prop51ColorIndex
 90
      256
102
RTVSPost2010Prop51ColorRGB
 90
-16777216
102
RTVSPost2010PropOp51
 70
     0
102
RTVSPost2010Prop52
140
1.0
102
RTVSPost2010PropOp52
 70
     0
102
RTVSPost2010Prop53
 90
        2
102
RTVSPost2010PropOp53
 70
     1
102
RTVSPost2010Prop54
  1
strokes_ogs.tif
102
RTVSPost2010PropOp54
 70
     1
102
RTVSPost2010Prop55
280
     0
102
RTVSPost2010PropOp55
 70
     1
102
RTVSPost2010Prop56
140
1.0
102
RTVSPost2010PropOp56
 70
     1
102
RTVSPost2010Prop57
140
1.0
102
RTVSPost2010PropOp57
 70
     1
102
RTVSPropertyOp0
 70
     1
102
RTVSPropertyOp1
 70
     1
102
RTVSPropertyOp2
 70
     1
102
RTVSPropertyOp3
 70
     1
102
RTVSPropertyOp4
 70
     1
102
RTVSPropertyOp5
 70
     1
102
RTVSPropertyOp6
 70
     1
102
RTVSPropertyOp7
 70
     1
102
RTVSPropertyOp8
 70
     1
102
RTVSPropertyOp9
 70
     1
102
RTVSPropertyOp10
 70
     1
102
RTVSPropertyOp11
 70
     1
102
RTVSPropertyOp12
 70
     1
102
RTVSPropertyOp13
 70
     1
102
RTVSPropertyOp14
 70
     1
102
RTVSPropertyOp15
 70
     1
102
RTVSPropertyOp16
 70
     1
102
RTVSPropertyOp17
 70
     1
102
RTVSPropertyOp18
 70
     1
102
RTVSPropertyOp19
 70
     1
102
RTVSPropertyOp20
 70
     1
102
RTVSPropertyOp21
 70
     1
102
RTVSPropertyOp22
 70
     1
102
RTVSPropertyOp23
 70
     1
102
RTVSPropertyOp24
 70
     1
102
RTVSPropertyOp25
 70
     1
102
RTVSPropertyOp26
 70
     1
102
RTVSPropertyOp27
 70
     1
102
RTVSPropertyOp28
 70
     1
102
RTVSPropertyOp29
 70
     1
102
RTVSPropertyOp30
 70
     1
102
RTVSPropertyOp31
 70
     1
102
RTVSPropertyOp32
 70
     1
102
RTVSPropertyOp33
 70
     1
102
RTVSPropertyOp34
 70
     1
102
RTVSPropertyOp35
 70
     1
102
RTVSPropertyOp36
 70
     1
102
RTVSPropertyOp37
 70
     1
102
RTVSPropertyOp38
 70
     1
102
RTVSPropertyOp39
 70
     1
102
RTVSPropertyOp40
 70
     1
102
RTVSPropertyOp41
 70
     1
102
RTVSPropertyOp42
 70
     1
102
RTVSPropertyOp43
 70
     1
102
RTVSPropertyOp44
 70
     1
102
RTVSPropertyOp45
 70
     1
102
RTVSPropertyOp46
 70
     1
102
RTVSPropertyOp47
 70
     1
102
RTVSPropertyOp48
 70
     1
102
RTVSPropertyOp49
 70
     1
102
RTVSPropertyOp50
 70
     1
102
RTVSPropertyOp51
 70
     0
102
RTVSPropertyOp52
 70
     0
102
RTVSPropertyOp53
 70
     1
102
RTVSPropertyOp54
 70
     1
102
RTVSPropertyOp55
 70
     1
102
RTVSPropertyOp56
 70
     1
102
RTVSPropertyOp57
 70
     1
102
RTVSPropertyOp58
 70
     1
102
RTVSPropertyOp59
 70
     1
102
RTVSPropertyOp60
 70
     1
102
RTVSPropertyOp61
 70
     1
102
RTVSPropertyOp62
 70
     1
  0
XRECORD
  5
20276
102
{ACAD_REACTORS
330
20275
102
}
330
20275
100
AcDbXrecord
280
     1
102
RTVSPost2010Prop28
280
     0
102
RTVSPost2010PropOp28
 70
     1
102
RTVSPost2010Prop29
280
     1
102
RTVSPost2010PropOp29
 70
     1
102
RTVSPost2010Prop30
280
     1
102
RTVSPost2010PropOp30
 70
     1
102
RTVSPost2010Prop31
280
     0
102
RTVSPost2010PropOp31
 70
     1
102
RTVSPost2010Prop32
280
     0
102
RTVSPost2010PropOp32
 70
     1
102
RTVSPost2010Prop33
280
     0
102
RTVSPost2010PropOp33
 70
     1
102
RTVSPost2010Prop34
280
     0
102
RTVSPost2010PropOp34
 70
     1
102
RTVSPost2010Prop35
280
     0
102
RTVSPost2010PropOp35
 70
     1
102
RTVSPost2010Prop36
280
     0
102
RTVSPost2010PropOp36
 70
     1
102
RTVSPost2010Prop37
 90
       50
102
RTVSPost2010PropOp37
 70
     1
102
RTVSPost2010Prop38
140
0.0
102
RTVSPost2010PropOp38
 70
     1
102
RTVSPost2010Prop39
140
1.0
102
RTVSPost2010PropOp39
 70
     1
102
RTVSPost2010Prop40
 90
        0
102
RTVSPost2010PropOp40
 70
     1
102
RTVSPost2010Prop41ColorIndex
 90
       18
102
RTVSPost2010Prop41ColorRGB
 90
        0
102
RTVSPost2010PropOp41
 70
     1
102
RTVSPost2010Prop42
 90
       50
102
RTVSPost2010PropOp42
 70
     1
102
RTVSPost2010Prop43
 90
        3
102
RTVSPost2010PropOp43
 70
     1
102
RTVSPost2010Prop44ColorIndex
 90
        5
102
RTVSPost2010Prop44ColorRGB
 90
      255
102
RTVSPost2010PropOp44
 70
     1
102
RTVSPost2010Prop45
280
     0
102
RTVSPost2010PropOp45
 70
     1
102
RTVSPost2010Prop46
 90
       50
102
RTVSPost2010PropOp46
 70
     1
102
RTVSPost2010Prop47
 90
       50
102
RTVSPost2010PropOp47
 70
     1
102
RTVSPost2010Prop48
 90
       50
102
RTVSPost2010PropOp48
 70
     1
102
RTVSPost2010Prop49
280
     0
102
RTVSPost2010PropOp49
 70
     1
102
RTVSPost2010Prop50
 90
       50
102
RTVSPost2010PropOp50
 70
     1
102
RTVSPost2010Prop51ColorIndex
 90
      256
102
RTVSPost2010Prop51ColorRGB
 90
-16777216
102
RTVSPost2010PropOp51
 70
     0
102
RTVSPost2010Prop52
140
1.0
102
RTVSPost2010PropOp52
 70
     0
102
RTVSPost2010Prop53
 90
        2
102
RTVSPost2010PropOp53
 70
     1
102
RTVSPost2010Prop54
  1
strokes_ogs.tif
102
RTVSPost2010PropOp54
 70
     1
102
RTVSPost2010Prop55
280
     0
102
RTVSPost2010PropOp55
 70
     1
102
RTVSPost2010Prop56
140
1.0
102
RTVSPost2010PropOp56
 70
     1
102
RTVSPost2010Prop57
140
1.0
102
RTVSPost2010PropOp57
 70
     1
102
RTVSPropertyOp0
 70
     1
102
RTVSPropertyOp1
 70
     1
102
RTVSPropertyOp2
 70
     1
102
RTVSPropertyOp3
 70
     1
102
RTVSPropertyOp4
 70
     1
102
RTVSPropertyOp5
 70
     1
102
RTVSPropertyOp6
 70
     1
102
RTVSPropertyOp7
 70
     1
102
RTVSPropertyOp8
 70
     1
102
RTVSPropertyOp9
 70
     1
102
RTVSPropertyOp10
 70
     1
102
RTVSPropertyOp11
 70
     1
102
RTVSPropertyOp12
 70
     1
102
RTVSPropertyOp13
 70
     1
102
RTVSPropertyOp14
 70
     1
102
RTVSPropertyOp15
 70
     1
102
RTVSPropertyOp16
 70
     1
102
RTVSPropertyOp17
 70
     1
102
RTVSPropertyOp18
 70
     1
102
RTVSPropertyOp19
 70
     1
102
RTVSPropertyOp20
 70
     1
102
RTVSPropertyOp21
 70
     1
102
RTVSPropertyOp22
 70
     1
102
RTVSPropertyOp23
 70
     1
102
RTVSPropertyOp24
 70
     1
102
RTVSPropertyOp25
 70
     1
102
RTVSPropertyOp26
 70
     1
102
RTVSPropertyOp27
 70
     1
102
RTVSPropertyOp28
 70
     1
102
RTVSPropertyOp29
 70
     1
102
RTVSPropertyOp30
 70
     1
102
RTVSPropertyOp31
 70
     1
102
RTVSPropertyOp32
 70
     1
102
RTVSPropertyOp33
 70
     1
102
RTVSPropertyOp34
 70
     1
102
RTVSPropertyOp35
 70
     1
102
RTVSPropertyOp36
 70
     1
102
RTVSPropertyOp37
 70
     1
102
RTVSPropertyOp38
 70
     1
102
RTVSPropertyOp39
 70
     1
102
RTVSPropertyOp40
 70
     1
102
RTVSPropertyOp41
 70
     1
102
RTVSPropertyOp42
 70
     1
102
RTVSPropertyOp43
 70
     1
102
RTVSPropertyOp44
 70
     1
102
RTVSPropertyOp45
 70
     1
102
RTVSPropertyOp46
 70
     1
102
RTVSPropertyOp47
 70
     1
102
RTVSPropertyOp48
 70
     1
102
RTVSPropertyOp49
 70
     1
102
RTVSPropertyOp50
 70
     1
102
RTVSPropertyOp51
 70
     0
102
RTVSPropertyOp52
 70
     0
102
RTVSPropertyOp53
 70
     1
102
RTVSPropertyOp54
 70
     1
102
RTVSPropertyOp55
 70
     1
102
RTVSPropertyOp56
 70
     1
102
RTVSPropertyOp57
 70
     1
102
RTVSPropertyOp58
 70
     1
102
RTVSPropertyOp59
 70
     1
102
RTVSPropertyOp60
 70
     1
102
RTVSPropertyOp61
 70
     1
102
RTVSPropertyOp62
 70
     1
  0
XRECORD
  5
2027E
102
{ACAD_REACTORS
330
2027D
102
}
330
2027D
100
AcDbXrecord
280
     1
102
RTVSPost2010Prop28
280
     0
102
RTVSPost2010PropOp28
 70
     1
102
RTVSPost2010Prop29
280
     1
102
RTVSPost2010PropOp29
 70
     1
102
RTVSPost2010Prop30
280
     1
102
RTVSPost2010PropOp30
 70
     1
102
RTVSPost2010Prop31
280
     0
102
RTVSPost2010PropOp31
 70
     1
102
RTVSPost2010Prop32
280
     0
102
RTVSPost2010PropOp32
 70
     1
102
RTVSPost2010Prop33
280
     0
102
RTVSPost2010PropOp33
 70
     1
102
RTVSPost2010Prop34
280
     0
102
RTVSPost2010PropOp34
 70
     1
102
RTVSPost2010Prop35
280
     0
102
RTVSPost2010PropOp35
 70
     1
102
RTVSPost2010Prop36
280
     0
102
RTVSPost2010PropOp36
 70
     1
102
RTVSPost2010Prop37
 90
       50
102
RTVSPost2010PropOp37
 70
     1
102
RTVSPost2010Prop38
140
0.0
102
RTVSPost2010PropOp38
 70
     1
102
RTVSPost2010Prop39
140
1.0
102
RTVSPost2010PropOp39
 70
     1
102
RTVSPost2010Prop40
 90
        0
102
RTVSPost2010PropOp40
 70
     1
102
RTVSPost2010Prop41ColorIndex
 90
       18
102
RTVSPost2010Prop41ColorRGB
 90
        0
102
RTVSPost2010PropOp41
 70
     1
102
RTVSPost2010Prop42
 90
       50
102
RTVSPost2010PropOp42
 70
     1
102
RTVSPost2010Prop43
 90
        3
102
RTVSPost2010PropOp43
 70
     1
102
RTVSPost2010Prop44ColorIndex
 90
        5
102
RTVSPost2010Prop44ColorRGB
 90
      255
102
RTVSPost2010PropOp44
 70
     1
102
RTVSPost2010Prop45
280
     0
102
RTVSPost2010PropOp45
 70
     1
102
RTVSPost2010Prop46
 90
       50
102
RTVSPost2010PropOp46
 70
     1
102
RTVSPost2010Prop47
 90
       50
102
RTVSPost2010PropOp47
 70
     1
102
RTVSPost2010Prop48
 90
       50
102
RTVSPost2010PropOp48
 70
     1
102
RTVSPost2010Prop49
280
     0
102
RTVSPost2010PropOp49
 70
     1
102
RTVSPost2010Prop50
 90
       50
102
RTVSPost2010PropOp50
 70
     1
102
RTVSPost2010Prop51ColorIndex
 90
      256
102
RTVSPost2010Prop51ColorRGB
 90
-16777216
102
RTVSPost2010PropOp51
 70
     0
102
RTVSPost2010Prop52
140
1.0
102
RTVSPost2010PropOp52
 70
     0
102
RTVSPost2010Prop53
 90
        2
102
RTVSPost2010PropOp53
 70
     1
102
RTVSPost2010Prop54
  1
strokes_ogs.tif
102
RTVSPost2010PropOp54
 70
     1
102
RTVSPost2010Prop55
280
     0
102
RTVSPost2010PropOp55
 70
     1
102
RTVSPost2010Prop56
140
1.0
102
RTVSPost2010PropOp56
 70
     1
102
RTVSPost2010Prop57
140
1.0
102
RTVSPost2010PropOp57
 70
     1
102
RTVSPropertyOp0
 70
     1
102
RTVSPropertyOp1
 70
     1
102
RTVSPropertyOp2
 70
     1
102
RTVSPropertyOp3
 70
     1
102
RTVSPropertyOp4
 70
     1
102
RTVSPropertyOp5
 70
     1
102
RTVSPropertyOp6
 70
     1
102
RTVSPropertyOp7
 70
     1
102
RTVSPropertyOp8
 70
     1
102
RTVSPropertyOp9
 70
     1
102
RTVSPropertyOp10
 70
     1
102
RTVSPropertyOp11
 70
     1
102
RTVSPropertyOp12
 70
     1
102
RTVSPropertyOp13
 70
     1
102
RTVSPropertyOp14
 70
     1
102
RTVSPropertyOp15
 70
     1
102
RTVSPropertyOp16
 70
     1
102
RTVSPropertyOp17
 70
     1
102
RTVSPropertyOp18
 70
     1
102
RTVSPropertyOp19
 70
     1
102
RTVSPropertyOp20
 70
     1
102
RTVSPropertyOp21
 70
     1
102
RTVSPropertyOp22
 70
     1
102
RTVSPropertyOp23
 70
     1
102
RTVSPropertyOp24
 70
     1
102
RTVSPropertyOp25
 70
     1
102
RTVSPropertyOp26
 70
     1
102
RTVSPropertyOp27
 70
     1
102
RTVSPropertyOp28
 70
     1
102
RTVSPropertyOp29
 70
     1
102
RTVSPropertyOp30
 70
     1
102
RTVSPropertyOp31
 70
     1
102
RTVSPropertyOp32
 70
     1
102
RTVSPropertyOp33
 70
     1
102
RTVSPropertyOp34
 70
     1
102
RTVSPropertyOp35
 70
     1
102
RTVSPropertyOp36
 70
     1
102
RTVSPropertyOp37
 70
     1
102
RTVSPropertyOp38
 70
     1
102
RTVSPropertyOp39
 70
     1
102
RTVSPropertyOp40
 70
     1
102
RTVSPropertyOp41
 70
     1
102
RTVSPropertyOp42
 70
     1
102
RTVSPropertyOp43
 70
     1
102
RTVSPropertyOp44
 70
     1
102
RTVSPropertyOp45
 70
     1
102
RTVSPropertyOp46
 70
     1
102
RTVSPropertyOp47
 70
     1
102
RTVSPropertyOp48
 70
     1
102
RTVSPropertyOp49
 70
     1
102
RTVSPropertyOp50
 70
     1
102
RTVSPropertyOp51
 70
     0
102
RTVSPropertyOp52
 70
     0
102
RTVSPropertyOp53
 70
     1
102
RTVSPropertyOp54
 70
     1
102
RTVSPropertyOp55
 70
     1
102
RTVSPropertyOp56
 70
     1
102
RTVSPropertyOp57
 70
     1
102
RTVSPropertyOp58
 70
     1
102
RTVSPropertyOp59
 70
     1
102
RTVSPropertyOp60
 70
     1
102
RTVSPropertyOp61
 70
     1
102
RTVSPropertyOp62
 70
     1
  0
XRECORD
  5
20285
102
{ACAD_REACTORS
330
20284
102
}
330
20284
100
AcDbXrecord
280
     1
102
RTVSPost2010Prop28
280
     0
102
RTVSPost2010PropOp28
 70
     1
102
RTVSPost2010Prop29
280
     1
102
RTVSPost2010PropOp29
 70
     1
102
RTVSPost2010Prop30
280
     1
102
RTVSPost2010PropOp30
 70
     1
102
RTVSPost2010Prop31
280
     0
102
RTVSPost2010PropOp31
 70
     1
102
RTVSPost2010Prop32
280
     0
102
RTVSPost2010PropOp32
 70
     1
102
RTVSPost2010Prop33
280
     0
102
RTVSPost2010PropOp33
 70
     1
102
RTVSPost2010Prop34
280
     0
102
RTVSPost2010PropOp34
 70
     1
102
RTVSPost2010Prop35
280
     0
102
RTVSPost2010PropOp35
 70
     1
102
RTVSPost2010Prop36
280
     0
102
RTVSPost2010PropOp36
 70
     1
102
RTVSPost2010Prop37
 90
       50
102
RTVSPost2010PropOp37
 70
     1
102
RTVSPost2010Prop38
140
0.0
102
RTVSPost2010PropOp38
 70
     1
102
RTVSPost2010Prop39
140
1.0
102
RTVSPost2010PropOp39
 70
     1
102
RTVSPost2010Prop40
 90
        0
102
RTVSPost2010PropOp40
 70
     1
102
RTVSPost2010Prop41ColorIndex
 90
       18
102
RTVSPost2010Prop41ColorRGB
 90
        0
102
RTVSPost2010PropOp41
 70
     1
102
RTVSPost2010Prop42
 90
       50
102
RTVSPost2010PropOp42
 70
     1
102
RTVSPost2010Prop43
 90
        3
102
RTVSPost2010PropOp43
 70
     1
102
RTVSPost2010Prop44ColorIndex
 90
        5
102
RTVSPost2010Prop44ColorRGB
 90
      255
102
RTVSPost2010PropOp44
 70
     1
102
RTVSPost2010Prop45
280
     0
102
RTVSPost2010PropOp45
 70
     1
102
RTVSPost2010Prop46
 90
       50
102
RTVSPost2010PropOp46
 70
     1
102
RTVSPost2010Prop47
 90
       50
102
RTVSPost2010PropOp47
 70
     1
102
RTVSPost2010Prop48
 90
       50
102
RTVSPost2010PropOp48
 70
     1
102
RTVSPost2010Prop49
280
     0
102
RTVSPost2010PropOp49
 70
     1
102
RTVSPost2010Prop50
 90
       50
102
RTVSPost2010PropOp50
 70
     1
102
RTVSPost2010Prop51ColorIndex
 90
      256
102
RTVSPost2010Prop51ColorRGB
 90
-16777216
102
RTVSPost2010PropOp51
 70
     0
102
RTVSPost2010Prop52
140
1.0
102
RTVSPost2010PropOp52
 70
     0
102
RTVSPost2010Prop53
 90
        2
102
RTVSPost2010PropOp53
 70
     1
102
RTVSPost2010Prop54
  1
strokes_ogs.tif
102
RTVSPost2010PropOp54
 70
     1
102
RTVSPost2010Prop55
280
     0
102
RTVSPost2010PropOp55
 70
     1
102
RTVSPost2010Prop56
140
1.0
102
RTVSPost2010PropOp56
 70
     1
102
RTVSPost2010Prop57
140
1.0
102
RTVSPost2010PropOp57
 70
     1
102
RTVSPropertyOp0
 70
     1
102
RTVSPropertyOp1
 70
     1
102
RTVSPropertyOp2
 70
     1
102
RTVSPropertyOp3
 70
     1
102
RTVSPropertyOp4
 70
     1
102
RTVSPropertyOp5
 70
     1
102
RTVSPropertyOp6
 70
     1
102
RTVSPropertyOp7
 70
     1
102
RTVSPropertyOp8
 70
     1
102
RTVSPropertyOp9
 70
     1
102
RTVSPropertyOp10
 70
     1
102
RTVSPropertyOp11
 70
     1
102
RTVSPropertyOp12
 70
     1
102
RTVSPropertyOp13
 70
     1
102
RTVSPropertyOp14
 70
     1
102
RTVSPropertyOp15
 70
     1
102
RTVSPropertyOp16
 70
     1
102
RTVSPropertyOp17
 70
     1
102
RTVSPropertyOp18
 70
     1
102
RTVSPropertyOp19
 70
     1
102
RTVSPropertyOp20
 70
     1
102
RTVSPropertyOp21
 70
     1
102
RTVSPropertyOp22
 70
     1
102
RTVSPropertyOp23
 70
     1
102
RTVSPropertyOp24
 70
     1
102
RTVSPropertyOp25
 70
     1
102
RTVSPropertyOp26
 70
     1
102
RTVSPropertyOp27
 70
     1
102
RTVSPropertyOp28
 70
     1
102
RTVSPropertyOp29
 70
     1
102
RTVSPropertyOp30
 70
     1
102
RTVSPropertyOp31
 70
     1
102
RTVSPropertyOp32
 70
     1
102
RTVSPropertyOp33
 70
     1
102
RTVSPropertyOp34
 70
     1
102
RTVSPropertyOp35
 70
     1
102
RTVSPropertyOp36
 70
     1
102
RTVSPropertyOp37
 70
     1
102
RTVSPropertyOp38
 70
     1
102
RTVSPropertyOp39
 70
     1
102
RTVSPropertyOp40
 70
     1
102
RTVSPropertyOp41
 70
     1
102
RTVSPropertyOp42
 70
     1
102
RTVSPropertyOp43
 70
     1
102
RTVSPropertyOp44
 70
     1
102
RTVSPropertyOp45
 70
     1
102
RTVSPropertyOp46
 70
     1
102
RTVSPropertyOp47
 70
     1
102
RTVSPropertyOp48
 70
     1
102
RTVSPropertyOp49
 70
     1
102
RTVSPropertyOp50
 70
     1
102
RTVSPropertyOp51
 70
     0
102
RTVSPropertyOp52
 70
     0
102
RTVSPropertyOp53
 70
     1
102
RTVSPropertyOp54
 70
     1
102
RTVSPropertyOp55
 70
     1
102
RTVSPropertyOp56
 70
     1
102
RTVSPropertyOp57
 70
     1
102
RTVSPropertyOp58
 70
     1
102
RTVSPropertyOp59
 70
     1
102
RTVSPropertyOp60
 70
     1
102
RTVSPropertyOp61
 70
     1
102
RTVSPropertyOp62
 70
     1
  0
XRECORD
  5
20274
102
{ACAD_REACTORS
330
20273
102
}
330
20273
100
AcDbXrecord
280
     1
102
RTVSPost2010Prop28
280
     0
102
RTVSPost2010PropOp28
 70
     1
102
RTVSPost2010Prop29
280
     1
102
RTVSPost2010PropOp29
 70
     1
102
RTVSPost2010Prop30
280
     1
102
RTVSPost2010PropOp30
 70
     1
102
RTVSPost2010Prop31
280
     0
102
RTVSPost2010PropOp31
 70
     1
102
RTVSPost2010Prop32
280
     0
102
RTVSPost2010PropOp32
 70
     1
102
RTVSPost2010Prop33
280
     0
102
RTVSPost2010PropOp33
 70
     1
102
RTVSPost2010Prop34
280
     0
102
RTVSPost2010PropOp34
 70
     1
102
RTVSPost2010Prop35
280
     0
102
RTVSPost2010PropOp35
 70
     1
102
RTVSPost2010Prop36
280
     0
102
RTVSPost2010PropOp36
 70
     1
102
RTVSPost2010Prop37
 90
       50
102
RTVSPost2010PropOp37
 70
     1
102
RTVSPost2010Prop38
140
0.0
102
RTVSPost2010PropOp38
 70
     1
102
RTVSPost2010Prop39
140
1.0
102
RTVSPost2010PropOp39
 70
     1
102
RTVSPost2010Prop40
 90
        0
102
RTVSPost2010PropOp40
 70
     1
102
RTVSPost2010Prop41ColorIndex
 90
       18
102
RTVSPost2010Prop41ColorRGB
 90
        0
102
RTVSPost2010PropOp41
 70
     1
102
RTVSPost2010Prop42
 90
       50
102
RTVSPost2010PropOp42
 70
     1
102
RTVSPost2010Prop43
 90
        3
102
RTVSPost2010PropOp43
 70
     1
102
RTVSPost2010Prop44ColorIndex
 90
        5
102
RTVSPost2010Prop44ColorRGB
 90
      255
102
RTVSPost2010PropOp44
 70
     1
102
RTVSPost2010Prop45
280
     0
102
RTVSPost2010PropOp45
 70
     1
102
RTVSPost2010Prop46
 90
       50
102
RTVSPost2010PropOp46
 70
     1
102
RTVSPost2010Prop47
 90
       50
102
RTVSPost2010PropOp47
 70
     1
102
RTVSPost2010Prop48
 90
       50
102
RTVSPost2010PropOp48
 70
     1
102
RTVSPost2010Prop49
280
     0
102
RTVSPost2010PropOp49
 70
     1
102
RTVSPost2010Prop50
 90
       50
102
RTVSPost2010PropOp50
 70
     1
102
RTVSPost2010Prop51ColorIndex
 90
      256
102
RTVSPost2010Prop51ColorRGB
 90
-16777216
102
RTVSPost2010PropOp51
 70
     0
102
RTVSPost2010Prop52
140
1.0
102
RTVSPost2010PropOp52
 70
     0
102
RTVSPost2010Prop53
 90
        2
102
RTVSPost2010PropOp53
 70
     1
102
RTVSPost2010Prop54
  1
strokes_ogs.tif
102
RTVSPost2010PropOp54
 70
     1
102
RTVSPost2010Prop55
280
     0
102
RTVSPost2010PropOp55
 70
     1
102
RTVSPost2010Prop56
140
1.0
102
RTVSPost2010PropOp56
 70
     1
102
RTVSPost2010Prop57
140
1.0
102
RTVSPost2010PropOp57
 70
     1
102
RTVSPropertyOp0
 70
     1
102
RTVSPropertyOp1
 70
     1
102
RTVSPropertyOp2
 70
     1
102
RTVSPropertyOp3
 70
     1
102
RTVSPropertyOp4
 70
     1
102
RTVSPropertyOp5
 70
     1
102
RTVSPropertyOp6
 70
     1
102
RTVSPropertyOp7
 70
     1
102
RTVSPropertyOp8
 70
     1
102
RTVSPropertyOp9
 70
     1
102
RTVSPropertyOp10
 70
     1
102
RTVSPropertyOp11
 70
     1
102
RTVSPropertyOp12
 70
     1
102
RTVSPropertyOp13
 70
     1
102
RTVSPropertyOp14
 70
     1
102
RTVSPropertyOp15
 70
     1
102
RTVSPropertyOp16
 70
     1
102
RTVSPropertyOp17
 70
     1
102
RTVSPropertyOp18
 70
     1
102
RTVSPropertyOp19
 70
     1
102
RTVSPropertyOp20
 70
     1
102
RTVSPropertyOp21
 70
     1
102
RTVSPropertyOp22
 70
     1
102
RTVSPropertyOp23
 70
     1
102
RTVSPropertyOp24
 70
     1
102
RTVSPropertyOp25
 70
     1
102
RTVSPropertyOp26
 70
     1
102
RTVSPropertyOp27
 70
     1
102
RTVSPropertyOp28
 70
     1
102
RTVSPropertyOp29
 70
     1
102
RTVSPropertyOp30
 70
     1
102
RTVSPropertyOp31
 70
     1
102
RTVSPropertyOp32
 70
     1
102
RTVSPropertyOp33
 70
     1
102
RTVSPropertyOp34
 70
     1
102
RTVSPropertyOp35
 70
     1
102
RTVSPropertyOp36
 70
     1
102
RTVSPropertyOp37
 70
     1
102
RTVSPropertyOp38
 70
     1
102
RTVSPropertyOp39
 70
     1
102
RTVSPropertyOp40
 70
     1
102
RTVSPropertyOp41
 70
     1
102
RTVSPropertyOp42
 70
     1
102
RTVSPropertyOp43
 70
     1
102
RTVSPropertyOp44
 70
     1
102
RTVSPropertyOp45
 70
     1
102
RTVSPropertyOp46
 70
     1
102
RTVSPropertyOp47
 70
     1
102
RTVSPropertyOp48
 70
     1
102
RTVSPropertyOp49
 70
     1
102
RTVSPropertyOp50
 70
     1
102
RTVSPropertyOp51
 70
     0
102
RTVSPropertyOp52
 70
     0
102
RTVSPropertyOp53
 70
     1
102
RTVSPropertyOp54
 70
     1
102
RTVSPropertyOp55
 70
     1
102
RTVSPropertyOp56
 70
     1
102
RTVSPropertyOp57
 70
     1
102
RTVSPropertyOp58
 70
     1
102
RTVSPropertyOp59
 70
     1
102
RTVSPropertyOp60
 70
     1
102
RTVSPropertyOp61
 70
     1
102
RTVSPropertyOp62
 70
     1
  0
XRECORD
  5
2028D
102
{ACAD_REACTORS
330
2028C
102
}
330
2028C
100
AcDbXrecord
280
     1
102
RTVSPost2010Prop28
280
     0
102
RTVSPost2010PropOp28
 70
     1
102
RTVSPost2010Prop29
280
     1
102
RTVSPost2010PropOp29
 70
     1
102
RTVSPost2010Prop30
280
     1
102
RTVSPost2010PropOp30
 70
     1
102
RTVSPost2010Prop31
280
     0
102
RTVSPost2010PropOp31
 70
     1
102
RTVSPost2010Prop32
280
     0
102
RTVSPost2010PropOp32
 70
     1
102
RTVSPost2010Prop33
280
     0
102
RTVSPost2010PropOp33
 70
     1
102
RTVSPost2010Prop34
280
     0
102
RTVSPost2010PropOp34
 70
     1
102
RTVSPost2010Prop35
280
     0
102
RTVSPost2010PropOp35
 70
     1
102
RTVSPost2010Prop36
280
     0
102
RTVSPost2010PropOp36
 70
     1
102
RTVSPost2010Prop37
 90
       50
102
RTVSPost2010PropOp37
 70
     1
102
RTVSPost2010Prop38
140
0.0
102
RTVSPost2010PropOp38
 70
     1
102
RTVSPost2010Prop39
140
1.0
102
RTVSPost2010PropOp39
 70
     1
102
RTVSPost2010Prop40
 90
        0
102
RTVSPost2010PropOp40
 70
     1
102
RTVSPost2010Prop41ColorIndex
 90
       18
102
RTVSPost2010Prop41ColorRGB
 90
        0
102
RTVSPost2010PropOp41
 70
     1
102
RTVSPost2010Prop42
 90
       50
102
RTVSPost2010PropOp42
 70
     1
102
RTVSPost2010Prop43
 90
        3
102
RTVSPost2010PropOp43
 70
     1
102
RTVSPost2010Prop44ColorIndex
 90
        5
102
RTVSPost2010Prop44ColorRGB
 90
      255
102
RTVSPost2010PropOp44
 70
     1
102
RTVSPost2010Prop45
280
     0
102
RTVSPost2010PropOp45
 70
     1
102
RTVSPost2010Prop46
 90
       50
102
RTVSPost2010PropOp46
 70
     1
102
RTVSPost2010Prop47
 90
       50
102
RTVSPost2010PropOp47
 70
     1
102
RTVSPost2010Prop48
 90
       50
102
RTVSPost2010PropOp48
 70
     1
102
RTVSPost2010Prop49
280
     0
102
RTVSPost2010PropOp49
 70
     1
102
RTVSPost2010Prop50
 90
       50
102
RTVSPost2010PropOp50
 70
     1
102
RTVSPost2010Prop51ColorIndex
 90
      256
102
RTVSPost2010Prop51ColorRGB
 90
-16777216
102
RTVSPost2010PropOp51
 70
     0
102
RTVSPost2010Prop52
140
1.0
102
RTVSPost2010PropOp52
 70
     0
102
RTVSPost2010Prop53
 90
        2
102
RTVSPost2010PropOp53
 70
     1
102
RTVSPost2010Prop54
  1
strokes_ogs.tif
102
RTVSPost2010PropOp54
 70
     1
102
RTVSPost2010Prop55
280
     0
102
RTVSPost2010PropOp55
 70
     1
102
RTVSPost2010Prop56
140
1.0
102
RTVSPost2010PropOp56
 70
     1
102
RTVSPost2010Prop57
140
1.0
102
RTVSPost2010PropOp57
 70
     1
102
RTVSPropertyOp0
 70
     0
102
RTVSPropertyOp1
 70
     0
102
RTVSPropertyOp2
 70
     0
102
RTVSPropertyOp3
 70
     0
102
RTVSPropertyOp4
 70
     0
102
RTVSPropertyOp5
 70
     0
102
RTVSPropertyOp6
 70
     0
102
RTVSPropertyOp7
 70
     0
102
RTVSPropertyOp8
 70
     0
102
RTVSPropertyOp9
 70
     0
102
RTVSPropertyOp10
 70
     0
102
RTVSPropertyOp11
 70
     0
102
RTVSPropertyOp12
 70
     0
102
RTVSPropertyOp13
 70
     0
102
RTVSPropertyOp14
 70
     2
102
RTVSPropertyOp15
 70
     0
102
RTVSPropertyOp16
 70
     0
102
RTVSPropertyOp17
 70
     0
102
RTVSPropertyOp18
 70
     0
102
RTVSPropertyOp19
 70
     0
102
RTVSPropertyOp20
 70
     0
102
RTVSPropertyOp21
 70
     0
102
RTVSPropertyOp22
 70
     0
102
RTVSPropertyOp23
 70
     0
102
RTVSPropertyOp24
 70
     0
102
RTVSPropertyOp25
 70
     0
102
RTVSPropertyOp26
 70
     0
102
RTVSPropertyOp27
 70
     0
102
RTVSPropertyOp28
 70
     1
102
RTVSPropertyOp29
 70
     1
102
RTVSPropertyOp30
 70
     1
102
RTVSPropertyOp31
 70
     1
102
RTVSPropertyOp32
 70
     1
102
RTVSPropertyOp33
 70
     1
102
RTVSPropertyOp34
 70
     1
102
RTVSPropertyOp35
 70
     1
102
RTVSPropertyOp36
 70
     1
102
RTVSPropertyOp37
 70
     1
102
RTVSPropertyOp38
 70
     1
102
RTVSPropertyOp39
 70
     1
102
RTVSPropertyOp40
 70
     1
102
RTVSPropertyOp41
 70
     1
102
RTVSPropertyOp42
 70
     1
102
RTVSPropertyOp43
 70
     1
102
RTVSPropertyOp44
 70
     1
102
RTVSPropertyOp45
 70
     1
102
RTVSPropertyOp46
 70
     1
102
RTVSPropertyOp47
 70
     1
102
RTVSPropertyOp48
 70
     1
102
RTVSPropertyOp49
 70
     1
102
RTVSPropertyOp50
 70
     1
102
RTVSPropertyOp51
 70
     0
102
RTVSPropertyOp52
 70
     0
102
RTVSPropertyOp53
 70
     1
102
RTVSPropertyOp54
 70
     1
102
RTVSPropertyOp55
 70
     1
102
RTVSPropertyOp56
 70
     1
102
RTVSPropertyOp57
 70
     1
102
RTVSPropertyOp58
 70
     1
102
RTVSPropertyOp59
 70
     1
102
RTVSPropertyOp60
 70
     1
102
RTVSPropertyOp61
 70
     1
102
RTVSPropertyOp62
 70
     1
  0
XRECORD
  5
2027C
102
{ACAD_REACTORS
330
2027B
102
}
330
2027B
100
AcDbXrecord
280
     1
102
RTVSPost2010Prop28
280
     0
102
RTVSPost2010PropOp28
 70
     1
102
RTVSPost2010Prop29
280
     1
102
RTVSPost2010PropOp29
 70
     1
102
RTVSPost2010Prop30
280
     1
102
RTVSPost2010PropOp30
 70
     1
102
RTVSPost2010Prop31
280
     0
102
RTVSPost2010PropOp31
 70
     1
102
RTVSPost2010Prop32
280
     0
102
RTVSPost2010PropOp32
 70
     1
102
RTVSPost2010Prop33
280
     0
102
RTVSPost2010PropOp33
 70
     1
102
RTVSPost2010Prop34
280
     0
102
RTVSPost2010PropOp34
 70
     1
102
RTVSPost2010Prop35
280
     0
102
RTVSPost2010PropOp35
 70
     1
102
RTVSPost2010Prop36
280
     0
102
RTVSPost2010PropOp36
 70
     1
102
RTVSPost2010Prop37
 90
       50
102
RTVSPost2010PropOp37
 70
     1
102
RTVSPost2010Prop38
140
0.0
102
RTVSPost2010PropOp38
 70
     1
102
RTVSPost2010Prop39
140
1.0
102
RTVSPost2010PropOp39
 70
     1
102
RTVSPost2010Prop40
 90
        0
102
RTVSPost2010PropOp40
 70
     1
102
RTVSPost2010Prop41ColorIndex
 90
       18
102
RTVSPost2010Prop41ColorRGB
 90
        0
102
RTVSPost2010PropOp41
 70
     1
102
RTVSPost2010Prop42
 90
       50
102
RTVSPost2010PropOp42
 70
     1
102
RTVSPost2010Prop43
 90
        3
102
RTVSPost2010PropOp43
 70
     1
102
RTVSPost2010Prop44ColorIndex
 90
        5
102
RTVSPost2010Prop44ColorRGB
 90
      255
102
RTVSPost2010PropOp44
 70
     1
102
RTVSPost2010Prop45
280
     0
102
RTVSPost2010PropOp45
 70
     1
102
RTVSPost2010Prop46
 90
       50
102
RTVSPost2010PropOp46
 70
     1
102
RTVSPost2010Prop47
 90
       50
102
RTVSPost2010PropOp47
 70
     1
102
RTVSPost2010Prop48
 90
       50
102
RTVSPost2010PropOp48
 70
     1
102
RTVSPost2010Prop49
280
     0
102
RTVSPost2010PropOp49
 70
     1
102
RTVSPost2010Prop50
 90
       50
102
RTVSPost2010PropOp50
 70
     1
102
RTVSPost2010Prop51ColorIndex
 90
      256
102
RTVSPost2010Prop51ColorRGB
 90
-16777216
102
RTVSPost2010PropOp51
 70
     0
102
RTVSPost2010Prop52
140
1.0
102
RTVSPost2010PropOp52
 70
     0
102
RTVSPost2010Prop53
 90
        2
102
RTVSPost2010PropOp53
 70
     1
102
RTVSPost2010Prop54
  1
strokes_ogs.tif
102
RTVSPost2010PropOp54
 70
     1
102
RTVSPost2010Prop55
280
     0
102
RTVSPost2010PropOp55
 70
     1
102
RTVSPost2010Prop56
140
1.0
102
RTVSPost2010PropOp56
 70
     1
102
RTVSPost2010Prop57
140
1.0
102
RTVSPost2010PropOp57
 70
     1
102
RTVSPropertyOp0
 70
     1
102
RTVSPropertyOp1
 70
     1
102
RTVSPropertyOp2
 70
     1
102
RTVSPropertyOp3
 70
     1
102
RTVSPropertyOp4
 70
     1
102
RTVSPropertyOp5
 70
     1
102
RTVSPropertyOp6
 70
     1
102
RTVSPropertyOp7
 70
     1
102
RTVSPropertyOp8
 70
     1
102
RTVSPropertyOp9
 70
     1
102
RTVSPropertyOp10
 70
     1
102
RTVSPropertyOp11
 70
     1
102
RTVSPropertyOp12
 70
     1
102
RTVSPropertyOp13
 70
     1
102
RTVSPropertyOp14
 70
     1
102
RTVSPropertyOp15
 70
     1
102
RTVSPropertyOp16
 70
     1
102
RTVSPropertyOp17
 70
     1
102
RTVSPropertyOp18
 70
     1
102
RTVSPropertyOp19
 70
     1
102
RTVSPropertyOp20
 70
     1
102
RTVSPropertyOp21
 70
     1
102
RTVSPropertyOp22
 70
     1
102
RTVSPropertyOp23
 70
     1
102
RTVSPropertyOp24
 70
     1
102
RTVSPropertyOp25
 70
     1
102
RTVSPropertyOp26
 70
     1
102
RTVSPropertyOp27
 70
     1
102
RTVSPropertyOp28
 70
     1
102
RTVSPropertyOp29
 70
     1
102
RTVSPropertyOp30
 70
     1
102
RTVSPropertyOp31
 70
     1
102
RTVSPropertyOp32
 70
     1
102
RTVSPropertyOp33
 70
     1
102
RTVSPropertyOp34
 70
     1
102
RTVSPropertyOp35
 70
     1
102
RTVSPropertyOp36
 70
     1
102
RTVSPropertyOp37
 70
     1
102
RTVSPropertyOp38
 70
     1
102
RTVSPropertyOp39
 70
     1
102
RTVSPropertyOp40
 70
     1
102
RTVSPropertyOp41
 70
     1
102
RTVSPropertyOp42
 70
     1
102
RTVSPropertyOp43
 70
     1
102
RTVSPropertyOp44
 70
     1
102
RTVSPropertyOp45
 70
     1
102
RTVSPropertyOp46
 70
     1
102
RTVSPropertyOp47
 70
     1
102
RTVSPropertyOp48
 70
     1
102
RTVSPropertyOp49
 70
     1
102
RTVSPropertyOp50
 70
     1
102
RTVSPropertyOp51
 70
     0
102
RTVSPropertyOp52
 70
     0
102
RTVSPropertyOp53
 70
     1
102
RTVSPropertyOp54
 70
     1
102
RTVSPropertyOp55
 70
     1
102
RTVSPropertyOp56
 70
     1
102
RTVSPropertyOp57
 70
     1
102
RTVSPropertyOp58
 70
     1
102
RTVSPropertyOp59
 70
     1
102
RTVSPropertyOp60
 70
     1
102
RTVSPropertyOp61
 70
     1
102
RTVSPropertyOp62
 70
     1
  0
XRECORD
  5
20268
102
{ACAD_REACTORS
330
20267
102
}
330
20267
100
AcDbXrecord
280
     1
102
RTVSPost2010Prop28
280
     0
102
RTVSPost2010PropOp28
 70
     1
102
RTVSPost2010Prop29
280
     1
102
RTVSPost2010PropOp29
 70
     1
102
RTVSPost2010Prop30
280
     1
102
RTVSPost2010PropOp30
 70
     1
102
RTVSPost2010Prop31
280
     0
102
RTVSPost2010PropOp31
 70
     1
102
RTVSPost2010Prop32
280
     0
102
RTVSPost2010PropOp32
 70
     1
102
RTVSPost2010Prop33
280
     0
102
RTVSPost2010PropOp33
 70
     1
102
RTVSPost2010Prop34
280
     0
102
RTVSPost2010PropOp34
 70
     1
102
RTVSPost2010Prop35
280
     0
102
RTVSPost2010PropOp35
 70
     1
102
RTVSPost2010Prop36
280
     0
102
RTVSPost2010PropOp36
 70
     1
102
RTVSPost2010Prop37
 90
       50
102
RTVSPost2010PropOp37
 70
     1
102
RTVSPost2010Prop38
140
0.0
102
RTVSPost2010PropOp38
 70
     1
102
RTVSPost2010Prop39
140
1.0
102
RTVSPost2010PropOp39
 70
     1
102
RTVSPost2010Prop40
 90
        0
102
RTVSPost2010PropOp40
 70
     1
102
RTVSPost2010Prop41ColorIndex
 90
       18
102
RTVSPost2010Prop41ColorRGB
 90
        0
102
RTVSPost2010PropOp41
 70
     1
102
RTVSPost2010Prop42
 90
       50
102
RTVSPost2010PropOp42
 70
     1
102
RTVSPost2010Prop43
 90
        3
102
RTVSPost2010PropOp43
 70
     1
102
RTVSPost2010Prop44ColorIndex
 90
        5
102
RTVSPost2010Prop44ColorRGB
 90
      255
102
RTVSPost2010PropOp44
 70
     1
102
RTVSPost2010Prop45
280
     0
102
RTVSPost2010PropOp45
 70
     1
102
RTVSPost2010Prop46
 90
       50
102
RTVSPost2010PropOp46
 70
     1
102
RTVSPost2010Prop47
 90
       50
102
RTVSPost2010PropOp47
 70
     1
102
RTVSPost2010Prop48
 90
       50
102
RTVSPost2010PropOp48
 70
     1
102
RTVSPost2010Prop49
280
     0
102
RTVSPost2010PropOp49
 70
     1
102
RTVSPost2010Prop50
 90
       50
102
RTVSPost2010PropOp50
 70
     1
102
RTVSPost2010Prop51ColorIndex
 90
      256
102
RTVSPost2010Prop51ColorRGB
 90
-16777216
102
RTVSPost2010PropOp51
 70
     0
102
RTVSPost2010Prop52
140
1.0
102
RTVSPost2010PropOp52
 70
     0
102
RTVSPost2010Prop53
 90
        2
102
RTVSPost2010PropOp53
 70
     1
102
RTVSPost2010Prop54
  1
strokes_ogs.tif
102
RTVSPost2010PropOp54
 70
     1
102
RTVSPost2010Prop55
280
     0
102
RTVSPost2010PropOp55
 70
     1
102
RTVSPost2010Prop56
140
1.0
102
RTVSPost2010PropOp56
 70
     1
102
RTVSPost2010Prop57
140
1.0
102
RTVSPost2010PropOp57
 70
     1
102
RTVSPropertyOp0
 70
     1
102
RTVSPropertyOp1
 70
     1
102
RTVSPropertyOp2
 70
     1
102
RTVSPropertyOp3
 70
     1
102
RTVSPropertyOp4
 70
     1
102
RTVSPropertyOp5
 70
     1
102
RTVSPropertyOp6
 70
     1
102
RTVSPropertyOp7
 70
     1
102
RTVSPropertyOp8
 70
     1
102
RTVSPropertyOp9
 70
     1
102
RTVSPropertyOp10
 70
     1
102
RTVSPropertyOp11
 70
     1
102
RTVSPropertyOp12
 70
     1
102
RTVSPropertyOp13
 70
     1
102
RTVSPropertyOp14
 70
     1
102
RTVSPropertyOp15
 70
     1
102
RTVSPropertyOp16
 70
     1
102
RTVSPropertyOp17
 70
     1
102
RTVSPropertyOp18
 70
     1
102
RTVSPropertyOp19
 70
     1
102
RTVSPropertyOp20
 70
     1
102
RTVSPropertyOp21
 70
     1
102
RTVSPropertyOp22
 70
     1
102
RTVSPropertyOp23
 70
     1
102
RTVSPropertyOp24
 70
     1
102
RTVSPropertyOp25
 70
     1
102
RTVSPropertyOp26
 70
     1
102
RTVSPropertyOp27
 70
     1
102
RTVSPropertyOp28
 70
     1
102
RTVSPropertyOp29
 70
     1
102
RTVSPropertyOp30
 70
     1
102
RTVSPropertyOp31
 70
     1
102
RTVSPropertyOp32
 70
     1
102
RTVSPropertyOp33
 70
     1
102
RTVSPropertyOp34
 70
     1
102
RTVSPropertyOp35
 70
     1
102
RTVSPropertyOp36
 70
     1
102
RTVSPropertyOp37
 70
     1
102
RTVSPropertyOp38
 70
     1
102
RTVSPropertyOp39
 70
     1
102
RTVSPropertyOp40
 70
     1
102
RTVSPropertyOp41
 70
     1
102
RTVSPropertyOp42
 70
     1
102
RTVSPropertyOp43
 70
     1
102
RTVSPropertyOp44
 70
     1
102
RTVSPropertyOp45
 70
     1
102
RTVSPropertyOp46
 70
     1
102
RTVSPropertyOp47
 70
     1
102
RTVSPropertyOp48
 70
     1
102
RTVSPropertyOp49
 70
     1
102
RTVSPropertyOp50
 70
     1
102
RTVSPropertyOp51
 70
     0
102
RTVSPropertyOp52
 70
     0
102
RTVSPropertyOp53
 70
     1
102
RTVSPropertyOp54
 70
     1
102
RTVSPropertyOp55
 70
     1
102
RTVSPropertyOp56
 70
     1
102
RTVSPropertyOp57
 70
     1
102
RTVSPropertyOp58
 70
     1
102
RTVSPropertyOp59
 70
     1
102
RTVSPropertyOp60
 70
     1
102
RTVSPropertyOp61
 70
     1
102
RTVSPropertyOp62
 70
     1
  0
XRECORD
  5
2026A
102
{ACAD_REACTORS
330
20269
102
}
330
20269
100
AcDbXrecord
280
     1
102
RTVSPost2010Prop28
280
     0
102
RTVSPost2010PropOp28
 70
     1
102
RTVSPost2010Prop29
280
     1
102
RTVSPost2010PropOp29
 70
     1
102
RTVSPost2010Prop30
280
     1
102
RTVSPost2010PropOp30
 70
     1
102
RTVSPost2010Prop31
280
     0
102
RTVSPost2010PropOp31
 70
     1
102
RTVSPost2010Prop32
280
     0
102
RTVSPost2010PropOp32
 70
     1
102
RTVSPost2010Prop33
280
     0
102
RTVSPost2010PropOp33
 70
     1
102
RTVSPost2010Prop34
280
     0
102
RTVSPost2010PropOp34
 70
     1
102
RTVSPost2010Prop35
280
     0
102
RTVSPost2010PropOp35
 70
     1
102
RTVSPost2010Prop36
280
     0
102
RTVSPost2010PropOp36
 70
     1
102
RTVSPost2010Prop37
 90
       50
102
RTVSPost2010PropOp37
 70
     1
102
RTVSPost2010Prop38
140
0.0
102
RTVSPost2010PropOp38
 70
     1
102
RTVSPost2010Prop39
140
1.0
102
RTVSPost2010PropOp39
 70
     1
102
RTVSPost2010Prop40
 90
        0
102
RTVSPost2010PropOp40
 70
     1
102
RTVSPost2010Prop41ColorIndex
 90
       18
102
RTVSPost2010Prop41ColorRGB
 90
        0
102
RTVSPost2010PropOp41
 70
     1
102
RTVSPost2010Prop42
 90
       50
102
RTVSPost2010PropOp42
 70
     1
102
RTVSPost2010Prop43
 90
        3
102
RTVSPost2010PropOp43
 70
     1
102
RTVSPost2010Prop44ColorIndex
 90
        5
102
RTVSPost2010Prop44ColorRGB
 90
      255
102
RTVSPost2010PropOp44
 70
     1
102
RTVSPost2010Prop45
280
     0
102
RTVSPost2010PropOp45
 70
     1
102
RTVSPost2010Prop46
 90
       50
102
RTVSPost2010PropOp46
 70
     1
102
RTVSPost2010Prop47
 90
       50
102
RTVSPost2010PropOp47
 70
     1
102
RTVSPost2010Prop48
 90
       50
102
RTVSPost2010PropOp48
 70
     1
102
RTVSPost2010Prop49
280
     0
102
RTVSPost2010PropOp49
 70
     1
102
RTVSPost2010Prop50
 90
       50
102
RTVSPost2010PropOp50
 70
     1
102
RTVSPost2010Prop51ColorIndex
 90
      256
102
RTVSPost2010Prop51ColorRGB
 90
-16777216
102
RTVSPost2010PropOp51
 70
     0
102
RTVSPost2010Prop52
140
1.0
102
RTVSPost2010PropOp52
 70
     0
102
RTVSPost2010Prop53
 90
        2
102
RTVSPost2010PropOp53
 70
     1
102
RTVSPost2010Prop54
  1
strokes_ogs.tif
102
RTVSPost2010PropOp54
 70
     1
102
RTVSPost2010Prop55
280
     0
102
RTVSPost2010PropOp55
 70
     1
102
RTVSPost2010Prop56
140
1.0
102
RTVSPost2010PropOp56
 70
     1
102
RTVSPost2010Prop57
140
1.0
102
RTVSPost2010PropOp57
 70
     1
102
RTVSPropertyOp0
 70
     1
102
RTVSPropertyOp1
 70
     1
102
RTVSPropertyOp2
 70
     1
102
RTVSPropertyOp3
 70
     1
102
RTVSPropertyOp4
 70
     1
102
RTVSPropertyOp5
 70
     1
102
RTVSPropertyOp6
 70
     1
102
RTVSPropertyOp7
 70
     1
102
RTVSPropertyOp8
 70
     1
102
RTVSPropertyOp9
 70
     1
102
RTVSPropertyOp10
 70
     1
102
RTVSPropertyOp11
 70
     1
102
RTVSPropertyOp12
 70
     1
102
RTVSPropertyOp13
 70
     1
102
RTVSPropertyOp14
 70
     1
102
RTVSPropertyOp15
 70
     1
102
RTVSPropertyOp16
 70
     1
102
RTVSPropertyOp17
 70
     1
102
RTVSPropertyOp18
 70
     1
102
RTVSPropertyOp19
 70
     1
102
RTVSPropertyOp20
 70
     1
102
RTVSPropertyOp21
 70
     1
102
RTVSPropertyOp22
 70
     1
102
RTVSPropertyOp23
 70
     1
102
RTVSPropertyOp24
 70
     1
102
RTVSPropertyOp25
 70
     1
102
RTVSPropertyOp26
 70
     1
102
RTVSPropertyOp27
 70
     1
102
RTVSPropertyOp28
 70
     1
102
RTVSPropertyOp29
 70
     1
102
RTVSPropertyOp30
 70
     1
102
RTVSPropertyOp31
 70
     1
102
RTVSPropertyOp32
 70
     1
102
RTVSPropertyOp33
 70
     1
102
RTVSPropertyOp34
 70
     1
102
RTVSPropertyOp35
 70
     1
102
RTVSPropertyOp36
 70
     1
102
RTVSPropertyOp37
 70
     1
102
RTVSPropertyOp38
 70
     1
102
RTVSPropertyOp39
 70
     1
102
RTVSPropertyOp40
 70
     1
102
RTVSPropertyOp41
 70
     1
102
RTVSPropertyOp42
 70
     1
102
RTVSPropertyOp43
 70
     1
102
RTVSPropertyOp44
 70
     1
102
RTVSPropertyOp45
 70
     1
102
RTVSPropertyOp46
 70
     1
102
RTVSPropertyOp47
 70
     1
102
RTVSPropertyOp48
 70
     1
102
RTVSPropertyOp49
 70
     1
102
RTVSPropertyOp50
 70
     1
102
RTVSPropertyOp51
 70
     0
102
RTVSPropertyOp52
 70
     0
102
RTVSPropertyOp53
 70
     1
102
RTVSPropertyOp54
 70
     1
102
RTVSPropertyOp55
 70
     1
102
RTVSPropertyOp56
 70
     1
102
RTVSPropertyOp57
 70
     1
102
RTVSPropertyOp58
 70
     1
102
RTVSPropertyOp59
 70
     1
102
RTVSPropertyOp60
 70
     1
102
RTVSPropertyOp61
 70
     1
102
RTVSPropertyOp62
 70
     1
  0
XRECORD
  5
2026C
102
{ACAD_REACTORS
330
2026B
102
}
330
2026B
100
AcDbXrecord
280
     1
102
RTVSPost2010Prop28
280
     0
102
RTVSPost2010PropOp28
 70
     1
102
RTVSPost2010Prop29
280
     1
102
RTVSPost2010PropOp29
 70
     1
102
RTVSPost2010Prop30
280
     1
102
RTVSPost2010PropOp30
 70
     1
102
RTVSPost2010Prop31
280
     0
102
RTVSPost2010PropOp31
 70
     1
102
RTVSPost2010Prop32
280
     0
102
RTVSPost2010PropOp32
 70
     1
102
RTVSPost2010Prop33
280
     0
102
RTVSPost2010PropOp33
 70
     1
102
RTVSPost2010Prop34
280
     0
102
RTVSPost2010PropOp34
 70
     1
102
RTVSPost2010Prop35
280
     0
102
RTVSPost2010PropOp35
 70
     1
102
RTVSPost2010Prop36
280
     0
102
RTVSPost2010PropOp36
 70
     1
102
RTVSPost2010Prop37
 90
       50
102
RTVSPost2010PropOp37
 70
     1
102
RTVSPost2010Prop38
140
0.0
102
RTVSPost2010PropOp38
 70
     1
102
RTVSPost2010Prop39
140
1.0
102
RTVSPost2010PropOp39
 70
     1
102
RTVSPost2010Prop40
 90
        0
102
RTVSPost2010PropOp40
 70
     1
102
RTVSPost2010Prop41ColorIndex
 90
       18
102
RTVSPost2010Prop41ColorRGB
 90
        0
102
RTVSPost2010PropOp41
 70
     1
102
RTVSPost2010Prop42
 90
       50
102
RTVSPost2010PropOp42
 70
     1
102
RTVSPost2010Prop43
 90
        3
102
RTVSPost2010PropOp43
 70
     1
102
RTVSPost2010Prop44ColorIndex
 90
        5
102
RTVSPost2010Prop44ColorRGB
 90
      255
102
RTVSPost2010PropOp44
 70
     1
102
RTVSPost2010Prop45
280
     0
102
RTVSPost2010PropOp45
 70
     1
102
RTVSPost2010Prop46
 90
       50
102
RTVSPost2010PropOp46
 70
     1
102
RTVSPost2010Prop47
 90
       50
102
RTVSPost2010PropOp47
 70
     1
102
RTVSPost2010Prop48
 90
       50
102
RTVSPost2010PropOp48
 70
     1
102
RTVSPost2010Prop49
280
     0
102
RTVSPost2010PropOp49
 70
     1
102
RTVSPost2010Prop50
 90
       50
102
RTVSPost2010PropOp50
 70
     1
102
RTVSPost2010Prop51ColorIndex
 90
      256
102
RTVSPost2010Prop51ColorRGB
 90
-16777216
102
RTVSPost2010PropOp51
 70
     0
102
RTVSPost2010Prop52
140
1.0
102
RTVSPost2010PropOp52
 70
     0
102
RTVSPost2010Prop53
 90
        2
102
RTVSPost2010PropOp53
 70
     1
102
RTVSPost2010Prop54
  1
strokes_ogs.tif
102
RTVSPost2010PropOp54
 70
     1
102
RTVSPost2010Prop55
280
     0
102
RTVSPost2010PropOp55
 70
     1
102
RTVSPost2010Prop56
140
1.0
102
RTVSPost2010PropOp56
 70
     1
102
RTVSPost2010Prop57
140
1.0
102
RTVSPost2010PropOp57
 70
     1
102
RTVSPropertyOp0
 70
     1
102
RTVSPropertyOp1
 70
     1
102
RTVSPropertyOp2
 70
     1
102
RTVSPropertyOp3
 70
     1
102
RTVSPropertyOp4
 70
     1
102
RTVSPropertyOp5
 70
     1
102
RTVSPropertyOp6
 70
     1
102
RTVSPropertyOp7
 70
     1
102
RTVSPropertyOp8
 70
     1
102
RTVSPropertyOp9
 70
     1
102
RTVSPropertyOp10
 70
     1
102
RTVSPropertyOp11
 70
     1
102
RTVSPropertyOp12
 70
     1
102
RTVSPropertyOp13
 70
     1
102
RTVSPropertyOp14
 70
     1
102
RTVSPropertyOp15
 70
     1
102
RTVSPropertyOp16
 70
     1
102
RTVSPropertyOp17
 70
     1
102
RTVSPropertyOp18
 70
     1
102
RTVSPropertyOp19
 70
     1
102
RTVSPropertyOp20
 70
     1
102
RTVSPropertyOp21
 70
     1
102
RTVSPropertyOp22
 70
     1
102
RTVSPropertyOp23
 70
     1
102
RTVSPropertyOp24
 70
     1
102
RTVSPropertyOp25
 70
     1
102
RTVSPropertyOp26
 70
     1
102
RTVSPropertyOp27
 70
     1
102
RTVSPropertyOp28
 70
     1
102
RTVSPropertyOp29
 70
     1
102
RTVSPropertyOp30
 70
     1
102
RTVSPropertyOp31
 70
     1
102
RTVSPropertyOp32
 70
     1
102
RTVSPropertyOp33
 70
     1
102
RTVSPropertyOp34
 70
     1
102
RTVSPropertyOp35
 70
     1
102
RTVSPropertyOp36
 70
     1
102
RTVSPropertyOp37
 70
     1
102
RTVSPropertyOp38
 70
     1
102
RTVSPropertyOp39
 70
     1
102
RTVSPropertyOp40
 70
     1
102
RTVSPropertyOp41
 70
     1
102
RTVSPropertyOp42
 70
     1
102
RTVSPropertyOp43
 70
     1
102
RTVSPropertyOp44
 70
     1
102
RTVSPropertyOp45
 70
     1
102
RTVSPropertyOp46
 70
     1
102
RTVSPropertyOp47
 70
     1
102
RTVSPropertyOp48
 70
     1
102
RTVSPropertyOp49
 70
     1
102
RTVSPropertyOp50
 70
     1
102
RTVSPropertyOp51
 70
     0
102
RTVSPropertyOp52
 70
     0
102
RTVSPropertyOp53
 70
     1
102
RTVSPropertyOp54
 70
     1
102
RTVSPropertyOp55
 70
     1
102
RTVSPropertyOp56
 70
     1
102
RTVSPropertyOp57
 70
     1
102
RTVSPropertyOp58
 70
     1
102
RTVSPropertyOp59
 70
     1
102
RTVSPropertyOp60
 70
     1
102
RTVSPropertyOp61
 70
     1
102
RTVSPropertyOp62
 70
     1
  0
XRECORD
  5
2026E
102
{ACAD_REACTORS
330
2026D
102
}
330
2026D
100
AcDbXrecord
280
     1
102
RTVSPost2010Prop28
280
     0
102
RTVSPost2010PropOp28
 70
     1
102
RTVSPost2010Prop29
280
     1
102
RTVSPost2010PropOp29
 70
     1
102
RTVSPost2010Prop30
280
     1
102
RTVSPost2010PropOp30
 70
     1
102
RTVSPost2010Prop31
280
     0
102
RTVSPost2010PropOp31
 70
     1
102
RTVSPost2010Prop32
280
     0
102
RTVSPost2010PropOp32
 70
     1
102
RTVSPost2010Prop33
280
     0
102
RTVSPost2010PropOp33
 70
     1
102
RTVSPost2010Prop34
280
     0
102
RTVSPost2010PropOp34
 70
     1
102
RTVSPost2010Prop35
280
     0
102
RTVSPost2010PropOp35
 70
     1
102
RTVSPost2010Prop36
280
     0
102
RTVSPost2010PropOp36
 70
     1
102
RTVSPost2010Prop37
 90
       50
102
RTVSPost2010PropOp37
 70
     1
102
RTVSPost2010Prop38
140
0.0
102
RTVSPost2010PropOp38
 70
     1
102
RTVSPost2010Prop39
140
1.0
102
RTVSPost2010PropOp39
 70
     1
102
RTVSPost2010Prop40
 90
        0
102
RTVSPost2010PropOp40
 70
     1
102
RTVSPost2010Prop41ColorIndex
 90
       18
102
RTVSPost2010Prop41ColorRGB
 90
        0
102
RTVSPost2010PropOp41
 70
     1
102
RTVSPost2010Prop42
 90
       50
102
RTVSPost2010PropOp42
 70
     1
102
RTVSPost2010Prop43
 90
        3
102
RTVSPost2010PropOp43
 70
     1
102
RTVSPost2010Prop44ColorIndex
 90
        5
102
RTVSPost2010Prop44ColorRGB
 90
      255
102
RTVSPost2010PropOp44
 70
     1
102
RTVSPost2010Prop45
280
     0
102
RTVSPost2010PropOp45
 70
     1
102
RTVSPost2010Prop46
 90
       50
102
RTVSPost2010PropOp46
 70
     1
102
RTVSPost2010Prop47
 90
       50
102
RTVSPost2010PropOp47
 70
     1
102
RTVSPost2010Prop48
 90
       50
102
RTVSPost2010PropOp48
 70
     1
102
RTVSPost2010Prop49
280
     0
102
RTVSPost2010PropOp49
 70
     1
102
RTVSPost2010Prop50
 90
       50
102
RTVSPost2010PropOp50
 70
     1
102
RTVSPost2010Prop51ColorIndex
 90
      256
102
RTVSPost2010Prop51ColorRGB
 90
-16777216
102
RTVSPost2010PropOp51
 70
     0
102
RTVSPost2010Prop52
140
1.0
102
RTVSPost2010PropOp52
 70
     0
102
RTVSPost2010Prop53
 90
        2
102
RTVSPost2010PropOp53
 70
     1
102
RTVSPost2010Prop54
  1
strokes_ogs.tif
102
RTVSPost2010PropOp54
 70
     1
102
RTVSPost2010Prop55
280
     0
102
RTVSPost2010PropOp55
 70
     1
102
RTVSPost2010Prop56
140
1.0
102
RTVSPost2010PropOp56
 70
     1
102
RTVSPost2010Prop57
140
1.0
102
RTVSPost2010PropOp57
 70
     1
102
RTVSPropertyOp0
 70
     1
102
RTVSPropertyOp1
 70
     1
102
RTVSPropertyOp2
 70
     1
102
RTVSPropertyOp3
 70
     1
102
RTVSPropertyOp4
 70
     1
102
RTVSPropertyOp5
 70
     1
102
RTVSPropertyOp6
 70
     1
102
RTVSPropertyOp7
 70
     1
102
RTVSPropertyOp8
 70
     1
102
RTVSPropertyOp9
 70
     1
102
RTVSPropertyOp10
 70
     1
102
RTVSPropertyOp11
 70
     1
102
RTVSPropertyOp12
 70
     1
102
RTVSPropertyOp13
 70
     1
102
RTVSPropertyOp14
 70
     1
102
RTVSPropertyOp15
 70
     1
102
RTVSPropertyOp16
 70
     1
102
RTVSPropertyOp17
 70
     1
102
RTVSPropertyOp18
 70
     1
102
RTVSPropertyOp19
 70
     1
102
RTVSPropertyOp20
 70
     1
102
RTVSPropertyOp21
 70
     1
102
RTVSPropertyOp22
 70
     1
102
RTVSPropertyOp23
 70
     1
102
RTVSPropertyOp24
 70
     1
102
RTVSPropertyOp25
 70
     1
102
RTVSPropertyOp26
 70
     1
102
RTVSPropertyOp27
 70
     1
102
RTVSPropertyOp28
 70
     1
102
RTVSPropertyOp29
 70
     1
102
RTVSPropertyOp30
 70
     1
102
RTVSPropertyOp31
 70
     1
102
RTVSPropertyOp32
 70
     1
102
RTVSPropertyOp33
 70
     1
102
RTVSPropertyOp34
 70
     1
102
RTVSPropertyOp35
 70
     1
102
RTVSPropertyOp36
 70
     1
102
RTVSPropertyOp37
 70
     1
102
RTVSPropertyOp38
 70
     1
102
RTVSPropertyOp39
 70
     1
102
RTVSPropertyOp40
 70
     1
102
RTVSPropertyOp41
 70
     1
102
RTVSPropertyOp42
 70
     1
102
RTVSPropertyOp43
 70
     1
102
RTVSPropertyOp44
 70
     1
102
RTVSPropertyOp45
 70
     1
102
RTVSPropertyOp46
 70
     1
102
RTVSPropertyOp47
 70
     1
102
RTVSPropertyOp48
 70
     1
102
RTVSPropertyOp49
 70
     1
102
RTVSPropertyOp50
 70
     1
102
RTVSPropertyOp51
 70
     0
102
RTVSPropertyOp52
 70
     0
102
RTVSPropertyOp53
 70
     1
102
RTVSPropertyOp54
 70
     1
102
RTVSPropertyOp55
 70
     1
102
RTVSPropertyOp56
 70
     1
102
RTVSPropertyOp57
 70
     1
102
RTVSPropertyOp58
 70
     1
102
RTVSPropertyOp59
 70
     1
102
RTVSPropertyOp60
 70
     1
102
RTVSPropertyOp61
 70
     1
102
RTVSPropertyOp62
 70
     1
  0
XRECORD
  5
20291
102
{ACAD_REACTORS
330
20290
102
}
330
20290
100
AcDbXrecord
280
     1
102
RTVSPost2010Prop28
280
     0
102
RTVSPost2010PropOp28
 70
     1
102
RTVSPost2010Prop29
280
     1
102
RTVSPost2010PropOp29
 70
     1
102
RTVSPost2010Prop30
280
     1
102
RTVSPost2010PropOp30
 70
     1
102
RTVSPost2010Prop31
280
     0
102
RTVSPost2010PropOp31
 70
     1
102
RTVSPost2010Prop32
280
     0
102
RTVSPost2010PropOp32
 70
     1
102
RTVSPost2010Prop33
280
     0
102
RTVSPost2010PropOp33
 70
     1
102
RTVSPost2010Prop34
280
     0
102
RTVSPost2010PropOp34
 70
     1
102
RTVSPost2010Prop35
280
     0
102
RTVSPost2010PropOp35
 70
     1
102
RTVSPost2010Prop36
280
     0
102
RTVSPost2010PropOp36
 70
     1
102
RTVSPost2010Prop37
 90
       50
102
RTVSPost2010PropOp37
 70
     1
102
RTVSPost2010Prop38
140
0.0
102
RTVSPost2010PropOp38
 70
     1
102
RTVSPost2010Prop39
140
1.0
102
RTVSPost2010PropOp39
 70
     1
102
RTVSPost2010Prop40
 90
        0
102
RTVSPost2010PropOp40
 70
     1
102
RTVSPost2010Prop41ColorIndex
 90
       18
102
RTVSPost2010Prop41ColorRGB
 90
        0
102
RTVSPost2010PropOp41
 70
     1
102
RTVSPost2010Prop42
 90
       50
102
RTVSPost2010PropOp42
 70
     1
102
RTVSPost2010Prop43
 90
        3
102
RTVSPost2010PropOp43
 70
     1
102
RTVSPost2010Prop44ColorIndex
 90
        5
102
RTVSPost2010Prop44ColorRGB
 90
      255
102
RTVSPost2010PropOp44
 70
     1
102
RTVSPost2010Prop45
280
     0
102
RTVSPost2010PropOp45
 70
     1
102
RTVSPost2010Prop46
 90
       50
102
RTVSPost2010PropOp46
 70
     1
102
RTVSPost2010Prop47
 90
       50
102
RTVSPost2010PropOp47
 70
     1
102
RTVSPost2010Prop48
 90
       50
102
RTVSPost2010PropOp48
 70
     1
102
RTVSPost2010Prop49
280
     0
102
RTVSPost2010PropOp49
 70
     1
102
RTVSPost2010Prop50
 90
       50
102
RTVSPost2010PropOp50
 70
     1
102
RTVSPost2010Prop51ColorIndex
 90
      256
102
RTVSPost2010Prop51ColorRGB
 90
-16777216
102
RTVSPost2010PropOp51
 70
     0
102
RTVSPost2010Prop52
140
1.0
102
RTVSPost2010PropOp52
 70
     0
102
RTVSPost2010Prop53
 90
        2
102
RTVSPost2010PropOp53
 70
     1
102
RTVSPost2010Prop54
  1
strokes_ogs.tif
102
RTVSPost2010PropOp54
 70
     1
102
RTVSPost2010Prop55
280
     0
102
RTVSPost2010PropOp55
 70
     1
102
RTVSPost2010Prop56
140
1.0
102
RTVSPost2010PropOp56
 70
     1
102
RTVSPost2010Prop57
140
1.0
102
RTVSPost2010PropOp57
 70
     1
102
RTVSPropertyOp0
 70
     1
102
RTVSPropertyOp1
 70
     1
102
RTVSPropertyOp2
 70
     1
102
RTVSPropertyOp3
 70
     1
102
RTVSPropertyOp4
 70
     1
102
RTVSPropertyOp5
 70
     1
102
RTVSPropertyOp6
 70
     1
102
RTVSPropertyOp7
 70
     1
102
RTVSPropertyOp8
 70
     1
102
RTVSPropertyOp9
 70
     1
102
RTVSPropertyOp10
 70
     1
102
RTVSPropertyOp11
 70
     1
102
RTVSPropertyOp12
 70
     1
102
RTVSPropertyOp13
 70
     1
102
RTVSPropertyOp14
 70
     1
102
RTVSPropertyOp15
 70
     1
102
RTVSPropertyOp16
 70
     1
102
RTVSPropertyOp17
 70
     1
102
RTVSPropertyOp18
 70
     1
102
RTVSPropertyOp19
 70
     1
102
RTVSPropertyOp20
 70
     1
102
RTVSPropertyOp21
 70
     1
102
RTVSPropertyOp22
 70
     1
102
RTVSPropertyOp23
 70
     1
102
RTVSPropertyOp24
 70
     1
102
RTVSPropertyOp25
 70
     1
102
RTVSPropertyOp26
 70
     1
102
RTVSPropertyOp27
 70
     1
102
RTVSPropertyOp28
 70
     1
102
RTVSPropertyOp29
 70
     1
102
RTVSPropertyOp30
 70
     1
102
RTVSPropertyOp31
 70
     1
102
RTVSPropertyOp32
 70
     1
102
RTVSPropertyOp33
 70
     1
102
RTVSPropertyOp34
 70
     1
102
RTVSPropertyOp35
 70
     1
102
RTVSPropertyOp36
 70
     1
102
RTVSPropertyOp37
 70
     1
102
RTVSPropertyOp38
 70
     1
102
RTVSPropertyOp39
 70
     1
102
RTVSPropertyOp40
 70
     1
102
RTVSPropertyOp41
 70
     1
102
RTVSPropertyOp42
 70
     1
102
RTVSPropertyOp43
 70
     1
102
RTVSPropertyOp44
 70
     1
102
RTVSPropertyOp45
 70
     1
102
RTVSPropertyOp46
 70
     1
102
RTVSPropertyOp47
 70
     1
102
RTVSPropertyOp48
 70
     1
102
RTVSPropertyOp49
 70
     1
102
RTVSPropertyOp50
 70
     1
102
RTVSPropertyOp51
 70
     0
102
RTVSPropertyOp52
 70
     0
102
RTVSPropertyOp53
 70
     1
102
RTVSPropertyOp54
 70
     1
102
RTVSPropertyOp55
 70
     1
102
RTVSPropertyOp56
 70
     1
102
RTVSPropertyOp57
 70
     1
102
RTVSPropertyOp58
 70
     1
102
RTVSPropertyOp59
 70
     1
102
RTVSPropertyOp60
 70
     1
102
RTVSPropertyOp61
 70
     1
102
RTVSPropertyOp62
 70
     1
  0
XRECORD
  5
20289
102
{ACAD_REACTORS
330
20288
102
}
330
20288
100
AcDbXrecord
280
     1
102
RTVSPost2010Prop28
280
     0
102
RTVSPost2010PropOp28
 70
     1
102
RTVSPost2010Prop29
280
     1
102
RTVSPost2010PropOp29
 70
     1
102
RTVSPost2010Prop30
280
     1
102
RTVSPost2010PropOp30
 70
     1
102
RTVSPost2010Prop31
280
     0
102
RTVSPost2010PropOp31
 70
     1
102
RTVSPost2010Prop32
280
     0
102
RTVSPost2010PropOp32
 70
     1
102
RTVSPost2010Prop33
280
     0
102
RTVSPost2010PropOp33
 70
     1
102
RTVSPost2010Prop34
280
     0
102
RTVSPost2010PropOp34
 70
     1
102
RTVSPost2010Prop35
280
     0
102
RTVSPost2010PropOp35
 70
     1
102
RTVSPost2010Prop36
280
     0
102
RTVSPost2010PropOp36
 70
     1
102
RTVSPost2010Prop37
 90
       50
102
RTVSPost2010PropOp37
 70
     1
102
RTVSPost2010Prop38
140
0.0
102
RTVSPost2010PropOp38
 70
     1
102
RTVSPost2010Prop39
140
1.0
102
RTVSPost2010PropOp39
 70
     1
102
RTVSPost2010Prop40
 90
        0
102
RTVSPost2010PropOp40
 70
     1
102
RTVSPost2010Prop41ColorIndex
 90
       18
102
RTVSPost2010Prop41ColorRGB
 90
        0
102
RTVSPost2010PropOp41
 70
     1
102
RTVSPost2010Prop42
 90
       50
102
RTVSPost2010PropOp42
 70
     1
102
RTVSPost2010Prop43
 90
        3
102
RTVSPost2010PropOp43
 70
     1
102
RTVSPost2010Prop44ColorIndex
 90
        5
102
RTVSPost2010Prop44ColorRGB
 90
      255
102
RTVSPost2010PropOp44
 70
     1
102
RTVSPost2010Prop45
280
     0
102
RTVSPost2010PropOp45
 70
     1
102
RTVSPost2010Prop46
 90
       50
102
RTVSPost2010PropOp46
 70
     1
102
RTVSPost2010Prop47
 90
       50
102
RTVSPost2010PropOp47
 70
     1
102
RTVSPost2010Prop48
 90
       50
102
RTVSPost2010PropOp48
 70
     1
102
RTVSPost2010Prop49
280
     0
102
RTVSPost2010PropOp49
 70
     1
102
RTVSPost2010Prop50
 90
       50
102
RTVSPost2010PropOp50
 70
     1
102
RTVSPost2010Prop51ColorIndex
 90
      256
102
RTVSPost2010Prop51ColorRGB
 90
-16777216
102
RTVSPost2010PropOp51
 70
     0
102
RTVSPost2010Prop52
140
1.0
102
RTVSPost2010PropOp52
 70
     0
102
RTVSPost2010Prop53
 90
        2
102
RTVSPost2010PropOp53
 70
     1
102
RTVSPost2010Prop54
  1
strokes_ogs.tif
102
RTVSPost2010PropOp54
 70
     1
102
RTVSPost2010Prop55
280
     0
102
RTVSPost2010PropOp55
 70
     1
102
RTVSPost2010Prop56
140
1.0
102
RTVSPost2010PropOp56
 70
     1
102
RTVSPost2010Prop57
140
1.0
102
RTVSPost2010PropOp57
 70
     1
102
RTVSPropertyOp0
 70
     0
102
RTVSPropertyOp1
 70
     0
102
RTVSPropertyOp2
 70
     0
102
RTVSPropertyOp3
 70
     0
102
RTVSPropertyOp4
 70
     0
102
RTVSPropertyOp5
 70
     0
102
RTVSPropertyOp6
 70
     0
102
RTVSPropertyOp7
 70
     0
102
RTVSPropertyOp8
 70
     0
102
RTVSPropertyOp9
 70
     0
102
RTVSPropertyOp10
 70
     0
102
RTVSPropertyOp11
 70
     0
102
RTVSPropertyOp12
 70
     0
102
RTVSPropertyOp13
 70
     0
102
RTVSPropertyOp14
 70
     2
102
RTVSPropertyOp15
 70
     0
102
RTVSPropertyOp16
 70
     0
102
RTVSPropertyOp17
 70
     0
102
RTVSPropertyOp18
 70
     0
102
RTVSPropertyOp19
 70
     0
102
RTVSPropertyOp20
 70
     0
102
RTVSPropertyOp21
 70
     0
102
RTVSPropertyOp22
 70
     0
102
RTVSPropertyOp23
 70
     0
102
RTVSPropertyOp24
 70
     0
102
RTVSPropertyOp25
 70
     0
102
RTVSPropertyOp26
 70
     0
102
RTVSPropertyOp27
 70
     0
102
RTVSPropertyOp28
 70
     1
102
RTVSPropertyOp29
 70
     1
102
RTVSPropertyOp30
 70
     1
102
RTVSPropertyOp31
 70
     1
102
RTVSPropertyOp32
 70
     1
102
RTVSPropertyOp33
 70
     1
102
RTVSPropertyOp34
 70
     1
102
RTVSPropertyOp35
 70
     1
102
RTVSPropertyOp36
 70
     1
102
RTVSPropertyOp37
 70
     1
102
RTVSPropertyOp38
 70
     1
102
RTVSPropertyOp39
 70
     1
102
RTVSPropertyOp40
 70
     1
102
RTVSPropertyOp41
 70
     1
102
RTVSPropertyOp42
 70
     1
102
RTVSPropertyOp43
 70
     1
102
RTVSPropertyOp44
 70
     1
102
RTVSPropertyOp45
 70
     1
102
RTVSPropertyOp46
 70
     1
102
RTVSPropertyOp47
 70
     1
102
RTVSPropertyOp48
 70
     1
102
RTVSPropertyOp49
 70
     1
102
RTVSPropertyOp50
 70
     1
102
RTVSPropertyOp51
 70
     0
102
RTVSPropertyOp52
 70
     0
102
RTVSPropertyOp53
 70
     1
102
RTVSPropertyOp54
 70
     1
102
RTVSPropertyOp55
 70
     1
102
RTVSPropertyOp56
 70
     1
102
RTVSPropertyOp57
 70
     1
102
RTVSPropertyOp58
 70
     1
102
RTVSPropertyOp59
 70
     1
102
RTVSPropertyOp60
 70
     1
102
RTVSPropertyOp61
 70
     1
102
RTVSPropertyOp62
 70
     1
  0
XRECORD
  5
2027A
102
{ACAD_REACTORS
330
20279
102
}
330
20279
100
AcDbXrecord
280
     1
102
RTVSPost2010Prop28
280
     0
102
RTVSPost2010PropOp28
 70
     1
102
RTVSPost2010Prop29
280
     1
102
RTVSPost2010PropOp29
 70
     1
102
RTVSPost2010Prop30
280
     1
102
RTVSPost2010PropOp30
 70
     1
102
RTVSPost2010Prop31
280
     0
102
RTVSPost2010PropOp31
 70
     1
102
RTVSPost2010Prop32
280
     0
102
RTVSPost2010PropOp32
 70
     1
102
RTVSPost2010Prop33
280
     0
102
RTVSPost2010PropOp33
 70
     1
102
RTVSPost2010Prop34
280
     0
102
RTVSPost2010PropOp34
 70
     1
102
RTVSPost2010Prop35
280
     0
102
RTVSPost2010PropOp35
 70
     1
102
RTVSPost2010Prop36
280
     0
102
RTVSPost2010PropOp36
 70
     1
102
RTVSPost2010Prop37
 90
       50
102
RTVSPost2010PropOp37
 70
     1
102
RTVSPost2010Prop38
140
0.0
102
RTVSPost2010PropOp38
 70
     1
102
RTVSPost2010Prop39
140
1.0
102
RTVSPost2010PropOp39
 70
     1
102
RTVSPost2010Prop40
 90
        0
102
RTVSPost2010PropOp40
 70
     1
102
RTVSPost2010Prop41ColorIndex
 90
       18
102
RTVSPost2010Prop41ColorRGB
 90
        0
102
RTVSPost2010PropOp41
 70
     1
102
RTVSPost2010Prop42
 90
       50
102
RTVSPost2010PropOp42
 70
     1
102
RTVSPost2010Prop43
 90
        3
102
RTVSPost2010PropOp43
 70
     1
102
RTVSPost2010Prop44ColorIndex
 90
        5
102
RTVSPost2010Prop44ColorRGB
 90
      255
102
RTVSPost2010PropOp44
 70
     1
102
RTVSPost2010Prop45
280
     0
102
RTVSPost2010PropOp45
 70
     1
102
RTVSPost2010Prop46
 90
       50
102
RTVSPost2010PropOp46
 70
     1
102
RTVSPost2010Prop47
 90
       50
102
RTVSPost2010PropOp47
 70
     1
102
RTVSPost2010Prop48
 90
       50
102
RTVSPost2010PropOp48
 70
     1
102
RTVSPost2010Prop49
280
     0
102
RTVSPost2010PropOp49
 70
     1
102
RTVSPost2010Prop50
 90
       50
102
RTVSPost2010PropOp50
 70
     1
102
RTVSPost2010Prop51ColorIndex
 90
      256
102
RTVSPost2010Prop51ColorRGB
 90
-16777216
102
RTVSPost2010PropOp51
 70
     0
102
RTVSPost2010Prop52
140
1.0
102
RTVSPost2010PropOp52
 70
     0
102
RTVSPost2010Prop53
 90
        2
102
RTVSPost2010PropOp53
 70
     1
102
RTVSPost2010Prop54
  1
strokes_ogs.tif
102
RTVSPost2010PropOp54
 70
     1
102
RTVSPost2010Prop55
280
     0
102
RTVSPost2010PropOp55
 70
     1
102
RTVSPost2010Prop56
140
1.0
102
RTVSPost2010PropOp56
 70
     1
102
RTVSPost2010Prop57
140
1.0
102
RTVSPost2010PropOp57
 70
     1
102
RTVSPropertyOp0
 70
     1
102
RTVSPropertyOp1
 70
     1
102
RTVSPropertyOp2
 70
     1
102
RTVSPropertyOp3
 70
     1
102
RTVSPropertyOp4
 70
     1
102
RTVSPropertyOp5
 70
     1
102
RTVSPropertyOp6
 70
     1
102
RTVSPropertyOp7
 70
     1
102
RTVSPropertyOp8
 70
     1
102
RTVSPropertyOp9
 70
     1
102
RTVSPropertyOp10
 70
     1
102
RTVSPropertyOp11
 70
     1
102
RTVSPropertyOp12
 70
     1
102
RTVSPropertyOp13
 70
     1
102
RTVSPropertyOp14
 70
     1
102
RTVSPropertyOp15
 70
     1
102
RTVSPropertyOp16
 70
     1
102
RTVSPropertyOp17
 70
     1
102
RTVSPropertyOp18
 70
     1
102
RTVSPropertyOp19
 70
     1
102
RTVSPropertyOp20
 70
     1
102
RTVSPropertyOp21
 70
     1
102
RTVSPropertyOp22
 70
     1
102
RTVSPropertyOp23
 70
     1
102
RTVSPropertyOp24
 70
     1
102
RTVSPropertyOp25
 70
     1
102
RTVSPropertyOp26
 70
     1
102
RTVSPropertyOp27
 70
     1
102
RTVSPropertyOp28
 70
     1
102
RTVSPropertyOp29
 70
     1
102
RTVSPropertyOp30
 70
     1
102
RTVSPropertyOp31
 70
     1
102
RTVSPropertyOp32
 70
     1
102
RTVSPropertyOp33
 70
     1
102
RTVSPropertyOp34
 70
     1
102
RTVSPropertyOp35
 70
     1
102
RTVSPropertyOp36
 70
     1
102
RTVSPropertyOp37
 70
     1
102
RTVSPropertyOp38
 70
     1
102
RTVSPropertyOp39
 70
     1
102
RTVSPropertyOp40
 70
     1
102
RTVSPropertyOp41
 70
     1
102
RTVSPropertyOp42
 70
     1
102
RTVSPropertyOp43
 70
     1
102
RTVSPropertyOp44
 70
     1
102
RTVSPropertyOp45
 70
     1
102
RTVSPropertyOp46
 70
     1
102
RTVSPropertyOp47
 70
     1
102
RTVSPropertyOp48
 70
     1
102
RTVSPropertyOp49
 70
     1
102
RTVSPropertyOp50
 70
     1
102
RTVSPropertyOp51
 70
     0
102
RTVSPropertyOp52
 70
     0
102
RTVSPropertyOp53
 70
     1
102
RTVSPropertyOp54
 70
     1
102
RTVSPropertyOp55
 70
     1
102
RTVSPropertyOp56
 70
     1
102
RTVSPropertyOp57
 70
     1
102
RTVSPropertyOp58
 70
     1
102
RTVSPropertyOp59
 70
     1
102
RTVSPropertyOp60
 70
     1
102
RTVSPropertyOp61
 70
     1
102
RTVSPropertyOp62
 70
     1
  0
XRECORD
  5
2028B
102
{ACAD_REACTORS
330
2028A
102
}
330
2028A
100
AcDbXrecord
280
     1
102
RTVSPost2010Prop28
280
     0
102
RTVSPost2010PropOp28
 70
     1
102
RTVSPost2010Prop29
280
     1
102
RTVSPost2010PropOp29
 70
     1
102
RTVSPost2010Prop30
280
     1
102
RTVSPost2010PropOp30
 70
     1
102
RTVSPost2010Prop31
280
     0
102
RTVSPost2010PropOp31
 70
     1
102
RTVSPost2010Prop32
280
     0
102
RTVSPost2010PropOp32
 70
     1
102
RTVSPost2010Prop33
280
     0
102
RTVSPost2010PropOp33
 70
     1
102
RTVSPost2010Prop34
280
     0
102
RTVSPost2010PropOp34
 70
     1
102
RTVSPost2010Prop35
280
     0
102
RTVSPost2010PropOp35
 70
     1
102
RTVSPost2010Prop36
280
     0
102
RTVSPost2010PropOp36
 70
     1
102
RTVSPost2010Prop37
 90
       50
102
RTVSPost2010PropOp37
 70
     1
102
RTVSPost2010Prop38
140
0.0
102
RTVSPost2010PropOp38
 70
     1
102
RTVSPost2010Prop39
140
1.0
102
RTVSPost2010PropOp39
 70
     1
102
RTVSPost2010Prop40
 90
        0
102
RTVSPost2010PropOp40
 70
     1
102
RTVSPost2010Prop41ColorIndex
 90
       18
102
RTVSPost2010Prop41ColorRGB
 90
        0
102
RTVSPost2010PropOp41
 70
     1
102
RTVSPost2010Prop42
 90
       50
102
RTVSPost2010PropOp42
 70
     1
102
RTVSPost2010Prop43
 90
        3
102
RTVSPost2010PropOp43
 70
     1
102
RTVSPost2010Prop44ColorIndex
 90
        5
102
RTVSPost2010Prop44ColorRGB
 90
      255
102
RTVSPost2010PropOp44
 70
     1
102
RTVSPost2010Prop45
280
     0
102
RTVSPost2010PropOp45
 70
     1
102
RTVSPost2010Prop46
 90
       50
102
RTVSPost2010PropOp46
 70
     1
102
RTVSPost2010Prop47
 90
       50
102
RTVSPost2010PropOp47
 70
     1
102
RTVSPost2010Prop48
 90
       50
102
RTVSPost2010PropOp48
 70
     1
102
RTVSPost2010Prop49
280
     0
102
RTVSPost2010PropOp49
 70
     1
102
RTVSPost2010Prop50
 90
       50
102
RTVSPost2010PropOp50
 70
     1
102
RTVSPost2010Prop51ColorIndex
 90
      256
102
RTVSPost2010Prop51ColorRGB
 90
-16777216
102
RTVSPost2010PropOp51
 70
     0
102
RTVSPost2010Prop52
140
1.0
102
RTVSPost2010PropOp52
 70
     0
102
RTVSPost2010Prop53
 90
        2
102
RTVSPost2010PropOp53
 70
     1
102
RTVSPost2010Prop54
  1
strokes_ogs.tif
102
RTVSPost2010PropOp54
 70
     1
102
RTVSPost2010Prop55
280
     0
102
RTVSPost2010PropOp55
 70
     1
102
RTVSPost2010Prop56
140
1.0
102
RTVSPost2010PropOp56
 70
     1
102
RTVSPost2010Prop57
140
1.0
102
RTVSPost2010PropOp57
 70
     1
102
RTVSPropertyOp0
 70
     0
102
RTVSPropertyOp1
 70
     0
102
RTVSPropertyOp2
 70
     0
102
RTVSPropertyOp3
 70
     0
102
RTVSPropertyOp4
 70
     0
102
RTVSPropertyOp5
 70
     0
102
RTVSPropertyOp6
 70
     0
102
RTVSPropertyOp7
 70
     0
102
RTVSPropertyOp8
 70
     0
102
RTVSPropertyOp9
 70
     0
102
RTVSPropertyOp10
 70
     0
102
RTVSPropertyOp11
 70
     0
102
RTVSPropertyOp12
 70
     0
102
RTVSPropertyOp13
 70
     0
102
RTVSPropertyOp14
 70
     2
102
RTVSPropertyOp15
 70
     0
102
RTVSPropertyOp16
 70
     0
102
RTVSPropertyOp17
 70
     0
102
RTVSPropertyOp18
 70
     0
102
RTVSPropertyOp19
 70
     0
102
RTVSPropertyOp20
 70
     0
102
RTVSPropertyOp21
 70
     0
102
RTVSPropertyOp22
 70
     0
102
RTVSPropertyOp23
 70
     0
102
RTVSPropertyOp24
 70
     0
102
RTVSPropertyOp25
 70
     0
102
RTVSPropertyOp26
 70
     0
102
RTVSPropertyOp27
 70
     0
102
RTVSPropertyOp28
 70
     1
102
RTVSPropertyOp29
 70
     1
102
RTVSPropertyOp30
 70
     1
102
RTVSPropertyOp31
 70
     1
102
RTVSPropertyOp32
 70
     1
102
RTVSPropertyOp33
 70
     1
102
RTVSPropertyOp34
 70
     1
102
RTVSPropertyOp35
 70
     1
102
RTVSPropertyOp36
 70
     1
102
RTVSPropertyOp37
 70
     1
102
RTVSPropertyOp38
 70
     1
102
RTVSPropertyOp39
 70
     1
102
RTVSPropertyOp40
 70
     1
102
RTVSPropertyOp41
 70
     1
102
RTVSPropertyOp42
 70
     1
102
RTVSPropertyOp43
 70
     1
102
RTVSPropertyOp44
 70
     1
102
RTVSPropertyOp45
 70
     1
102
RTVSPropertyOp46
 70
     1
102
RTVSPropertyOp47
 70
     1
102
RTVSPropertyOp48
 70
     1
102
RTVSPropertyOp49
 70
     1
102
RTVSPropertyOp50
 70
     1
102
RTVSPropertyOp51
 70
     0
102
RTVSPropertyOp52
 70
     0
102
RTVSPropertyOp53
 70
     1
102
RTVSPropertyOp54
 70
     1
102
RTVSPropertyOp55
 70
     1
102
RTVSPropertyOp56
 70
     1
102
RTVSPropertyOp57
 70
     1
102
RTVSPropertyOp58
 70
     1
102
RTVSPropertyOp59
 70
     1
102
RTVSPropertyOp60
 70
     1
102
RTVSPropertyOp61
 70
     1
102
RTVSPropertyOp62
 70
     1
  0
XRECORD
  5
20287
102
{ACAD_REACTORS
330
20286
102
}
330
20286
100
AcDbXrecord
280
     1
102
RTVSPost2010Prop28
280
     0
102
RTVSPost2010PropOp28
 70
     1
102
RTVSPost2010Prop29
280
     1
102
RTVSPost2010PropOp29
 70
     1
102
RTVSPost2010Prop30
280
     1
102
RTVSPost2010PropOp30
 70
     1
102
RTVSPost2010Prop31
280
     0
102
RTVSPost2010PropOp31
 70
     1
102
RTVSPost2010Prop32
280
     0
102
RTVSPost2010PropOp32
 70
     1
102
RTVSPost2010Prop33
280
     0
102
RTVSPost2010PropOp33
 70
     1
102
RTVSPost2010Prop34
280
     0
102
RTVSPost2010PropOp34
 70
     1
102
RTVSPost2010Prop35
280
     0
102
RTVSPost2010PropOp35
 70
     1
102
RTVSPost2010Prop36
280
     0
102
RTVSPost2010PropOp36
 70
     1
102
RTVSPost2010Prop37
 90
       50
102
RTVSPost2010PropOp37
 70
     1
102
RTVSPost2010Prop38
140
0.0
102
RTVSPost2010PropOp38
 70
     1
102
RTVSPost2010Prop39
140
1.0
102
RTVSPost2010PropOp39
 70
     1
102
RTVSPost2010Prop40
 90
        0
102
RTVSPost2010PropOp40
 70
     1
102
RTVSPost2010Prop41ColorIndex
 90
       18
102
RTVSPost2010Prop41ColorRGB
 90
        0
102
RTVSPost2010PropOp41
 70
     1
102
RTVSPost2010Prop42
 90
       50
102
RTVSPost2010PropOp42
 70
     1
102
RTVSPost2010Prop43
 90
        3
102
RTVSPost2010PropOp43
 70
     1
102
RTVSPost2010Prop44ColorIndex
 90
        5
102
RTVSPost2010Prop44ColorRGB
 90
      255
102
RTVSPost2010PropOp44
 70
     1
102
RTVSPost2010Prop45
280
     0
102
RTVSPost2010PropOp45
 70
     1
102
RTVSPost2010Prop46
 90
       50
102
RTVSPost2010PropOp46
 70
     1
102
RTVSPost2010Prop47
 90
       50
102
RTVSPost2010PropOp47
 70
     1
102
RTVSPost2010Prop48
 90
       50
102
RTVSPost2010PropOp48
 70
     1
102
RTVSPost2010Prop49
280
     0
102
RTVSPost2010PropOp49
 70
     1
102
RTVSPost2010Prop50
 90
       50
102
RTVSPost2010PropOp50
 70
     1
102
RTVSPost2010Prop51ColorIndex
 90
      256
102
RTVSPost2010Prop51ColorRGB
 90
-16777216
102
RTVSPost2010PropOp51
 70
     0
102
RTVSPost2010Prop52
140
1.0
102
RTVSPost2010PropOp52
 70
     0
102
RTVSPost2010Prop53
 90
        2
102
RTVSPost2010PropOp53
 70
     1
102
RTVSPost2010Prop54
  1
strokes_ogs.tif
102
RTVSPost2010PropOp54
 70
     1
102
RTVSPost2010Prop55
280
     0
102
RTVSPost2010PropOp55
 70
     1
102
RTVSPost2010Prop56
140
1.0
102
RTVSPost2010PropOp56
 70
     1
102
RTVSPost2010Prop57
140
1.0
102
RTVSPost2010PropOp57
 70
     1
102
RTVSPropertyOp0
 70
     1
102
RTVSPropertyOp1
 70
     1
102
RTVSPropertyOp2
 70
     1
102
RTVSPropertyOp3
 70
     1
102
RTVSPropertyOp4
 70
     1
102
RTVSPropertyOp5
 70
     1
102
RTVSPropertyOp6
 70
     1
102
RTVSPropertyOp7
 70
     1
102
RTVSPropertyOp8
 70
     1
102
RTVSPropertyOp9
 70
     1
102
RTVSPropertyOp10
 70
     1
102
RTVSPropertyOp11
 70
     1
102
RTVSPropertyOp12
 70
     1
102
RTVSPropertyOp13
 70
     1
102
RTVSPropertyOp14
 70
     1
102
RTVSPropertyOp15
 70
     1
102
RTVSPropertyOp16
 70
     1
102
RTVSPropertyOp17
 70
     1
102
RTVSPropertyOp18
 70
     1
102
RTVSPropertyOp19
 70
     1
102
RTVSPropertyOp20
 70
     1
102
RTVSPropertyOp21
 70
     1
102
RTVSPropertyOp22
 70
     1
102
RTVSPropertyOp23
 70
     1
102
RTVSPropertyOp24
 70
     1
102
RTVSPropertyOp25
 70
     1
102
RTVSPropertyOp26
 70
     1
102
RTVSPropertyOp27
 70
     1
102
RTVSPropertyOp28
 70
     1
102
RTVSPropertyOp29
 70
     1
102
RTVSPropertyOp30
 70
     1
102
RTVSPropertyOp31
 70
     1
102
RTVSPropertyOp32
 70
     1
102
RTVSPropertyOp33
 70
     1
102
RTVSPropertyOp34
 70
     1
102
RTVSPropertyOp35
 70
     1
102
RTVSPropertyOp36
 70
     1
102
RTVSPropertyOp37
 70
     1
102
RTVSPropertyOp38
 70
     1
102
RTVSPropertyOp39
 70
     1
102
RTVSPropertyOp40
 70
     1
102
RTVSPropertyOp41
 70
     1
102
RTVSPropertyOp42
 70
     1
102
RTVSPropertyOp43
 70
     1
102
RTVSPropertyOp44
 70
     1
102
RTVSPropertyOp45
 70
     1
102
RTVSPropertyOp46
 70
     1
102
RTVSPropertyOp47
 70
     1
102
RTVSPropertyOp48
 70
     1
102
RTVSPropertyOp49
 70
     1
102
RTVSPropertyOp50
 70
     1
102
RTVSPropertyOp51
 70
     0
102
RTVSPropertyOp52
 70
     0
102
RTVSPropertyOp53
 70
     1
102
RTVSPropertyOp54
 70
     1
102
RTVSPropertyOp55
 70
     1
102
RTVSPropertyOp56
 70
     1
102
RTVSPropertyOp57
 70
     1
102
RTVSPropertyOp58
 70
     1
102
RTVSPropertyOp59
 70
     1
102
RTVSPropertyOp60
 70
     1
102
RTVSPropertyOp61
 70
     1
102
RTVSPropertyOp62
 70
     1
  0
XRECORD
  5
2029B
102
{ACAD_REACTORS
330
2029A
102
}
330
2029A
100
AcDbXrecord
280
     1
102
RTVSPost2010Prop28
280
     0
102
RTVSPost2010PropOp28
 70
     1
102
RTVSPost2010Prop29
280
     1
102
RTVSPost2010PropOp29
 70
     1
102
RTVSPost2010Prop30
280
     1
102
RTVSPost2010PropOp30
 70
     1
102
RTVSPost2010Prop31
280
     0
102
RTVSPost2010PropOp31
 70
     1
102
RTVSPost2010Prop32
280
     0
102
RTVSPost2010PropOp32
 70
     1
102
RTVSPost2010Prop33
280
     0
102
RTVSPost2010PropOp33
 70
     1
102
RTVSPost2010Prop34
280
     0
102
RTVSPost2010PropOp34
 70
     1
102
RTVSPost2010Prop35
280
     0
102
RTVSPost2010PropOp35
 70
     1
102
RTVSPost2010Prop36
280
     0
102
RTVSPost2010PropOp36
 70
     1
102
RTVSPost2010Prop37
 90
       50
102
RTVSPost2010PropOp37
 70
     1
102
RTVSPost2010Prop38
140
0.0
102
RTVSPost2010PropOp38
 70
     1
102
RTVSPost2010Prop39
140
1.0
102
RTVSPost2010PropOp39
 70
     1
102
RTVSPost2010Prop40
 90
        0
102
RTVSPost2010PropOp40
 70
     1
102
RTVSPost2010Prop41ColorIndex
 90
       18
102
RTVSPost2010Prop41ColorRGB
 90
        0
102
RTVSPost2010PropOp41
 70
     1
102
RTVSPost2010Prop42
 90
       50
102
RTVSPost2010PropOp42
 70
     1
102
RTVSPost2010Prop43
 90
        3
102
RTVSPost2010PropOp43
 70
     1
102
RTVSPost2010Prop44ColorIndex
 90
        5
102
RTVSPost2010Prop44ColorRGB
 90
      255
102
RTVSPost2010PropOp44
 70
     1
102
RTVSPost2010Prop45
280
     0
102
RTVSPost2010PropOp45
 70
     1
102
RTVSPost2010Prop46
 90
       50
102
RTVSPost2010PropOp46
 70
     1
102
RTVSPost2010Prop47
 90
       50
102
RTVSPost2010PropOp47
 70
     1
102
RTVSPost2010Prop48
 90
       50
102
RTVSPost2010PropOp48
 70
     1
102
RTVSPost2010Prop49
280
     0
102
RTVSPost2010PropOp49
 70
     1
102
RTVSPost2010Prop50
 90
       50
102
RTVSPost2010PropOp50
 70
     1
102
RTVSPost2010Prop51ColorIndex
 90
      256
102
RTVSPost2010Prop51ColorRGB
 90
-16777216
102
RTVSPost2010PropOp51
 70
     0
102
RTVSPost2010Prop52
140
1.0
102
RTVSPost2010PropOp52
 70
     0
102
RTVSPost2010Prop53
 90
        2
102
RTVSPost2010PropOp53
 70
     1
102
RTVSPost2010Prop54
  1
strokes_ogs.tif
102
RTVSPost2010PropOp54
 70
     1
102
RTVSPost2010Prop55
280
     0
102
RTVSPost2010PropOp55
 70
     1
102
RTVSPost2010Prop56
140
1.0
102
RTVSPost2010PropOp56
 70
     1
102
RTVSPost2010Prop57
140
1.0
102
RTVSPost2010PropOp57
 70
     1
102
RTVSPropertyOp0
 70
     1
102
RTVSPropertyOp1
 70
     1
102
RTVSPropertyOp2
 70
     1
102
RTVSPropertyOp3
 70
     1
102
RTVSPropertyOp4
 70
     1
102
RTVSPropertyOp5
 70
     1
102
RTVSPropertyOp6
 70
     1
102
RTVSPropertyOp7
 70
     1
102
RTVSPropertyOp8
 70
     1
102
RTVSPropertyOp9
 70
     1
102
RTVSPropertyOp10
 70
     1
102
RTVSPropertyOp11
 70
     1
102
RTVSPropertyOp12
 70
     1
102
RTVSPropertyOp13
 70
     1
102
RTVSPropertyOp14
 70
     1
102
RTVSPropertyOp15
 70
     1
102
RTVSPropertyOp16
 70
     1
102
RTVSPropertyOp17
 70
     1
102
RTVSPropertyOp18
 70
     1
102
RTVSPropertyOp19
 70
     1
102
RTVSPropertyOp20
 70
     1
102
RTVSPropertyOp21
 70
     1
102
RTVSPropertyOp22
 70
     1
102
RTVSPropertyOp23
 70
     1
102
RTVSPropertyOp24
 70
     1
102
RTVSPropertyOp25
 70
     1
102
RTVSPropertyOp26
 70
     1
102
RTVSPropertyOp27
 70
     1
102
RTVSPropertyOp28
 70
     1
102
RTVSPropertyOp29
 70
     1
102
RTVSPropertyOp30
 70
     1
102
RTVSPropertyOp31
 70
     1
102
RTVSPropertyOp32
 70
     1
102
RTVSPropertyOp33
 70
     1
102
RTVSPropertyOp34
 70
     1
102
RTVSPropertyOp35
 70
     1
102
RTVSPropertyOp36
 70
     1
102
RTVSPropertyOp37
 70
     1
102
RTVSPropertyOp38
 70
     1
102
RTVSPropertyOp39
 70
     1
102
RTVSPropertyOp40
 70
     1
102
RTVSPropertyOp41
 70
     1
102
RTVSPropertyOp42
 70
     1
102
RTVSPropertyOp43
 70
     1
102
RTVSPropertyOp44
 70
     1
102
RTVSPropertyOp45
 70
     1
102
RTVSPropertyOp46
 70
     1
102
RTVSPropertyOp47
 70
     1
102
RTVSPropertyOp48
 70
     1
102
RTVSPropertyOp49
 70
     1
102
RTVSPropertyOp50
 70
     1
102
RTVSPropertyOp51
 70
     0
102
RTVSPropertyOp52
 70
     0
102
RTVSPropertyOp53
 70
     1
102
RTVSPropertyOp54
 70
     1
102
RTVSPropertyOp55
 70
     1
102
RTVSPropertyOp56
 70
     1
102
RTVSPropertyOp57
 70
     1
102
RTVSPropertyOp58
 70
     1
102
RTVSPropertyOp59
 70
     1
102
RTVSPropertyOp60
 70
     1
102
RTVSPropertyOp61
 70
     1
102
RTVSPropertyOp62
 70
     1
  0
XRECORD
  5
20299
102
{ACAD_REACTORS
330
20298
102
}
330
20298
100
AcDbXrecord
280
     1
102
RTVSPost2010Prop28
280
     0
102
RTVSPost2010PropOp28
 70
     1
102
RTVSPost2010Prop29
280
     1
102
RTVSPost2010PropOp29
 70
     1
102
RTVSPost2010Prop30
280
     1
102
RTVSPost2010PropOp30
 70
     1
102
RTVSPost2010Prop31
280
     0
102
RTVSPost2010PropOp31
 70
     1
102
RTVSPost2010Prop32
280
     0
102
RTVSPost2010PropOp32
 70
     1
102
RTVSPost2010Prop33
280
     0
102
RTVSPost2010PropOp33
 70
     1
102
RTVSPost2010Prop34
280
     0
102
RTVSPost2010PropOp34
 70
     1
102
RTVSPost2010Prop35
280
     0
102
RTVSPost2010PropOp35
 70
     1
102
RTVSPost2010Prop36
280
     0
102
RTVSPost2010PropOp36
 70
     1
102
RTVSPost2010Prop37
 90
       50
102
RTVSPost2010PropOp37
 70
     1
102
RTVSPost2010Prop38
140
0.0
102
RTVSPost2010PropOp38
 70
     1
102
RTVSPost2010Prop39
140
1.0
102
RTVSPost2010PropOp39
 70
     1
102
RTVSPost2010Prop40
 90
        0
102
RTVSPost2010PropOp40
 70
     1
102
RTVSPost2010Prop41ColorIndex
 90
       18
102
RTVSPost2010Prop41ColorRGB
 90
        0
102
RTVSPost2010PropOp41
 70
     1
102
RTVSPost2010Prop42
 90
       50
102
RTVSPost2010PropOp42
 70
     1
102
RTVSPost2010Prop43
 90
        3
102
RTVSPost2010PropOp43
 70
     1
102
RTVSPost2010Prop44ColorIndex
 90
        5
102
RTVSPost2010Prop44ColorRGB
 90
      255
102
RTVSPost2010PropOp44
 70
     1
102
RTVSPost2010Prop45
280
     0
102
RTVSPost2010PropOp45
 70
     1
102
RTVSPost2010Prop46
 90
       50
102
RTVSPost2010PropOp46
 70
     1
102
RTVSPost2010Prop47
 90
       50
102
RTVSPost2010PropOp47
 70
     1
102
RTVSPost2010Prop48
 90
       50
102
RTVSPost2010PropOp48
 70
     1
102
RTVSPost2010Prop49
280
     0
102
RTVSPost2010PropOp49
 70
     1
102
RTVSPost2010Prop50
 90
       50
102
RTVSPost2010PropOp50
 70
     1
102
RTVSPost2010Prop51ColorIndex
 90
      256
102
RTVSPost2010Prop51ColorRGB
 90
-16777216
102
RTVSPost2010PropOp51
 70
     0
102
RTVSPost2010Prop52
140
1.0
102
RTVSPost2010PropOp52
 70
     0
102
RTVSPost2010Prop53
 90
        2
102
RTVSPost2010PropOp53
 70
     1
102
RTVSPost2010Prop54
  1
strokes_ogs.tif
102
RTVSPost2010PropOp54
 70
     1
102
RTVSPost2010Prop55
280
     0
102
RTVSPost2010PropOp55
 70
     1
102
RTVSPost2010Prop56
140
1.0
102
RTVSPost2010PropOp56
 70
     1
102
RTVSPost2010Prop57
140
1.0
102
RTVSPost2010PropOp57
 70
     1
102
RTVSPropertyOp0
 70
     1
102
RTVSPropertyOp1
 70
     1
102
RTVSPropertyOp2
 70
     1
102
RTVSPropertyOp3
 70
     1
102
RTVSPropertyOp4
 70
     1
102
RTVSPropertyOp5
 70
     1
102
RTVSPropertyOp6
 70
     1
102
RTVSPropertyOp7
 70
     1
102
RTVSPropertyOp8
 70
     1
102
RTVSPropertyOp9
 70
     1
102
RTVSPropertyOp10
 70
     1
102
RTVSPropertyOp11
 70
     1
102
RTVSPropertyOp12
 70
     1
102
RTVSPropertyOp13
 70
     1
102
RTVSPropertyOp14
 70
     1
102
RTVSPropertyOp15
 70
     1
102
RTVSPropertyOp16
 70
     1
102
RTVSPropertyOp17
 70
     1
102
RTVSPropertyOp18
 70
     1
102
RTVSPropertyOp19
 70
     1
102
RTVSPropertyOp20
 70
     1
102
RTVSPropertyOp21
 70
     1
102
RTVSPropertyOp22
 70
     1
102
RTVSPropertyOp23
 70
     1
102
RTVSPropertyOp24
 70
     1
102
RTVSPropertyOp25
 70
     1
102
RTVSPropertyOp26
 70
     1
102
RTVSPropertyOp27
 70
     1
102
RTVSPropertyOp28
 70
     1
102
RTVSPropertyOp29
 70
     1
102
RTVSPropertyOp30
 70
     1
102
RTVSPropertyOp31
 70
     1
102
RTVSPropertyOp32
 70
     1
102
RTVSPropertyOp33
 70
     1
102
RTVSPropertyOp34
 70
     1
102
RTVSPropertyOp35
 70
     1
102
RTVSPropertyOp36
 70
     1
102
RTVSPropertyOp37
 70
     1
102
RTVSPropertyOp38
 70
     1
102
RTVSPropertyOp39
 70
     1
102
RTVSPropertyOp40
 70
     1
102
RTVSPropertyOp41
 70
     1
102
RTVSPropertyOp42
 70
     1
102
RTVSPropertyOp43
 70
     1
102
RTVSPropertyOp44
 70
     1
102
RTVSPropertyOp45
 70
     1
102
RTVSPropertyOp46
 70
     1
102
RTVSPropertyOp47
 70
     1
102
RTVSPropertyOp48
 70
     1
102
RTVSPropertyOp49
 70
     1
102
RTVSPropertyOp50
 70
     1
102
RTVSPropertyOp51
 70
     0
102
RTVSPropertyOp52
 70
     0
102
RTVSPropertyOp53
 70
     1
102
RTVSPropertyOp54
 70
     1
102
RTVSPropertyOp55
 70
     1
102
RTVSPropertyOp56
 70
     1
102
RTVSPropertyOp57
 70
     1
102
RTVSPropertyOp58
 70
     1
102
RTVSPropertyOp59
 70
     1
102
RTVSPropertyOp60
 70
     1
102
RTVSPropertyOp61
 70
     1
102
RTVSPropertyOp62
 70
     1
  0
XRECORD
  5
20293
102
{ACAD_REACTORS
330
20292
102
}
330
20292
100
AcDbXrecord
280
     1
102
RTVSPost2010Prop28
280
     0
102
RTVSPost2010PropOp28
 70
     1
102
RTVSPost2010Prop29
280
     1
102
RTVSPost2010PropOp29
 70
     1
102
RTVSPost2010Prop30
280
     1
102
RTVSPost2010PropOp30
 70
     1
102
RTVSPost2010Prop31
280
     0
102
RTVSPost2010PropOp31
 70
     1
102
RTVSPost2010Prop32
280
     0
102
RTVSPost2010PropOp32
 70
     1
102
RTVSPost2010Prop33
280
     0
102
RTVSPost2010PropOp33
 70
     1
102
RTVSPost2010Prop34
280
     0
102
RTVSPost2010PropOp34
 70
     1
102
RTVSPost2010Prop35
280
     0
102
RTVSPost2010PropOp35
 70
     1
102
RTVSPost2010Prop36
280
     0
102
RTVSPost2010PropOp36
 70
     1
102
RTVSPost2010Prop37
 90
       50
102
RTVSPost2010PropOp37
 70
     1
102
RTVSPost2010Prop38
140
0.0
102
RTVSPost2010PropOp38
 70
     1
102
RTVSPost2010Prop39
140
1.0
102
RTVSPost2010PropOp39
 70
     1
102
RTVSPost2010Prop40
 90
        0
102
RTVSPost2010PropOp40
 70
     1
102
RTVSPost2010Prop41ColorIndex
 90
       18
102
RTVSPost2010Prop41ColorRGB
 90
        0
102
RTVSPost2010PropOp41
 70
     1
102
RTVSPost2010Prop42
 90
       50
102
RTVSPost2010PropOp42
 70
     1
102
RTVSPost2010Prop43
 90
        3
102
RTVSPost2010PropOp43
 70
     1
102
RTVSPost2010Prop44ColorIndex
 90
        5
102
RTVSPost2010Prop44ColorRGB
 90
      255
102
RTVSPost2010PropOp44
 70
     1
102
RTVSPost2010Prop45
280
     0
102
RTVSPost2010PropOp45
 70
     1
102
RTVSPost2010Prop46
 90
       50
102
RTVSPost2010PropOp46
 70
     1
102
RTVSPost2010Prop47
 90
       50
102
RTVSPost2010PropOp47
 70
     1
102
RTVSPost2010Prop48
 90
       50
102
RTVSPost2010PropOp48
 70
     1
102
RTVSPost2010Prop49
280
     0
102
RTVSPost2010PropOp49
 70
     1
102
RTVSPost2010Prop50
 90
       50
102
RTVSPost2010PropOp50
 70
     1
102
RTVSPost2010Prop51ColorIndex
 90
      256
102
RTVSPost2010Prop51ColorRGB
 90
-16777216
102
RTVSPost2010PropOp51
 70
     0
102
RTVSPost2010Prop52
140
1.0
102
RTVSPost2010PropOp52
 70
     0
102
RTVSPost2010Prop53
 90
        2
102
RTVSPost2010PropOp53
 70
     1
102
RTVSPost2010Prop54
  1
strokes_ogs.tif
102
RTVSPost2010PropOp54
 70
     1
102
RTVSPost2010Prop55
280
     0
102
RTVSPost2010PropOp55
 70
     1
102
RTVSPost2010Prop56
140
1.0
102
RTVSPost2010PropOp56
 70
     1
102
RTVSPost2010Prop57
140
1.0
102
RTVSPost2010PropOp57
 70
     1
102
RTVSPropertyOp0
 70
     1
102
RTVSPropertyOp1
 70
     1
102
RTVSPropertyOp2
 70
     1
102
RTVSPropertyOp3
 70
     1
102
RTVSPropertyOp4
 70
     1
102
RTVSPropertyOp5
 70
     1
102
RTVSPropertyOp6
 70
     1
102
RTVSPropertyOp7
 70
     1
102
RTVSPropertyOp8
 70
     1
102
RTVSPropertyOp9
 70
     1
102
RTVSPropertyOp10
 70
     1
102
RTVSPropertyOp11
 70
     1
102
RTVSPropertyOp12
 70
     1
102
RTVSPropertyOp13
 70
     1
102
RTVSPropertyOp14
 70
     1
102
RTVSPropertyOp15
 70
     1
102
RTVSPropertyOp16
 70
     1
102
RTVSPropertyOp17
 70
     1
102
RTVSPropertyOp18
 70
     1
102
RTVSPropertyOp19
 70
     1
102
RTVSPropertyOp20
 70
     1
102
RTVSPropertyOp21
 70
     1
102
RTVSPropertyOp22
 70
     1
102
RTVSPropertyOp23
 70
     1
102
RTVSPropertyOp24
 70
     1
102
RTVSPropertyOp25
 70
     1
102
RTVSPropertyOp26
 70
     1
102
RTVSPropertyOp27
 70
     1
102
RTVSPropertyOp28
 70
     1
102
RTVSPropertyOp29
 70
     1
102
RTVSPropertyOp30
 70
     1
102
RTVSPropertyOp31
 70
     1
102
RTVSPropertyOp32
 70
     1
102
RTVSPropertyOp33
 70
     1
102
RTVSPropertyOp34
 70
     1
102
RTVSPropertyOp35
 70
     1
102
RTVSPropertyOp36
 70
     1
102
RTVSPropertyOp37
 70
     1
102
RTVSPropertyOp38
 70
     1
102
RTVSPropertyOp39
 70
     1
102
RTVSPropertyOp40
 70
     1
102
RTVSPropertyOp41
 70
     1
102
RTVSPropertyOp42
 70
     1
102
RTVSPropertyOp43
 70
     1
102
RTVSPropertyOp44
 70
     1
102
RTVSPropertyOp45
 70
     1
102
RTVSPropertyOp46
 70
     1
102
RTVSPropertyOp47
 70
     1
102
RTVSPropertyOp48
 70
     1
102
RTVSPropertyOp49
 70
     1
102
RTVSPropertyOp50
 70
     1
102
RTVSPropertyOp51
 70
     0
102
RTVSPropertyOp52
 70
     0
102
RTVSPropertyOp53
 70
     1
102
RTVSPropertyOp54
 70
     1
102
RTVSPropertyOp55
 70
     1
102
RTVSPropertyOp56
 70
     1
102
RTVSPropertyOp57
 70
     1
102
RTVSPropertyOp58
 70
     1
102
RTVSPropertyOp59
 70
     1
102
RTVSPropertyOp60
 70
     1
102
RTVSPropertyOp61
 70
     1
102
RTVSPropertyOp62
 70
     1
  0
XRECORD
  5
20295
102
{ACAD_REACTORS
330
20294
102
}
330
20294
100
AcDbXrecord
280
     1
102
RTVSPost2010Prop28
280
     0
102
RTVSPost2010PropOp28
 70
     1
102
RTVSPost2010Prop29
280
     1
102
RTVSPost2010PropOp29
 70
     1
102
RTVSPost2010Prop30
280
     1
102
RTVSPost2010PropOp30
 70
     1
102
RTVSPost2010Prop31
280
     0
102
RTVSPost2010PropOp31
 70
     1
102
RTVSPost2010Prop32
280
     0
102
RTVSPost2010PropOp32
 70
     1
102
RTVSPost2010Prop33
280
     0
102
RTVSPost2010PropOp33
 70
     1
102
RTVSPost2010Prop34
280
     0
102
RTVSPost2010PropOp34
 70
     1
102
RTVSPost2010Prop35
280
     0
102
RTVSPost2010PropOp35
 70
     1
102
RTVSPost2010Prop36
280
     0
102
RTVSPost2010PropOp36
 70
     1
102
RTVSPost2010Prop37
 90
       50
102
RTVSPost2010PropOp37
 70
     1
102
RTVSPost2010Prop38
140
0.0
102
RTVSPost2010PropOp38
 70
     1
102
RTVSPost2010Prop39
140
1.0
102
RTVSPost2010PropOp39
 70
     1
102
RTVSPost2010Prop40
 90
        0
102
RTVSPost2010PropOp40
 70
     1
102
RTVSPost2010Prop41ColorIndex
 90
       18
102
RTVSPost2010Prop41ColorRGB
 90
        0
102
RTVSPost2010PropOp41
 70
     1
102
RTVSPost2010Prop42
 90
       50
102
RTVSPost2010PropOp42
 70
     1
102
RTVSPost2010Prop43
 90
        3
102
RTVSPost2010PropOp43
 70
     1
102
RTVSPost2010Prop44ColorIndex
 90
        5
102
RTVSPost2010Prop44ColorRGB
 90
      255
102
RTVSPost2010PropOp44
 70
     1
102
RTVSPost2010Prop45
280
     0
102
RTVSPost2010PropOp45
 70
     1
102
RTVSPost2010Prop46
 90
       50
102
RTVSPost2010PropOp46
 70
     1
102
RTVSPost2010Prop47
 90
       50
102
RTVSPost2010PropOp47
 70
     1
102
RTVSPost2010Prop48
 90
       50
102
RTVSPost2010PropOp48
 70
     1
102
RTVSPost2010Prop49
280
     0
102
RTVSPost2010PropOp49
 70
     1
102
RTVSPost2010Prop50
 90
       50
102
RTVSPost2010PropOp50
 70
     1
102
RTVSPost2010Prop51ColorIndex
 90
      256
102
RTVSPost2010Prop51ColorRGB
 90
-16777216
102
RTVSPost2010PropOp51
 70
     0
102
RTVSPost2010Prop52
140
1.0
102
RTVSPost2010PropOp52
 70
     0
102
RTVSPost2010Prop53
 90
        2
102
RTVSPost2010PropOp53
 70
     1
102
RTVSPost2010Prop54
  1
strokes_ogs.tif
102
RTVSPost2010PropOp54
 70
     1
102
RTVSPost2010Prop55
280
     0
102
RTVSPost2010PropOp55
 70
     1
102
RTVSPost2010Prop56
140
1.0
102
RTVSPost2010PropOp56
 70
     1
102
RTVSPost2010Prop57
140
1.0
102
RTVSPost2010PropOp57
 70
     1
102
RTVSPropertyOp0
 70
     1
102
RTVSPropertyOp1
 70
     1
102
RTVSPropertyOp2
 70
     1
102
RTVSPropertyOp3
 70
     1
102
RTVSPropertyOp4
 70
     1
102
RTVSPropertyOp5
 70
     1
102
RTVSPropertyOp6
 70
     1
102
RTVSPropertyOp7
 70
     1
102
RTVSPropertyOp8
 70
     1
102
RTVSPropertyOp9
 70
     1
102
RTVSPropertyOp10
 70
     1
102
RTVSPropertyOp11
 70
     1
102
RTVSPropertyOp12
 70
     1
102
RTVSPropertyOp13
 70
     1
102
RTVSPropertyOp14
 70
     1
102
RTVSPropertyOp15
 70
     1
102
RTVSPropertyOp16
 70
     1
102
RTVSPropertyOp17
 70
     1
102
RTVSPropertyOp18
 70
     1
102
RTVSPropertyOp19
 70
     1
102
RTVSPropertyOp20
 70
     1
102
RTVSPropertyOp21
 70
     1
102
RTVSPropertyOp22
 70
     1
102
RTVSPropertyOp23
 70
     1
102
RTVSPropertyOp24
 70
     1
102
RTVSPropertyOp25
 70
     1
102
RTVSPropertyOp26
 70
     1
102
RTVSPropertyOp27
 70
     1
102
RTVSPropertyOp28
 70
     1
102
RTVSPropertyOp29
 70
     1
102
RTVSPropertyOp30
 70
     1
102
RTVSPropertyOp31
 70
     1
102
RTVSPropertyOp32
 70
     1
102
RTVSPropertyOp33
 70
     1
102
RTVSPropertyOp34
 70
     1
102
RTVSPropertyOp35
 70
     1
102
RTVSPropertyOp36
 70
     1
102
RTVSPropertyOp37
 70
     1
102
RTVSPropertyOp38
 70
     1
102
RTVSPropertyOp39
 70
     1
102
RTVSPropertyOp40
 70
     1
102
RTVSPropertyOp41
 70
     1
102
RTVSPropertyOp42
 70
     1
102
RTVSPropertyOp43
 70
     1
102
RTVSPropertyOp44
 70
     1
102
RTVSPropertyOp45
 70
     1
102
RTVSPropertyOp46
 70
     1
102
RTVSPropertyOp47
 70
     1
102
RTVSPropertyOp48
 70
     1
102
RTVSPropertyOp49
 70
     1
102
RTVSPropertyOp50
 70
     1
102
RTVSPropertyOp51
 70
     0
102
RTVSPropertyOp52
 70
     0
102
RTVSPropertyOp53
 70
     1
102
RTVSPropertyOp54
 70
     1
102
RTVSPropertyOp55
 70
     1
102
RTVSPropertyOp56
 70
     1
102
RTVSPropertyOp57
 70
     1
102
RTVSPropertyOp58
 70
     1
102
RTVSPropertyOp59
 70
     1
102
RTVSPropertyOp60
 70
     1
102
RTVSPropertyOp61
 70
     1
102
RTVSPropertyOp62
 70
     1
  0
XRECORD
  5
20278
102
{ACAD_REACTORS
330
20277
102
}
330
20277
100
AcDbXrecord
280
     1
102
RTVSPost2010Prop28
280
     0
102
RTVSPost2010PropOp28
 70
     1
102
RTVSPost2010Prop29
280
     1
102
RTVSPost2010PropOp29
 70
     1
102
RTVSPost2010Prop30
280
     1
102
RTVSPost2010PropOp30
 70
     1
102
RTVSPost2010Prop31
280
     0
102
RTVSPost2010PropOp31
 70
     1
102
RTVSPost2010Prop32
280
     0
102
RTVSPost2010PropOp32
 70
     1
102
RTVSPost2010Prop33
280
     0
102
RTVSPost2010PropOp33
 70
     1
102
RTVSPost2010Prop34
280
     0
102
RTVSPost2010PropOp34
 70
     1
102
RTVSPost2010Prop35
280
     0
102
RTVSPost2010PropOp35
 70
     1
102
RTVSPost2010Prop36
280
     0
102
RTVSPost2010PropOp36
 70
     1
102
RTVSPost2010Prop37
 90
       50
102
RTVSPost2010PropOp37
 70
     1
102
RTVSPost2010Prop38
140
0.0
102
RTVSPost2010PropOp38
 70
     1
102
RTVSPost2010Prop39
140
1.0
102
RTVSPost2010PropOp39
 70
     1
102
RTVSPost2010Prop40
 90
        0
102
RTVSPost2010PropOp40
 70
     1
102
RTVSPost2010Prop41ColorIndex
 90
       18
102
RTVSPost2010Prop41ColorRGB
 90
        0
102
RTVSPost2010PropOp41
 70
     1
102
RTVSPost2010Prop42
 90
       50
102
RTVSPost2010PropOp42
 70
     1
102
RTVSPost2010Prop43
 90
        3
102
RTVSPost2010PropOp43
 70
     1
102
RTVSPost2010Prop44ColorIndex
 90
        5
102
RTVSPost2010Prop44ColorRGB
 90
      255
102
RTVSPost2010PropOp44
 70
     1
102
RTVSPost2010Prop45
280
     0
102
RTVSPost2010PropOp45
 70
     1
102
RTVSPost2010Prop46
 90
       50
102
RTVSPost2010PropOp46
 70
     1
102
RTVSPost2010Prop47
 90
       50
102
RTVSPost2010PropOp47
 70
     1
102
RTVSPost2010Prop48
 90
       50
102
RTVSPost2010PropOp48
 70
     1
102
RTVSPost2010Prop49
280
     0
102
RTVSPost2010PropOp49
 70
     1
102
RTVSPost2010Prop50
 90
       50
102
RTVSPost2010PropOp50
 70
     1
102
RTVSPost2010Prop51ColorIndex
 90
      256
102
RTVSPost2010Prop51ColorRGB
 90
-16777216
102
RTVSPost2010PropOp51
 70
     0
102
RTVSPost2010Prop52
140
1.0
102
RTVSPost2010PropOp52
 70
     0
102
RTVSPost2010Prop53
 90
        2
102
RTVSPost2010PropOp53
 70
     1
102
RTVSPost2010Prop54
  1
strokes_ogs.tif
102
RTVSPost2010PropOp54
 70
     1
102
RTVSPost2010Prop55
280
     0
102
RTVSPost2010PropOp55
 70
     1
102
RTVSPost2010Prop56
140
1.0
102
RTVSPost2010PropOp56
 70
     1
102
RTVSPost2010Prop57
140
1.0
102
RTVSPost2010PropOp57
 70
     1
102
RTVSPropertyOp0
 70
     1
102
RTVSPropertyOp1
 70
     1
102
RTVSPropertyOp2
 70
     1
102
RTVSPropertyOp3
 70
     1
102
RTVSPropertyOp4
 70
     1
102
RTVSPropertyOp5
 70
     1
102
RTVSPropertyOp6
 70
     1
102
RTVSPropertyOp7
 70
     1
102
RTVSPropertyOp8
 70
     1
102
RTVSPropertyOp9
 70
     1
102
RTVSPropertyOp10
 70
     1
102
RTVSPropertyOp11
 70
     1
102
RTVSPropertyOp12
 70
     1
102
RTVSPropertyOp13
 70
     1
102
RTVSPropertyOp14
 70
     1
102
RTVSPropertyOp15
 70
     1
102
RTVSPropertyOp16
 70
     1
102
RTVSPropertyOp17
 70
     1
102
RTVSPropertyOp18
 70
     1
102
RTVSPropertyOp19
 70
     1
102
RTVSPropertyOp20
 70
     1
102
RTVSPropertyOp21
 70
     1
102
RTVSPropertyOp22
 70
     1
102
RTVSPropertyOp23
 70
     1
102
RTVSPropertyOp24
 70
     1
102
RTVSPropertyOp25
 70
     1
102
RTVSPropertyOp26
 70
     1
102
RTVSPropertyOp27
 70
     1
102
RTVSPropertyOp28
 70
     1
102
RTVSPropertyOp29
 70
     1
102
RTVSPropertyOp30
 70
     1
102
RTVSPropertyOp31
 70
     1
102
RTVSPropertyOp32
 70
     1
102
RTVSPropertyOp33
 70
     1
102
RTVSPropertyOp34
 70
     1
102
RTVSPropertyOp35
 70
     1
102
RTVSPropertyOp36
 70
     1
102
RTVSPropertyOp37
 70
     1
102
RTVSPropertyOp38
 70
     1
102
RTVSPropertyOp39
 70
     1
102
RTVSPropertyOp40
 70
     1
102
RTVSPropertyOp41
 70
     1
102
RTVSPropertyOp42
 70
     1
102
RTVSPropertyOp43
 70
     1
102
RTVSPropertyOp44
 70
     1
102
RTVSPropertyOp45
 70
     1
102
RTVSPropertyOp46
 70
     1
102
RTVSPropertyOp47
 70
     1
102
RTVSPropertyOp48
 70
     1
102
RTVSPropertyOp49
 70
     1
102
RTVSPropertyOp50
 70
     1
102
RTVSPropertyOp51
 70
     0
102
RTVSPropertyOp52
 70
     0
102
RTVSPropertyOp53
 70
     1
102
RTVSPropertyOp54
 70
     1
102
RTVSPropertyOp55
 70
     1
102
RTVSPropertyOp56
 70
     1
102
RTVSPropertyOp57
 70
     1
102
RTVSPropertyOp58
 70
     1
102
RTVSPropertyOp59
 70
     1
102
RTVSPropertyOp60
 70
     1
102
RTVSPropertyOp61
 70
     1
102
RTVSPropertyOp62
 70
     1
  0
XRECORD
  5
2028F
102
{ACAD_REACTORS
330
2028E
102
}
330
2028E
100
AcDbXrecord
280
     1
102
RTVSPost2010Prop28
280
     0
102
RTVSPost2010PropOp28
 70
     1
102
RTVSPost2010Prop29
280
     1
102
RTVSPost2010PropOp29
 70
     1
102
RTVSPost2010Prop30
280
     1
102
RTVSPost2010PropOp30
 70
     1
102
RTVSPost2010Prop31
280
     0
102
RTVSPost2010PropOp31
 70
     1
102
RTVSPost2010Prop32
280
     0
102
RTVSPost2010PropOp32
 70
     1
102
RTVSPost2010Prop33
280
     0
102
RTVSPost2010PropOp33
 70
     1
102
RTVSPost2010Prop34
280
     0
102
RTVSPost2010PropOp34
 70
     1
102
RTVSPost2010Prop35
280
     0
102
RTVSPost2010PropOp35
 70
     1
102
RTVSPost2010Prop36
280
     0
102
RTVSPost2010PropOp36
 70
     1
102
RTVSPost2010Prop37
 90
       50
102
RTVSPost2010PropOp37
 70
     1
102
RTVSPost2010Prop38
140
0.0
102
RTVSPost2010PropOp38
 70
     1
102
RTVSPost2010Prop39
140
1.0
102
RTVSPost2010PropOp39
 70
     1
102
RTVSPost2010Prop40
 90
        0
102
RTVSPost2010PropOp40
 70
     1
102
RTVSPost2010Prop41ColorIndex
 90
       18
102
RTVSPost2010Prop41ColorRGB
 90
        0
102
RTVSPost2010PropOp41
 70
     1
102
RTVSPost2010Prop42
 90
       50
102
RTVSPost2010PropOp42
 70
     1
102
RTVSPost2010Prop43
 90
        3
102
RTVSPost2010PropOp43
 70
     1
102
RTVSPost2010Prop44ColorIndex
 90
        5
102
RTVSPost2010Prop44ColorRGB
 90
      255
102
RTVSPost2010PropOp44
 70
     1
102
RTVSPost2010Prop45
280
     0
102
RTVSPost2010PropOp45
 70
     1
102
RTVSPost2010Prop46
 90
       50
102
RTVSPost2010PropOp46
 70
     1
102
RTVSPost2010Prop47
 90
       50
102
RTVSPost2010PropOp47
 70
     1
102
RTVSPost2010Prop48
 90
       50
102
RTVSPost2010PropOp48
 70
     1
102
RTVSPost2010Prop49
280
     0
102
RTVSPost2010PropOp49
 70
     1
102
RTVSPost2010Prop50
 90
       50
102
RTVSPost2010PropOp50
 70
     1
102
RTVSPost2010Prop51ColorIndex
 90
      256
102
RTVSPost2010Prop51ColorRGB
 90
-16777216
102
RTVSPost2010PropOp51
 70
     0
102
RTVSPost2010Prop52
140
1.0
102
RTVSPost2010PropOp52
 70
     0
102
RTVSPost2010Prop53
 90
        2
102
RTVSPost2010PropOp53
 70
     1
102
RTVSPost2010Prop54
  1
strokes_ogs.tif
102
RTVSPost2010PropOp54
 70
     1
102
RTVSPost2010Prop55
280
     0
102
RTVSPost2010PropOp55
 70
     1
102
RTVSPost2010Prop56
140
1.0
102
RTVSPost2010PropOp56
 70
     1
102
RTVSPost2010Prop57
140
1.0
102
RTVSPost2010PropOp57
 70
     1
102
RTVSPropertyOp0
 70
     1
102
RTVSPropertyOp1
 70
     1
102
RTVSPropertyOp2
 70
     1
102
RTVSPropertyOp3
 70
     1
102
RTVSPropertyOp4
 70
     1
102
RTVSPropertyOp5
 70
     1
102
RTVSPropertyOp6
 70
     1
102
RTVSPropertyOp7
 70
     1
102
RTVSPropertyOp8
 70
     1
102
RTVSPropertyOp9
 70
     1
102
RTVSPropertyOp10
 70
     1
102
RTVSPropertyOp11
 70
     1
102
RTVSPropertyOp12
 70
     1
102
RTVSPropertyOp13
 70
     1
102
RTVSPropertyOp14
 70
     1
102
RTVSPropertyOp15
 70
     1
102
RTVSPropertyOp16
 70
     1
102
RTVSPropertyOp17
 70
     1
102
RTVSPropertyOp18
 70
     1
102
RTVSPropertyOp19
 70
     1
102
RTVSPropertyOp20
 70
     1
102
RTVSPropertyOp21
 70
     1
102
RTVSPropertyOp22
 70
     1
102
RTVSPropertyOp23
 70
     1
102
RTVSPropertyOp24
 70
     1
102
RTVSPropertyOp25
 70
     1
102
RTVSPropertyOp26
 70
     1
102
RTVSPropertyOp27
 70
     1
102
RTVSPropertyOp28
 70
     1
102
RTVSPropertyOp29
 70
     1
102
RTVSPropertyOp30
 70
     1
102
RTVSPropertyOp31
 70
     1
102
RTVSPropertyOp32
 70
     1
102
RTVSPropertyOp33
 70
     1
102
RTVSPropertyOp34
 70
     1
102
RTVSPropertyOp35
 70
     1
102
RTVSPropertyOp36
 70
     1
102
RTVSPropertyOp37
 70
     1
102
RTVSPropertyOp38
 70
     1
102
RTVSPropertyOp39
 70
     1
102
RTVSPropertyOp40
 70
     1
102
RTVSPropertyOp41
 70
     1
102
RTVSPropertyOp42
 70
     1
102
RTVSPropertyOp43
 70
     1
102
RTVSPropertyOp44
 70
     1
102
RTVSPropertyOp45
 70
     1
102
RTVSPropertyOp46
 70
     1
102
RTVSPropertyOp47
 70
     1
102
RTVSPropertyOp48
 70
     1
102
RTVSPropertyOp49
 70
     1
102
RTVSPropertyOp50
 70
     1
102
RTVSPropertyOp51
 70
     0
102
RTVSPropertyOp52
 70
     0
102
RTVSPropertyOp53
 70
     1
102
RTVSPropertyOp54
 70
     1
102
RTVSPropertyOp55
 70
     1
102
RTVSPropertyOp56
 70
     1
102
RTVSPropertyOp57
 70
     1
102
RTVSPropertyOp58
 70
     1
102
RTVSPropertyOp59
 70
     1
102
RTVSPropertyOp60
 70
     1
102
RTVSPropertyOp61
 70
     1
102
RTVSPropertyOp62
 70
     1
  0
XRECORD
  5
20297
102
{ACAD_REACTORS
330
20296
102
}
330
20296
100
AcDbXrecord
280
     1
102
RTVSPost2010Prop28
280
     0
102
RTVSPost2010PropOp28
 70
     1
102
RTVSPost2010Prop29
280
     1
102
RTVSPost2010PropOp29
 70
     1
102
RTVSPost2010Prop30
280
     1
102
RTVSPost2010PropOp30
 70
     1
102
RTVSPost2010Prop31
280
     0
102
RTVSPost2010PropOp31
 70
     1
102
RTVSPost2010Prop32
280
     0
102
RTVSPost2010PropOp32
 70
     1
102
RTVSPost2010Prop33
280
     0
102
RTVSPost2010PropOp33
 70
     1
102
RTVSPost2010Prop34
280
     0
102
RTVSPost2010PropOp34
 70
     1
102
RTVSPost2010Prop35
280
     0
102
RTVSPost2010PropOp35
 70
     1
102
RTVSPost2010Prop36
280
     0
102
RTVSPost2010PropOp36
 70
     1
102
RTVSPost2010Prop37
 90
       50
102
RTVSPost2010PropOp37
 70
     1
102
RTVSPost2010Prop38
140
0.0
102
RTVSPost2010PropOp38
 70
     1
102
RTVSPost2010Prop39
140
1.0
102
RTVSPost2010PropOp39
 70
     1
102
RTVSPost2010Prop40
 90
        0
102
RTVSPost2010PropOp40
 70
     1
102
RTVSPost2010Prop41ColorIndex
 90
       18
102
RTVSPost2010Prop41ColorRGB
 90
        0
102
RTVSPost2010PropOp41
 70
     1
102
RTVSPost2010Prop42
 90
       50
102
RTVSPost2010PropOp42
 70
     1
102
RTVSPost2010Prop43
 90
        3
102
RTVSPost2010PropOp43
 70
     1
102
RTVSPost2010Prop44ColorIndex
 90
        5
102
RTVSPost2010Prop44ColorRGB
 90
      255
102
RTVSPost2010PropOp44
 70
     1
102
RTVSPost2010Prop45
280
     0
102
RTVSPost2010PropOp45
 70
     1
102
RTVSPost2010Prop46
 90
       50
102
RTVSPost2010PropOp46
 70
     1
102
RTVSPost2010Prop47
 90
       50
102
RTVSPost2010PropOp47
 70
     1
102
RTVSPost2010Prop48
 90
       50
102
RTVSPost2010PropOp48
 70
     1
102
RTVSPost2010Prop49
280
     0
102
RTVSPost2010PropOp49
 70
     1
102
RTVSPost2010Prop50
 90
       50
102
RTVSPost2010PropOp50
 70
     1
102
RTVSPost2010Prop51ColorIndex
 90
      256
102
RTVSPost2010Prop51ColorRGB
 90
-16777216
102
RTVSPost2010PropOp51
 70
     0
102
RTVSPost2010Prop52
140
1.0
102
RTVSPost2010PropOp52
 70
     0
102
RTVSPost2010Prop53
 90
        2
102
RTVSPost2010PropOp53
 70
     1
102
RTVSPost2010Prop54
  1
strokes_ogs.tif
102
RTVSPost2010PropOp54
 70
     1
102
RTVSPost2010Prop55
280
     0
102
RTVSPost2010PropOp55
 70
     1
102
RTVSPost2010Prop56
140
1.0
102
RTVSPost2010PropOp56
 70
     1
102
RTVSPost2010Prop57
140
1.0
102
RTVSPost2010PropOp57
 70
     1
102
RTVSPropertyOp0
 70
     1
102
RTVSPropertyOp1
 70
     1
102
RTVSPropertyOp2
 70
     1
102
RTVSPropertyOp3
 70
     1
102
RTVSPropertyOp4
 70
     1
102
RTVSPropertyOp5
 70
     1
102
RTVSPropertyOp6
 70
     1
102
RTVSPropertyOp7
 70
     1
102
RTVSPropertyOp8
 70
     1
102
RTVSPropertyOp9
 70
     1
102
RTVSPropertyOp10
 70
     1
102
RTVSPropertyOp11
 70
     1
102
RTVSPropertyOp12
 70
     1
102
RTVSPropertyOp13
 70
     1
102
RTVSPropertyOp14
 70
     1
102
RTVSPropertyOp15
 70
     1
102
RTVSPropertyOp16
 70
     1
102
RTVSPropertyOp17
 70
     1
102
RTVSPropertyOp18
 70
     1
102
RTVSPropertyOp19
 70
     1
102
RTVSPropertyOp20
 70
     1
102
RTVSPropertyOp21
 70
     1
102
RTVSPropertyOp22
 70
     1
102
RTVSPropertyOp23
 70
     1
102
RTVSPropertyOp24
 70
     1
102
RTVSPropertyOp25
 70
     1
102
RTVSPropertyOp26
 70
     1
102
RTVSPropertyOp27
 70
     1
102
RTVSPropertyOp28
 70
     1
102
RTVSPropertyOp29
 70
     1
102
RTVSPropertyOp30
 70
     1
102
RTVSPropertyOp31
 70
     1
102
RTVSPropertyOp32
 70
     1
102
RTVSPropertyOp33
 70
     1
102
RTVSPropertyOp34
 70
     1
102
RTVSPropertyOp35
 70
     1
102
RTVSPropertyOp36
 70
     1
102
RTVSPropertyOp37
 70
     1
102
RTVSPropertyOp38
 70
     1
102
RTVSPropertyOp39
 70
     1
102
RTVSPropertyOp40
 70
     1
102
RTVSPropertyOp41
 70
     1
102
RTVSPropertyOp42
 70
     1
102
RTVSPropertyOp43
 70
     1
102
RTVSPropertyOp44
 70
     1
102
RTVSPropertyOp45
 70
     1
102
RTVSPropertyOp46
 70
     1
102
RTVSPropertyOp47
 70
     1
102
RTVSPropertyOp48
 70
     1
102
RTVSPropertyOp49
 70
     1
102
RTVSPropertyOp50
 70
     1
102
RTVSPropertyOp51
 70
     0
102
RTVSPropertyOp52
 70
     0
102
RTVSPropertyOp53
 70
     1
102
RTVSPropertyOp54
 70
     1
102
RTVSPropertyOp55
 70
     1
102
RTVSPropertyOp56
 70
     1
102
RTVSPropertyOp57
 70
     1
102
RTVSPropertyOp58
 70
     1
102
RTVSPropertyOp59
 70
     1
102
RTVSPropertyOp60
 70
     1
102
RTVSPropertyOp61
 70
     1
102
RTVSPropertyOp62
 70
     1
  0
ENDSEC
  0
EOF
