  0
SECTION
  2
HEADER
  9
$ACADVER
  1
AC1018
  9
$ACADMAINTVER
 70
   104
  9
$DWGCODEPAGE
  3
ANSI_1252
  9
$LASTSAVEDBY
  1
TFassnacht
  9
$INSBASE
 10
0.0
 20
0.0
 30
0.0
  9
$EXTMIN
 10
-0.0000228723802138
 20
0.0000084847270045
 30
0.0
  9
$EXTMAX
 10
198.0015769677411
 20
126.0010265648306
 30
0.0
  9
$LIMMIN
 10
0.0
 20
0.0
  9
$LIMMAX
 10
17.0
 20
11.0
  9
$ORTHOMODE
 70
     1
  9
$REGENMODE
 70
     1
  9
$FILLMODE
 70
     1
  9
$QTEXTMODE
 70
     0
  9
$MIRRTEXT
 70
     0
  9
$LTSCALE
 40
1.0
  9
$ATTMODE
 70
     2
  9
$TEXTSIZE
 40
0.085
  9
$TRACEWID
 40
0.05
  9
$TEXTSTYLE
  7
STANDARD
  9
$CLAYER
  8
0
  9
$CELTYPE
  6
BYLAYER
  9
$CECOLOR
 62
   256
  9
$CELTSCALE
 40
1.0
  9
$DISPSILH
 70
     0
  9
$DIMSCALE
 40
1.0
  9
$DIMASZ
 40
0.1328125
  9
$DIMEXO
 40
0.0859375
  9
$DIMDLI
 40
0.171875
  9
$DIMRND
 40
0.0
  9
$DIMDLE
 40
0.0
  9
$DIMEXE
 40
0.0234375
  9
$DIMTP
 40
0.0
  9
$DIMTM
 40
0.0
  9
$DIMTXT
 40
0.109375
  9
$DIMCEN
 40
0.04296875
  9
$DIMTSZ
 40
0.0
  9
$DIMTOL
 70
     0
  9
$DIMLIM
 70
     0
  9
$DIMTIH
 70
     0
  9
$DIMTOH
 70
     0
  9
$DIMSE1
 70
     0
  9
$DIMSE2
 70
     0
  9
$DIMTAD
 70
     1
  9
$DIMZIN
 70
     0
  9
$DIMBLK
  1

  9
$DIMASO
 70
     1
  9
$DIMSHO
 70
     1
  9
$DIMPOST
  1

  9
$DIMAPOST
  1

  9
$DIMALT
 70
     0
  9
$DIMALTD
 70
     2
  9
$DIMALTF
 40
25.4
  9
$DIMLFAC
 40
48.0000768
  9
$DIMTOFL
 70
     0
  9
$DIMTVP
 40
0.0
  9
$DIMTIX
 70
     0
  9
$DIMSOXD
 70
     0
  9
$DIMSAH
 70
     0
  9
$DIMBLK1
  1

  9
$DIMBLK2
  1

  9
$DIMSTYLE
  2
Q_SCALE_FULLDIM
  9
$DIMCLRD
 70
     4
  9
$DIMCLRE
 70
     4
  9
$DIMCLRT
 70
     4
  9
$DIMTFAC
 40
1.0
  9
$DIMGAP
 40
0.04296875
  9
$DIMJUST
 70
     0
  9
$DIMSD1
 70
     0
  9
$DIMSD2
 70
     0
  9
$DIMTOLJ
 70
     1
  9
$DIMTZIN
 70
     0
  9
$DIMALTZ
 70
     0
  9
$DIMALTTZ
 70
     0
  9
$DIMUPT
 70
     0
  9
$DIMDEC
 70
     4
  9
$DIMTDEC
 70
     4
  9
$DIMALTU
 70
     2
  9
$DIMALTTD
 70
     2
  9
$DIMTXSTY
  7
STANDARD
  9
$DIMAUNIT
 70
     0
  9
$DIMADEC
 70
     0
  9
$DIMALTRND
 40
0.0
  9
$DIMAZIN
 70
     0
  9
$DIMDSEP
 70
    46
  9
$DIMATFIT
 70
     3
  9
$DIMFRAC
 70
     0
  9
$DIMLDRBLK
  1

  9
$DIMLUNIT
 70
     4
  9
$DIMLWD
 70
    -2
  9
$DIMLWE
 70
    -2
  9
$DIMTMOVE
 70
     0
  9
$LUNITS
 70
     5
  9
$LUPREC
 70
     8
  9
$SKETCHINC
 40
0.1
  9
$FILLETRAD
 40
0.0
  9
$AUNITS
 70
     0
  9
$AUPREC
 70
     0
  9
$MENU
  1
C:\ACADR13\WIN\SUPPORT\REPUBLIC
  9
$ELEVATION
 40
0.0
  9
$PELEVATION
 40
0.0
  9
$THICKNESS
 40
0.0
  9
$LIMCHECK
 70
     0
  9
$CHAMFERA
 40
0.0
  9
$CHAMFERB
 40
0.0
  9
$CHAMFERC
 40
0.0
  9
$CHAMFERD
 40
0.0
  9
$SKPOLY
 70
     0
  9
$TDCREATE
 40
2450834.604276620
  9
$TDUCREATE
 40
2450834.770943287
  9
$TDUPDATE
 40
2460202.410606215
  9
$TDUUPDATE
 40
2460202.577272882
  9
$TDINDWG
 40
3.9491967824
  9
$TDUSRTIMER
 40
3.9491967824
  9
$USRTIMER
 70
     1
  9
$ANGBASE
 50
0.0
  9
$ANGDIR
 70
     0
  9
$PDMODE
 70
     0
  9
$PDSIZE
 40
0.0
  9
$PLINEWID
 40
0.0
  9
$SPLFRAME
 70
     0
  9
$SPLINETYPE
 70
     6
  9
$SPLINESEGS
 70
     8
  9
$HANDSEED
  5
21D9C
  9
$SURFTAB1
 70
     6
  9
$SURFTAB2
 70
     6
  9
$SURFTYPE
 70
     6
  9
$SURFU
 70
     6
  9
$SURFV
 70
     6
  9
$UCSBASE
  2

  9
$UCSNAME
  2

  9
$UCSORG
 10
0.0
 20
0.0
 30
0.0
  9
$UCSXDIR
 10
1.0
 20
0.0
 30
0.0
  9
$UCSYDIR
 10
0.0
 20
1.0
 30
0.0
  9
$UCSORTHOREF
  2

  9
$UCSORTHOVIEW
 70
     0
  9
$UCSORGTOP
 10
0.0
 20
0.0
 30
0.0
  9
$UCSORGBOTTOM
 10
0.0
 20
0.0
 30
0.0
  9
$UCSORGLEFT
 10
0.0
 20
0.0
 30
0.0
  9
$UCSORGRIGHT
 10
0.0
 20
0.0
 30
0.0
  9
$UCSORGFRONT
 10
0.0
 20
0.0
 30
0.0
  9
$UCSORGBACK
 10
0.0
 20
0.0
 30
0.0
  9
$PUCSBASE
  2

  9
$PUCSNAME
  2

  9
$PUCSORG
 10
0.0
 20
0.0
 30
0.0
  9
$PUCSXDIR
 10
1.0
 20
0.0
 30
0.0
  9
$PUCSYDIR
 10
0.0
 20
1.0
 30
0.0
  9
$PUCSORTHOREF
  2

  9
$PUCSORTHOVIEW
 70
     0
  9
$PUCSORGTOP
 10
0.0
 20
0.0
 30
0.0
  9
$PUCSORGBOTTOM
 10
0.0
 20
0.0
 30
0.0
  9
$PUCSORGLEFT
 10
0.0
 20
0.0
 30
0.0
  9
$PUCSORGRIGHT
 10
0.0
 20
0.0
 30
0.0
  9
$PUCSORGFRONT
 10
0.0
 20
0.0
 30
0.0
  9
$PUCSORGBACK
 10
0.0
 20
0.0
 30
0.0
  9
$USERI1
 70
     0
  9
$USERI2
 70
     0
  9
$USERI3
 70
     0
  9
$USERI4
 70
     0
  9
$USERI5
 70
     0
  9
$USERR1
 40
0.0
  9
$USERR2
 40
0.0
  9
$USERR3
 40
0.0
  9
$USERR4
 40
0.0
  9
$USERR5
 40
0.0
  9
$WORLDVIEW
 70
     1
  9
$SHADEDGE
 70
     3
  9
$SHADEDIF
 70
    70
  9
$TILEMODE
 70
     1
  9
$MAXACTVP
 70
    16
  9
$PINSBASE
 10
0.0
 20
0.0
 30
0.0
  9
$PLIMCHECK
 70
     0
  9
$PEXTMIN
 10
1.000000000000000E+20
 20
1.000000000000000E+20
 30
1.000000000000000E+20
  9
$PEXTMAX
 10
-1.000000000000000E+20
 20
-1.000000000000000E+20
 30
-1.000000000000000E+20
  9
$PLIMMIN
 10
0.0
 20
0.0
  9
$PLIMMAX
 10
12.0
 20
9.0
  9
$UNITMODE
 70
     0
  9
$VISRETAIN
 70
     0
  9
$PLINEGEN
 70
     0
  9
$PSLTSCALE
 70
     1
  9
$TREEDEPTH
 70
  3020
  9
$CMLSTYLE
  2
STANDARD
  9
$CMLJUST
 70
     0
  9
$CMLSCALE
 40
1.0
  9
$PROXYGRAPHICS
 70
     1
  9
$MEASUREMENT
 70
     0
  9
$CELWEIGHT
370
    -1
  9
$ENDCAPS
280
     0
  9
$JOINSTYLE
280
     0
  9
$LWDISPLAY
290
     0
  9
$INSUNITS
 70
     0
  9
$HYPERLINKBASE
  1

  9
$STYLESHEET
  1
monochrome.ctb
  9
$XEDIT
290
     1
  9
$CEPSNTYPE
380
     0
  9
$PSTYLEMODE
290
     1
  9
$FINGERPRINTGUID
  2
{8006B5C0-AD62-11D3-96B1-005004D188FB}
  9
$VERSIONGUID
  2
{BAFCB5D6-0D3B-467E-93ED-D10CA062E2EA}
  9
$EXTNAMES
290
     1
  9
$PSVPSCALE
 40
0.0
  9
$OLESTARTUP
290
     0
  9
$SORTENTS
280
    96
  9
$INDEXCTL
280
     0
  9
$HIDETEXT
280
     0
  9
$XCLIPFRAME
290
     0
  9
$HALOGAP
280
     0
  9
$OBSCOLOR
 70
   257
  9
$OBSLTYPE
280
     0
  9
$INTERSECTIONDISPLAY
280
     0
  9
$INTERSECTIONCOLOR
 70
   257
  9
$DIMASSOC
280
     1
  9
$PROJECTNAME
  1

  0
ENDSEC
  0
SECTION
  2
CLASSES
  0
CLASS
  1
ACDBDICTIONARYWDFLT
  2
AcDbDictionaryWithDefault
  3
ObjectDBX Classes
 90
        0
 91
        1
280
     0
281
     0
  0
CLASS
  1
PLOTSETTINGS
  2
AcDbPlotSettings
  3
ObjectDBX Classes
 90
        0
 91
        2
280
     0
281
     0
  0
CLASS
  1
IMAGEDEF
  2
AcDbRasterImageDef
  3
ISM
 90
        0
 91
        1
280
     0
281
     0
  0
CLASS
  1
DICTIONARYVAR
  2
AcDbDictionaryVar
  3
ObjectDBX Classes
 90
        0
 91
        6
280
     0
281
     0
  0
CLASS
  1
MATERIAL
  2
AcDbMaterial
  3
ObjectDBX Classes
 90
     1153
 91
        3
280
     0
281
     0
  0
CLASS
  1
VISUALSTYLE
  2
AcDbVisualStyle
  3
ObjectDBX Classes
 90
     4095
 91
       26
280
     0
281
     0
  0
CLASS
  1
TABLESTYLE
  2
AcDbTableStyle
  3
ObjectDBX Classes
 90
     4095
 91
        1
280
     0
281
     0
  0
CLASS
  1
SORTENTSTABLE
  2
AcDbSortentsTable
  3
ObjectDBX Classes
 90
        0
 91
        3
280
     0
281
     0
  0
CLASS
  1
SCALE
  2
AcDbScale
  3
ObjectDBX Classes
 90
     1153
 91
       33
280
     0
281
     0
  0
CLASS
  1
MLEADERSTYLE
  2
AcDbMLeaderStyle
  3
ACDB_MLEADERSTYLE_CLASS
 90
     4095
 91
        1
280
     0
281
     0
  0
CLASS
  1
CELLSTYLEMAP
  2
AcDbCellStyleMap
  3
ObjectDBX Classes
 90
     1152
 91
        2
280
     0
281
     0
  0
CLASS
  1
AEC_REFEDIT_STATUS_TRACKER
  2
AecDbRefEditStatusTracker
  3
AecArchBase70|Product Desc: Autodesk Architectural Desktop 2007 |Company: Autodesk,Inc. |WEB Address: www.autodesk.com
 90
      129
 91
        0
280
     0
281
     0
  0
CLASS
  1
NPOCOLLECTION
  2
AcDbImpNonPersistentObjectsCollection
  3
ObjectDBX Classes
 90
     1153
 91
        0
280
     0
281
     0
  0
CLASS
  1
ACDBSECTIONVIEWSTYLE
  2
AcDbSectionViewStyle
  3
ObjectDBX Classes
 90
     1025
 91
        1
280
     0
281
     0
  0
CLASS
  1
ACDBDETAILVIEWSTYLE
  2
AcDbDetailViewStyle
  3
ObjectDBX Classes
 90
     1025
 91
        1
280
     0
281
     0
  0
CLASS
  1
LSINTERNALCOMPONENT
  2
AcDbLSInternalComponent
  3
AcDgnLS
 90
        0
 91
       76
280
     0
281
     0
  0
ENDSEC
  0
SECTION
  2
TABLES
  0
TABLE
  2
VPORT
  5
8
102
{ACAD_XDICTIONARY
360
1857C
102
}
330
0
100
AcDbSymbolTable
 70
     1
  0
VPORT
  5
18345
330
8
100
AcDbSymbolTableRecord
100
AcDbViewportTableRecord
  2
*Active
 70
     0
 10
0.0
 20
0.0
 11
1.0
 21
1.0
 12
99.00079134765043
 22
63.00242036549099
 13
0.0
 23
0.0
 14
1.0
 24
1.0
 15
0.0
 25
0.0
 16
0.0
 26
0.0
 36
1.0
 17
0.0
 27
0.0
 37
0.0
 40
127.2224822188921
 41
2.13301282051282
 42
50.0
 43
0.0
 44
0.0
 50
0.0
 51
0.0
 71
     0
 72
   100
 73
     1
 74
     0
 75
     0
 76
     0
 77
     0
 78
     0
281
     0
 65
     1
110
0.0
120
0.0
130
0.0
111
1.0
121
0.0
131
0.0
112
0.0
122
1.0
132
0.0
 79
     0
146
0.0
1001
ACAD_NAV_VCDISPLAY
1070
     3
  0
ENDTAB
  0
TABLE
  2
LTYPE
  5
5
330
0
100
AcDbSymbolTable
 70
     4
  0
LTYPE
  5
14
330
5
100
AcDbSymbolTableRecord
100
AcDbLinetypeTableRecord
  2
BYBLOCK
 70
     0
  3

 72
    65
 73
     0
 40
0.0
  0
LTYPE
  5
15
330
5
100
AcDbSymbolTableRecord
100
AcDbLinetypeTableRecord
  2
BYLAYER
 70
     0
  3

 72
    65
 73
     0
 40
0.0
  0
LTYPE
  5
16
330
5
100
AcDbSymbolTableRecord
100
AcDbLinetypeTableRecord
  2
CONTINUOUS
 70
     0
  3
Solid line
 72
    65
 73
     0
 40
0.0
  0
LTYPE
  5
19547
330
5
100
AcDbSymbolTableRecord
100
AcDbLinetypeTableRecord
  2
PHANTOM2
 70
     0
  3
Phantom (.5x) ___ _ _ ___ _ _ ___ _ _ ___ _ _
 72
    65
 73
     6
 40
1.25
 49
0.625
 74
     0
 49
-0.125
 74
     0
 49
0.125
 74
     0
 49
-0.125
 74
     0
 49
0.125
 74
     0
 49
-0.125
 74
     0
  0
LTYPE
  5
1E739
330
5
100
AcDbSymbolTableRecord
100
AcDbLinetypeTableRecord
  2
DASHED2
 70
     0
  3
Dashed (.5x) _ _ _ _ _ _ _ _ _ _ _ _ _ _ _ _ _
 72
    65
 73
     2
 40
0.375
 49
0.25
 74
     0
 49
-0.125
 74
     0
  0
LTYPE
  5
1E73A
330
5
100
AcDbSymbolTableRecord
100
AcDbLinetypeTableRecord
  2
HS
 70
     0
  3
HEAVY_SOLID
 72
    65
 73
     0
 40
0.0
  0
ENDTAB
  0
TABLE
  2
LAYER
  5
2
102
{ACAD_XDICTIONARY
360
18C2C
102
}
330
0
100
AcDbSymbolTable
 70
    19
  0
LAYER
  5
F
102
{ACAD_XDICTIONARY
360
18BD0
102
}
330
2
100
AcDbSymbolTableRecord
100
AcDbLayerTableRecord
  2
0
 70
     0
 62
     7
  6
CONTINUOUS
370
    -3
390
5D95
  0
LAYER
  5
36
102
{ACAD_XDICTIONARY
360
18BD2
102
}
330
2
100
AcDbSymbolTableRecord
100
AcDbLayerTableRecord
  2
TEXT
 70
     0
 62
     2
  6
CONTINUOUS
370
    -3
390
5D95
  0
LAYER
  5
14178
102
{ACAD_XDICTIONARY
360
18BD6
102
}
330
2
100
AcDbSymbolTableRecord
100
AcDbLayerTableRecord
  2
locker
 70
     0
 62
     1
  6
CONTINUOUS
370
    -3
390
5D95
  0
LAYER
  5
19CB4
330
2
100
AcDbSymbolTableRecord
100
AcDbLayerTableRecord
  2
Defpoints
 70
     0
 62
     7
  6
CONTINUOUS
290
     0
370
    -3
390
5D95
  0
LAYER
  5
1A808
102
{ACAD_XDICTIONARY
360
1A809
102
}
330
2
100
AcDbSymbolTableRecord
100
AcDbLayerTableRecord
  2
border1
 70
     0
 62
     1
  6
CONTINUOUS
370
    -3
390
5D95
  0
LAYER
  5
1A80A
102
{ACAD_XDICTIONARY
360
1A80B
102
}
330
2
100
AcDbSymbolTableRecord
100
AcDbLayerTableRecord
  2
dim
 70
     0
 62
     4
  6
CONTINUOUS
370
    -3
390
5D95
  0
LAYER
  5
1A80C
102
{ACAD_XDICTIONARY
360
1A80D
102
}
330
2
100
AcDbSymbolTableRecord
100
AcDbLayerTableRecord
  2
wall
 70
     0
 62
    42
  6
CONTINUOUS
370
    -3
390
5D95
  0
LAYER
  5
1A80E
102
{ACAD_XDICTIONARY
360
1A80F
102
}
330
2
100
AcDbSymbolTableRecord
100
AcDbLayerTableRecord
  2
diamonds
 70
     0
 62
     6
  6
CONTINUOUS
370
    15
390
5D95
  0
LAYER
  5
1A812
330
2
100
AcDbSymbolTableRecord
100
AcDbLayerTableRecord
  2
elevation text
 70
     0
 62
     7
  6
CONTINUOUS
370
    -3
390
5D95
1001
AcAecLayerStandard
1000

1000

1001
AcCmTransparency
1071
        0
  0
LAYER
  5
1E73B
102
{ACAD_XDICTIONARY
360
1E73C
102
}
330
2
100
AcDbSymbolTableRecord
100
AcDbLayerTableRecord
  2
frame
 70
     0
 62
     1
  6
CONTINUOUS
370
    -3
390
5D95
  0
LAYER
  5
1E73D
330
2
100
AcDbSymbolTableRecord
100
AcDbLayerTableRecord
  2
top
 70
     0
 62
     6
  6
CONTINUOUS
370
    35
390
5D95
  0
LAYER
  5
1E73E
330
2
100
AcDbSymbolTableRecord
100
AcDbLayerTableRecord
  2
door
 70
     0
 62
     3
  6
CONTINUOUS
370
    -3
390
5D95
  0
LAYER
  5
1E73F
102
{ACAD_XDICTIONARY
360
1E740
102
}
330
2
100
AcDbSymbolTableRecord
100
AcDbLayerTableRecord
  2
ELEVATION
 70
     0
 62
     3
  6
CONTINUOUS
370
    -3
390
5D95
  0
LAYER
  5
1E741
102
{ACAD_XDICTIONARY
360
1E742
102
}
330
2
100
AcDbSymbolTableRecord
100
AcDbLayerTableRecord
  2
ELEV HIDDEN
 70
     0
 62
     1
  6
DASHED2
370
    -3
390
5D95
  0
LAYER
  5
1E743
330
2
100
AcDbSymbolTableRecord
100
AcDbLayerTableRecord
  2
HANDLE
 70
     0
 62
     5
  6
CONTINUOUS
370
    -3
390
5D95
  0
LAYER
  5
1E744
102
{ACAD_XDICTIONARY
360
1E745
102
}
330
2
100
AcDbSymbolTableRecord
100
AcDbLayerTableRecord
  2
OBJECT
 70
     0
 62
     3
  6
CONTINUOUS
370
    -3
390
5D95
  0
LAYER
  5
1E746
102
{ACAD_XDICTIONARY
360
1E747
102
}
330
2
100
AcDbSymbolTableRecord
100
AcDbLayerTableRecord
  2
0 OBJECT BORDER
 70
     0
 62
     1
  6
CONTINUOUS
370
    -3
390
5D95
  0
LAYER
  5
1E748
102
{ACAD_XDICTIONARY
360
1E749
102
}
330
2
100
AcDbSymbolTableRecord
100
AcDbLayerTableRecord
  2
0 DIAMONDS
 70
     0
 62
     3
  6
CONTINUOUS
370
    -3
390
5D95
  0
LAYER
  5
1EFB8
102
{ACAD_XDICTIONARY
360
1EFB9
102
}
330
2
100
AcDbSymbolTableRecord
100
AcDbLayerTableRecord
  2
coat rod
 70
     0
 62
     4
  6
CONTINUOUS
370
    -3
390
5D95
  0
ENDTAB
  0
TABLE
  2
STYLE
  5
3
330
0
100
AcDbSymbolTable
 70
     3
  0
STYLE
  5
10
330
3
100
AcDbSymbolTableRecord
100
AcDbTextStyleTableRecord
  2
STANDARD
 70
     0
 40
0.0
 41
1.0
 50
0.0
 71
     0
 42
0.085
  3
txt
  4

  0
STYLE
  5
14154
330
3
100
AcDbSymbolTableRecord
100
AcDbTextStyleTableRecord
  2
ROMANS
 70
     0
 40
0.0
 41
1.0
 50
0.0
 71
     0
 42
0.085
  3
romans
  4

  0
STYLE
  5
1E74A
330
3
100
AcDbSymbolTableRecord
100
AcDbTextStyleTableRecord
  2
ELEVATION
 70
     0
 40
1.5
 41
1.0
 50
0.0
 71
     0
 42
1.5
  3
SIMPLEX.shx
  4

  0
ENDTAB
  0
TABLE
  2
VIEW
  5
6
330
0
100
AcDbSymbolTable
 70
     0
  0
ENDTAB
  0
TABLE
  2
UCS
  5
7
330
0
100
AcDbSymbolTable
 70
     0
  0
ENDTAB
  0
TABLE
  2
APPID
  5
9
330
0
100
AcDbSymbolTable
 70
     9
  0
APPID
  5
11
330
9
100
AcDbSymbolTableRecord
100
AcDbRegAppTableRecord
  2
ACAD
 70
     0
  0
APPID
  5
18543
330
9
100
AcDbSymbolTableRecord
100
AcDbRegAppTableRecord
  2
ACAD_EXEMPT_FROM_CAD_STANDARDS
 70
     0
  0
APPID
  5
1857B
330
9
100
AcDbSymbolTableRecord
100
AcDbRegAppTableRecord
  2
ACAD_PSEXT
 70
     0
  0
APPID
  5
1953B
330
9
100
AcDbSymbolTableRecord
100
AcDbRegAppTableRecord
  2
ACAD_MLEADERVER
 70
     0
  0
APPID
  5
19557
330
9
100
AcDbSymbolTableRecord
100
AcDbRegAppTableRecord
  2
ACAD_NAV_VCDISPLAY
 70
     0
  0
APPID
  5
1A813
330
9
100
AcDbSymbolTableRecord
100
AcDbRegAppTableRecord
  2
AcAecLayerStandard
 70
     0
  0
APPID
  5
1A814
330
9
100
AcDbSymbolTableRecord
100
AcDbRegAppTableRecord
  2
AcCmTransparency
 70
     0
  0
APPID
  5
1E74D
330
9
100
AcDbSymbolTableRecord
100
AcDbRegAppTableRecord
  2
ACAD_DSTYLE_DIMJAG
 70
     0
  0
APPID
  5
1E74E
330
9
100
AcDbSymbolTableRecord
100
AcDbRegAppTableRecord
  2
ACAD_DSTYLE_DIMTALN
 70
     0
  0
ENDTAB
  0
TABLE
  2
DIMSTYLE
  5
A
330
0
100
AcDbSymbolTable
 70
     2
100
AcDbDimStyleTable
 71
     1
340
E4
  0
DIMSTYLE
105
E4
330
A
100
AcDbSymbolTableRecord
100
AcDbDimStyleTableRecord
  2
Q_SCALE_FULLDIM
 70
     0
 41
0.1328125
 42
0.0859375
 43
0.171875
 44
0.0234375
 73
     0
 74
     0
 77
     1
140
0.109375
141
0.04296875
144
48.0000768
147
0.04296875
176
     4
177
     4
178
     4
277
     4
340
10
  0
DIMSTYLE
105
18C2B
330
A
100
AcDbSymbolTableRecord
100
AcDbDimStyleTableRecord
  2
Standard
 70
     0
340
10
  0
ENDTAB
  0
TABLE
  2
BLOCK_RECORD
  5
1
330
0
100
AcDbSymbolTable
 70
     3
  0
BLOCK_RECORD
  5
1A
102
{ACAD_XDICTIONARY
360
183EF
102
}
330
1
100
AcDbSymbolTableRecord
100
AcDbBlockTableRecord
  2
*MODEL_SPACE
340
5D98
  0
BLOCK_RECORD
  5
17
330
1
100
AcDbSymbolTableRecord
100
AcDbBlockTableRecord
  2
*PAPER_SPACE
340
5D99
  0
BLOCK_RECORD
  5
1E707
102
{ACAD_XDICTIONARY
360
1E708
102
}
330
1
100
AcDbSymbolTableRecord
100
AcDbBlockTableRecord
  2
A$C0da8e90c
340
0
102
{BLKREFS
331
21BBA
331
21BBF
331
21C2F
331
21C34
102
}
1001
ACAD
1000
DesignCenter Data
1002
{
1070
     1
1070
     1
1002
}
  0
BLOCK_RECORD
  5
1E72C
102
{ACAD_XDICTIONARY
360
1E72D
102
}
330
1
100
AcDbSymbolTableRecord
100
AcDbBlockTableRecord
  2
A$C6895fdcc
340
0
102
{BLKREFS
331
21BC0
331
21BC1
331
21BC2
331
21BC3
331
21BC4
331
21BC5
331
21BC6
331
21BC7
331
21BD7
331
21BD8
331
21BDC
331
21BDD
331
21BDE
331
21BDF
331
21BE0
331
21BE1
331
21BE2
331
21BE3
331
21BE5
331
21BE6
331
21BEA
331
21BEB
331
21BEC
331
21BED
331
21BEE
331
21BEF
331
21BF0
331
21BF1
331
21C01
331
21C02
331
21C06
331
21C07
331
21C08
331
21C09
331
21C0A
331
21C0B
331
21C0C
331
21C0D
331
21C0F
331
21C10
331
21C35
331
21C36
331
21C37
331
21C38
331
21C39
331
21C3A
331
21C3B
331
21C3C
331
21C4C
331
21C4D
331
21C51
331
21C52
331
21C53
331
21C54
331
21C55
331
21C56
331
21C57
331
21C58
331
21C5A
331
21C5B
331
21C5F
331
21C60
331
21C61
331
21C62
331
21C63
331
21C64
331
21C65
331
21C66
331
21C76
331
21C77
331
21C7B
331
21C7C
331
21C7D
331
21C7E
331
21C7F
331
21C80
331
21C81
331
21C82
331
21C84
331
21C85
331
21B28
331
21B29
331
21B2A
331
21B2B
331
21B2C
331
21B2D
331
21B2E
331
21B2F
331
21B30
331
21B31
331
21B32
331
21B33
331
21B34
331
21B35
331
21B36
331
21B37
331
21B38
331
21B39
331
21B3A
331
21B3B
331
21B3C
331
21B3D
331
21B3E
331
21B3F
331
21B40
102
}
  0
BLOCK_RECORD
  5
1EFAB
330
1
100
AcDbSymbolTableRecord
100
AcDbBlockTableRecord
  2
ARRO2
340
0
102
{BLKREFS
331
21B42
102
}
  0
ENDTAB
  0
ENDSEC
  0
SECTION
  2
BLOCKS
  0
BLOCK
  5
1B
330
1A
100
AcDbEntity
  8
0
100
AcDbBlockBegin
  2
*MODEL_SPACE
 70
     0
 10
0.0
 20
0.0
 30
0.0
  3
*MODEL_SPACE
  1

  0
ENDBLK
  5
1C
330
1A
100
AcDbEntity
  8
0
100
AcDbBlockEnd
  0
BLOCK
  5
18
330
17
100
AcDbEntity
 67
     1
  8
0
100
AcDbBlockBegin
  2
*PAPER_SPACE
 70
     0
 10
0.0
 20
0.0
 30
0.0
  3
*PAPER_SPACE
  1

  0
ENDBLK
  5
19
330
17
100
AcDbEntity
 67
     1
  8
0
100
AcDbBlockEnd
  0
BLOCK
  5
1E70A
330
1E707
100
AcDbEntity
  8
0
100
AcDbBlockBegin
  2
A$C0da8e90c
 70
     0
 10
0.0
 20
0.0
 30
0.0
  3
A$C0da8e90c
  1

  0
LINE
  5
1E70B
330
1E707
100
AcDbEntity
  8
HANDLE
100
AcDbLine
 10
-1.193640979519827
 20
4.734373926643332
 30
0.0
 11
2.306359020480172
 21
4.734373926643332
 31
0.0
  0
LINE
  5
1E70C
330
1E707
100
AcDbEntity
  8
HANDLE
100
AcDbLine
 10
-1.326697382190772
 20
4.984373926643332
 30
0.0
 11
2.439415423151118
 21
4.984373926643332
 31
0.0
  0
ARC
  5
1E70D
330
1E707
100
AcDbEntity
  8
HANDLE
100
AcDbCircle
 10
2.439415423151118
 20
4.859373926643332
 30
0.0
 40
0.125
100
AcDbArc
 50
356.4236656250027
 51
90.0
  0
ARC
  5
1E70E
330
1E707
100
AcDbEntity
  8
HANDLE
100
AcDbCircle
 10
-1.326697382190772
 20
4.859373926643332
 30
0.0
 40
0.125
100
AcDbArc
 50
90.0
 51
183.5763343749973
  0
LINE
  5
1E70F
330
1E707
100
AcDbEntity
  8
HANDLE
100
AcDbLine
 10
-0.8811409795198272
 20
-0.265626073356664
 30
0.0
 11
1.993859020480172
 21
-0.265626073356664
 31
0.0
  0
LINE
  5
1E710
330
1E707
100
AcDbEntity
  8
HANDLE
100
AcDbLine
 10
-0.9985723821907726
 20
-0.515626073356664
 30
0.0
 11
2.111290423151118
 21
-0.515626073356664
 31
0.0
  0
ARC
  5
1E711
330
1E707
100
AcDbEntity
  8
HANDLE
100
AcDbCircle
 10
2.111290423151118
 20
-0.390626073356664
 30
0.0
 40
0.125
100
AcDbArc
 50
270.0
 51
356.4236656250027
  0
LINE
  5
1E712
330
1E707
100
AcDbEntity
  8
HANDLE
100
AcDbLine
 10
2.306359020480172
 20
4.734373926643332
 30
0.0
 11
1.993859020480172
 21
-0.265626073356664
 31
0.0
  0
LINE
  5
1E713
330
1E707
100
AcDbEntity
  8
HANDLE
100
AcDbLine
 10
2.564171995461478
 20
4.851576640873933
 30
0.0
 11
2.236046995461478
 21
-0.3984233591260633
 31
0.0
  0
LINE
  5
1E714
330
1E707
100
AcDbEntity
  8
HANDLE
100
AcDbLine
 10
-0.8811409795198272
 20
-0.265626073356664
 30
0.0
 11
-1.193640979519827
 21
4.734373926643332
 31
0.0
  0
LINE
  5
1E715
330
1E707
100
AcDbEntity
  8
HANDLE
100
AcDbLine
 10
-1.123328954501133
 20
-0.3984233591260633
 30
0.0
 11
-1.451453954501133
 21
4.851576640873933
 31
0.0
  0
ARC
  5
1E716
330
1E707
100
AcDbEntity
  8
HANDLE
100
AcDbCircle
 10
-0.9985723821907726
 20
-0.390626073356664
 30
0.0
 40
0.125
100
AcDbArc
 50
183.5763343749973
 51
270.0
  0
LINE
  5
1E717
330
1E707
100
AcDbEntity
  8
HANDLE
100
AcDbLine
 10
-1.193640979519827
 20
4.734373926643332
 30
0.0
 11
-1.417800786960228
 21
4.944961131524742
 31
0.0
  0
LINE
  5
1E718
330
1E707
100
AcDbEntity
  8
HANDLE
100
AcDbLine
 10
2.306359020480172
 20
4.734373926643332
 30
0.0
 11
2.530518827920573
 21
4.944961131524742
 31
0.0
  0
LINE
  5
1E719
330
1E707
100
AcDbEntity
  8
HANDLE
100
AcDbLine
 10
1.993859020480172
 20
-0.265626073356664
 30
0.0
 11
2.196877628032538
 21
-0.4817294781261197
 31
0.0
  0
LINE
  5
1E71A
330
1E707
100
AcDbEntity
  8
HANDLE
100
AcDbLine
 10
-0.8811409795198272
 20
-0.265626073356664
 30
0.0
 11
-1.084159587072193
 21
-0.4817294781261197
 31
0.0
  0
LINE
  5
1E71B
330
1E707
100
AcDbEntity
  8
HANDLE
100
AcDbLine
 10
0.4063590204801671
 20
4.67287392664333
 30
0.0
 11
0.4063590204801671
 21
3.826873926643333
 31
0.0
  0
LINE
  5
1E71C
330
1E707
100
AcDbEntity
  8
HANDLE
100
AcDbLine
 10
0.2753590204801668
 20
4.732873926643332
 30
0.0
 11
0.2753590204801668
 21
4.734373926643332
 31
0.0
  0
ARC
  5
1E71D
330
1E707
100
AcDbEntity
  8
HANDLE
100
AcDbCircle
 10
0.3053590204801679
 20
4.732873926643332
 30
0.0
 40
0.03
100
AcDbArc
 50
180.0
 51
270.0
  0
LINE
  5
1E71E
330
1E707
100
AcDbEntity
  8
HANDLE
100
AcDbLine
 10
0.7063590204801642
 20
4.67287392664333
 30
0.0
 11
0.7063590204801784
 21
3.826873926643333
 31
0.0
  0
LINE
  5
1E71F
330
1E707
100
AcDbEntity
  8
HANDLE
100
AcDbLine
 10
0.8373590204801786
 20
4.732873926643332
 30
0.0
 11
0.8373590204801786
 21
4.734373926643332
 31
0.0
  0
ARC
  5
1E720
330
1E707
100
AcDbEntity
  8
HANDLE
100
AcDbCircle
 10
0.8073590204801774
 20
4.732873926643332
 30
0.0
 40
0.03
100
AcDbArc
 50
270.0
 51
0.0
  0
ARC
  5
1E721
330
1E707
100
AcDbEntity
  8
HANDLE
100
AcDbCircle
 10
0.6763590204801773
 20
3.826873926643333
 30
0.0
 40
0.03
100
AcDbArc
 50
270.0
 51
0.0
  0
LINE
  5
1E722
330
1E707
100
AcDbEntity
  8
HANDLE
100
AcDbLine
 10
0.4363590204801682
 20
3.796873926643332
 30
0.0
 11
0.6763590204801773
 21
3.796873926643332
 31
0.0
  0
ARC
  5
1E723
330
1E707
100
AcDbEntity
  8
HANDLE
100
AcDbCircle
 10
0.4363590204801682
 20
3.826873926643333
 30
0.0
 40
0.03
100
AcDbArc
 50
180.0
 51
270.0
  0
LINE
  5
1E724
330
1E707
100
AcDbEntity
  8
HANDLE
100
AcDbLine
 10
0.3053590204801679
 20
4.702873926643331
 30
0.0
 11
0.3763590204801659
 21
4.702873926643331
 31
0.0
  0
ARC
  5
1E725
330
1E707
100
AcDbEntity
  8
HANDLE
100
AcDbCircle
 10
0.3763590204801659
 20
4.67287392664333
 30
0.0
 40
0.03
100
AcDbArc
 50
0.0
 51
90.0
  0
LINE
  5
1E726
330
1E707
100
AcDbEntity
  8
HANDLE
100
AcDbLine
 10
0.7363590204801654
 20
4.702873926643331
 30
0.0
 11
0.8073590204801774
 21
4.702873926643331
 31
0.0
  0
ARC
  5
1E727
330
1E707
100
AcDbEntity
  8
HANDLE
100
AcDbCircle
 10
0.7363590204801654
 20
4.67287392664333
 30
0.0
 40
0.03
100
AcDbArc
 50
90.0000000000004
 51
180.0000000000004
  0
CIRCLE
  5
1E728
330
1E707
100
AcDbEntity
  8
HANDLE
100
AcDbCircle
 10
0.5563590204801728
 20
2.92587392664333
 30
0.0
 40
0.109375
  0
CIRCLE
  5
1E729
330
1E707
100
AcDbEntity
  8
HANDLE
100
AcDbCircle
 10
0.5563590204801728
 20
1.832873926643333
 30
0.0
 40
0.328125
  0
CIRCLE
  5
1E72A
330
1E707
100
AcDbEntity
  8
HANDLE
100
AcDbCircle
 10
0.5563590204801728
 20
0.7398739266433303
 30
0.0
 40
0.109375
  0
ENDBLK
  5
1E72B
330
1E707
100
AcDbEntity
  8
0
100
AcDbBlockEnd
  0
BLOCK
  5
1E72F
330
1E72C
100
AcDbEntity
  8
0
100
AcDbBlockBegin
  2
A$C6895fdcc
 70
     0
 10
0.0
 20
0.0
 30
0.0
  3
A$C6895fdcc
  1

  0
LINE
  5
1E730
330
1E72C
100
AcDbEntity
  8
0 DIAMONDS
  6
HS
100
AcDbLine
 10
0.0493175358351437
 20
-0.4993160339145107
 30
0.0
 11
0.2376805279272958
 21
-0.1171560233942728
 31
0.0
  0
LINE
  5
1E731
330
1E72C
100
AcDbEntity
  8
0 DIAMONDS
  6
HS
100
AcDbLine
 10
-0.2376957833475899
 20
-0.1171615137482149
 30
0.0
 11
-0.0493344904461992
 21
-0.4993181026238745
 31
0.0
  0
LINE
  5
1E732
330
1E72C
100
AcDbEntity
  8
0 DIAMONDS
  6
HS
100
AcDbLine
 10
-0.2377137994262739
 20
0.1171702978554094
 30
0.0
 11
-0.0493502209792496
 21
0.4993257693549822
 31
0.0
  0
LINE
  5
1E733
330
1E72C
100
AcDbEntity
  8
0 DIAMONDS
  6
HS
100
AcDbLine
 10
0.04933636347414
 20
0.4993074427929969
 30
0.0
 11
0.2376951826445293
 21
0.1171538946400688
 31
0.0
  0
ARC
  5
1E734
330
1E72C
100
AcDbEntity
  8
0 DIAMONDS
  6
HS
100
AcDbCircle
 10
0.0
 20
0.0
 30
0.0
 40
0.2649999856948853
100
AcDbArc
 50
153.7617513501023
 51
206.2382450074554
  0
ARC
  5
1E735
330
1E72C
100
AcDbEntity
  8
0 DIAMONDS
  6
HS
100
AcDbCircle
 10
0.0
 20
0.4749984741210938
 30
0.0
 40
0.0549999997019768
100
AcDbArc
 50
26.23804875311714
 51
153.7619562559177
  0
ARC
  5
1E736
330
1E72C
100
AcDbEntity
  8
0 DIAMONDS
  6
HS
100
AcDbCircle
 10
0.0
 20
-0.4749984741210938
 30
0.0
 40
0.0549999997019768
100
AcDbArc
 50
206.2380437440823
 51
333.7619512468829
  0
ARC
  5
1E737
330
1E72C
100
AcDbEntity
  8
0 DIAMONDS
  6
HS
100
AcDbCircle
 10
0.0
 20
0.0
 30
0.0
 40
0.2649999856948853
100
AcDbArc
 50
333.7617531715091
 51
26.2382468284909
  0
ENDBLK
  5
1E738
330
1E72C
100
AcDbEntity
  8
0
100
AcDbBlockEnd
  0
BLOCK
  5
1EFAC
330
1EFAB
100
AcDbEntity
  8
0
100
AcDbBlockBegin
  2
ARRO2
 70
     0
 10
0.0
 20
0.0
 30
0.0
  3
ARRO2
  1

  0
LINE
  5
1EFAD
330
1EFAB
100
AcDbEntity
  8
coat rod
100
AcDbLine
 10
-0.124999999999992
 20
-0.0200000000000005
 30
0.0
 11
0.000000000000008
 21
-0.0000000000000009
 31
0.0
  0
LINE
  5
1EFAE
330
1EFAB
100
AcDbEntity
  8
coat rod
100
AcDbLine
 10
0.000000000000008
 20
-0.0000000000000009
 30
0.0
 11
-0.124999999999992
 21
0.0199999999999996
 31
0.0
  0
LINE
  5
1EFAF
330
1EFAB
100
AcDbEntity
  8
coat rod
100
AcDbLine
 10
-0.124999999999992
 20
-0.0099999999999998
 30
0.0
 11
0.000000000000008
 21
-0.0000000000000009
 31
0.0
  0
LINE
  5
1EFB0
330
1EFAB
100
AcDbEntity
  8
coat rod
100
AcDbLine
 10
-0.124999999999992
 20
0.0099999999999998
 30
0.0
 11
0.0000000000000089
 21
-0.0000000000000009
 31
0.0
  0
LINE
  5
1EFB1
330
1EFAB
100
AcDbEntity
  8
coat rod
100
AcDbLine
 10
-0.124999999999992
 20
-0.0200000000000005
 30
0.0
 11
-0.124999999999992
 21
0.0199999999999996
 31
0.0
  0
LINE
  5
1EFB2
330
1EFAB
100
AcDbEntity
  8
coat rod
100
AcDbLine
 10
0.1250000000000124
 20
0.0199999999999987
 30
0.0
 11
0.1250000000000124
 21
-0.0200000000000014
 31
0.0
  0
LINE
  5
1EFB3
330
1EFAB
100
AcDbEntity
  8
coat rod
100
AcDbLine
 10
0.1250000000000124
 20
-0.0100000000000016
 30
0.0
 11
0.0000000000000115
 21
-0.0000000000000009
 31
0.0
  0
LINE
  5
1EFB4
330
1EFAB
100
AcDbEntity
  8
coat rod
100
AcDbLine
 10
0.1250000000000124
 20
0.009999999999998
 30
0.0
 11
0.0000000000000124
 21
-0.0000000000000009
 31
0.0
  0
LINE
  5
1EFB5
330
1EFAB
100
AcDbEntity
  8
coat rod
100
AcDbLine
 10
0.0000000000000124
 20
-0.0000000000000009
 30
0.0
 11
0.1250000000000124
 21
-0.0200000000000014
 31
0.0
  0
LINE
  5
1EFB6
330
1EFAB
100
AcDbEntity
  8
coat rod
100
AcDbLine
 10
0.1250000000000124
 20
0.0199999999999987
 30
0.0
 11
0.0000000000000124
 21
-0.0000000000000009
 31
0.0
  0
ENDBLK
  5
1EFB7
330
1EFAB
100
AcDbEntity
  8
0
100
AcDbBlockEnd
  0
ENDSEC
  0
SECTION
  2
ENTITIES
  0
TEXT
  5
16791
330
1A
100
AcDbEntity
  8
TEXT
100
AcDbText
 10
8.224565459720466
 20
15.70316061444471
 30
0.0
 40
0.125
  1

100
AcDbText
  0
TEXT
  5
17A1C
330
1A
100
AcDbEntity
  8
locker
100
AcDbText
 10
27.151014806888
 20
31.71777575150072
 30
0.0
 40
0.085
  1
 
 72
     1
 11
27.19351480688799
 21
31.71777575150072
 31
0.0
100
AcDbText
  0
LWPOLYLINE
  5
21AB1
330
1A
100
AcDbEntity
  8
border1
100
AcDbPolyline
 90
        4
 70
     1
 43
0.0
 10
-0.0000228723802138
 20
126.0010265648306
 10
198.0015769677411
 20
126.0010265648306
 10
198.0015769677411
 20
0.0000084847270045
 10
-0.0000228723802138
 20
0.0000084847270045
  0
LINE
  5
21AB2
330
1A
100
AcDbEntity
  8
door
100
AcDbLine
 10
112.9567497949538
 20
33.4287862318979
 30
0.0
 11
113.6982497949575
 21
33.4287862318979
 31
0.0
  0
LINE
  5
21AB3
330
1A
100
AcDbEntity
  8
door
100
AcDbLine
 10
112.9567497949538
 20
33.49978623189782
 30
0.0
 11
113.6982497949575
 21
33.49978623189782
 31
0.0
  0
ARC
  5
21AB4
330
1A
100
AcDbEntity
  8
door
100
AcDbCircle
 10
112.9567497949538
 20
33.49978623189782
 30
0.0
 40
0.071
100
AcDbArc
 50
180.0
 51
270.0
  0
LINE
  5
21AB5
330
1A
100
AcDbEntity
  8
door
100
AcDbLine
 10
113.729499794943
 20
91.24128626542551
 30
0.0
 11
113.729499794943
 21
91.17028626542561
 31
0.0
  0
LINE
  5
21AB6
330
1A
100
AcDbEntity
  8
door
100
AcDbLine
 10
112.9567497949465
 20
91.24128626542551
 30
0.0
 11
113.729499794943
 21
91.24128626542551
 31
0.0
  0
ARC
  5
21AB7
330
1A
100
AcDbEntity
  8
door
100
AcDbCircle
 10
112.9567497949465
 20
91.17028626542561
 30
0.0
 40
0.071
100
AcDbArc
 50
90.0
 51
180.0
  0
LINE
  5
21AB8
330
1A
100
AcDbEntity
  8
door
100
AcDbLine
 10
112.9567497949465
 20
91.17028626542561
 30
0.0
 11
113.729499794943
 21
91.17028626542561
 31
0.0
  0
LINE
  5
21AB9
330
1A
100
AcDbEntity
  8
door
100
AcDbLine
 10
112.8857497949429
 20
91.17028626542561
 30
0.0
 11
112.8857497949502
 21
62.99978623189781
 31
0.0
  0
LINE
  5
21ABA
330
1A
100
AcDbEntity
  8
door
100
AcDbLine
 10
112.8857497949429
 20
61.6702862654256
 30
0.0
 11
112.8857497949575
 21
33.49978623189782
 31
0.0
  0
LINE
  5
21ABB
330
1A
100
AcDbEntity
  8
door
100
AcDbLine
 10
112.9567497949465
 20
91.17028626542561
 30
0.0
 11
112.9567497949538
 21
62.99978623189781
 31
0.0
  0
LINE
  5
21ABC
330
1A
100
AcDbEntity
  8
door
100
AcDbLine
 10
112.9567497949538
 20
61.6702862654256
 30
0.0
 11
112.9567497949538
 21
33.49978623189782
 31
0.0
  0
LINE
  5
21ABD
330
1A
100
AcDbEntity
  8
frame
100
AcDbLine
 10
112.9567497949538
 20
32.3037862318979
 30
0.0
 11
113.6044997949575
 21
32.3037862318979
 31
0.0
  0
ARC
  5
21ABE
330
1A
100
AcDbEntity
  8
frame
100
AcDbCircle
 10
112.9567497949538
 20
32.37478623189782
 30
0.0
 40
0.071
100
AcDbArc
 50
180.0
 51
270.0
  0
LINE
  5
21ABF
330
1A
100
AcDbEntity
  8
frame
100
AcDbLine
 10
112.9567497949538
 20
33.3037862318979
 30
0.0
 11
114.3544997949575
 21
33.3037862318979
 31
0.0
  0
ARC
  5
21AC0
330
1A
100
AcDbEntity
  8
frame
100
AcDbCircle
 10
112.9567497949538
 20
33.23278623189799
 30
0.0
 40
0.071
100
AcDbArc
 50
90.0
 51
180.0
  0
LINE
  5
21AC1
330
1A
100
AcDbEntity
  8
frame
100
AcDbLine
 10
112.8857497949575
 20
33.23278623189799
 30
0.0
 11
112.8857497949575
 21
32.37478623189782
 31
0.0
  0
LINE
  5
21AC2
330
1A
100
AcDbEntity
  8
frame
100
AcDbLine
 10
112.9638747949575
 20
33.2256612318979
 30
0.0
 11
114.3544997949575
 21
33.2256612318979
 31
0.0
  0
LINE
  5
21AC3
330
1A
100
AcDbEntity
  8
frame
100
AcDbLine
 10
112.9638747949575
 20
33.2256612318979
 30
0.0
 11
112.9638747949575
 21
32.3819112318979
 31
0.0
  0
LINE
  5
21AC4
330
1A
100
AcDbEntity
  8
frame
100
AcDbLine
 10
112.9638747949575
 20
32.3819112318979
 30
0.0
 11
113.6044997949575
 21
32.3819112318979
 31
0.0
  0
LINE
  5
21AC5
330
1A
100
AcDbEntity
  8
frame
100
AcDbLine
 10
113.6044997949575
 20
32.3037862318979
 30
0.0
 11
113.6044997949575
 21
32.3819112318979
 31
0.0
  0
LINE
  5
21AC6
330
1A
100
AcDbEntity
  8
frame
100
AcDbLine
 10
114.3544997949575
 20
33.2256612318979
 30
0.0
 11
114.3544997949575
 21
33.3037862318979
 31
0.0
  0
LINE
  5
21AC7
330
1A
100
AcDbEntity
  8
frame
100
AcDbLine
 10
112.9567497949465
 20
91.30378623189789
 30
0.0
 11
113.6044997949429
 21
91.30378623189789
 31
0.0
  0
ARC
  5
21AC8
330
1A
100
AcDbEntity
  8
frame
100
AcDbCircle
 10
112.9567497949465
 20
91.37478623189782
 30
0.0
 40
0.071
100
AcDbArc
 50
180.0
 51
270.0
  0
LINE
  5
21AC9
330
1A
100
AcDbEntity
  8
frame
100
AcDbLine
 10
112.9567497949465
 20
92.30378623189791
 30
0.0
 11
114.3544997949429
 21
92.30378623189791
 31
0.0
  0
ARC
  5
21ACA
330
1A
100
AcDbEntity
  8
frame
100
AcDbCircle
 10
112.9567497949465
 20
92.23278623189798
 30
0.0
 40
0.071
100
AcDbArc
 50
90.0
 51
180.0
  0
LINE
  5
21ACB
330
1A
100
AcDbEntity
  8
frame
100
AcDbLine
 10
112.8857497949429
 20
92.23278623189798
 30
0.0
 11
112.8857497949429
 21
91.37478623189782
 31
0.0
  0
LINE
  5
21ACC
330
1A
100
AcDbEntity
  8
frame
100
AcDbLine
 10
112.9638747949429
 20
92.22566123189791
 30
0.0
 11
114.3544997949429
 21
92.22566123189791
 31
0.0
  0
LINE
  5
21ACD
330
1A
100
AcDbEntity
  8
frame
100
AcDbLine
 10
112.9638747949429
 20
92.22566123189791
 30
0.0
 11
112.9638747949429
 21
91.38191123189789
 31
0.0
  0
LINE
  5
21ACE
330
1A
100
AcDbEntity
  8
frame
100
AcDbLine
 10
112.9638747949429
 20
91.38191123189789
 30
0.0
 11
113.6044997949429
 21
91.38191123189789
 31
0.0
  0
LINE
  5
21ACF
330
1A
100
AcDbEntity
  8
frame
100
AcDbLine
 10
113.6044997949429
 20
91.30378623189789
 30
0.0
 11
113.6044997949429
 21
91.38191123189789
 31
0.0
  0
LINE
  5
21AD0
330
1A
100
AcDbEntity
  8
frame
100
AcDbLine
 10
114.3544997949429
 20
92.22566123189791
 30
0.0
 11
114.3544997949429
 21
92.30378623189791
 31
0.0
  0
LINE
  5
21AD1
330
1A
100
AcDbEntity
  8
frame
100
AcDbLine
 10
127.9482497949357
 20
92.27619911278088
 30
0.0
 11
127.9482497949502
 21
32.40119911278089
 31
0.0
  0
LINE
  5
21AD2
330
1A
100
AcDbEntity
  8
frame
100
AcDbLine
 10
128.0107497949357
 20
92.27619911278088
 30
0.0
 11
128.0107497949502
 21
32.40119911278089
 31
0.0
  0
LINE
  5
21AD3
330
1A
100
AcDbEntity
  8
frame
100
AcDbLine
 10
127.9482497949357
 20
92.27619911278088
 30
0.0
 11
128.0107497949357
 21
92.27619911278088
 31
0.0
  0
LINE
  5
21AD4
330
1A
100
AcDbEntity
  8
frame
100
AcDbLine
 10
127.9482497949502
 20
32.40119911278089
 30
0.0
 11
128.0107497949502
 21
32.40119911278089
 31
0.0
  0
LINE
  5
21AD5
330
1A
100
AcDbEntity
  8
door
100
AcDbLine
 10
113.6982497949575
 20
33.4287862318979
 30
0.0
 11
113.6982497949575
 21
33.49978623189782
 31
0.0
  0
TEXT
  5
21AD6
330
1A
100
AcDbEntity
  8
TEXT
100
AcDbText
 10
99.50601896294394
 20
58.86853357354528
 30
0.0
 40
1.68
  1
LOCKER HEIGHT
 50
90.0
  7
ROMANS
 72
     1
 11
99.50601896294394
 21
68.98853357354528
 31
0.0
100
AcDbText
  0
LINE
  5
21AD7
330
1A
100
AcDbEntity
  8
dim
100
AcDbLine
 10
111.5540189629537
 20
32.30378223189837
 30
0.0
 11
99.5540189629537
 21
32.30378223189837
 31
0.0
  0
LINE
  5
21AD8
330
1A
100
AcDbEntity
  8
dim
100
AcDbLine
 10
100.9940189629487
 20
32.30378223189837
 30
0.0
 11
100.9940189629415
 21
92.30378223189836
 31
0.0
  0
LINE
  5
21AD9
330
1A
100
AcDbEntity
  8
dim
100
AcDbLine
 10
100.5140189629528
 20
35.30378223189837
 30
0.0
 11
101.4740189629519
 21
35.30378223189837
 31
0.0
  0
LINE
  5
21ADA
330
1A
100
AcDbEntity
  8
dim
100
AcDbLine
 10
101.234018962954
 20
35.30378223189837
 30
0.0
 11
100.9940189629487
 21
32.30378223189837
 31
0.0
  0
LINE
  5
21ADB
330
1A
100
AcDbEntity
  8
dim
100
AcDbLine
 10
100.7540189629508
 20
35.30378223189837
 30
0.0
 11
100.9940189629487
 21
32.30378223189837
 31
0.0
  0
LINE
  5
21ADC
330
1A
100
AcDbEntity
  8
dim
100
AcDbLine
 10
100.9940189629487
 20
32.30378223189837
 30
0.0
 11
101.4740189629519
 21
35.30378223189837
 31
0.0
  0
LINE
  5
21ADD
330
1A
100
AcDbEntity
  8
dim
100
AcDbLine
 10
100.5140189629528
 20
35.30378223189837
 30
0.0
 11
100.9940189629487
 21
32.30378223189837
 31
0.0
  0
LINE
  5
21ADE
330
1A
100
AcDbEntity
  8
dim
100
AcDbLine
 10
106.9940189629487
 20
32.30378223189837
 30
0.0
 11
106.9940189629487
 21
29.30373399171731
 31
0.0
  0
LINE
  5
21ADF
330
1A
100
AcDbEntity
  8
dim
100
AcDbLine
 10
106.9940189629415
 20
92.30378223189836
 30
0.0
 11
106.9940189629487
 21
33.30367983189717
 31
0.0
  0
LINE
  5
21AE0
330
1A
100
AcDbEntity
  8
dim
100
AcDbLine
 10
111.5540189629537
 20
33.30367983189717
 30
0.0
 11
106.9940189629487
 21
33.30367983189717
 31
0.0
  0
LINE
  5
21AE1
330
1A
100
AcDbEntity
  8
dim
100
AcDbLine
 10
106.9940189629487
 20
33.30367983189717
 30
0.0
 11
105.5060189629512
 21
33.30367983189717
 31
0.0
  0
TEXT
  5
21AE2
330
1A
100
AcDbEntity
  8
elevation text
100
AcDbText
 10
105.5060189629512
 20
28.58790806480544
 30
0.0
 40
2.04
  1
1"
 50
90.0
  7
ROMANS
 72
     1
 11
105.5060189629512
 21
30.43362235051973
 31
0.0
100
AcDbText
  0
TEXT
  5
21AE3
330
1A
100
AcDbEntity
  8
elevation text
100
AcDbText
 10
105.5060189629512
 20
43.10706821075396
 30
0.0
 40
2.04
  1
29 1/2"
 50
90.0
  7
ROMANS
 72
     1
 11
105.5060189629512
 21
49.8099253536111
 31
0.0
100
AcDbText
  0
LINE
  5
21AE4
330
1A
100
AcDbEntity
  8
dim
100
AcDbLine
 10
101.4740189629374
 20
89.30378223189654
 30
0.0
 11
100.5140189629455
 21
89.30378223189654
 31
0.0
  0
LINE
  5
21AE5
330
1A
100
AcDbEntity
  8
dim
100
AcDbLine
 10
100.7540189629362
 20
89.30378223189654
 30
0.0
 11
100.9940189629415
 21
92.30378223189655
 31
0.0
  0
LINE
  5
21AE6
330
1A
100
AcDbEntity
  8
dim
100
AcDbLine
 10
101.2340189629394
 20
89.30378223189654
 30
0.0
 11
100.9940189629415
 21
92.30378223189655
 31
0.0
  0
LINE
  5
21AE7
330
1A
100
AcDbEntity
  8
dim
100
AcDbLine
 10
100.9940189629415
 20
92.30378223189655
 30
0.0
 11
100.5140189629455
 21
89.30378223189654
 31
0.0
  0
LINE
  5
21AE8
330
1A
100
AcDbEntity
  8
dim
100
AcDbLine
 10
101.4740189629374
 20
89.30378223189654
 30
0.0
 11
100.9940189629415
 21
92.30378223189655
 31
0.0
  0
LINE
  5
21AE9
330
1A
100
AcDbEntity
  8
dim
100
AcDbLine
 10
107.4740189629374
 20
89.30378223189654
 30
0.0
 11
106.5140189629455
 21
89.30378223189654
 31
0.0
  0
LINE
  5
21AEA
330
1A
100
AcDbEntity
  8
dim
100
AcDbLine
 10
106.7540189629362
 20
89.30378223189654
 30
0.0
 11
106.9940189629415
 21
92.30378223189655
 31
0.0
  0
LINE
  5
21AEB
330
1A
100
AcDbEntity
  8
dim
100
AcDbLine
 10
107.2340189629394
 20
89.30378223189654
 30
0.0
 11
106.9940189629415
 21
92.30378223189655
 31
0.0
  0
LINE
  5
21AEC
330
1A
100
AcDbEntity
  8
dim
100
AcDbLine
 10
106.9940189629415
 20
92.30378223189655
 30
0.0
 11
106.5140189629455
 21
89.30378223189654
 31
0.0
  0
LINE
  5
21AED
330
1A
100
AcDbEntity
  8
dim
100
AcDbLine
 10
107.4740189629374
 20
89.30378223189654
 30
0.0
 11
106.9940189629415
 21
92.30378223189655
 31
0.0
  0
LINE
  5
21AEE
330
1A
100
AcDbEntity
  8
dim
100
AcDbLine
 10
106.5140112445151
 20
29.30373399171731
 30
0.0
 11
107.4740266813824
 21
29.30373399171731
 31
0.0
  0
LINE
  5
21AEF
330
1A
100
AcDbEntity
  8
dim
100
AcDbLine
 10
107.2340228221655
 20
29.30373399171731
 30
0.0
 11
106.9940189629487
 21
32.30378223189837
 31
0.0
  0
LINE
  5
21AF0
330
1A
100
AcDbEntity
  8
dim
100
AcDbLine
 10
106.7540151037319
 20
29.30373399171731
 30
0.0
 11
106.9940189629487
 21
32.30378223189837
 31
0.0
  0
LINE
  5
21AF1
330
1A
100
AcDbEntity
  8
dim
100
AcDbLine
 10
106.9940189629487
 20
32.30378223189837
 30
0.0
 11
107.4740266813824
 21
29.30373399171731
 31
0.0
  0
LINE
  5
21AF2
330
1A
100
AcDbEntity
  8
dim
100
AcDbLine
 10
106.5140112445151
 20
29.30373399171731
 30
0.0
 11
106.9940189629487
 21
32.30378223189837
 31
0.0
  0
LINE
  5
21AF3
330
1A
100
AcDbEntity
  8
dim
100
AcDbLine
 10
106.5140189629528
 20
36.30367983189717
 30
0.0
 11
107.4740189629519
 21
36.30367983189717
 31
0.0
  0
LINE
  5
21AF4
330
1A
100
AcDbEntity
  8
dim
100
AcDbLine
 10
107.234018962954
 20
36.30367983189717
 30
0.0
 11
106.9940189629487
 21
33.30367983189717
 31
0.0
  0
LINE
  5
21AF5
330
1A
100
AcDbEntity
  8
dim
100
AcDbLine
 10
106.7540189629508
 20
36.30367983189717
 30
0.0
 11
106.9940189629487
 21
33.30367983189717
 31
0.0
  0
LINE
  5
21AF6
330
1A
100
AcDbEntity
  8
dim
100
AcDbLine
 10
106.9940189629487
 20
33.30367983189717
 30
0.0
 11
107.4740189629519
 21
36.30367983189717
 31
0.0
  0
LINE
  5
21AF7
330
1A
100
AcDbEntity
  8
dim
100
AcDbLine
 10
106.5140189629528
 20
36.30367983189717
 30
0.0
 11
106.9940189629487
 21
33.30367983189717
 31
0.0
  0
LINE
  5
21AF8
330
1A
100
AcDbEntity
  8
dim
100
AcDbLine
 10
111.5540189629391
 20
92.30378223189836
 30
0.0
 11
99.55401896293915
 21
92.30378223189836
 31
0.0
  0
TEXT
  5
21AF9
330
1A
100
AcDbEntity
  8
elevation text
100
AcDbText
 10
99.5060189629512
 20
50.61042975461467
 30
0.0
 40
2.04
  1
60"
 50
90.0
  7
ROMANS
 72
     1
 11
99.5060189629512
 21
53.33042975461466
 31
0.0
100
AcDbText
  0
LINE
  5
21AFA
330
1A
100
AcDbEntity
  8
wall
100
AcDbLine
 10
128.0732505449559
 20
96.40119911278089
 30
0.0
 11
128.0732505449559
 21
32.40119911278089
 31
0.0
  0
LINE
  5
21AFB
330
1A
100
AcDbEntity
  8
wall
100
AcDbLine
 10
126.5876986887088
 20
86.44369114378969
 30
0.0
 11
132.9172571526797
 21
86.44369114378969
 31
0.0
  0
LINE
  5
21AFC
330
1A
100
AcDbEntity
  8
top
370
    35
100
AcDbLine
 10
127.8541895749004
 20
33.24878637690017
 30
0.0
 11
114.6194692032368
 21
33.24878637690017
 31
0.0
  0
ARC
  5
21AFD
330
1A
100
AcDbEntity
  8
top
370
    35
100
AcDbCircle
 10
114.6194692032368
 20
33.1937863681178
 30
0.0
 40
0.0550000088000004
100
AcDbArc
 50
90.0
 51
134.9999999998526
  0
LINE
  5
21AFE
330
1A
100
AcDbEntity
  8
top
370
    35
100
AcDbLine
 10
126.7529393985824
 20
32.4050362418584
 30
0.0
 11
115.11231253617
 21
32.4050362418584
 31
0.0
  0
LINE
  5
21AFF
330
1A
100
AcDbEntity
  8
top
370
    35
100
AcDbLine
 10
127.8541895749004
 20
33.1937863681178
 30
0.0
 11
126.7529393985824
 21
33.1937863681178
 31
0.0
  0
LINE
  5
21B00
330
1A
100
AcDbEntity
  8
top
370
    35
100
AcDbLine
 10
115.11231253617
 20
33.24878637690017
 30
0.0
 11
115.11231253617
 21
32.4050362418584
 31
0.0
  0
LINE
  5
21B01
330
1A
100
AcDbEntity
  8
top
370
    35
100
AcDbLine
 10
126.7529393985824
 20
33.24878637690017
 30
0.0
 11
126.7529393985824
 21
32.4050362418584
 31
0.0
  0
LINE
  5
21B02
330
1A
100
AcDbEntity
  8
top
370
    35
100
AcDbLine
 10
114.5341874437363
 20
33.18628636688846
 30
0.0
 11
114.5805783241012
 21
33.23267724725338
 31
0.0
  0
LINE
  5
21B03
330
1A
100
AcDbEntity
  8
top
370
    35
100
AcDbLine
 10
114.5730783228719
 20
33.14739548769467
 30
0.0
 11
114.6194692032368
 21
33.1937863681178
 31
0.0
  0
ARC
  5
21B04
330
1A
100
AcDbEntity
  8
top
370
    35
100
AcDbCircle
 10
114.5341874437363
 20
33.18628636688846
 30
0.0
 40
0.0550000088000004
100
AcDbArc
 50
270.0
 51
314.9999999998526
  0
LINE
  5
21B05
330
1A
100
AcDbEntity
  8
top
370
    35
100
AcDbLine
 10
113.0029371985656
 20
33.13128635804787
 30
0.0
 11
113.0029371985656
 21
32.71753629185878
 31
0.0
  0
LINE
  5
21B06
330
1A
100
AcDbEntity
  8
top
370
    35
100
AcDbLine
 10
113.0579372075808
 20
33.13128635804787
 30
0.0
 11
113.0579372075808
 21
32.71753629185878
 31
0.0
  0
LINE
  5
21B07
330
1A
100
AcDbEntity
  8
top
370
    35
100
AcDbLine
 10
113.0579372075808
 20
33.18628636688846
 30
0.0
 11
114.5341874437363
 21
33.18628636688846
 31
0.0
  0
ARC
  5
21B08
330
1A
100
AcDbEntity
  8
top
370
    35
100
AcDbCircle
 10
113.0579372075808
 20
33.13128635804787
 30
0.0
 40
0.0550000088000004
100
AcDbArc
 50
90.0
 51
180.0
  0
LINE
  5
21B09
330
1A
100
AcDbEntity
  8
top
370
    35
100
AcDbLine
 10
113.0579372075808
 20
33.13128635804787
 30
0.0
 11
114.5341874437363
 21
33.13128635804787
 31
0.0
  0
LINE
  5
21B0A
330
1A
100
AcDbEntity
  8
top
370
    35
100
AcDbLine
 10
115.11231253617
 20
33.1937863681178
 30
0.0
 11
114.6194692032368
 21
33.1937863681178
 31
0.0
  0
LINE
  5
21B0B
330
1A
100
AcDbEntity
  8
top
370
    35
100
AcDbLine
 10
113.0029371985656
 20
32.71753629185878
 30
0.0
 11
113.0579372075808
 21
32.71753629185878
 31
0.0
  0
LINE
  5
21B0C
330
1A
100
AcDbEntity
  8
top
370
    35
100
AcDbLine
 10
127.9091895836827
 20
33.1937863681178
 30
0.0
 11
127.9091895836827
 21
32.4050362418584
 31
0.0
  0
ARC
  5
21B0D
330
1A
100
AcDbEntity
  8
top
370
    35
100
AcDbCircle
 10
127.8541895749004
 20
33.1937863681178
 30
0.0
 40
0.0550000088000004
100
AcDbArc
 50
0.0
 51
90.0
  0
LINE
  5
21B0E
330
1A
100
AcDbEntity
  8
top
370
    35
100
AcDbLine
 10
127.8541895749004
 20
33.1937863681178
 30
0.0
 11
127.8541895749004
 21
32.4050362418584
 31
0.0
  0
LINE
  5
21B0F
330
1A
100
AcDbEntity
  8
top
370
    35
100
AcDbLine
 10
127.9091895836827
 20
32.4050362418584
 30
0.0
 11
127.8541895749004
 21
32.4050362418584
 31
0.0
  0
LINE
  5
21B10
330
1A
100
AcDbEntity
  8
top
370
    35
100
AcDbLine
 10
127.8541895748858
 20
92.24878637690016
 30
0.0
 11
114.6194692032222
 21
92.24878637690016
 31
0.0
  0
ARC
  5
21B11
330
1A
100
AcDbEntity
  8
top
370
    35
100
AcDbCircle
 10
114.6194692032222
 20
92.1937863681178
 30
0.0
 40
0.0550000088000004
100
AcDbArc
 50
90.0
 51
134.9999999998526
  0
LINE
  5
21B12
330
1A
100
AcDbEntity
  8
top
370
    35
100
AcDbLine
 10
126.7529393985678
 20
91.40503624185839
 30
0.0
 11
115.1123125361555
 21
91.40503624185839
 31
0.0
  0
LINE
  5
21B13
330
1A
100
AcDbEntity
  8
top
370
    35
100
AcDbLine
 10
127.8541895748858
 20
92.1937863681178
 30
0.0
 11
126.7529393985678
 21
92.1937863681178
 31
0.0
  0
LINE
  5
21B14
330
1A
100
AcDbEntity
  8
top
370
    35
100
AcDbLine
 10
115.1123125361555
 20
92.24878637690016
 30
0.0
 11
115.1123125361555
 21
91.40503624185839
 31
0.0
  0
LINE
  5
21B15
330
1A
100
AcDbEntity
  8
top
370
    35
100
AcDbLine
 10
126.7529393985678
 20
92.24878637690016
 30
0.0
 11
126.7529393985678
 21
91.40503624185839
 31
0.0
  0
LINE
  5
21B16
330
1A
100
AcDbEntity
  8
top
370
    35
100
AcDbLine
 10
114.5341874437217
 20
92.18628636688846
 30
0.0
 11
114.5805783240867
 21
92.23267724725337
 31
0.0
  0
LINE
  5
21B17
330
1A
100
AcDbEntity
  8
top
370
    35
100
AcDbLine
 10
114.5730783228573
 20
92.14739548769466
 30
0.0
 11
114.6194692032222
 21
92.1937863681178
 31
0.0
  0
ARC
  5
21B18
330
1A
100
AcDbEntity
  8
top
370
    35
100
AcDbCircle
 10
114.5341874437217
 20
92.18628636688846
 30
0.0
 40
0.0550000088000004
100
AcDbArc
 50
270.0
 51
314.9999999998526
  0
LINE
  5
21B19
330
1A
100
AcDbEntity
  8
top
370
    35
100
AcDbLine
 10
113.0029371985511
 20
92.13128635804787
 30
0.0
 11
113.0029371985511
 21
91.71753629185877
 31
0.0
  0
LINE
  5
21B1A
330
1A
100
AcDbEntity
  8
top
370
    35
100
AcDbLine
 10
113.0579372075663
 20
92.13128635804787
 30
0.0
 11
113.0579372075663
 21
91.71753629185877
 31
0.0
  0
LINE
  5
21B1B
330
1A
100
AcDbEntity
  8
top
370
    35
100
AcDbLine
 10
113.0579372075663
 20
92.18628636688846
 30
0.0
 11
114.5341874437217
 21
92.18628636688846
 31
0.0
  0
ARC
  5
21B1C
330
1A
100
AcDbEntity
  8
top
370
    35
100
AcDbCircle
 10
113.0579372075663
 20
92.13128635804787
 30
0.0
 40
0.0550000088000004
100
AcDbArc
 50
90.0
 51
180.0
  0
LINE
  5
21B1D
330
1A
100
AcDbEntity
  8
top
370
    35
100
AcDbLine
 10
113.0579372075663
 20
92.13128635804787
 30
0.0
 11
114.5341874437217
 21
92.13128635804787
 31
0.0
  0
LINE
  5
21B1E
330
1A
100
AcDbEntity
  8
top
370
    35
100
AcDbLine
 10
115.1123125361555
 20
92.1937863681178
 30
0.0
 11
114.6194692032222
 21
92.1937863681178
 31
0.0
  0
LINE
  5
21B1F
330
1A
100
AcDbEntity
  8
top
370
    35
100
AcDbLine
 10
113.0029371985511
 20
91.71753629185877
 30
0.0
 11
113.0579372075663
 21
91.71753629185877
 31
0.0
  0
LINE
  5
21B20
330
1A
100
AcDbEntity
  8
top
370
    35
100
AcDbLine
 10
127.9091895836682
 20
92.1937863681178
 30
0.0
 11
127.9091895836682
 21
91.40503624185839
 31
0.0
  0
ARC
  5
21B21
330
1A
100
AcDbEntity
  8
top
370
    35
100
AcDbCircle
 10
127.8541895748858
 20
92.1937863681178
 30
0.0
 40
0.0550000088000004
100
AcDbArc
 50
0.0
 51
90.0
  0
LINE
  5
21B22
330
1A
100
AcDbEntity
  8
top
370
    35
100
AcDbLine
 10
127.8541895748858
 20
92.1937863681178
 30
0.0
 11
127.8541895748858
 21
91.40503624185839
 31
0.0
  0
LINE
  5
21B23
330
1A
100
AcDbEntity
  8
top
370
    35
100
AcDbLine
 10
127.9091895836682
 20
91.40503624185839
 30
0.0
 11
127.8541895748858
 21
91.40503624185839
 31
0.0
  0
LINE
  5
21B24
330
1A
100
AcDbEntity
  8
diamonds
  6
PHANTOM2
 62
     2
 48
2.0
100
AcDbLine
 10
116.1275445989377
 20
36.57849723278014
 30
0.0
 11
116.1275445989377
 21
88.74181646651777
 31
0.0
  0
LINE
  5
21B25
330
1A
100
AcDbEntity
  8
diamonds
  6
PHANTOM2
 62
     2
 48
2.0
100
AcDbLine
 10
124.8774229678674
 20
36.57849723278014
 30
0.0
 11
124.8774229678602
 21
88.74181646651777
 31
0.0
  0
LINE
  5
21B26
330
1A
100
AcDbEntity
  8
diamonds
  6
PHANTOM2
 62
     2
 48
2.0
100
AcDbLine
 10
115.3618661547589
 20
87.86928453181827
 30
0.0
 11
125.5143324846212
 21
87.86928453181827
 31
0.0
  0
LINE
  5
21B27
330
1A
100
AcDbEntity
  8
diamonds
  6
PHANTOM2
 62
     2
 48
2.0
100
AcDbLine
 10
115.1389615652806
 20
37.77547028703339
 30
0.0
 11
125.5124362069837
 21
37.77547028703339
 31
0.0
  0
INSERT
  5
21B28
330
1A
100
AcDbEntity
  8
OBJECT
100
AcDbBlockReference
  2
A$C6895fdcc
 10
116.1274530462033
 20
87.8817242986588
 30
0.0
  0
INSERT
  5
21B29
330
1A
100
AcDbEntity
  8
OBJECT
100
AcDbBlockReference
  2
A$C6895fdcc
 10
117.8774570008318
 20
87.8817242986588
 30
0.0
  0
INSERT
  5
21B2A
330
1A
100
AcDbEntity
  8
OBJECT
100
AcDbBlockReference
  2
A$C6895fdcc
 10
119.6274533261821
 20
87.8817242986588
 30
0.0
  0
INSERT
  5
21B2B
330
1A
100
AcDbEntity
  8
OBJECT
100
AcDbBlockReference
  2
A$C6895fdcc
 10
121.3774534661133
 20
87.8817242986588
 30
0.0
  0
INSERT
  5
21B2C
330
1A
100
AcDbEntity
  8
OBJECT
100
AcDbBlockReference
  2
A$C6895fdcc
 10
123.1274459768828
 20
87.8817242986588
 30
0.0
  0
INSERT
  5
21B2D
330
1A
100
AcDbEntity
  8
OBJECT
100
AcDbBlockReference
  2
A$C6895fdcc
 10
124.8774499315113
 20
87.8817242986588
 30
0.0
  0
INSERT
  5
21B2E
330
1A
100
AcDbEntity
  8
OBJECT
100
AcDbBlockReference
  2
A$C6895fdcc
 10
124.8774499315113
 20
86.1317317880057
 30
0.0
  0
INSERT
  5
21B2F
330
1A
100
AcDbEntity
  8
OBJECT
100
AcDbBlockReference
  2
A$C6895fdcc
 10
124.8774499315113
 20
84.38173164801629
 30
0.0
  0
INSERT
  5
21B30
330
1A
100
AcDbEntity
  8
OBJECT
100
AcDbBlockReference
  2
A$C6895fdcc
 10
123.1274459768828
 20
86.1317317880057
 30
0.0
  0
INSERT
  5
21B31
330
1A
100
AcDbEntity
  8
OBJECT
100
AcDbBlockReference
  2
A$C6895fdcc
 10
117.8774570008318
 20
86.1317317880057
 30
0.0
  0
INSERT
  5
21B32
330
1A
100
AcDbEntity
  8
OBJECT
100
AcDbBlockReference
  2
A$C6895fdcc
 10
116.1274530462033
 20
86.1317317880057
 30
0.0
  0
INSERT
  5
21B33
330
1A
100
AcDbEntity
  8
OBJECT
100
AcDbBlockReference
  2
A$C6895fdcc
 10
116.1274530462033
 20
84.38173164801629
 30
0.0
  0
INSERT
  5
21B34
330
1A
100
AcDbEntity
  8
OBJECT
100
AcDbBlockReference
  2
A$C6895fdcc
 10
124.8774499315113
 20
84.38173164801629
 30
0.0
  0
INSERT
  5
21B35
330
1A
100
AcDbEntity
  8
OBJECT
100
AcDbBlockReference
  2
A$C6895fdcc
 10
116.1274260825594
 20
41.28798341159199
 30
0.0
  0
INSERT
  5
21B36
330
1A
100
AcDbEntity
  8
OBJECT
100
AcDbBlockReference
  2
A$C6895fdcc
 10
116.1274260825594
 20
39.53798327160257
 30
0.0
  0
INSERT
  5
21B37
330
1A
100
AcDbEntity
  8
OBJECT
100
AcDbBlockReference
  2
A$C6895fdcc
 10
117.8774300371879
 20
39.53798327160257
 30
0.0
  0
INSERT
  5
21B38
330
1A
100
AcDbEntity
  8
OBJECT
100
AcDbBlockReference
  2
A$C6895fdcc
 10
116.1274260825594
 20
37.78796787276588
 30
0.0
  0
INSERT
  5
21B39
330
1A
100
AcDbEntity
  8
OBJECT
100
AcDbBlockReference
  2
A$C6895fdcc
 10
117.8774300371879
 20
37.78796787276588
 30
0.0
  0
INSERT
  5
21B3A
330
1A
100
AcDbEntity
  8
OBJECT
100
AcDbBlockReference
  2
A$C6895fdcc
 10
119.6274263625382
 20
37.78796787276588
 30
0.0
  0
INSERT
  5
21B3B
330
1A
100
AcDbEntity
  8
OBJECT
100
AcDbBlockReference
  2
A$C6895fdcc
 10
121.3774265024694
 20
37.78796787276588
 30
0.0
  0
INSERT
  5
21B3C
330
1A
100
AcDbEntity
  8
OBJECT
100
AcDbBlockReference
  2
A$C6895fdcc
 10
123.127419013239
 20
37.78796787276588
 30
0.0
  0
INSERT
  5
21B3D
330
1A
100
AcDbEntity
  8
OBJECT
100
AcDbBlockReference
  2
A$C6895fdcc
 10
124.8774229678674
 20
37.78796787276588
 30
0.0
  0
INSERT
  5
21B3E
330
1A
100
AcDbEntity
  8
OBJECT
100
AcDbBlockReference
  2
A$C6895fdcc
 10
123.127419013239
 20
39.53798327160257
 30
0.0
  0
INSERT
  5
21B3F
330
1A
100
AcDbEntity
  8
OBJECT
100
AcDbBlockReference
  2
A$C6895fdcc
 10
124.8774229678674
 20
39.53798327160257
 30
0.0
  0
INSERT
  5
21B40
330
1A
100
AcDbEntity
  8
OBJECT
100
AcDbBlockReference
  2
A$C6895fdcc
 10
124.8774229678674
 20
41.28798341159199
 30
0.0
  0
LINE
  5
21B41
330
1A
100
AcDbEntity
  8
dim
100
AcDbLine
 10
111.5540186348807
 20
62.80378223189837
 30
0.0
 11
106.99401790525
 21
62.80378223189837
 31
0.0
  0
INSERT
  5
21B42
330
1A
100
AcDbEntity
  8
dim
100
AcDbBlockReference
  2
ARRO2
 10
106.99401790525
 20
62.80378223189837
 30
0.0
 41
24.0
 42
24.0
 43
24.0
 50
90.0
  0
TEXT
  5
21B43
330
1A
100
AcDbEntity
  8
elevation text
100
AcDbText
 10
105.5060176670595
 20
73.06959815888877
 30
0.0
 40
2.040000326400013
  1
29 1/2"
 50
90.0
  7
ROMANS
 72
     1
 11
105.5060176670595
 21
79.7724563742031
 31
0.0
100
AcDbText
  0
LINE
  5
21B44
330
1A
100
AcDbEntity
  8
dim
100
AcDbLine
 10
106.99401790525
 20
62.80378223189837
 30
0.0
 11
105.5060176670522
 21
62.80378223189837
 31
0.0
  0
LINE
  5
21B45
330
1A
100
AcDbEntity
  8
wall
100
AcDbLine
 10
128.0732505449559
 20
36.40119911278089
 30
0.0
 11
130.3292685929482
 21
38.6572171607877
 31
0.0
  0
LINE
  5
21B46
330
1A
100
AcDbEntity
  8
wall
100
AcDbLine
 10
128.0732505449559
 20
32.40119911278089
 30
0.0
 11
130.3292685929482
 21
34.6572171607877
 31
0.0
  0
LINE
  5
21B47
330
1A
100
AcDbEntity
  8
wall
100
AcDbLine
 10
128.0732505449559
 20
34.40119911278089
 30
0.0
 11
130.3292685929482
 21
36.6572171607877
 31
0.0
  0
LINE
  5
21B48
330
1A
100
AcDbEntity
  8
wall
100
AcDbLine
 10
128.0732505449559
 20
40.40119911278089
 30
0.0
 11
130.3292685929482
 21
42.65721716078769
 31
0.0
  0
LINE
  5
21B49
330
1A
100
AcDbEntity
  8
wall
100
AcDbLine
 10
128.0732505449559
 20
38.40119911278089
 30
0.0
 11
130.3292685929482
 21
40.65721716078769
 31
0.0
  0
LINE
  5
21B4A
330
1A
100
AcDbEntity
  8
wall
100
AcDbLine
 10
128.0732505449559
 20
44.40119911278088
 30
0.0
 11
130.3292685929482
 21
46.6572171607877
 31
0.0
  0
LINE
  5
21B4B
330
1A
100
AcDbEntity
  8
wall
100
AcDbLine
 10
128.0732505449559
 20
42.40119911278088
 30
0.0
 11
130.3292685929482
 21
44.65721716078769
 31
0.0
  0
LINE
  5
21B4C
330
1A
100
AcDbEntity
  8
wall
100
AcDbLine
 10
128.0732505449559
 20
48.40119911278089
 30
0.0
 11
130.3292685929482
 21
50.65721716078769
 31
0.0
  0
LINE
  5
21B4D
330
1A
100
AcDbEntity
  8
wall
100
AcDbLine
 10
128.0732505449559
 20
46.40119911278088
 30
0.0
 11
130.3292685929482
 21
48.6572171607877
 31
0.0
  0
LINE
  5
21B4E
330
1A
100
AcDbEntity
  8
wall
100
AcDbLine
 10
128.0732505449559
 20
52.40119911278089
 30
0.0
 11
130.3292685929482
 21
54.65721716078769
 31
0.0
  0
LINE
  5
21B4F
330
1A
100
AcDbEntity
  8
wall
100
AcDbLine
 10
128.0732505449559
 20
50.40119911278089
 30
0.0
 11
130.3292685929482
 21
52.65721716078769
 31
0.0
  0
LINE
  5
21B50
330
1A
100
AcDbEntity
  8
wall
100
AcDbLine
 10
128.0732505449559
 20
56.40119911278088
 30
0.0
 11
130.3292685929482
 21
58.6572171607877
 31
0.0
  0
LINE
  5
21B51
330
1A
100
AcDbEntity
  8
wall
100
AcDbLine
 10
128.0732505449559
 20
54.40119911278088
 30
0.0
 11
130.3292685929482
 21
56.6572171607877
 31
0.0
  0
LINE
  5
21B52
330
1A
100
AcDbEntity
  8
wall
100
AcDbLine
 10
128.0732505449559
 20
58.40119911278089
 30
0.0
 11
130.3292685929482
 21
60.65721716078769
 31
0.0
  0
LINE
  5
21B53
330
1A
100
AcDbEntity
  8
wall
100
AcDbLine
 10
128.0732505449559
 20
60.40119911278089
 30
0.0
 11
130.3292685929482
 21
62.65721716078769
 31
0.0
  0
LINE
  5
21B54
330
1A
100
AcDbEntity
  8
wall
100
AcDbLine
 10
128.0732505449559
 20
64.40119911278088
 30
0.0
 11
130.3292685929482
 21
66.6572171607877
 31
0.0
  0
LINE
  5
21B55
330
1A
100
AcDbEntity
  8
wall
100
AcDbLine
 10
128.0732505449559
 20
62.40119911278089
 30
0.0
 11
130.3292685929482
 21
64.65721716078769
 31
0.0
  0
LINE
  5
21B56
330
1A
100
AcDbEntity
  8
wall
100
AcDbLine
 10
128.0732505449559
 20
68.40119911278089
 30
0.0
 11
130.3292685929482
 21
70.65721716078769
 31
0.0
  0
LINE
  5
21B57
330
1A
100
AcDbEntity
  8
wall
100
AcDbLine
 10
128.0732505449559
 20
66.40119911278088
 30
0.0
 11
130.3292685929482
 21
68.6572171607877
 31
0.0
  0
LINE
  5
21B58
330
1A
100
AcDbEntity
  8
wall
100
AcDbLine
 10
128.0732505449559
 20
72.40119911278089
 30
0.0
 11
130.3292685929482
 21
74.65721716078769
 31
0.0
  0
LINE
  5
21B59
330
1A
100
AcDbEntity
  8
wall
100
AcDbLine
 10
128.0732505449559
 20
70.40119911278089
 30
0.0
 11
130.3292685929482
 21
72.65721716078769
 31
0.0
  0
LINE
  5
21B5A
330
1A
100
AcDbEntity
  8
wall
100
AcDbLine
 10
128.0732505449559
 20
76.40119911278088
 30
0.0
 11
130.3292685929482
 21
78.6572171607877
 31
0.0
  0
LINE
  5
21B5B
330
1A
100
AcDbEntity
  8
wall
100
AcDbLine
 10
128.0732505449559
 20
74.40119911278088
 30
0.0
 11
130.3292685929482
 21
76.6572171607877
 31
0.0
  0
LINE
  5
21B5C
330
1A
100
AcDbEntity
  8
wall
100
AcDbLine
 10
128.0732505449559
 20
78.40119911278089
 30
0.0
 11
130.3292685929482
 21
80.65721716078769
 31
0.0
  0
LINE
  5
21B5D
330
1A
100
AcDbEntity
  8
wall
100
AcDbLine
 10
128.0732505449559
 20
80.40119911278088
 30
0.0
 11
130.3292685929482
 21
82.6572171607877
 31
0.0
  0
LINE
  5
21B5E
330
1A
100
AcDbEntity
  8
wall
100
AcDbLine
 10
128.0732505449559
 20
84.40119911278088
 30
0.0
 11
130.3292685929482
 21
86.65721716078769
 31
0.0
  0
LINE
  5
21B5F
330
1A
100
AcDbEntity
  8
wall
100
AcDbLine
 10
128.0732505449559
 20
82.40119911278089
 30
0.0
 11
130.3292685929482
 21
84.65721716078769
 31
0.0
  0
LINE
  5
21B60
330
1A
100
AcDbEntity
  8
wall
100
AcDbLine
 10
128.0732505449559
 20
88.40119911278089
 30
0.0
 11
130.3292685929482
 21
90.65721716078769
 31
0.0
  0
LINE
  5
21B61
330
1A
100
AcDbEntity
  8
wall
100
AcDbLine
 10
128.0732505449559
 20
86.40119911278089
 30
0.0
 11
130.3292685929482
 21
88.6572171607877
 31
0.0
  0
LINE
  5
21B62
330
1A
100
AcDbEntity
  8
wall
100
AcDbLine
 10
128.0732505449559
 20
92.40119911278089
 30
0.0
 11
130.3292685929482
 21
94.65721716078769
 31
0.0
  0
LINE
  5
21B63
330
1A
100
AcDbEntity
  8
wall
100
AcDbLine
 10
128.0732505449559
 20
90.40119911278088
 30
0.0
 11
130.3292685929482
 21
92.6572171607877
 31
0.0
  0
LINE
  5
21B64
330
1A
100
AcDbEntity
  8
wall
100
AcDbLine
 10
128.0732505449559
 20
94.40119911278088
 30
0.0
 11
130.0732505449486
 21
96.40119911278089
 31
0.0
  0
MTEXT
  5
21B65
330
1A
100
AcDbEntity
  8
ELEVATION
100
AcDbMText
 10
135.2507304952305
 20
87.23730769012764
 30
0.0
 40
1.5
 41
22.51445628941201
 71
     1
 72
     5
  1
ANCHORING BY ERECTOR
  7
ELEVATION
 73
     1
 44
1.0
  0
MTEXT
  5
21B66
330
1A
100
AcDbEntity
  8
ELEVATION
100
AcDbMText
 10
135.2507304952305
 20
77.64396519430738
 30
0.0
 40
1.5
 41
22.51445628941201
 71
     1
 72
     5
  1
DIAMOND PERFORATED SIDES
  7
ELEVATION
 73
     1
 44
1.0
  0
LINE
  5
21B67
330
1A
100
AcDbEntity
  8
dim
100
AcDbLine
 10
128.0107497949502
 20
21.18892160956239
 30
0.0
 11
112.8857497949575
 21
21.18892160956239
 31
0.0
  0
LINE
  5
21B68
330
1A
100
AcDbEntity
  8
dim
100
AcDbLine
 10
128.0732505449487
 20
21.18892160955875
 30
0.0
 11
134.0732505449486
 21
21.18892160955875
 31
0.0
  0
LINE
  5
21B69
330
1A
100
AcDbEntity
  8
dim
100
AcDbLine
 10
115.8857497949575
 20
21.66892160956195
 30
0.0
 11
115.8857497949575
 21
20.70892160956282
 31
0.0
  0
LINE
  5
21B6A
330
1A
100
AcDbEntity
  8
dim
100
AcDbLine
 10
115.8857497949575
 20
20.9489216095626
 30
0.0
 11
112.8857497949575
 21
21.18892160956239
 31
0.0
  0
LINE
  5
21B6B
330
1A
100
AcDbEntity
  8
dim
100
AcDbLine
 10
115.8857497949575
 20
21.42892160956217
 30
0.0
 11
112.8857497949575
 21
21.18892160956239
 31
0.0
  0
LINE
  5
21B6C
330
1A
100
AcDbEntity
  8
dim
100
AcDbLine
 10
112.8857497949575
 20
21.18892160956239
 30
0.0
 11
115.8857497949575
 21
20.70892160956282
 31
0.0
  0
LINE
  5
21B6D
330
1A
100
AcDbEntity
  8
dim
100
AcDbLine
 10
115.8857497949575
 20
21.66892160956195
 30
0.0
 11
112.8857497949575
 21
21.18892160956239
 31
0.0
  0
LINE
  5
21B6E
330
1A
100
AcDbEntity
  8
dim
100
AcDbLine
 10
131.0732505449486
 20
21.66892160955831
 30
0.0
 11
131.0732505449486
 21
20.70892160955918
 31
0.0
  0
LINE
  5
21B6F
330
1A
100
AcDbEntity
  8
dim
100
AcDbLine
 10
131.0732505449486
 20
20.94892160956078
 30
0.0
 11
128.0732505449487
 21
21.18892160955875
 31
0.0
  0
LINE
  5
21B70
330
1A
100
AcDbEntity
  8
dim
100
AcDbLine
 10
131.0732505449486
 20
21.42892160956035
 30
0.0
 11
128.0732505449487
 21
21.18892160955875
 31
0.0
  0
LINE
  5
21B71
330
1A
100
AcDbEntity
  8
dim
100
AcDbLine
 10
128.0732505449487
 20
21.18892160955875
 30
0.0
 11
131.0732505449486
 21
20.70892160955918
 31
0.0
  0
LINE
  5
21B72
330
1A
100
AcDbEntity
  8
dim
100
AcDbLine
 10
131.0732505449486
 20
21.66892160955831
 30
0.0
 11
128.0732505449487
 21
21.18892160955875
 31
0.0
  0
LINE
  5
21B73
330
1A
100
AcDbEntity
  8
dim
100
AcDbLine
 10
112.8857497949575
 20
19.70092160956119
 30
0.0
 11
112.8857497949575
 21
24.21292160956182
 31
0.0
  0
LINE
  5
21B74
330
1A
100
AcDbEntity
  8
dim
100
AcDbLine
 10
128.0107497949502
 20
19.70092160956119
 30
0.0
 11
128.0107497949502
 21
24.21292160956182
 31
0.0
  0
LINE
  5
21B75
330
1A
100
AcDbEntity
  8
dim
100
AcDbLine
 10
128.0732505449487
 20
19.70092160955937
 30
0.0
 11
128.0732505449487
 21
24.21292160956
 31
0.0
  0
TEXT
  5
21B76
330
1A
100
AcDbEntity
  8
elevation text
100
AcDbText
 10
131.2154203538319
 20
22.34812160956062
 30
0.0
 40
2.04
  1
1/8"
  7
ROMANS
 72
     1
 11
135.1011346395462
 21
22.34812160956062
 31
0.0
100
AcDbText
  0
LINE
  5
21B77
330
1A
100
AcDbEntity
  8
dim
100
AcDbLine
 10
125.0107497949502
 20
21.66892160956195
 30
0.0
 11
125.0107497949502
 21
20.70892160956282
 31
0.0
  0
LINE
  5
21B78
330
1A
100
AcDbEntity
  8
dim
100
AcDbLine
 10
125.0107497949502
 20
20.9489216095626
 30
0.0
 11
128.0107497949502
 21
21.18892160956239
 31
0.0
  0
LINE
  5
21B79
330
1A
100
AcDbEntity
  8
dim
100
AcDbLine
 10
125.0107497949502
 20
21.42892160956217
 30
0.0
 11
128.0107497949502
 21
21.18892160956239
 31
0.0
  0
LINE
  5
21B7A
330
1A
100
AcDbEntity
  8
dim
100
AcDbLine
 10
128.0107497949502
 20
21.18892160956239
 30
0.0
 11
125.0107497949502
 21
20.70892160956282
 31
0.0
  0
LINE
  5
21B7B
330
1A
100
AcDbEntity
  8
dim
100
AcDbLine
 10
125.0107497949502
 20
21.66892160956195
 30
0.0
 11
128.0107497949502
 21
21.18892160956239
 31
0.0
  0
MTEXT
  5
21B7C
330
1A
100
AcDbEntity
  8
ELEVATION
100
AcDbMText
 10
121.5594533680487
 20
17.11759415900633
 30
0.0
 40
1.5
 41
18.70534557438077
 71
     5
 72
     5
  1
SINGLE ROW\PEND ELEVATION
  7
ELEVATION
 73
     1
 44
1.0
  0
LINE
  5
21B7D
330
1A
100
AcDbEntity
  8
dim
100
AcDbLine
 10
57.95808971543738
 20
21.22715340217656
 30
0.0
 11
49.0051616617493
 21
21.22715340217656
 31
0.0
  0
LINE
  5
21B7E
330
1A
100
AcDbEntity
  8
dim
100
AcDbLine
 10
51.95808989796933
 20
21.70715344054588
 30
0.0
 11
51.95808989796933
 21
20.74715336380723
 31
0.0
  0
LINE
  5
21B7F
330
1A
100
AcDbEntity
  8
dim
100
AcDbLine
 10
51.95808989796933
 20
20.98715338294824
 30
0.0
 11
48.95808965803735
 21
21.22715340217656
 31
0.0
  0
LINE
  5
21B80
330
1A
100
AcDbEntity
  8
dim
100
AcDbLine
 10
51.95808989796933
 20
21.46715342140487
 30
0.0
 11
48.95808965803735
 21
21.22715340217656
 31
0.0
  0
LINE
  5
21B81
330
1A
100
AcDbEntity
  8
dim
100
AcDbLine
 10
48.95808965803735
 20
21.22715340217656
 30
0.0
 11
51.95808989796933
 21
20.74715336380723
 31
0.0
  0
LINE
  5
21B82
330
1A
100
AcDbEntity
  8
dim
100
AcDbLine
 10
51.95808989796933
 20
21.70715344054588
 30
0.0
 11
48.95808965803735
 21
21.22715340217656
 31
0.0
  0
LINE
  5
21B83
330
1A
100
AcDbEntity
  8
dim
100
AcDbLine
 10
48.95808965803735
 20
19.73915328312978
 30
0.0
 11
48.95808965803735
 21
24.25115364409248
 31
0.0
  0
LINE
  5
21B84
330
1A
100
AcDbEntity
  8
dim
100
AcDbLine
 10
57.9580897154301
 20
19.73915328312978
 30
0.0
 11
57.9580897154301
 21
24.25115364409248
 31
0.0
  0
LINE
  5
21B85
330
1A
100
AcDbEntity
  8
dim
100
AcDbLine
 10
54.95808947538899
 20
21.70715344054588
 30
0.0
 11
54.95808947538899
 21
20.74715336380723
 31
0.0
  0
LINE
  5
21B86
330
1A
100
AcDbEntity
  8
dim
100
AcDbLine
 10
54.95808947538899
 20
20.98715338294824
 30
0.0
 11
57.95808971543738
 21
21.22715340217656
 31
0.0
  0
LINE
  5
21B87
330
1A
100
AcDbEntity
  8
dim
100
AcDbLine
 10
54.95808947538899
 20
21.46715342140487
 30
0.0
 11
57.95808971543738
 21
21.22715340217656
 31
0.0
  0
LINE
  5
21B88
330
1A
100
AcDbEntity
  8
dim
100
AcDbLine
 10
57.95808971543738
 20
21.22715340217656
 30
0.0
 11
54.95808947538899
 21
20.74715336380723
 31
0.0
  0
LINE
  5
21B89
330
1A
100
AcDbEntity
  8
dim
100
AcDbLine
 10
54.95808947538899
 20
21.70715344054588
 30
0.0
 11
57.95808971543738
 21
21.22715340217656
 31
0.0
  0
TEXT
  5
21B8A
330
1A
100
AcDbEntity
  8
elevation text
100
AcDbText
 10
52.52147474706241
 20
22.45735349492497
 30
0.0
 40
1.75
  1
9"
  7
ROMANS
 72
     1
 11
53.97980808039574
 21
22.45735349492497
 31
0.0
100
AcDbText
  0
LINE
  5
21B8B
330
1A
100
AcDbEntity
  8
dim
100
AcDbLine
 10
66.95808971543738
 20
21.22715340217656
 30
0.0
 11
58.00516166174929
 21
21.22715340217656
 31
0.0
  0
LINE
  5
21B8C
330
1A
100
AcDbEntity
  8
dim
100
AcDbLine
 10
60.95808989796933
 20
21.70715344054588
 30
0.0
 11
60.95808989796933
 21
20.74715336380723
 31
0.0
  0
LINE
  5
21B8D
330
1A
100
AcDbEntity
  8
dim
100
AcDbLine
 10
60.95808989796933
 20
20.98715338294824
 30
0.0
 11
57.95808965803735
 21
21.22715340217656
 31
0.0
  0
LINE
  5
21B8E
330
1A
100
AcDbEntity
  8
dim
100
AcDbLine
 10
60.95808989796933
 20
21.46715342140487
 30
0.0
 11
57.95808965803735
 21
21.22715340217656
 31
0.0
  0
LINE
  5
21B8F
330
1A
100
AcDbEntity
  8
dim
100
AcDbLine
 10
57.95808965803735
 20
21.22715340217656
 30
0.0
 11
60.95808989796933
 21
20.74715336380723
 31
0.0
  0
LINE
  5
21B90
330
1A
100
AcDbEntity
  8
dim
100
AcDbLine
 10
60.95808989796933
 20
21.70715344054588
 30
0.0
 11
57.95808965803735
 21
21.22715340217656
 31
0.0
  0
LINE
  5
21B91
330
1A
100
AcDbEntity
  8
dim
100
AcDbLine
 10
57.95808965803735
 20
19.73915328312978
 30
0.0
 11
57.95808965803735
 21
24.25115364409248
 31
0.0
  0
LINE
  5
21B92
330
1A
100
AcDbEntity
  8
dim
100
AcDbLine
 10
66.9580897154301
 20
19.73915328312978
 30
0.0
 11
66.9580897154301
 21
24.25115364409248
 31
0.0
  0
LINE
  5
21B93
330
1A
100
AcDbEntity
  8
dim
100
AcDbLine
 10
63.95808947538899
 20
21.70715344054588
 30
0.0
 11
63.95808947538899
 21
20.74715336380723
 31
0.0
  0
LINE
  5
21B94
330
1A
100
AcDbEntity
  8
dim
100
AcDbLine
 10
63.95808947538899
 20
20.98715338294824
 30
0.0
 11
66.95808971543738
 21
21.22715340217656
 31
0.0
  0
LINE
  5
21B95
330
1A
100
AcDbEntity
  8
dim
100
AcDbLine
 10
63.95808947538899
 20
21.46715342140487
 30
0.0
 11
66.95808971543738
 21
21.22715340217656
 31
0.0
  0
LINE
  5
21B96
330
1A
100
AcDbEntity
  8
dim
100
AcDbLine
 10
66.95808971543738
 20
21.22715340217656
 30
0.0
 11
63.95808947538899
 21
20.74715336380723
 31
0.0
  0
LINE
  5
21B97
330
1A
100
AcDbEntity
  8
dim
100
AcDbLine
 10
63.95808947538899
 20
21.70715344054588
 30
0.0
 11
66.95808971543738
 21
21.22715340217656
 31
0.0
  0
TEXT
  5
21B98
330
1A
100
AcDbEntity
  8
elevation text
100
AcDbText
 10
61.71318419699916
 20
22.45735349492497
 30
0.0
 40
1.75
  1
9"
  7
ROMANS
 72
     1
 11
63.17151753033249
 21
22.45735349492497
 31
0.0
100
AcDbText
  0
MTEXT
  5
21B99
330
1A
100
AcDbEntity
  8
ELEVATION
100
AcDbMText
 10
73.46684057117091
 20
22.37051576212252
 30
0.0
 40
1.5
 41
15.22806135042628
 71
     5
 72
     5
  1
{\H0.8333x;INTERIOR\PELEVATION}
  7
ELEVATION
 73
     1
 44
1.0
  0
MTEXT
  5
21B9A
330
1A
100
AcDbEntity
  8
ELEVATION
100
AcDbMText
 10
44.86374084564886
 20
39.92000307794114
 30
0.0
 40
1.5
 41
35.03720885620714
 71
     3
 72
     5
  1
DIAMOND PERFORATED DOORS
  7
ELEVATION
 73
     1
 44
1.0
  0
MTEXT
  5
21B9B
330
1A
100
AcDbEntity
  8
ELEVATION
100
AcDbMText
 10
44.86374084564886
 20
77.20337973220376
 30
0.0
 40
1.5
 41
21.86809248175996
 71
     3
 72
     5
  1
RECESSED HANDLE
  7
ELEVATION
 73
     1
 44
1.0
  0
MTEXT
  5
21B9C
330
1A
100
AcDbEntity
  8
ELEVATION
100
AcDbMText
 10
44.86704058084433
 20
73.90159545806818
 30
0.0
 40
1.5
 41
21.11797386984599
 71
     3
 72
     5
  1
LOCK HOLE FILLER
  7
ELEVATION
 73
     1
 44
1.0
  0
MTEXT
  5
21B9D
330
1A
100
AcDbEntity
  8
ELEVATION
100
AcDbMText
 10
44.86374084564158
 20
86.27492506807357
 30
0.0
 40
1.5
 41
29.66639667126583
 71
     3
 72
     5
  1
3-SINGLE PRONG HOOKS
  7
ELEVATION
 73
     1
 44
1.0
  0
MTEXT
  5
21B9E
330
1A
100
AcDbEntity
  8
ELEVATION
100
AcDbMText
 10
44.70815837998088
 20
90.32356403715311
 30
0.0
 40
1.5
 41
17.95216092238024
 71
     3
 72
     5
  1
NUMBER PLATE
  7
ELEVATION
 73
     1
 44
1.0
  0
LWPOLYLINE
  5
21B9F
330
1A
100
AcDbEntity
  8
ELEVATION
100
AcDbPolyline
 90
        4
 70
     1
 43
0.0
 10
48.95808971543011
 20
32.3037862318979
 10
57.9580897154301
 20
32.3037862318979
 10
57.9580897154301
 20
92.30378623189791
 10
48.95808971543011
 20
92.30378623189791
  0
LWPOLYLINE
  5
21BA0
330
1A
100
AcDbEntity
  8
ELEVATION
100
AcDbPolyline
 90
        4
 70
     1
 43
0.0
 10
49.9580897154301
 20
33.3037862318979
 10
56.9580897154301
 20
33.3037862318979
 10
56.9580897154301
 20
61.8037862318979
 10
49.9580897154301
 20
61.8037862318979
  0
LWPOLYLINE
  5
21BA1
330
1A
100
AcDbEntity
  8
ELEVATION
100
AcDbPolyline
 90
        4
 70
     1
 43
0.0
 10
49.9580897154301
 20
91.30378623189789
 10
56.9580897154301
 20
91.30378623189789
 10
56.9580897154301
 20
62.8037862318979
 10
49.9580897154301
 20
62.8037862318979
  0
LINE
  5
21BA2
330
1A
100
AcDbEntity
  8
ELEVATION
100
AcDbLine
 10
57.20801302660402
 20
63.49129002610607
 30
0.0
 11
57.70802827049192
 21
63.49129002610607
 31
0.0
  0
ARC
  5
21BA3
330
1A
100
AcDbEntity
  8
ELEVATION
100
AcDbCircle
 10
57.20801302660402
 20
63.24130529234571
 30
0.0
 40
0.25
100
AcDbArc
 50
89.99998201364064
 51
180.0000186693157
  0
ARC
  5
21BA4
330
1A
100
AcDbEntity
  8
ELEVATION
100
AcDbCircle
 10
57.70802827049192
 20
63.24130529234571
 30
0.0
 40
0.25
100
AcDbArc
 50
0.0
 51
89.99998201364064
  0
LINE
  5
21BA5
330
1A
100
AcDbEntity
  8
ELEVATION
100
AcDbLine
 10
49.20804396141466
 20
63.49129002610607
 30
0.0
 11
49.70801342893537
 21
63.49129002610607
 31
0.0
  0
ARC
  5
21BA6
330
1A
100
AcDbEntity
  8
ELEVATION
100
AcDbCircle
 10
49.20808973778185
 20
63.24130529234571
 30
0.0
 40
0.25
100
AcDbArc
 50
89.99998201364064
 51
180.0000186693157
  0
ARC
  5
21BA7
330
1A
100
AcDbEntity
  8
ELEVATION
100
AcDbCircle
 10
49.70805920530256
 20
63.24130529234571
 30
0.0
 40
0.25
100
AcDbArc
 50
0.0
 51
89.99998201364064
  0
LINE
  5
21BA8
330
1A
100
AcDbEntity
  8
ELEVATION
100
AcDbLine
 10
57.9580897154301
 20
61.8037862318979
 30
0.0
 11
48.95808971543011
 21
61.8037862318979
 31
0.0
  0
LINE
  5
21BA9
330
1A
100
AcDbEntity
  8
ELEVATION
100
AcDbLine
 10
57.20801302660402
 20
33.99129002610607
 30
0.0
 11
57.70802827049192
 21
33.99129002610607
 31
0.0
  0
ARC
  5
21BAA
330
1A
100
AcDbEntity
  8
ELEVATION
100
AcDbCircle
 10
57.20801302660402
 20
33.74130529234572
 30
0.0
 40
0.25
100
AcDbArc
 50
89.99998201364064
 51
180.0000186693157
  0
ARC
  5
21BAB
330
1A
100
AcDbEntity
  8
ELEVATION
100
AcDbCircle
 10
57.70802827049192
 20
33.74130529234572
 30
0.0
 40
0.25
100
AcDbArc
 50
0.0
 51
89.99998201364064
  0
LINE
  5
21BAC
330
1A
100
AcDbEntity
  8
ELEVATION
100
AcDbLine
 10
49.20804396141466
 20
33.99129002610607
 30
0.0
 11
49.70801342893537
 21
33.99129002610607
 31
0.0
  0
ARC
  5
21BAD
330
1A
100
AcDbEntity
  8
ELEVATION
100
AcDbCircle
 10
49.20808973778185
 20
33.74130529234572
 30
0.0
 40
0.25
100
AcDbArc
 50
89.99998201364064
 51
180.0000186693157
  0
ARC
  5
21BAE
330
1A
100
AcDbEntity
  8
ELEVATION
100
AcDbCircle
 10
49.70805920530256
 20
33.74130529234572
 30
0.0
 40
0.25
100
AcDbArc
 50
0.0
 51
89.99998201364064
  0
LINE
  5
21BAF
330
1A
100
AcDbEntity
  8
ELEVATION
100
AcDbLine
 10
57.20801302660402
 20
90.61628243768973
 30
0.0
 11
57.70802827049192
 21
90.61628243768973
 31
0.0
  0
ARC
  5
21BB0
330
1A
100
AcDbEntity
  8
ELEVATION
100
AcDbCircle
 10
57.20801302660402
 20
90.86626717145009
 30
0.0
 40
0.25
100
AcDbArc
 50
179.9999813306842
 51
270.0000179859425
  0
ARC
  5
21BB1
330
1A
100
AcDbEntity
  8
ELEVATION
100
AcDbCircle
 10
57.70802827049192
 20
90.86626717145009
 30
0.0
 40
0.25
100
AcDbArc
 50
270.0000179859425
 51
0.0
  0
LINE
  5
21BB2
330
1A
100
AcDbEntity
  8
ELEVATION
100
AcDbLine
 10
49.20804396141466
 20
90.61628243768973
 30
0.0
 11
49.70801342893537
 21
90.61628243768973
 31
0.0
  0
ARC
  5
21BB3
330
1A
100
AcDbEntity
  8
ELEVATION
100
AcDbCircle
 10
49.20808973778185
 20
90.86626717145009
 30
0.0
 40
0.25
100
AcDbArc
 50
179.9999813306842
 51
270.0000179859425
  0
ARC
  5
21BB4
330
1A
100
AcDbEntity
  8
ELEVATION
100
AcDbCircle
 10
49.70805920530256
 20
90.86626717145009
 30
0.0
 40
0.25
100
AcDbArc
 50
270.0000179859425
 51
0.0
  0
LINE
  5
21BB5
330
1A
100
AcDbEntity
  8
ELEVATION
100
AcDbLine
 10
50.0362377936035
 20
62.9287862318979
 30
0.0
 11
56.9111916372567
 21
62.9287862318979
 31
0.0
  0
LINE
  5
21BB6
330
1A
100
AcDbEntity
  8
ELEVATION
100
AcDbLine
 10
56.9111916372567
 20
62.9287862318979
 30
0.0
 11
56.91119141333183
 21
91.24128626542551
 31
0.0
  0
LINE
  5
21BB7
330
1A
100
AcDbEntity
  8
ELEVATION
100
AcDbLine
 10
56.91119141333183
 20
91.24128626542551
 30
0.0
 11
50.03623756967863
 21
91.24128626542551
 31
0.0
  0
LINE
  5
21BB8
330
1A
100
AcDbEntity
  8
ELEVATION
100
AcDbLine
 10
50.03623756967863
 20
91.24128626542551
 30
0.0
 11
50.0362377936035
 21
62.9287862318979
 31
0.0
  0
LINE
  5
21BB9
330
1A
100
AcDbEntity
  8
ELEVATION
100
AcDbLine
 10
50.0831127936035
 20
33.4287862318979
 30
0.0
 11
50.0831127936035
 21
33.4287862318979
 31
0.0
  0
INSERT
  5
21BBA
330
1A
100
AcDbEntity
  8
OBJECT
100
AcDbBlockReference
  2
A$C0da8e90c
 10
52.91735547102871
 20
74.835036685452
 30
0.0
  0
LINE
  5
21BBB
330
1A
100
AcDbEntity
  8
ELEVATION
100
AcDbLine
 10
50.0362377936035
 20
33.4287862318979
 30
0.0
 11
56.9111916372567
 21
33.4287862318979
 31
0.0
  0
LINE
  5
21BBC
330
1A
100
AcDbEntity
  8
ELEVATION
100
AcDbLine
 10
56.9111916372567
 20
33.4287862318979
 30
0.0
 11
56.91119141333183
 21
61.74128626542551
 31
0.0
  0
LINE
  5
21BBD
330
1A
100
AcDbEntity
  8
ELEVATION
100
AcDbLine
 10
56.91119141333183
 20
61.74128626542551
 30
0.0
 11
50.03623756967863
 21
61.74128626542551
 31
0.0
  0
LINE
  5
21BBE
330
1A
100
AcDbEntity
  8
ELEVATION
100
AcDbLine
 10
50.03623756967863
 20
61.74128626542551
 30
0.0
 11
50.0362377936035
 21
33.4287862318979
 31
0.0
  0
INSERT
  5
21BBF
330
1A
100
AcDbEntity
  8
OBJECT
100
AcDbBlockReference
  2
A$C0da8e90c
 10
52.91735547102871
 20
45.335036685452
 30
0.0
  0
INSERT
  5
21BC0
330
1A
100
AcDbEntity
  8
OBJECT
100
AcDbBlockReference
  2
A$C6895fdcc
 10
54.97371449150524
 20
88.24128626542551
 30
0.0
  0
INSERT
  5
21BC1
330
1A
100
AcDbEntity
  8
OBJECT
100
AcDbBlockReference
  2
A$C6895fdcc
 10
51.97371449150523
 20
88.24128626542551
 30
0.0
  0
INSERT
  5
21BC2
330
1A
100
AcDbEntity
  8
OBJECT
100
AcDbBlockReference
  2
A$C6895fdcc
 10
54.97371449150524
 20
86.74128626542552
 30
0.0
  0
INSERT
  5
21BC3
330
1A
100
AcDbEntity
  8
OBJECT
100
AcDbBlockReference
  2
A$C6895fdcc
 10
51.97371449150523
 20
86.74128626542552
 30
0.0
  0
INSERT
  5
21BC4
330
1A
100
AcDbEntity
  8
OBJECT
100
AcDbBlockReference
  2
A$C6895fdcc
 10
54.97371449150524
 20
85.24128626542552
 30
0.0
  0
INSERT
  5
21BC5
330
1A
100
AcDbEntity
  8
OBJECT
100
AcDbBlockReference
  2
A$C6895fdcc
 10
51.97371449150523
 20
85.24128626542552
 30
0.0
  0
INSERT
  5
21BC6
330
1A
100
AcDbEntity
  8
OBJECT
100
AcDbBlockReference
  2
A$C6895fdcc
 10
54.97371449150524
 20
83.74128626542551
 30
0.0
  0
INSERT
  5
21BC7
330
1A
100
AcDbEntity
  8
OBJECT
100
AcDbBlockReference
  2
A$C6895fdcc
 10
51.97371449150523
 20
83.74128626542551
 30
0.0
  0
CIRCLE
  5
21BC8
330
1A
100
AcDbEntity
  8
ELEVATION
100
AcDbCircle
 10
54.55182437299663
 20
90.05383176239593
 30
0.0
 40
0.0625000100000004
  0
CIRCLE
  5
21BC9
330
1A
100
AcDbEntity
  8
ELEVATION
100
AcDbCircle
 10
52.36430882968853
 20
90.05383176239593
 30
0.0
 40
0.0625000100000004
  0
LINE
  5
21BCA
330
1A
100
AcDbEntity
  8
0 OBJECT BORDER
100
AcDbLine
 10
52.09275667279872
 20
89.56883172358539
 30
0.0
 11
54.82336116143414
 21
89.56883172358539
 31
0.0
  0
ARC
  5
21BCB
330
1A
100
AcDbEntity
  8
0 OBJECT BORDER
100
AcDbCircle
 10
52.31431866510684
 20
90.0643317632439
 30
0.0
 40
0.187500015
100
AcDbArc
 50
104.3102750721047
 51
169.6338360115885
  0
ARC
  5
21BCC
330
1A
100
AcDbEntity
  8
0 OBJECT BORDER
100
AcDbCircle
 10
54.60179916924244
 20
90.0643317632439
 30
0.0
 40
0.187500015
100
AcDbArc
 50
10.36616398841153
 51
75.68972492789528
  0
LINE
  5
21BCD
330
1A
100
AcDbEntity
  8
0 OBJECT BORDER
100
AcDbLine
 10
52.05486919781106
 20
89.68800995597304
 30
0.0
 11
52.12987904312467
 21
90.09807019080653
 31
0.0
  0
ARC
  5
21BCE
330
1A
100
AcDbEntity
  8
0 OBJECT BORDER
100
AcDbCircle
 10
52.23930881967681
 20
89.65427152841039
 30
0.0
 40
0.187500015
100
AcDbArc
 50
169.6338360115885
 51
200.2926116435396
  0
ARC
  5
21BCF
330
1A
100
AcDbEntity
  8
0 OBJECT BORDER
100
AcDbCircle
 10
52.09275667279872
 20
89.60008172608832
 30
0.0
 40
0.0312500025
100
AcDbArc
 50
200.2926116435396
 51
270.0
  0
LINE
  5
21BD0
330
1A
100
AcDbEntity
  8
0 OBJECT BORDER
100
AcDbLine
 10
54.86124863665463
 20
89.68800995597304
 30
0.0
 11
54.7862387912246
 21
90.09807019080653
 31
0.0
  0
ARC
  5
21BD1
330
1A
100
AcDbEntity
  8
0 OBJECT BORDER
100
AcDbCircle
 10
54.67680901478889
 20
89.65427152841039
 30
0.0
 40
0.187500015
100
AcDbArc
 50
339.7073883564605
 51
10.36616398841153
  0
ARC
  5
21BD2
330
1A
100
AcDbEntity
  8
0 OBJECT BORDER
100
AcDbCircle
 10
54.82336116143414
 20
89.60008172608832
 30
0.0
 40
0.0312500025
100
AcDbArc
 50
270.0
 51
339.7073883564605
  0
LINE
  5
21BD3
330
1A
100
AcDbEntity
  8
0 OBJECT BORDER
100
AcDbLine
 10
53.36536911506119
 20
90.52594608283289
 30
0.0
 11
52.26797376390459
 21
90.24601391911891
 31
0.0
  0
LINE
  5
21BD4
330
1A
100
AcDbEntity
  8
0 OBJECT BORDER
100
AcDbLine
 10
53.55074871940451
 20
90.52594608283289
 30
0.0
 11
54.64814407044468
 21
90.24601391911891
 31
0.0
  0
ARC
  5
21BD5
330
1A
100
AcDbEntity
  8
0 OBJECT BORDER
100
AcDbCircle
 10
53.45805891711643
 20
90.16258177108284
 30
0.0
 40
0.37500003
100
AcDbArc
 50
75.68972492789528
 51
104.3102750721047
  0
LINE
  5
21BD6
330
1A
100
AcDbEntity
  8
diamonds
  6
PHANTOM2
 62
     2
 48
2.0
100
AcDbLine
 10
51.20812760006083
 20
88.22884649858497
 30
0.0
 11
55.73930138295691
 21
88.22884649858497
 31
0.0
  0
INSERT
  5
21BD7
330
1A
100
AcDbEntity
  8
OBJECT
100
AcDbBlockReference
  2
A$C6895fdcc
 10
54.47371449150523
 20
82.99128626542552
 30
0.0
  0
INSERT
  5
21BD8
330
1A
100
AcDbEntity
  8
OBJECT
100
AcDbBlockReference
  2
A$C6895fdcc
 10
52.47371449150524
 20
82.99128626542552
 30
0.0
  0
LINE
  5
21BD9
330
1A
100
AcDbEntity
  8
diamonds
  6
PHANTOM2
 62
     2
 48
2.0
100
AcDbLine
 10
51.20812760006083
 20
82.99128627384925
 30
0.0
 11
55.73930138295691
 21
82.99128627384925
 31
0.0
  0
LINE
  5
21BDA
330
1A
100
AcDbEntity
  8
diamonds
  6
PHANTOM2
 62
     2
 48
2.0
100
AcDbLine
 10
51.97380604424688
 20
82.79693685585334
 30
0.0
 11
51.97380604423961
 21
89.10137843328447
 31
0.0
  0
LINE
  5
21BDB
330
1A
100
AcDbEntity
  8
diamonds
  6
PHANTOM2
 62
     2
 48
2.0
100
AcDbLine
 10
54.97380604425416
 20
82.79693685585334
 30
0.0
 11
54.97380604423961
 21
89.10137843328447
 31
0.0
  0
INSERT
  5
21BDC
330
1A
100
AcDbEntity
  8
OBJECT
100
AcDbBlockReference
  2
A$C6895fdcc
 10
54.97371449150524
 20
69.91008545166915
 30
0.0
  0
INSERT
  5
21BDD
330
1A
100
AcDbEntity
  8
OBJECT
100
AcDbBlockReference
  2
A$C6895fdcc
 10
51.97371449150523
 20
69.91008545166915
 30
0.0
  0
INSERT
  5
21BDE
330
1A
100
AcDbEntity
  8
OBJECT
100
AcDbBlockReference
  2
A$C6895fdcc
 10
54.97371449150524
 20
68.41008545166914
 30
0.0
  0
INSERT
  5
21BDF
330
1A
100
AcDbEntity
  8
OBJECT
100
AcDbBlockReference
  2
A$C6895fdcc
 10
51.97371449150523
 20
68.41008545166914
 30
0.0
  0
INSERT
  5
21BE0
330
1A
100
AcDbEntity
  8
OBJECT
100
AcDbBlockReference
  2
A$C6895fdcc
 10
54.97371449150524
 20
66.91008545166915
 30
0.0
  0
INSERT
  5
21BE1
330
1A
100
AcDbEntity
  8
OBJECT
100
AcDbBlockReference
  2
A$C6895fdcc
 10
51.97371449150523
 20
66.91008545166915
 30
0.0
  0
INSERT
  5
21BE2
330
1A
100
AcDbEntity
  8
OBJECT
100
AcDbBlockReference
  2
A$C6895fdcc
 10
54.97371449150524
 20
65.41008545166914
 30
0.0
  0
INSERT
  5
21BE3
330
1A
100
AcDbEntity
  8
OBJECT
100
AcDbBlockReference
  2
A$C6895fdcc
 10
51.97371449150523
 20
65.41008545166914
 30
0.0
  0
LINE
  5
21BE4
330
1A
100
AcDbEntity
  8
diamonds
  6
PHANTOM2
 62
     2
 48
2.0
100
AcDbLine
 10
51.20812760006083
 20
69.8976456848286
 30
0.0
 11
55.73930138295691
 21
69.8976456848286
 31
0.0
  0
INSERT
  5
21BE5
330
1A
100
AcDbEntity
  8
OBJECT
100
AcDbBlockReference
  2
A$C6895fdcc
 10
54.47371449150523
 20
64.66008545166914
 30
0.0
  0
INSERT
  5
21BE6
330
1A
100
AcDbEntity
  8
OBJECT
100
AcDbBlockReference
  2
A$C6895fdcc
 10
52.47371449150524
 20
64.66008545166914
 30
0.0
  0
LINE
  5
21BE7
330
1A
100
AcDbEntity
  8
diamonds
  6
PHANTOM2
 62
     2
 48
2.0
100
AcDbLine
 10
51.20812760006083
 20
64.66008546009288
 30
0.0
 11
55.73930138295691
 21
64.66008546009288
 31
0.0
  0
LINE
  5
21BE8
330
1A
100
AcDbEntity
  8
diamonds
  6
PHANTOM2
 62
     2
 48
2.0
100
AcDbLine
 10
51.97380604424688
 20
64.46573604209698
 30
0.0
 11
51.97380604423961
 21
70.77017761952811
 31
0.0
  0
LINE
  5
21BE9
330
1A
100
AcDbEntity
  8
diamonds
  6
PHANTOM2
 62
     2
 48
2.0
100
AcDbLine
 10
54.97380604425416
 20
64.46573604209698
 30
0.0
 11
54.97380604423961
 21
70.77017761952811
 31
0.0
  0
INSERT
  5
21BEA
330
1A
100
AcDbEntity
  8
OBJECT
100
AcDbBlockReference
  2
A$C6895fdcc
 10
54.97371449150524
 20
58.74128626542551
 30
0.0
  0
INSERT
  5
21BEB
330
1A
100
AcDbEntity
  8
OBJECT
100
AcDbBlockReference
  2
A$C6895fdcc
 10
51.97371449150523
 20
58.74128626542551
 30
0.0
  0
INSERT
  5
21BEC
330
1A
100
AcDbEntity
  8
OBJECT
100
AcDbBlockReference
  2
A$C6895fdcc
 10
54.97371449150524
 20
57.24128626542551
 30
0.0
  0
INSERT
  5
21BED
330
1A
100
AcDbEntity
  8
OBJECT
100
AcDbBlockReference
  2
A$C6895fdcc
 10
51.97371449150523
 20
57.24128626542551
 30
0.0
  0
INSERT
  5
21BEE
330
1A
100
AcDbEntity
  8
OBJECT
100
AcDbBlockReference
  2
A$C6895fdcc
 10
54.97371449150524
 20
55.74128626542552
 30
0.0
  0
INSERT
  5
21BEF
330
1A
100
AcDbEntity
  8
OBJECT
100
AcDbBlockReference
  2
A$C6895fdcc
 10
51.97371449150523
 20
55.74128626542552
 30
0.0
  0
INSERT
  5
21BF0
330
1A
100
AcDbEntity
  8
OBJECT
100
AcDbBlockReference
  2
A$C6895fdcc
 10
54.97371449150524
 20
54.24128626542551
 30
0.0
  0
INSERT
  5
21BF1
330
1A
100
AcDbEntity
  8
OBJECT
100
AcDbBlockReference
  2
A$C6895fdcc
 10
51.97371449150523
 20
54.24128626542551
 30
0.0
  0
CIRCLE
  5
21BF2
330
1A
100
AcDbEntity
  8
ELEVATION
100
AcDbCircle
 10
54.55182437299663
 20
60.55383176239593
 30
0.0
 40
0.0625000100000004
  0
CIRCLE
  5
21BF3
330
1A
100
AcDbEntity
  8
ELEVATION
100
AcDbCircle
 10
52.36430882968853
 20
60.55383176239593
 30
0.0
 40
0.0625000100000004
  0
LINE
  5
21BF4
330
1A
100
AcDbEntity
  8
0 OBJECT BORDER
100
AcDbLine
 10
52.09275667279872
 20
60.06883172358539
 30
0.0
 11
54.82336116143414
 21
60.06883172358539
 31
0.0
  0
ARC
  5
21BF5
330
1A
100
AcDbEntity
  8
0 OBJECT BORDER
100
AcDbCircle
 10
52.31431866510684
 20
60.56433176324389
 30
0.0
 40
0.187500015
100
AcDbArc
 50
104.3102750721047
 51
169.6338360115885
  0
ARC
  5
21BF6
330
1A
100
AcDbEntity
  8
0 OBJECT BORDER
100
AcDbCircle
 10
54.60179916924244
 20
60.56433176324389
 30
0.0
 40
0.187500015
100
AcDbArc
 50
10.36616398841153
 51
75.68972492789528
  0
LINE
  5
21BF7
330
1A
100
AcDbEntity
  8
0 OBJECT BORDER
100
AcDbLine
 10
52.05486919781106
 20
60.18800995597302
 30
0.0
 11
52.12987904312467
 21
60.59807019080654
 31
0.0
  0
ARC
  5
21BF8
330
1A
100
AcDbEntity
  8
0 OBJECT BORDER
100
AcDbCircle
 10
52.23930881967681
 20
60.15427152841039
 30
0.0
 40
0.187500015
100
AcDbArc
 50
169.6338360115885
 51
200.2926116435396
  0
ARC
  5
21BF9
330
1A
100
AcDbEntity
  8
0 OBJECT BORDER
100
AcDbCircle
 10
52.09275667279872
 20
60.10008172608832
 30
0.0
 40
0.0312500025
100
AcDbArc
 50
200.2926116435396
 51
270.0
  0
LINE
  5
21BFA
330
1A
100
AcDbEntity
  8
0 OBJECT BORDER
100
AcDbLine
 10
54.86124863665463
 20
60.18800995597302
 30
0.0
 11
54.7862387912246
 21
60.59807019080654
 31
0.0
  0
ARC
  5
21BFB
330
1A
100
AcDbEntity
  8
0 OBJECT BORDER
100
AcDbCircle
 10
54.67680901478889
 20
60.15427152841039
 30
0.0
 40
0.187500015
100
AcDbArc
 50
339.7073883564605
 51
10.36616398841153
  0
ARC
  5
21BFC
330
1A
100
AcDbEntity
  8
0 OBJECT BORDER
100
AcDbCircle
 10
54.82336116143414
 20
60.10008172608832
 30
0.0
 40
0.0312500025
100
AcDbArc
 50
270.0
 51
339.7073883564605
  0
LINE
  5
21BFD
330
1A
100
AcDbEntity
  8
0 OBJECT BORDER
100
AcDbLine
 10
53.36536911506119
 20
61.02594608283289
 30
0.0
 11
52.26797376390459
 21
60.74601391911892
 31
0.0
  0
LINE
  5
21BFE
330
1A
100
AcDbEntity
  8
0 OBJECT BORDER
100
AcDbLine
 10
53.55074871940451
 20
61.02594608283289
 30
0.0
 11
54.64814407044468
 21
60.74601391911892
 31
0.0
  0
ARC
  5
21BFF
330
1A
100
AcDbEntity
  8
0 OBJECT BORDER
100
AcDbCircle
 10
53.45805891711643
 20
60.66258177108284
 30
0.0
 40
0.37500003
100
AcDbArc
 50
75.68972492789528
 51
104.3102750721047
  0
LINE
  5
21C00
330
1A
100
AcDbEntity
  8
diamonds
  6
PHANTOM2
 62
     2
 48
2.0
100
AcDbLine
 10
51.20812760006083
 20
58.72884649858497
 30
0.0
 11
55.73930138295691
 21
58.72884649858497
 31
0.0
  0
INSERT
  5
21C01
330
1A
100
AcDbEntity
  8
OBJECT
100
AcDbBlockReference
  2
A$C6895fdcc
 10
54.47371449150523
 20
53.49128626542551
 30
0.0
  0
INSERT
  5
21C02
330
1A
100
AcDbEntity
  8
OBJECT
100
AcDbBlockReference
  2
A$C6895fdcc
 10
52.47371449150524
 20
53.49128626542551
 30
0.0
  0
LINE
  5
21C03
330
1A
100
AcDbEntity
  8
diamonds
  6
PHANTOM2
 62
     2
 48
2.0
100
AcDbLine
 10
51.20812760006083
 20
53.49128627384925
 30
0.0
 11
55.73930138295691
 21
53.49128627384925
 31
0.0
  0
LINE
  5
21C04
330
1A
100
AcDbEntity
  8
diamonds
  6
PHANTOM2
 62
     2
 48
2.0
100
AcDbLine
 10
51.97380604424688
 20
53.29693685585334
 30
0.0
 11
51.97380604423961
 21
59.60137843328448
 31
0.0
  0
LINE
  5
21C05
330
1A
100
AcDbEntity
  8
diamonds
  6
PHANTOM2
 62
     2
 48
2.0
100
AcDbLine
 10
54.97380604425416
 20
53.29693685585334
 30
0.0
 11
54.97380604423961
 21
59.60137843328448
 31
0.0
  0
INSERT
  5
21C06
330
1A
100
AcDbEntity
  8
OBJECT
100
AcDbBlockReference
  2
A$C6895fdcc
 10
54.97371449150524
 20
40.41008545166914
 30
0.0
  0
INSERT
  5
21C07
330
1A
100
AcDbEntity
  8
OBJECT
100
AcDbBlockReference
  2
A$C6895fdcc
 10
51.97371449150523
 20
40.41008545166914
 30
0.0
  0
INSERT
  5
21C08
330
1A
100
AcDbEntity
  8
OBJECT
100
AcDbBlockReference
  2
A$C6895fdcc
 10
54.97371449150524
 20
38.91008545166915
 30
0.0
  0
INSERT
  5
21C09
330
1A
100
AcDbEntity
  8
OBJECT
100
AcDbBlockReference
  2
A$C6895fdcc
 10
51.97371449150523
 20
38.91008545166915
 30
0.0
  0
INSERT
  5
21C0A
330
1A
100
AcDbEntity
  8
OBJECT
100
AcDbBlockReference
  2
A$C6895fdcc
 10
54.97371449150524
 20
37.41008545166915
 30
0.0
  0
INSERT
  5
21C0B
330
1A
100
AcDbEntity
  8
OBJECT
100
AcDbBlockReference
  2
A$C6895fdcc
 10
51.97371449150523
 20
37.41008545166915
 30
0.0
  0
INSERT
  5
21C0C
330
1A
100
AcDbEntity
  8
OBJECT
100
AcDbBlockReference
  2
A$C6895fdcc
 10
54.97371449150524
 20
35.91008545166915
 30
0.0
  0
INSERT
  5
21C0D
330
1A
100
AcDbEntity
  8
OBJECT
100
AcDbBlockReference
  2
A$C6895fdcc
 10
51.97371449150523
 20
35.91008545166915
 30
0.0
  0
LINE
  5
21C0E
330
1A
100
AcDbEntity
  8
diamonds
  6
PHANTOM2
 62
     2
 48
2.0
100
AcDbLine
 10
51.20812760006083
 20
40.3976456848286
 30
0.0
 11
55.73930138295691
 21
40.3976456848286
 31
0.0
  0
INSERT
  5
21C0F
330
1A
100
AcDbEntity
  8
OBJECT
100
AcDbBlockReference
  2
A$C6895fdcc
 10
54.47371449150523
 20
35.16008545166915
 30
0.0
  0
INSERT
  5
21C10
330
1A
100
AcDbEntity
  8
OBJECT
100
AcDbBlockReference
  2
A$C6895fdcc
 10
52.47371449150524
 20
35.16008545166915
 30
0.0
  0
LINE
  5
21C11
330
1A
100
AcDbEntity
  8
diamonds
  6
PHANTOM2
 62
     2
 48
2.0
100
AcDbLine
 10
51.20812760006083
 20
35.16008546009289
 30
0.0
 11
55.73930138295691
 21
35.16008546009289
 31
0.0
  0
LINE
  5
21C12
330
1A
100
AcDbEntity
  8
diamonds
  6
PHANTOM2
 62
     2
 48
2.0
100
AcDbLine
 10
51.97380604424688
 20
34.96573604209698
 30
0.0
 11
51.97380604423961
 21
41.27017761952811
 31
0.0
  0
LINE
  5
21C13
330
1A
100
AcDbEntity
  8
diamonds
  6
PHANTOM2
 62
     2
 48
2.0
100
AcDbLine
 10
54.97380604425416
 20
34.96573604209698
 30
0.0
 11
54.97380604423961
 21
41.27017761952811
 31
0.0
  0
LWPOLYLINE
  5
21C14
330
1A
100
AcDbEntity
  8
ELEVATION
100
AcDbPolyline
 90
        4
 70
     1
 43
0.0
 10
57.9580897154301
 20
32.3037862318979
 10
66.9580897154301
 20
32.3037862318979
 10
66.9580897154301
 20
92.30378623189791
 10
57.9580897154301
 20
92.30378623189791
  0
LWPOLYLINE
  5
21C15
330
1A
100
AcDbEntity
  8
ELEVATION
100
AcDbPolyline
 90
        4
 70
     1
 43
0.0
 10
58.95808971543011
 20
33.3037862318979
 10
65.95808971543011
 20
33.3037862318979
 10
65.95808971543011
 20
61.8037862318979
 10
58.95808971543011
 20
61.8037862318979
  0
LWPOLYLINE
  5
21C16
330
1A
100
AcDbEntity
  8
ELEVATION
100
AcDbPolyline
 90
        4
 70
     1
 43
0.0
 10
58.95808971543011
 20
91.30378623189789
 10
65.95808971543011
 20
91.30378623189789
 10
65.95808971543011
 20
62.8037862318979
 10
58.95808971543011
 20
62.8037862318979
  0
LINE
  5
21C17
330
1A
100
AcDbEntity
  8
ELEVATION
100
AcDbLine
 10
66.20801302660402
 20
63.49129002610607
 30
0.0
 11
66.70802827049192
 21
63.49129002610607
 31
0.0
  0
ARC
  5
21C18
330
1A
100
AcDbEntity
  8
ELEVATION
100
AcDbCircle
 10
66.20801302660402
 20
63.24130529234571
 30
0.0
 40
0.25
100
AcDbArc
 50
89.99998201364064
 51
180.0000186693157
  0
ARC
  5
21C19
330
1A
100
AcDbEntity
  8
ELEVATION
100
AcDbCircle
 10
66.70802827049192
 20
63.24130529234571
 30
0.0
 40
0.25
100
AcDbArc
 50
0.0
 51
89.99998201364064
  0
LINE
  5
21C1A
330
1A
100
AcDbEntity
  8
ELEVATION
100
AcDbLine
 10
58.20804396141466
 20
63.49129002610607
 30
0.0
 11
58.70801342893537
 21
63.49129002610607
 31
0.0
  0
ARC
  5
21C1B
330
1A
100
AcDbEntity
  8
ELEVATION
100
AcDbCircle
 10
58.20808973778184
 20
63.24130529234571
 30
0.0
 40
0.25
100
AcDbArc
 50
89.99998201364064
 51
180.0000186693157
  0
ARC
  5
21C1C
330
1A
100
AcDbEntity
  8
ELEVATION
100
AcDbCircle
 10
58.70805920530256
 20
63.24130529234571
 30
0.0
 40
0.25
100
AcDbArc
 50
0.0
 51
89.99998201364064
  0
LINE
  5
21C1D
330
1A
100
AcDbEntity
  8
ELEVATION
100
AcDbLine
 10
66.9580897154301
 20
61.8037862318979
 30
0.0
 11
57.9580897154301
 21
61.8037862318979
 31
0.0
  0
LINE
  5
21C1E
330
1A
100
AcDbEntity
  8
ELEVATION
100
AcDbLine
 10
66.20801302660402
 20
33.99129002610607
 30
0.0
 11
66.70802827049192
 21
33.99129002610607
 31
0.0
  0
ARC
  5
21C1F
330
1A
100
AcDbEntity
  8
ELEVATION
100
AcDbCircle
 10
66.20801302660402
 20
33.74130529234572
 30
0.0
 40
0.25
100
AcDbArc
 50
89.99998201364064
 51
180.0000186693157
  0
ARC
  5
21C20
330
1A
100
AcDbEntity
  8
ELEVATION
100
AcDbCircle
 10
66.70802827049192
 20
33.74130529234572
 30
0.0
 40
0.25
100
AcDbArc
 50
0.0
 51
89.99998201364064
  0
LINE
  5
21C21
330
1A
100
AcDbEntity
  8
ELEVATION
100
AcDbLine
 10
58.20804396141466
 20
33.99129002610607
 30
0.0
 11
58.70801342893537
 21
33.99129002610607
 31
0.0
  0
ARC
  5
21C22
330
1A
100
AcDbEntity
  8
ELEVATION
100
AcDbCircle
 10
58.20808973778184
 20
33.74130529234572
 30
0.0
 40
0.25
100
AcDbArc
 50
89.99998201364064
 51
180.0000186693157
  0
ARC
  5
21C23
330
1A
100
AcDbEntity
  8
ELEVATION
100
AcDbCircle
 10
58.70805920530256
 20
33.74130529234572
 30
0.0
 40
0.25
100
AcDbArc
 50
0.0
 51
89.99998201364064
  0
LINE
  5
21C24
330
1A
100
AcDbEntity
  8
ELEVATION
100
AcDbLine
 10
66.20801302660402
 20
90.61628243768973
 30
0.0
 11
66.70802827049192
 21
90.61628243768973
 31
0.0
  0
ARC
  5
21C25
330
1A
100
AcDbEntity
  8
ELEVATION
100
AcDbCircle
 10
66.20801302660402
 20
90.86626717145009
 30
0.0
 40
0.25
100
AcDbArc
 50
179.9999813306842
 51
270.0000179859425
  0
ARC
  5
21C26
330
1A
100
AcDbEntity
  8
ELEVATION
100
AcDbCircle
 10
66.70802827049192
 20
90.86626717145009
 30
0.0
 40
0.25
100
AcDbArc
 50
270.0000179859425
 51
0.0
  0
LINE
  5
21C27
330
1A
100
AcDbEntity
  8
ELEVATION
100
AcDbLine
 10
58.20804396141466
 20
90.61628243768973
 30
0.0
 11
58.70801342893537
 21
90.61628243768973
 31
0.0
  0
ARC
  5
21C28
330
1A
100
AcDbEntity
  8
ELEVATION
100
AcDbCircle
 10
58.20808973778184
 20
90.86626717145009
 30
0.0
 40
0.25
100
AcDbArc
 50
179.9999813306842
 51
270.0000179859425
  0
ARC
  5
21C29
330
1A
100
AcDbEntity
  8
ELEVATION
100
AcDbCircle
 10
58.70805920530256
 20
90.86626717145009
 30
0.0
 40
0.25
100
AcDbArc
 50
270.0000179859425
 51
0.0
  0
LINE
  5
21C2A
330
1A
100
AcDbEntity
  8
ELEVATION
100
AcDbLine
 10
59.0362377936035
 20
62.9287862318979
 30
0.0
 11
65.91119163725671
 21
62.9287862318979
 31
0.0
  0
LINE
  5
21C2B
330
1A
100
AcDbEntity
  8
ELEVATION
100
AcDbLine
 10
65.91119163725671
 20
62.9287862318979
 30
0.0
 11
65.91119141333184
 21
91.24128626542551
 31
0.0
  0
LINE
  5
21C2C
330
1A
100
AcDbEntity
  8
ELEVATION
100
AcDbLine
 10
65.91119141333184
 20
91.24128626542551
 30
0.0
 11
59.03623756967864
 21
91.24128626542551
 31
0.0
  0
LINE
  5
21C2D
330
1A
100
AcDbEntity
  8
ELEVATION
100
AcDbLine
 10
59.03623756967864
 20
91.24128626542551
 30
0.0
 11
59.0362377936035
 21
62.9287862318979
 31
0.0
  0
LINE
  5
21C2E
330
1A
100
AcDbEntity
  8
ELEVATION
100
AcDbLine
 10
59.08311279360351
 20
33.4287862318979
 30
0.0
 11
59.08311279360351
 21
33.4287862318979
 31
0.0
  0
INSERT
  5
21C2F
330
1A
100
AcDbEntity
  8
OBJECT
100
AcDbBlockReference
  2
A$C0da8e90c
 10
61.91735547102871
 20
74.835036685452
 30
0.0
  0
LINE
  5
21C30
330
1A
100
AcDbEntity
  8
ELEVATION
100
AcDbLine
 10
59.0362377936035
 20
33.4287862318979
 30
0.0
 11
65.91119163725671
 21
33.4287862318979
 31
0.0
  0
LINE
  5
21C31
330
1A
100
AcDbEntity
  8
ELEVATION
100
AcDbLine
 10
65.91119163725671
 20
33.4287862318979
 30
0.0
 11
65.91119141333184
 21
61.74128626542551
 31
0.0
  0
LINE
  5
21C32
330
1A
100
AcDbEntity
  8
ELEVATION
100
AcDbLine
 10
65.91119141333184
 20
61.74128626542551
 30
0.0
 11
59.03623756967864
 21
61.74128626542551
 31
0.0
  0
LINE
  5
21C33
330
1A
100
AcDbEntity
  8
ELEVATION
100
AcDbLine
 10
59.03623756967864
 20
61.74128626542551
 30
0.0
 11
59.0362377936035
 21
33.4287862318979
 31
0.0
  0
INSERT
  5
21C34
330
1A
100
AcDbEntity
  8
OBJECT
100
AcDbBlockReference
  2
A$C0da8e90c
 10
61.91735547102871
 20
45.335036685452
 30
0.0
  0
INSERT
  5
21C35
330
1A
100
AcDbEntity
  8
OBJECT
100
AcDbBlockReference
  2
A$C6895fdcc
 10
63.97371449150523
 20
88.24128626542551
 30
0.0
  0
INSERT
  5
21C36
330
1A
100
AcDbEntity
  8
OBJECT
100
AcDbBlockReference
  2
A$C6895fdcc
 10
60.97371449150523
 20
88.24128626542551
 30
0.0
  0
INSERT
  5
21C37
330
1A
100
AcDbEntity
  8
OBJECT
100
AcDbBlockReference
  2
A$C6895fdcc
 10
63.97371449150523
 20
86.74128626542552
 30
0.0
  0
INSERT
  5
21C38
330
1A
100
AcDbEntity
  8
OBJECT
100
AcDbBlockReference
  2
A$C6895fdcc
 10
60.97371449150523
 20
86.74128626542552
 30
0.0
  0
INSERT
  5
21C39
330
1A
100
AcDbEntity
  8
OBJECT
100
AcDbBlockReference
  2
A$C6895fdcc
 10
63.97371449150523
 20
85.24128626542552
 30
0.0
  0
INSERT
  5
21C3A
330
1A
100
AcDbEntity
  8
OBJECT
100
AcDbBlockReference
  2
A$C6895fdcc
 10
60.97371449150523
 20
85.24128626542552
 30
0.0
  0
INSERT
  5
21C3B
330
1A
100
AcDbEntity
  8
OBJECT
100
AcDbBlockReference
  2
A$C6895fdcc
 10
63.97371449150523
 20
83.74128626542551
 30
0.0
  0
INSERT
  5
21C3C
330
1A
100
AcDbEntity
  8
OBJECT
100
AcDbBlockReference
  2
A$C6895fdcc
 10
60.97371449150523
 20
83.74128626542551
 30
0.0
  0
CIRCLE
  5
21C3D
330
1A
100
AcDbEntity
  8
ELEVATION
100
AcDbCircle
 10
63.55182437299664
 20
90.05383176239593
 30
0.0
 40
0.0625000100000004
  0
CIRCLE
  5
21C3E
330
1A
100
AcDbEntity
  8
ELEVATION
100
AcDbCircle
 10
61.36430882968852
 20
90.05383176239593
 30
0.0
 40
0.0625000100000004
  0
LINE
  5
21C3F
330
1A
100
AcDbEntity
  8
0 OBJECT BORDER
100
AcDbLine
 10
61.09275667279871
 20
89.56883172358539
 30
0.0
 11
63.82336116143415
 21
89.56883172358539
 31
0.0
  0
ARC
  5
21C40
330
1A
100
AcDbEntity
  8
0 OBJECT BORDER
100
AcDbCircle
 10
61.31431866510684
 20
90.0643317632439
 30
0.0
 40
0.187500015
100
AcDbArc
 50
104.3102750721047
 51
169.6338360115885
  0
ARC
  5
21C41
330
1A
100
AcDbEntity
  8
0 OBJECT BORDER
100
AcDbCircle
 10
63.60179916924244
 20
90.0643317632439
 30
0.0
 40
0.187500015
100
AcDbArc
 50
10.36616398841153
 51
75.68972492789528
  0
LINE
  5
21C42
330
1A
100
AcDbEntity
  8
0 OBJECT BORDER
100
AcDbLine
 10
61.05486919781106
 20
89.68800995597304
 30
0.0
 11
61.12987904312467
 21
90.09807019080653
 31
0.0
  0
ARC
  5
21C43
330
1A
100
AcDbEntity
  8
0 OBJECT BORDER
100
AcDbCircle
 10
61.2393088196768
 20
89.65427152841039
 30
0.0
 40
0.187500015
100
AcDbArc
 50
169.6338360115885
 51
200.2926116435396
  0
ARC
  5
21C44
330
1A
100
AcDbEntity
  8
0 OBJECT BORDER
100
AcDbCircle
 10
61.09275667279871
 20
89.60008172608832
 30
0.0
 40
0.0312500025
100
AcDbArc
 50
200.2926116435396
 51
270.0
  0
LINE
  5
21C45
330
1A
100
AcDbEntity
  8
0 OBJECT BORDER
100
AcDbLine
 10
63.86124863665464
 20
89.68800995597304
 30
0.0
 11
63.78623879122461
 21
90.09807019080653
 31
0.0
  0
ARC
  5
21C46
330
1A
100
AcDbEntity
  8
0 OBJECT BORDER
100
AcDbCircle
 10
63.67680901478888
 20
89.65427152841039
 30
0.0
 40
0.187500015
100
AcDbArc
 50
339.7073883564605
 51
10.36616398841153
  0
ARC
  5
21C47
330
1A
100
AcDbEntity
  8
0 OBJECT BORDER
100
AcDbCircle
 10
63.82336116143415
 20
89.60008172608832
 30
0.0
 40
0.0312500025
100
AcDbArc
 50
270.0
 51
339.7073883564605
  0
LINE
  5
21C48
330
1A
100
AcDbEntity
  8
0 OBJECT BORDER
100
AcDbLine
 10
62.36536911506118
 20
90.52594608283289
 30
0.0
 11
61.26797376390459
 21
90.24601391911891
 31
0.0
  0
LINE
  5
21C49
330
1A
100
AcDbEntity
  8
0 OBJECT BORDER
100
AcDbLine
 10
62.5507487194045
 20
90.52594608283289
 30
0.0
 11
63.64814407044469
 21
90.24601391911891
 31
0.0
  0
ARC
  5
21C4A
330
1A
100
AcDbEntity
  8
0 OBJECT BORDER
100
AcDbCircle
 10
62.45805891711643
 20
90.16258177108284
 30
0.0
 40
0.37500003
100
AcDbArc
 50
75.68972492789528
 51
104.3102750721047
  0
LINE
  5
21C4B
330
1A
100
AcDbEntity
  8
diamonds
  6
PHANTOM2
 62
     2
 48
2.0
100
AcDbLine
 10
60.20812760006084
 20
88.22884649858497
 30
0.0
 11
64.73930138295691
 21
88.22884649858497
 31
0.0
  0
INSERT
  5
21C4C
330
1A
100
AcDbEntity
  8
OBJECT
100
AcDbBlockReference
  2
A$C6895fdcc
 10
63.47371449150523
 20
82.99128626542552
 30
0.0
  0
INSERT
  5
21C4D
330
1A
100
AcDbEntity
  8
OBJECT
100
AcDbBlockReference
  2
A$C6895fdcc
 10
61.47371449150523
 20
82.99128626542552
 30
0.0
  0
LINE
  5
21C4E
330
1A
100
AcDbEntity
  8
diamonds
  6
PHANTOM2
 62
     2
 48
2.0
100
AcDbLine
 10
60.20812760006084
 20
82.99128627384925
 30
0.0
 11
64.73930138295691
 21
82.99128627384925
 31
0.0
  0
LINE
  5
21C4F
330
1A
100
AcDbEntity
  8
diamonds
  6
PHANTOM2
 62
     2
 48
2.0
100
AcDbLine
 10
60.97380604424689
 20
82.79693685585334
 30
0.0
 11
60.9738060442396
 21
89.10137843328447
 31
0.0
  0
LINE
  5
21C50
330
1A
100
AcDbEntity
  8
diamonds
  6
PHANTOM2
 62
     2
 48
2.0
100
AcDbLine
 10
63.97380604425416
 20
82.79693685585334
 30
0.0
 11
63.97380604423961
 21
89.10137843328447
 31
0.0
  0
INSERT
  5
21C51
330
1A
100
AcDbEntity
  8
OBJECT
100
AcDbBlockReference
  2
A$C6895fdcc
 10
63.97371449150523
 20
69.91008545166915
 30
0.0
  0
INSERT
  5
21C52
330
1A
100
AcDbEntity
  8
OBJECT
100
AcDbBlockReference
  2
A$C6895fdcc
 10
60.97371449150523
 20
69.91008545166915
 30
0.0
  0
INSERT
  5
21C53
330
1A
100
AcDbEntity
  8
OBJECT
100
AcDbBlockReference
  2
A$C6895fdcc
 10
63.97371449150523
 20
68.41008545166914
 30
0.0
  0
INSERT
  5
21C54
330
1A
100
AcDbEntity
  8
OBJECT
100
AcDbBlockReference
  2
A$C6895fdcc
 10
60.97371449150523
 20
68.41008545166914
 30
0.0
  0
INSERT
  5
21C55
330
1A
100
AcDbEntity
  8
OBJECT
100
AcDbBlockReference
  2
A$C6895fdcc
 10
63.97371449150523
 20
66.91008545166915
 30
0.0
  0
INSERT
  5
21C56
330
1A
100
AcDbEntity
  8
OBJECT
100
AcDbBlockReference
  2
A$C6895fdcc
 10
60.97371449150523
 20
66.91008545166915
 30
0.0
  0
INSERT
  5
21C57
330
1A
100
AcDbEntity
  8
OBJECT
100
AcDbBlockReference
  2
A$C6895fdcc
 10
63.97371449150523
 20
65.41008545166914
 30
0.0
  0
INSERT
  5
21C58
330
1A
100
AcDbEntity
  8
OBJECT
100
AcDbBlockReference
  2
A$C6895fdcc
 10
60.97371449150523
 20
65.41008545166914
 30
0.0
  0
LINE
  5
21C59
330
1A
100
AcDbEntity
  8
diamonds
  6
PHANTOM2
 62
     2
 48
2.0
100
AcDbLine
 10
60.20812760006084
 20
69.8976456848286
 30
0.0
 11
64.73930138295691
 21
69.8976456848286
 31
0.0
  0
INSERT
  5
21C5A
330
1A
100
AcDbEntity
  8
OBJECT
100
AcDbBlockReference
  2
A$C6895fdcc
 10
63.47371449150523
 20
64.66008545166914
 30
0.0
  0
INSERT
  5
21C5B
330
1A
100
AcDbEntity
  8
OBJECT
100
AcDbBlockReference
  2
A$C6895fdcc
 10
61.47371449150523
 20
64.66008545166914
 30
0.0
  0
LINE
  5
21C5C
330
1A
100
AcDbEntity
  8
diamonds
  6
PHANTOM2
 62
     2
 48
2.0
100
AcDbLine
 10
60.20812760006084
 20
64.66008546009288
 30
0.0
 11
64.73930138295691
 21
64.66008546009288
 31
0.0
  0
LINE
  5
21C5D
330
1A
100
AcDbEntity
  8
diamonds
  6
PHANTOM2
 62
     2
 48
2.0
100
AcDbLine
 10
60.97380604424689
 20
64.46573604209698
 30
0.0
 11
60.9738060442396
 21
70.77017761952811
 31
0.0
  0
LINE
  5
21C5E
330
1A
100
AcDbEntity
  8
diamonds
  6
PHANTOM2
 62
     2
 48
2.0
100
AcDbLine
 10
63.97380604425416
 20
64.46573604209698
 30
0.0
 11
63.97380604423961
 21
70.77017761952811
 31
0.0
  0
INSERT
  5
21C5F
330
1A
100
AcDbEntity
  8
OBJECT
100
AcDbBlockReference
  2
A$C6895fdcc
 10
63.97371449150523
 20
58.74128626542551
 30
0.0
  0
INSERT
  5
21C60
330
1A
100
AcDbEntity
  8
OBJECT
100
AcDbBlockReference
  2
A$C6895fdcc
 10
60.97371449150523
 20
58.74128626542551
 30
0.0
  0
INSERT
  5
21C61
330
1A
100
AcDbEntity
  8
OBJECT
100
AcDbBlockReference
  2
A$C6895fdcc
 10
63.97371449150523
 20
57.24128626542551
 30
0.0
  0
INSERT
  5
21C62
330
1A
100
AcDbEntity
  8
OBJECT
100
AcDbBlockReference
  2
A$C6895fdcc
 10
60.97371449150523
 20
57.24128626542551
 30
0.0
  0
INSERT
  5
21C63
330
1A
100
AcDbEntity
  8
OBJECT
100
AcDbBlockReference
  2
A$C6895fdcc
 10
63.97371449150523
 20
55.74128626542552
 30
0.0
  0
INSERT
  5
21C64
330
1A
100
AcDbEntity
  8
OBJECT
100
AcDbBlockReference
  2
A$C6895fdcc
 10
60.97371449150523
 20
55.74128626542552
 30
0.0
  0
INSERT
  5
21C65
330
1A
100
AcDbEntity
  8
OBJECT
100
AcDbBlockReference
  2
A$C6895fdcc
 10
63.97371449150523
 20
54.24128626542551
 30
0.0
  0
INSERT
  5
21C66
330
1A
100
AcDbEntity
  8
OBJECT
100
AcDbBlockReference
  2
A$C6895fdcc
 10
60.97371449150523
 20
54.24128626542551
 30
0.0
  0
CIRCLE
  5
21C67
330
1A
100
AcDbEntity
  8
ELEVATION
100
AcDbCircle
 10
63.55182437299664
 20
60.55383176239593
 30
0.0
 40
0.0625000100000004
  0
CIRCLE
  5
21C68
330
1A
100
AcDbEntity
  8
ELEVATION
100
AcDbCircle
 10
61.36430882968852
 20
60.55383176239593
 30
0.0
 40
0.0625000100000004
  0
LINE
  5
21C69
330
1A
100
AcDbEntity
  8
0 OBJECT BORDER
100
AcDbLine
 10
61.09275667279871
 20
60.06883172358539
 30
0.0
 11
63.82336116143415
 21
60.06883172358539
 31
0.0
  0
ARC
  5
21C6A
330
1A
100
AcDbEntity
  8
0 OBJECT BORDER
100
AcDbCircle
 10
61.31431866510684
 20
60.56433176324389
 30
0.0
 40
0.187500015
100
AcDbArc
 50
104.3102750721047
 51
169.6338360115885
  0
ARC
  5
21C6B
330
1A
100
AcDbEntity
  8
0 OBJECT BORDER
100
AcDbCircle
 10
63.60179916924244
 20
60.56433176324389
 30
0.0
 40
0.187500015
100
AcDbArc
 50
10.36616398841153
 51
75.68972492789528
  0
LINE
  5
21C6C
330
1A
100
AcDbEntity
  8
0 OBJECT BORDER
100
AcDbLine
 10
61.05486919781106
 20
60.18800995597302
 30
0.0
 11
61.12987904312467
 21
60.59807019080654
 31
0.0
  0
ARC
  5
21C6D
330
1A
100
AcDbEntity
  8
0 OBJECT BORDER
100
AcDbCircle
 10
61.2393088196768
 20
60.15427152841039
 30
0.0
 40
0.187500015
100
AcDbArc
 50
169.6338360115885
 51
200.2926116435396
  0
ARC
  5
21C6E
330
1A
100
AcDbEntity
  8
0 OBJECT BORDER
100
AcDbCircle
 10
61.09275667279871
 20
60.10008172608832
 30
0.0
 40
0.0312500025
100
AcDbArc
 50
200.2926116435396
 51
270.0
  0
LINE
  5
21C6F
330
1A
100
AcDbEntity
  8
0 OBJECT BORDER
100
AcDbLine
 10
63.86124863665464
 20
60.18800995597302
 30
0.0
 11
63.78623879122461
 21
60.59807019080654
 31
0.0
  0
ARC
  5
21C70
330
1A
100
AcDbEntity
  8
0 OBJECT BORDER
100
AcDbCircle
 10
63.67680901478888
 20
60.15427152841039
 30
0.0
 40
0.187500015
100
AcDbArc
 50
339.7073883564605
 51
10.36616398841153
  0
ARC
  5
21C71
330
1A
100
AcDbEntity
  8
0 OBJECT BORDER
100
AcDbCircle
 10
63.82336116143415
 20
60.10008172608832
 30
0.0
 40
0.0312500025
100
AcDbArc
 50
270.0
 51
339.7073883564605
  0
LINE
  5
21C72
330
1A
100
AcDbEntity
  8
0 OBJECT BORDER
100
AcDbLine
 10
62.36536911506118
 20
61.02594608283289
 30
0.0
 11
61.26797376390459
 21
60.74601391911892
 31
0.0
  0
LINE
  5
21C73
330
1A
100
AcDbEntity
  8
0 OBJECT BORDER
100
AcDbLine
 10
62.5507487194045
 20
61.02594608283289
 30
0.0
 11
63.64814407044469
 21
60.74601391911892
 31
0.0
  0
ARC
  5
21C74
330
1A
100
AcDbEntity
  8
0 OBJECT BORDER
100
AcDbCircle
 10
62.45805891711643
 20
60.66258177108284
 30
0.0
 40
0.37500003
100
AcDbArc
 50
75.68972492789528
 51
104.3102750721047
  0
LINE
  5
21C75
330
1A
100
AcDbEntity
  8
diamonds
  6
PHANTOM2
 62
     2
 48
2.0
100
AcDbLine
 10
60.20812760006084
 20
58.72884649858497
 30
0.0
 11
64.73930138295691
 21
58.72884649858497
 31
0.0
  0
INSERT
  5
21C76
330
1A
100
AcDbEntity
  8
OBJECT
100
AcDbBlockReference
  2
A$C6895fdcc
 10
63.47371449150523
 20
53.49128626542551
 30
0.0
  0
INSERT
  5
21C77
330
1A
100
AcDbEntity
  8
OBJECT
100
AcDbBlockReference
  2
A$C6895fdcc
 10
61.47371449150523
 20
53.49128626542551
 30
0.0
  0
LINE
  5
21C78
330
1A
100
AcDbEntity
  8
diamonds
  6
PHANTOM2
 62
     2
 48
2.0
100
AcDbLine
 10
60.20812760006084
 20
53.49128627384925
 30
0.0
 11
64.73930138295691
 21
53.49128627384925
 31
0.0
  0
LINE
  5
21C79
330
1A
100
AcDbEntity
  8
diamonds
  6
PHANTOM2
 62
     2
 48
2.0
100
AcDbLine
 10
60.97380604424689
 20
53.29693685585334
 30
0.0
 11
60.9738060442396
 21
59.60137843328448
 31
0.0
  0
LINE
  5
21C7A
330
1A
100
AcDbEntity
  8
diamonds
  6
PHANTOM2
 62
     2
 48
2.0
100
AcDbLine
 10
63.97380604425416
 20
53.29693685585334
 30
0.0
 11
63.97380604423961
 21
59.60137843328448
 31
0.0
  0
INSERT
  5
21C7B
330
1A
100
AcDbEntity
  8
OBJECT
100
AcDbBlockReference
  2
A$C6895fdcc
 10
63.97371449150523
 20
40.41008545166914
 30
0.0
  0
INSERT
  5
21C7C
330
1A
100
AcDbEntity
  8
OBJECT
100
AcDbBlockReference
  2
A$C6895fdcc
 10
60.97371449150523
 20
40.41008545166914
 30
0.0
  0
INSERT
  5
21C7D
330
1A
100
AcDbEntity
  8
OBJECT
100
AcDbBlockReference
  2
A$C6895fdcc
 10
63.97371449150523
 20
38.91008545166915
 30
0.0
  0
INSERT
  5
21C7E
330
1A
100
AcDbEntity
  8
OBJECT
100
AcDbBlockReference
  2
A$C6895fdcc
 10
60.97371449150523
 20
38.91008545166915
 30
0.0
  0
INSERT
  5
21C7F
330
1A
100
AcDbEntity
  8
OBJECT
100
AcDbBlockReference
  2
A$C6895fdcc
 10
63.97371449150523
 20
37.41008545166915
 30
0.0
  0
INSERT
  5
21C80
330
1A
100
AcDbEntity
  8
OBJECT
100
AcDbBlockReference
  2
A$C6895fdcc
 10
60.97371449150523
 20
37.41008545166915
 30
0.0
  0
INSERT
  5
21C81
330
1A
100
AcDbEntity
  8
OBJECT
100
AcDbBlockReference
  2
A$C6895fdcc
 10
63.97371449150523
 20
35.91008545166915
 30
0.0
  0
INSERT
  5
21C82
330
1A
100
AcDbEntity
  8
OBJECT
100
AcDbBlockReference
  2
A$C6895fdcc
 10
60.97371449150523
 20
35.91008545166915
 30
0.0
  0
LINE
  5
21C83
330
1A
100
AcDbEntity
  8
diamonds
  6
PHANTOM2
 62
     2
 48
2.0
100
AcDbLine
 10
60.20812760006084
 20
40.3976456848286
 30
0.0
 11
64.73930138295691
 21
40.3976456848286
 31
0.0
  0
INSERT
  5
21C84
330
1A
100
AcDbEntity
  8
OBJECT
100
AcDbBlockReference
  2
A$C6895fdcc
 10
63.47371449150523
 20
35.16008545166915
 30
0.0
  0
INSERT
  5
21C85
330
1A
100
AcDbEntity
  8
OBJECT
100
AcDbBlockReference
  2
A$C6895fdcc
 10
61.47371449150523
 20
35.16008545166915
 30
0.0
  0
LINE
  5
21C86
330
1A
100
AcDbEntity
  8
diamonds
  6
PHANTOM2
 62
     2
 48
2.0
100
AcDbLine
 10
60.20812760006084
 20
35.16008546009289
 30
0.0
 11
64.73930138295691
 21
35.16008546009289
 31
0.0
  0
LINE
  5
21C87
330
1A
100
AcDbEntity
  8
diamonds
  6
PHANTOM2
 62
     2
 48
2.0
100
AcDbLine
 10
60.97380604424689
 20
34.96573604209698
 30
0.0
 11
60.9738060442396
 21
41.27017761952811
 31
0.0
  0
LINE
  5
21C88
330
1A
100
AcDbEntity
  8
diamonds
  6
PHANTOM2
 62
     2
 48
2.0
100
AcDbLine
 10
63.97380604425416
 20
34.96573604209698
 30
0.0
 11
63.97380604423961
 21
41.27017761952811
 31
0.0
  0
LWPOLYLINE
  5
21C89
330
1A
100
AcDbEntity
  8
ELEVATION
100
AcDbPolyline
 90
        4
 70
     1
 43
0.0
 10
66.9580897154301
 20
32.3037862318979
 10
75.95808971543011
 20
32.3037862318979
 10
75.95808971543011
 20
92.30378623189791
 10
66.9580897154301
 20
92.30378623189791
  0
LWPOLYLINE
  5
21C8A
330
1A
100
AcDbEntity
  8
ELEVATION
100
AcDbPolyline
 90
        4
 70
     1
 43
0.0
 10
67.9580897154301
 20
33.3037862318979
 10
74.9580897154301
 20
33.3037862318979
 10
74.9580897154301
 20
61.8037862318979
 10
67.9580897154301
 20
61.8037862318979
  0
LWPOLYLINE
  5
21C8B
330
1A
100
AcDbEntity
  8
ELEVATION
100
AcDbPolyline
 90
        4
 70
     1
 43
0.0
 10
67.9580897154301
 20
91.30378623189789
 10
74.9580897154301
 20
91.30378623189789
 10
74.9580897154301
 20
62.8037862318979
 10
67.9580897154301
 20
62.8037862318979
  0
LINE
  5
21C8C
330
1A
100
AcDbEntity
  8
ELEVATION
100
AcDbLine
 10
75.20801302660402
 20
63.49129002610607
 30
0.0
 11
75.70802827049192
 21
63.49129002610607
 31
0.0
  0
ARC
  5
21C8D
330
1A
100
AcDbEntity
  8
ELEVATION
100
AcDbCircle
 10
75.20801302660402
 20
63.24130529234571
 30
0.0
 40
0.25
100
AcDbArc
 50
89.99998201364064
 51
180.0000186693157
  0
ARC
  5
21C8E
330
1A
100
AcDbEntity
  8
ELEVATION
100
AcDbCircle
 10
75.70802827049192
 20
63.24130529234571
 30
0.0
 40
0.25
100
AcDbArc
 50
0.0
 51
89.99998201364064
  0
LINE
  5
21C8F
330
1A
100
AcDbEntity
  8
ELEVATION
100
AcDbLine
 10
67.20804396141466
 20
63.49129002610607
 30
0.0
 11
67.70801342893538
 21
63.49129002610607
 31
0.0
  0
ARC
  5
21C90
330
1A
100
AcDbEntity
  8
ELEVATION
100
AcDbCircle
 10
67.20808973778185
 20
63.24130529234571
 30
0.0
 40
0.25
100
AcDbArc
 50
89.99998201364064
 51
180.0000186693157
  0
ARC
  5
21C91
330
1A
100
AcDbEntity
  8
ELEVATION
100
AcDbCircle
 10
67.70805920530256
 20
63.24130529234571
 30
0.0
 40
0.25
100
AcDbArc
 50
0.0
 51
89.99998201364064
  0
LINE
  5
21C92
330
1A
100
AcDbEntity
  8
ELEVATION
100
AcDbLine
 10
75.95808971543011
 20
61.8037862318979
 30
0.0
 11
66.9580897154301
 21
61.8037862318979
 31
0.0
  0
LINE
  5
21C93
330
1A
100
AcDbEntity
  8
ELEVATION
100
AcDbLine
 10
75.20801302660402
 20
33.99129002610607
 30
0.0
 11
75.70802827049192
 21
33.99129002610607
 31
0.0
  0
ARC
  5
21C94
330
1A
100
AcDbEntity
  8
ELEVATION
100
AcDbCircle
 10
75.20801302660402
 20
33.74130529234572
 30
0.0
 40
0.25
100
AcDbArc
 50
89.99998201364064
 51
180.0000186693157
  0
ARC
  5
21C95
330
1A
100
AcDbEntity
  8
ELEVATION
100
AcDbCircle
 10
75.70802827049192
 20
33.74130529234572
 30
0.0
 40
0.25
100
AcDbArc
 50
0.0
 51
89.99998201364064
  0
LINE
  5
21C96
330
1A
100
AcDbEntity
  8
ELEVATION
100
AcDbLine
 10
67.20804396141466
 20
33.99129002610607
 30
0.0
 11
67.70801342893538
 21
33.99129002610607
 31
0.0
  0
ARC
  5
21C97
330
1A
100
AcDbEntity
  8
ELEVATION
100
AcDbCircle
 10
67.20808973778185
 20
33.74130529234572
 30
0.0
 40
0.25
100
AcDbArc
 50
89.99998201364064
 51
180.0000186693157
  0
ARC
  5
21C98
330
1A
100
AcDbEntity
  8
ELEVATION
100
AcDbCircle
 10
67.70805920530256
 20
33.74130529234572
 30
0.0
 40
0.25
100
AcDbArc
 50
0.0
 51
89.99998201364064
  0
LINE
  5
21C99
330
1A
100
AcDbEntity
  8
ELEVATION
100
AcDbLine
 10
75.20801302660402
 20
90.61628243768973
 30
0.0
 11
75.70802827049192
 21
90.61628243768973
 31
0.0
  0
ARC
  5
21C9A
330
1A
100
AcDbEntity
  8
ELEVATION
100
AcDbCircle
 10
75.20801302660402
 20
90.86626717145009
 30
0.0
 40
0.25
100
AcDbArc
 50
179.9999813306842
 51
270.0000179859425
  0
ARC
  5
21C9B
330
1A
100
AcDbEntity
  8
ELEVATION
100
AcDbCircle
 10
75.70802827049192
 20
90.86626717145009
 30
0.0
 40
0.25
100
AcDbArc
 50
270.0000179859425
 51
0.0
  0
LINE
  5
21C9C
330
1A
100
AcDbEntity
  8
ELEVATION
100
AcDbLine
 10
67.20804396141466
 20
90.61628243768973
 30
0.0
 11
67.70801342893538
 21
90.61628243768973
 31
0.0
  0
ARC
  5
21C9D
330
1A
100
AcDbEntity
  8
ELEVATION
100
AcDbCircle
 10
67.20808973778185
 20
90.86626717145009
 30
0.0
 40
0.25
100
AcDbArc
 50
179.9999813306842
 51
270.0000179859425
  0
ARC
  5
21C9E
330
1A
100
AcDbEntity
  8
ELEVATION
100
AcDbCircle
 10
67.70805920530256
 20
90.86626717145009
 30
0.0
 40
0.25
100
AcDbArc
 50
270.0000179859425
 51
0.0
  0
LINE
  5
21C9F
330
1A
100
AcDbEntity
  8
ELEV HIDDEN
100
AcDbLine
 10
75.76344847384461
 20
90.50006768895583
 30
0.0
 11
75.95799802859255
 21
90.50006768895583
 31
0.0
  0
LINE
  5
21CA0
330
1A
100
AcDbEntity
  8
ELEV HIDDEN
100
AcDbLine
 10
75.76349425021181
 20
88.83389952571997
 30
0.0
 11
75.76349425021181
 21
90.50002191258863
 31
0.0
  0
LINE
  5
21CA1
330
1A
100
AcDbEntity
  8
ELEV HIDDEN
100
AcDbLine
 10
75.63110900024913
 20
88.30687622599544
 30
0.0
 11
75.63110900024913
 21
88.68501189588096
 31
0.0
  0
LINE
  5
21CA2
330
1A
100
AcDbEntity
  8
ELEVATION
100
AcDbLine
 10
73.79832706716115
 20
88.72935743747802
 30
0.0
 11
74.02297950204957
 21
88.76098380254735
 31
0.0
  0
LINE
  5
21CA3
330
1A
100
AcDbEntity
  8
ELEVATION
100
AcDbLine
 10
74.06003439057531
 20
88.49851099410262
 30
0.0
 11
74.13557858869172
 21
88.14766523847902
 31
0.0
  0
LINE
  5
21CA4
330
1A
100
AcDbEntity
  8
ELEVATION
100
AcDbLine
 10
73.83533993559104
 20
88.46690467232111
 30
0.0
 11
73.91354292192409
 21
88.1013666384897
 31
0.0
  0
LINE
  5
21CA5
330
1A
100
AcDbEntity
  8
ELEVATION
100
AcDbLine
 10
71.3445643281957
 20
87.4372168280861
 30
0.0
 11
71.3445643281957
 21
88.46695617728073
 31
0.0
  0
LINE
  5
21CA6
330
1A
100
AcDbEntity
  8
ELEVATION
100
AcDbLine
 10
71.57143199721031
 20
87.4372168280861
 30
0.0
 11
71.57143199721031
 21
88.46695617728073
 31
0.0
  0
LINE
  5
21CA7
330
1A
100
AcDbEntity
  8
ELEVATION
100
AcDbLine
 10
71.23103894095402
 20
90.50006768895583
 30
0.0
 11
71.68491160809208
 21
90.50006768895583
 31
0.0
  0
LINE
  5
21CA8
330
1A
100
AcDbEntity
  8
ELEVATION
100
AcDbLine
 10
71.23108471731393
 20
88.86154845067721
 30
0.0
 11
71.23108471731393
 21
90.50002191258863
 31
0.0
  0
LINE
  5
21CA9
330
1A
100
AcDbEntity
  8
ELEVATION
100
AcDbLine
 10
71.68491160809208
 20
88.87484648494865
 30
0.0
 11
71.68491160809208
 21
90.50002191258863
 31
0.0
  0
ARC
  5
21CAA
330
1A
100
AcDbEntity
  8
ELEV HIDDEN
100
AcDbCircle
 10
75.61229491389531
 20
88.83515837578125
 30
0.0
 40
0.1512499853596096
100
AcDbArc
 50
277.1790454074948
 51
0.4476574283442726
  0
ARC
  5
21CAB
330
1A
100
AcDbEntity
  8
ELEV HIDDEN
100
AcDbCircle
 10
74.87492921321972
 20
88.30694489054621
 30
0.0
 40
0.9831249718926855
100
AcDbArc
 50
274.8505451271129
 51
359.9999521886758
  0
ARC
  5
21CAC
330
1A
100
AcDbEntity
  8
ELEV HIDDEN
100
AcDbCircle
 10
74.87492921321972
 20
88.30694489054621
 30
0.0
 40
0.7562499715015301
100
AcDbArc
 50
276.3108942132417
 51
0.0000341509458501
  0
ARC
  5
21CAD
330
1A
100
AcDbEntity
  8
ELEVATION
100
AcDbCircle
 10
73.89407902272068
 20
88.60893157588179
 30
0.0
 40
0.1535922131361898
100
AcDbArc
 50
128.5049275729871
 51
247.5111383879129
  0
ARC
  5
21CAE
330
1A
100
AcDbEntity
  8
ELEVATION
100
AcDbCircle
 10
73.96429996789811
 20
88.61877349453243
 30
0.0
 40
0.1535922131361898
100
AcDbArc
 50
308.4888272234145
 51
67.49500047238723
  0
ARC
  5
21CAF
330
1A
100
AcDbEntity
  8
ELEVATION
100
AcDbCircle
 10
74.87492921321972
 20
88.30694489054621
 30
0.0
 40
0.7562499715015301
100
AcDbArc
 50
192.161898129067
 51
276.3108942132417
  0
ARC
  5
21CB0
330
1A
100
AcDbEntity
  8
ELEVATION
100
AcDbCircle
 10
74.87492921321972
 20
88.30694489054621
 30
0.0
 40
0.9831249718926855
100
AcDbArc
 50
192.0701140469577
 51
274.8505451271129
  0
ARC
  5
21CB1
330
1A
100
AcDbEntity
  8
ELEVATION
100
AcDbCircle
 10
71.45799816270301
 20
87.43726260445146
 30
0.0
 40
0.1134375001955777
100
AcDbArc
 50
180.0000359721976
 51
0.0
  0
ARC
  5
21CB2
330
1A
100
AcDbEntity
  8
ELEVATION
100
AcDbCircle
 10
71.44925487683213
 20
88.61382964702533
 30
0.0
 40
0.1803770309574297
100
AcDbArc
 50
125.5025403382986
 51
234.4974423588557
  0
ARC
  5
21CB3
330
1A
100
AcDbEntity
  8
ELEVATION
100
AcDbCircle
 10
71.46664989584678
 20
88.61382964702533
 30
0.0
 40
0.1803770309574297
100
AcDbArc
 50
305.5025524050591
 51
54.49744759494091
  0
ARC
  5
21CB4
330
1A
100
AcDbEntity
  8
ELEVATION
100
AcDbCircle
 10
71.53742015740863
 20
88.90808012653542
 30
0.0
 40
0.1512499965354801
100
AcDbArc
 50
282.9723503898188
 51
347.0281662000227
  0
ARC
  5
21CB5
330
1A
100
AcDbEntity
  8
ELEVATION
100
AcDbCircle
 10
71.37843883890309
 20
88.90808012653542
 30
0.0
 40
0.1512499965354801
100
AcDbArc
 50
192.9718766024036
 51
257.0276855825764
  0
LINE
  5
21CB6
330
1A
100
AcDbEntity
  8
ELEV HIDDEN
100
AcDbLine
 10
67.15273095701559
 20
90.50006768895583
 30
0.0
 11
66.95818140226766
 21
90.50006768895583
 31
0.0
  0
LINE
  5
21CB7
330
1A
100
AcDbEntity
  8
ELEV HIDDEN
100
AcDbLine
 10
67.1526851806484
 20
88.83389952571997
 30
0.0
 11
67.1526851806484
 21
90.50002191258863
 31
0.0
  0
LINE
  5
21CB8
330
1A
100
AcDbEntity
  8
ELEV HIDDEN
100
AcDbLine
 10
67.28507043061108
 20
88.30687622599544
 30
0.0
 11
67.28507043061108
 21
88.68501189588096
 31
0.0
  0
LINE
  5
21CB9
330
1A
100
AcDbEntity
  8
ELEVATION
100
AcDbLine
 10
69.11785236369905
 20
88.72935743747802
 30
0.0
 11
68.89319992881064
 21
88.76098380254735
 31
0.0
  0
LINE
  5
21CBA
330
1A
100
AcDbEntity
  8
ELEVATION
100
AcDbLine
 10
68.8561450402849
 20
88.49851099410262
 30
0.0
 11
68.7806008421685
 21
88.14766523847902
 31
0.0
  0
LINE
  5
21CBB
330
1A
100
AcDbEntity
  8
ELEVATION
100
AcDbLine
 10
69.08083949526917
 20
88.46690467232111
 30
0.0
 11
69.00263650893612
 21
88.1013666384897
 31
0.0
  0
ARC
  5
21CBC
330
1A
100
AcDbEntity
  8
ELEV HIDDEN
100
AcDbCircle
 10
67.3038845169649
 20
88.83515837578125
 30
0.0
 40
0.1512499853596096
100
AcDbArc
 50
179.5523425716557
 51
262.8209545920916
  0
ARC
  5
21CBD
330
1A
100
AcDbEntity
  8
ELEV HIDDEN
100
AcDbCircle
 10
68.04125021764048
 20
88.30694489054621
 30
0.0
 40
0.9831249718926855
100
AcDbArc
 50
180.0000478113242
 51
265.1494548733024
  0
ARC
  5
21CBE
330
1A
100
AcDbEntity
  8
ELEV HIDDEN
100
AcDbCircle
 10
68.04125021764048
 20
88.30694489054621
 30
0.0
 40
0.7562499715015301
100
AcDbArc
 50
179.9999658490541
 51
263.6891057871726
  0
ARC
  5
21CBF
330
1A
100
AcDbEntity
  8
ELEVATION
100
AcDbCircle
 10
69.02210040813952
 20
88.60893157588179
 30
0.0
 40
0.1535922131361898
100
AcDbArc
 50
292.488861612087
 51
51.49507242701283
  0
ARC
  5
21CC0
330
1A
100
AcDbEntity
  8
ELEVATION
100
AcDbCircle
 10
68.9518794629621
 20
88.61877349453243
 30
0.0
 40
0.1535922131361898
100
AcDbArc
 50
112.5049995271877
 51
231.5111727765856
  0
ARC
  5
21CC1
330
1A
100
AcDbEntity
  8
ELEVATION
100
AcDbCircle
 10
68.04125021764048
 20
88.30694489054621
 30
0.0
 40
0.7562499715015301
100
AcDbArc
 50
263.6891057871726
 51
347.8381018708311
  0
ARC
  5
21CC2
330
1A
100
AcDbEntity
  8
ELEVATION
100
AcDbCircle
 10
68.04125021764048
 20
88.30694489054621
 30
0.0
 40
0.9831249718926855
100
AcDbArc
 50
265.1494548733024
 51
347.9298859531442
  0
LINE
  5
21CC3
330
1A
100
AcDbEntity
  8
ELEV HIDDEN
100
AcDbLine
 10
75.76344847384461
 20
61.00006768895582
 30
0.0
 11
75.95799802859255
 21
61.00006768895582
 31
0.0
  0
LINE
  5
21CC4
330
1A
100
AcDbEntity
  8
ELEV HIDDEN
100
AcDbLine
 10
75.76349425021181
 20
59.33389952571997
 30
0.0
 11
75.76349425021181
 21
61.00002191258863
 31
0.0
  0
LINE
  5
21CC5
330
1A
100
AcDbEntity
  8
ELEV HIDDEN
100
AcDbLine
 10
75.63110900024913
 20
58.80687622599544
 30
0.0
 11
75.63110900024913
 21
59.18501189588096
 31
0.0
  0
LINE
  5
21CC6
330
1A
100
AcDbEntity
  8
ELEVATION
100
AcDbLine
 10
73.79832706716115
 20
59.22935743747803
 30
0.0
 11
74.02297950204957
 21
59.26098380254734
 31
0.0
  0
LINE
  5
21CC7
330
1A
100
AcDbEntity
  8
ELEVATION
100
AcDbLine
 10
74.06003439057531
 20
58.99851099410262
 30
0.0
 11
74.13557858869172
 21
58.64766523847902
 31
0.0
  0
LINE
  5
21CC8
330
1A
100
AcDbEntity
  8
ELEVATION
100
AcDbLine
 10
73.83533993559104
 20
58.96690467232111
 30
0.0
 11
73.91354292192409
 21
58.60136663848971
 31
0.0
  0
LINE
  5
21CC9
330
1A
100
AcDbEntity
  8
ELEVATION
100
AcDbLine
 10
71.3445643281957
 20
57.93721682808609
 30
0.0
 11
71.3445643281957
 21
58.96695617728074
 31
0.0
  0
LINE
  5
21CCA
330
1A
100
AcDbEntity
  8
ELEVATION
100
AcDbLine
 10
71.57143199721031
 20
57.93721682808609
 30
0.0
 11
71.57143199721031
 21
58.96695617728074
 31
0.0
  0
LINE
  5
21CCB
330
1A
100
AcDbEntity
  8
ELEVATION
100
AcDbLine
 10
71.23103894095402
 20
61.00006768895582
 30
0.0
 11
71.68491160809208
 21
61.00006768895582
 31
0.0
  0
LINE
  5
21CCC
330
1A
100
AcDbEntity
  8
ELEVATION
100
AcDbLine
 10
71.23108471731393
 20
59.36154845067722
 30
0.0
 11
71.23108471731393
 21
61.00002191258863
 31
0.0
  0
LINE
  5
21CCD
330
1A
100
AcDbEntity
  8
ELEVATION
100
AcDbLine
 10
71.68491160809208
 20
59.37484648494865
 30
0.0
 11
71.68491160809208
 21
61.00002191258863
 31
0.0
  0
ARC
  5
21CCE
330
1A
100
AcDbEntity
  8
ELEV HIDDEN
100
AcDbCircle
 10
75.61229491389531
 20
59.33515837578124
 30
0.0
 40
0.1512499853596096
100
AcDbArc
 50
277.1790454074948
 51
0.4476574283442726
  0
ARC
  5
21CCF
330
1A
100
AcDbEntity
  8
ELEV HIDDEN
100
AcDbCircle
 10
74.87492921321972
 20
58.80694489054622
 30
0.0
 40
0.9831249718926855
100
AcDbArc
 50
274.8505451271129
 51
359.9999521886758
  0
ARC
  5
21CD0
330
1A
100
AcDbEntity
  8
ELEV HIDDEN
100
AcDbCircle
 10
74.87492921321972
 20
58.80694489054622
 30
0.0
 40
0.7562499715015301
100
AcDbArc
 50
276.3108942132417
 51
0.0000341509458501
  0
ARC
  5
21CD1
330
1A
100
AcDbEntity
  8
ELEVATION
100
AcDbCircle
 10
73.89407902272068
 20
59.1089315758818
 30
0.0
 40
0.1535922131361898
100
AcDbArc
 50
128.5049275729871
 51
247.5111383879129
  0
ARC
  5
21CD2
330
1A
100
AcDbEntity
  8
ELEVATION
100
AcDbCircle
 10
73.96429996789811
 20
59.11877349453243
 30
0.0
 40
0.1535922131361898
100
AcDbArc
 50
308.4888272234145
 51
67.49500047238723
  0
ARC
  5
21CD3
330
1A
100
AcDbEntity
  8
ELEVATION
100
AcDbCircle
 10
74.87492921321972
 20
58.80694489054622
 30
0.0
 40
0.7562499715015301
100
AcDbArc
 50
192.161898129067
 51
276.3108942132417
  0
ARC
  5
21CD4
330
1A
100
AcDbEntity
  8
ELEVATION
100
AcDbCircle
 10
74.87492921321972
 20
58.80694489054622
 30
0.0
 40
0.9831249718926855
100
AcDbArc
 50
192.0701140469577
 51
274.8505451271129
  0
ARC
  5
21CD5
330
1A
100
AcDbEntity
  8
ELEVATION
100
AcDbCircle
 10
71.45799816270301
 20
57.93726260445146
 30
0.0
 40
0.1134375001955777
100
AcDbArc
 50
180.0000359721976
 51
0.0
  0
ARC
  5
21CD6
330
1A
100
AcDbEntity
  8
ELEVATION
100
AcDbCircle
 10
71.44925487683213
 20
59.11382964702534
 30
0.0
 40
0.1803770309574297
100
AcDbArc
 50
125.5025403382986
 51
234.4974423588557
  0
ARC
  5
21CD7
330
1A
100
AcDbEntity
  8
ELEVATION
100
AcDbCircle
 10
71.46664989584678
 20
59.11382964702534
 30
0.0
 40
0.1803770309574297
100
AcDbArc
 50
305.5025524050591
 51
54.49744759494091
  0
ARC
  5
21CD8
330
1A
100
AcDbEntity
  8
ELEVATION
100
AcDbCircle
 10
71.53742015740863
 20
59.40808012653542
 30
0.0
 40
0.1512499965354801
100
AcDbArc
 50
282.9723503898188
 51
347.0281662000227
  0
ARC
  5
21CD9
330
1A
100
AcDbEntity
  8
ELEVATION
100
AcDbCircle
 10
71.37843883890309
 20
59.40808012653542
 30
0.0
 40
0.1512499965354801
100
AcDbArc
 50
192.9718766024036
 51
257.0276855825764
  0
LINE
  5
21CDA
330
1A
100
AcDbEntity
  8
ELEV HIDDEN
100
AcDbLine
 10
67.15273095701559
 20
61.00006768895582
 30
0.0
 11
66.95818140226766
 21
61.00006768895582
 31
0.0
  0
LINE
  5
21CDB
330
1A
100
AcDbEntity
  8
ELEV HIDDEN
100
AcDbLine
 10
67.1526851806484
 20
59.33389952571997
 30
0.0
 11
67.1526851806484
 21
61.00002191258863
 31
0.0
  0
LINE
  5
21CDC
330
1A
100
AcDbEntity
  8
ELEV HIDDEN
100
AcDbLine
 10
67.28507043061108
 20
58.80687622599544
 30
0.0
 11
67.28507043061108
 21
59.18501189588096
 31
0.0
  0
LINE
  5
21CDD
330
1A
100
AcDbEntity
  8
ELEVATION
100
AcDbLine
 10
69.11785236369905
 20
59.22935743747803
 30
0.0
 11
68.89319992881064
 21
59.26098380254734
 31
0.0
  0
LINE
  5
21CDE
330
1A
100
AcDbEntity
  8
ELEVATION
100
AcDbLine
 10
68.8561450402849
 20
58.99851099410262
 30
0.0
 11
68.7806008421685
 21
58.64766523847902
 31
0.0
  0
LINE
  5
21CDF
330
1A
100
AcDbEntity
  8
ELEVATION
100
AcDbLine
 10
69.08083949526917
 20
58.96690467232111
 30
0.0
 11
69.00263650893612
 21
58.60136663848971
 31
0.0
  0
ARC
  5
21CE0
330
1A
100
AcDbEntity
  8
ELEV HIDDEN
100
AcDbCircle
 10
67.3038845169649
 20
59.33515837578124
 30
0.0
 40
0.1512499853596096
100
AcDbArc
 50
179.5523425716557
 51
262.8209545920916
  0
ARC
  5
21CE1
330
1A
100
AcDbEntity
  8
ELEV HIDDEN
100
AcDbCircle
 10
68.04125021764048
 20
58.80694489054622
 30
0.0
 40
0.9831249718926855
100
AcDbArc
 50
180.0000478113242
 51
265.1494548733024
  0
ARC
  5
21CE2
330
1A
100
AcDbEntity
  8
ELEV HIDDEN
100
AcDbCircle
 10
68.04125021764048
 20
58.80694489054622
 30
0.0
 40
0.7562499715015301
100
AcDbArc
 50
179.9999658490541
 51
263.6891057871726
  0
ARC
  5
21CE3
330
1A
100
AcDbEntity
  8
ELEVATION
100
AcDbCircle
 10
69.02210040813952
 20
59.1089315758818
 30
0.0
 40
0.1535922131361898
100
AcDbArc
 50
292.488861612087
 51
51.49507242701283
  0
ARC
  5
21CE4
330
1A
100
AcDbEntity
  8
ELEVATION
100
AcDbCircle
 10
68.9518794629621
 20
59.11877349453243
 30
0.0
 40
0.1535922131361898
100
AcDbArc
 50
112.5049995271877
 51
231.5111727765856
  0
ARC
  5
21CE5
330
1A
100
AcDbEntity
  8
ELEVATION
100
AcDbCircle
 10
68.04125021764048
 20
58.80694489054622
 30
0.0
 40
0.7562499715015301
100
AcDbArc
 50
263.6891057871726
 51
347.8381018708311
  0
ARC
  5
21CE6
330
1A
100
AcDbEntity
  8
ELEVATION
100
AcDbCircle
 10
68.04125021764048
 20
58.80694489054622
 30
0.0
 40
0.9831249718926855
100
AcDbArc
 50
265.1494548733024
 51
347.9298859531442
  0
LINE
  5
21CE7
330
1A
100
AcDbEntity
  8
frame
100
AcDbLine
 10
112.9567497949465
 20
61.8037862318979
 30
0.0
 11
113.6044997949429
 21
61.8037862318979
 31
0.0
  0
ARC
  5
21CE8
330
1A
100
AcDbEntity
  8
frame
100
AcDbCircle
 10
112.9567497949465
 20
61.87478623189782
 30
0.0
 40
0.071
100
AcDbArc
 50
180.0
 51
270.0
  0
LINE
  5
21CE9
330
1A
100
AcDbEntity
  8
frame
100
AcDbLine
 10
112.9567497949465
 20
62.8037862318979
 30
0.0
 11
114.3544997949429
 21
62.8037862318979
 31
0.0
  0
ARC
  5
21CEA
330
1A
100
AcDbEntity
  8
frame
100
AcDbCircle
 10
112.9567497949465
 20
62.73278623189799
 30
0.0
 40
0.071
100
AcDbArc
 50
90.0
 51
180.0
  0
LINE
  5
21CEB
330
1A
100
AcDbEntity
  8
frame
100
AcDbLine
 10
112.8857497949429
 20
62.73278623189799
 30
0.0
 11
112.8857497949429
 21
61.87478623189782
 31
0.0
  0
LINE
  5
21CEC
330
1A
100
AcDbEntity
  8
frame
100
AcDbLine
 10
112.9638747949429
 20
62.7256612318979
 30
0.0
 11
114.3544997949429
 21
62.7256612318979
 31
0.0
  0
LINE
  5
21CED
330
1A
100
AcDbEntity
  8
frame
100
AcDbLine
 10
112.9638747949429
 20
62.7256612318979
 30
0.0
 11
112.9638747949429
 21
61.8819112318979
 31
0.0
  0
LINE
  5
21CEE
330
1A
100
AcDbEntity
  8
frame
100
AcDbLine
 10
112.9638747949429
 20
61.8819112318979
 30
0.0
 11
113.6044997949429
 21
61.8819112318979
 31
0.0
  0
LINE
  5
21CEF
330
1A
100
AcDbEntity
  8
frame
100
AcDbLine
 10
113.6044997949429
 20
61.8037862318979
 30
0.0
 11
113.6044997949429
 21
61.8819112318979
 31
0.0
  0
LINE
  5
21CF0
330
1A
100
AcDbEntity
  8
frame
100
AcDbLine
 10
114.3544997949429
 20
62.7256612318979
 30
0.0
 11
114.3544997949429
 21
62.8037862318979
 31
0.0
  0
LINE
  5
21CF1
330
1A
100
AcDbEntity
  8
top
370
    35
100
AcDbLine
 10
127.8541895748858
 20
62.74878637690017
 30
0.0
 11
114.6194692032222
 21
62.74878637690017
 31
0.0
  0
ARC
  5
21CF2
330
1A
100
AcDbEntity
  8
top
370
    35
100
AcDbCircle
 10
114.6194692032222
 20
62.69378636811779
 30
0.0
 40
0.0550000088000004
100
AcDbArc
 50
90.0
 51
134.9999999998526
  0
LINE
  5
21CF3
330
1A
100
AcDbEntity
  8
top
370
    35
100
AcDbLine
 10
126.7529393985678
 20
61.9050362418584
 30
0.0
 11
115.1123125361555
 21
61.9050362418584
 31
0.0
  0
LINE
  5
21CF4
330
1A
100
AcDbEntity
  8
top
370
    35
100
AcDbLine
 10
127.8541895748858
 20
62.69378636811779
 30
0.0
 11
126.7529393985678
 21
62.69378636811779
 31
0.0
  0
LINE
  5
21CF5
330
1A
100
AcDbEntity
  8
top
370
    35
100
AcDbLine
 10
115.1123125361555
 20
62.74878637690017
 30
0.0
 11
115.1123125361555
 21
61.9050362418584
 31
0.0
  0
LINE
  5
21CF6
330
1A
100
AcDbEntity
  8
top
370
    35
100
AcDbLine
 10
126.7529393985678
 20
62.74878637690017
 30
0.0
 11
126.7529393985678
 21
61.9050362418584
 31
0.0
  0
LINE
  5
21CF7
330
1A
100
AcDbEntity
  8
top
370
    35
100
AcDbLine
 10
114.5341874437217
 20
62.68628636688845
 30
0.0
 11
114.5805783240867
 21
62.73267724725338
 31
0.0
  0
LINE
  5
21CF8
330
1A
100
AcDbEntity
  8
top
370
    35
100
AcDbLine
 10
114.5730783228573
 20
62.64739548769466
 30
0.0
 11
114.6194692032222
 21
62.69378636811779
 31
0.0
  0
ARC
  5
21CF9
330
1A
100
AcDbEntity
  8
top
370
    35
100
AcDbCircle
 10
114.5341874437217
 20
62.68628636688845
 30
0.0
 40
0.0550000088000004
100
AcDbArc
 50
270.0
 51
314.9999999998526
  0
LINE
  5
21CFA
330
1A
100
AcDbEntity
  8
top
370
    35
100
AcDbLine
 10
113.0029371985511
 20
62.63128635804787
 30
0.0
 11
113.0029371985511
 21
62.21753629185878
 31
0.0
  0
LINE
  5
21CFB
330
1A
100
AcDbEntity
  8
top
370
    35
100
AcDbLine
 10
113.0579372075663
 20
62.63128635804787
 30
0.0
 11
113.0579372075663
 21
62.21753629185878
 31
0.0
  0
LINE
  5
21CFC
330
1A
100
AcDbEntity
  8
top
370
    35
100
AcDbLine
 10
113.0579372075663
 20
62.68628636688845
 30
0.0
 11
114.5341874437217
 21
62.68628636688845
 31
0.0
  0
ARC
  5
21CFD
330
1A
100
AcDbEntity
  8
top
370
    35
100
AcDbCircle
 10
113.0579372075663
 20
62.63128635804787
 30
0.0
 40
0.0550000088000004
100
AcDbArc
 50
90.0
 51
180.0
  0
LINE
  5
21CFE
330
1A
100
AcDbEntity
  8
top
370
    35
100
AcDbLine
 10
113.0579372075663
 20
62.63128635804787
 30
0.0
 11
114.5341874437217
 21
62.63128635804787
 31
0.0
  0
LINE
  5
21CFF
330
1A
100
AcDbEntity
  8
top
370
    35
100
AcDbLine
 10
115.1123125361555
 20
62.69378636811779
 30
0.0
 11
114.6194692032222
 21
62.69378636811779
 31
0.0
  0
LINE
  5
21D00
330
1A
100
AcDbEntity
  8
top
370
    35
100
AcDbLine
 10
127.9091895836682
 20
62.69378636811779
 30
0.0
 11
127.9091895836682
 21
61.9050362418584
 31
0.0
  0
ARC
  5
21D01
330
1A
100
AcDbEntity
  8
top
370
    35
100
AcDbCircle
 10
127.8541895748858
 20
62.69378636811779
 30
0.0
 40
0.0550000088000004
100
AcDbArc
 50
0.0
 51
90.0
  0
LINE
  5
21D02
330
1A
100
AcDbEntity
  8
top
370
    35
100
AcDbLine
 10
127.8541895748858
 20
62.69378636811779
 30
0.0
 11
127.8541895748858
 21
61.9050362418584
 31
0.0
  0
LINE
  5
21D03
330
1A
100
AcDbEntity
  8
top
370
    35
100
AcDbLine
 10
127.9091895836682
 20
61.9050362418584
 30
0.0
 11
127.8541895748858
 21
61.9050362418584
 31
0.0
  0
LINE
  5
21D04
330
1A
100
AcDbEntity
  8
door
100
AcDbLine
 10
112.9567497949538
 20
62.9287862318979
 30
0.0
 11
113.6982497949575
 21
62.9287862318979
 31
0.0
  0
LINE
  5
21D05
330
1A
100
AcDbEntity
  8
door
100
AcDbLine
 10
112.9567497949538
 20
62.99978623189781
 30
0.0
 11
113.6982497949575
 21
62.99978623189781
 31
0.0
  0
ARC
  5
21D06
330
1A
100
AcDbEntity
  8
door
100
AcDbCircle
 10
112.9567497949538
 20
62.99978623189781
 30
0.0
 40
0.071
100
AcDbArc
 50
180.0
 51
270.0
  0
LINE
  5
21D07
330
1A
100
AcDbEntity
  8
door
100
AcDbLine
 10
113.6982497949575
 20
62.9287862318979
 30
0.0
 11
113.6982497949575
 21
62.99978623189781
 31
0.0
  0
LINE
  5
21D08
330
1A
100
AcDbEntity
  8
door
100
AcDbLine
 10
113.729499794943
 20
61.74128626542551
 30
0.0
 11
113.729499794943
 21
61.6702862654256
 31
0.0
  0
LINE
  5
21D09
330
1A
100
AcDbEntity
  8
door
100
AcDbLine
 10
112.9567497949465
 20
61.74128626542551
 30
0.0
 11
113.729499794943
 21
61.74128626542551
 31
0.0
  0
ARC
  5
21D0A
330
1A
100
AcDbEntity
  8
door
100
AcDbCircle
 10
112.9567497949465
 20
61.6702862654256
 30
0.0
 40
0.071
100
AcDbArc
 50
90.0
 51
180.0
  0
LINE
  5
21D0B
330
1A
100
AcDbEntity
  8
door
100
AcDbLine
 10
112.9567497949465
 20
61.6702862654256
 30
0.0
 11
113.729499794943
 21
61.6702862654256
 31
0.0
  0
LINE
  5
21D0C
330
1A
100
AcDbEntity
  8
top
370
    35
100
AcDbLine
 10
113.0029371985511
 20
62.21753629185878
 30
0.0
 11
113.0579372075663
 21
62.21753629185878
 31
0.0
  0
ENDSEC
  0
SECTION
  2
OBJECTS
  0
DICTIONARY
  5
C
330
0
100
AcDbDictionary
281
     1
  3
ACAD_CIP_PREVIOUS_PRODUCT_INFO
350
1954F
  3
ACAD_COLOR
350
152C8
  3
ACAD_DETAILVIEWSTYLE
350
19549
  3
ACAD_DGNLINESTYLECOMP
350
1E8EC
  3
ACAD_GROUP
350
D
  3
ACAD_IMAGE_DICT
350
D338
  3
ACAD_LAYOUT
350
5D96
  3
ACAD_MATERIAL
350
152C7
  3
ACAD_MLEADERSTYLE
350
18BCA
  3
ACAD_MLINESTYLE
350
E
  3
ACAD_PLOTSETTINGS
350
5D97
  3
ACAD_PLOTSTYLENAME
350
5D94
  3
ACAD_SCALELIST
350
18BA8
  3
ACAD_SECTIONVIEWSTYLE
350
19546
  3
ACAD_TABLESTYLE
350
1835B
  3
ACAD_VISUALSTYLE
350
1834A
  3
AcadDim
350
16861
  3
ACDB_RECOMPOSE_DATA
350
21D60
  3
AcDbVariableDictionary
350
F6BD
  3
AEC_PROPERTY_SET_DEFS
350
19250
  3
BNS_SELSET
350
54CC
  0
DICTIONARY
  5
1857C
330
8
100
AcDbDictionary
280
     1
281
     1
  0
DICTIONARY
  5
18C2C
330
2
100
AcDbDictionary
280
     1
281
     1
  3
ACAD_LAYERSTATES
360
18C2D
  0
DICTIONARY
  5
18BD0
330
F
100
AcDbDictionary
280
     1
281
     1
  3
ADSK_XREC_LAYER_RECONCILED
360
18BD1
  0
DICTIONARY
  5
18BD2
330
36
100
AcDbDictionary
280
     1
281
     1
  3
ADSK_XREC_LAYER_RECONCILED
360
18BD3
  0
DICTIONARY
  5
18BD6
330
14178
100
AcDbDictionary
280
     1
281
     1
  3
ADSK_XREC_LAYER_RECONCILED
360
18BD7
  0
DICTIONARY
  5
1A809
330
1A808
100
AcDbDictionary
280
     1
281
     1
  0
DICTIONARY
  5
1A80B
330
1A80A
100
AcDbDictionary
280
     1
281
     1
  0
DICTIONARY
  5
1A80D
330
1A80C
100
AcDbDictionary
280
     1
281
     1
  0
DICTIONARY
  5
1A80F
330
1A80E
100
AcDbDictionary
280
     1
281
     1
  0
DICTIONARY
  5
1E73C
330
1E73B
100
AcDbDictionary
280
     1
281
     1
  0
DICTIONARY
  5
1E740
330
1E73F
100
AcDbDictionary
280
     1
281
     1
  0
DICTIONARY
  5
1E742
330
1E741
100
AcDbDictionary
280
     1
281
     1
  0
DICTIONARY
  5
1E745
330
1E744
100
AcDbDictionary
280
     1
281
     1
  0
DICTIONARY
  5
1E747
330
1E746
100
AcDbDictionary
280
     1
281
     1
  0
DICTIONARY
  5
1E749
330
1E748
100
AcDbDictionary
280
     1
281
     1
  0
DICTIONARY
  5
1EFB9
330
1EFB8
100
AcDbDictionary
280
     1
281
     1
  0
DICTIONARY
  5
183EF
330
1A
100
AcDbDictionary
280
     1
281
     1
  3
ACAD_SORTENTS
360
183F0
  0
DICTIONARY
  5
1E708
330
1E707
100
AcDbDictionary
280
     1
281
     1
  3
ACAD_SORTENTS
360
1E709
  0
DICTIONARY
  5
1E72D
330
1E72C
100
AcDbDictionary
280
     1
281
     1
  3
ACAD_SORTENTS
360
1E72E
  0
XRECORD
  5
1954F
102
{ACAD_REACTORS
330
C
102
}
330
C
100
AcDbXrecord
280
     1
300
AMECH_PP
300
2013
300
AMECH_PP_F_S
  0
DICTIONARY
  5
152C8
102
{ACAD_REACTORS
330
C
102
}
330
C
100
AcDbDictionary
281
     1
  0
DICTIONARY
  5
19549
102
{ACAD_REACTORS
330
C
102
}
330
C
100
AcDbDictionary
281
     1
  3
Imperial24
350
1954A
  0
DICTIONARY
  5
1E8EC
102
{ACAD_REACTORS
330
C
102
}
330
C
100
AcDbDictionary
280
     1
281
     1
  3
Base$0$base5.14.12$0$DGN2
360
1E8ED
  3
Base$0$base5.14.12$0$DGN3
360
1E8EE
  3
Base$0$DGN2
360
1E8EF
  3
Base$0$DGN3
360
1E8F0
  3
Base$0$DGN7
360
1E8F1
  3
Base$0$etopo$0$DGN2
360
1E8F2
  3
Base$0$etopo$0$DGN3
360
1E8F3
  3
Base$0$X103294002ebs01$0$DGN2
360
1E8F4
  3
Base$0$X103294002ebs01$0$DGN3
360
1E8F5
  3
Base$0$X103294002ebs01$0$etopo$0$DGN2
360
1E8F6
  3
Base$0$X103294002ebs01$0$etopo$0$DGN3
360
1E8F7
  3
Base$0$X103294002pbs01$0$DGN2
360
1E8F8
  3
Base$0$X103294002pbs01$0$DGN3
360
1E8F9
  3
Base$0$X103294002pbs01$0$etopo$0$DGN2
360
1E8FA
  3
Base$0$X103294002pbs01$0$etopo$0$DGN3
360
1E8FB
  3
Base$0$X103294002pto01$0$DGN2
360
1E8FC
  3
Base$0$X103294002pto01$0$DGN3
360
1E8FD
  3
Base$0$X103294002pto01$0$etopo$0$DGN2
360
1E8FE
  3
Base$0$X103294002pto01$0$etopo$0$DGN3
360
1E8FF
  3
base5.14.12$0$DGN2
360
1E900
  3
base5.14.12$0$DGN3
360
1E901
  3
DGN2
360
1E902
  3
DGN3
360
1E903
  3
DGN7
360
1E904
  3
etopo$0$DGN2
360
1E905
  3
etopo$0$DGN3
360
1E906
  3
TB_24X36_SUB$0$base5.14.12$0$DGN2
360
1E907
  3
TB_24X36_SUB$0$base5.14.12$0$DGN3
360
1E908
  3
TB_24X36_SUB$0$DGN2
360
1E909
  3
TB_24X36_SUB$0$DGN3
360
1E90A
  3
TB_24X36_SUB$0$DGN7
360
1E90B
  3
TB_24X36_SUB$0$etopo$0$DGN2
360
1E90C
  3
TB_24X36_SUB$0$etopo$0$DGN3
360
1E90D
  3
TB_24X36_SUB$0$X103294002ebs01$0$DGN2
360
1E90E
  3
TB_24X36_SUB$0$X103294002ebs01$0$DGN3
360
1E90F
  3
TB_24X36_SUB$0$X103294002ebs01$0$etopo$0$DGN2
360
1E910
  3
TB_24X36_SUB$0$X103294002ebs01$0$etopo$0$DGN3
360
1E911
  3
TB_24X36_SUB$0$X103294002pbs01$0$DGN2
360
1E912
  3
TB_24X36_SUB$0$X103294002pbs01$0$DGN3
360
1E913
  3
TB_24X36_SUB$0$X103294002pbs01$0$etopo$0$DGN2
360
1E914
  3
TB_24X36_SUB$0$X103294002pbs01$0$etopo$0$DGN3
360
1E915
  3
TB_24X36_SUB$0$X103294002pto01$0$DGN2
360
1E916
  3
TB_24X36_SUB$0$X103294002pto01$0$DGN3
360
1E917
  3
TB_24X36_SUB$0$X103294002pto01$0$etopo$0$DGN2
360
1E918
  3
TB_24X36_SUB$0$X103294002pto01$0$etopo$0$DGN3
360
1E919
  3
Topo$0$base5.14.12$0$DGN2
360
1E91A
  3
Topo$0$base5.14.12$0$DGN3
360
1E91B
  3
Topo$0$DGN2
360
1E91C
  3
Topo$0$DGN3
360
1E91D
  3
Topo$0$DGN7
360
1E91E
  3
Topo$0$etopo$0$DGN2
360
1E91F
  3
Topo$0$etopo$0$DGN3
360
1E920
  3
Topo$0$X103294002ebs01$0$DGN2
360
1E921
  3
Topo$0$X103294002ebs01$0$DGN3
360
1E922
  3
Topo$0$X103294002ebs01$0$etopo$0$DGN2
360
1E923
  3
Topo$0$X103294002ebs01$0$etopo$0$DGN3
360
1E924
  3
Topo$0$X103294002pbs01$0$DGN2
360
1E925
  3
Topo$0$X103294002pbs01$0$DGN3
360
1E926
  3
Topo$0$X103294002pbs01$0$etopo$0$DGN2
360
1E927
  3
Topo$0$X103294002pbs01$0$etopo$0$DGN3
360
1E928
  3
Topo$0$X103294002pto01$0$DGN2
360
1E929
  3
Topo$0$X103294002pto01$0$DGN3
360
1E92A
  3
Topo$0$X103294002pto01$0$etopo$0$DGN2
360
1E92B
  3
Topo$0$X103294002pto01$0$etopo$0$DGN3
360
1E92C
  3
X103294002ebs01$0$DGN2
360
1E92D
  3
X103294002ebs01$0$DGN3
360
1E92E
  3
X103294002ebs01$0$etopo$0$DGN2
360
1E92F
  3
X103294002ebs01$0$etopo$0$DGN3
360
1E930
  3
X103294002pbs01$0$DGN2
360
1E931
  3
X103294002pbs01$0$DGN3
360
1E932
  3
X103294002pbs01$0$etopo$0$DGN2
360
1E933
  3
X103294002pbs01$0$etopo$0$DGN3
360
1E934
  3
X103294002pto01$0$DGN2
360
1E935
  3
X103294002pto01$0$DGN3
360
1E936
  3
X103294002pto01$0$etopo$0$DGN2
360
1E937
  3
X103294002pto01$0$etopo$0$DGN3
360
1E938
  0
DICTIONARY
  5
D
102
{ACAD_REACTORS
330
C
102
}
330
C
100
AcDbDictionary
281
     1
  0
DICTIONARY
  5
D338
102
{ACAD_REACTORS
330
C
102
}
330
C
100
AcDbDictionary
281
     1
  3
BENCH_WITH_BRACKET_SUPPORT
350
D339
  0
DICTIONARY
  5
5D96
102
{ACAD_REACTORS
330
C
102
}
330
C
100
AcDbDictionary
281
     1
  3
Layout1
350
5D99
  3
Model
350
5D98
  0
DICTIONARY
  5
152C7
102
{ACAD_REACTORS
330
C
102
}
330
C
100
AcDbDictionary
281
     1
  3
ByBlock
350
18348
  3
ByLayer
350
18347
  3
Global
350
18349
  0
DICTIONARY
  5
18BCA
102
{ACAD_REACTORS
330
C
102
}
330
C
100
AcDbDictionary
281
     1
  3
Standard
350
18BCB
  0
DICTIONARY
  5
E
102
{ACAD_REACTORS
330
C
102
}
330
C
100
AcDbDictionary
281
     1
  3
STANDARD
350
13
  0
DICTIONARY
  5
5D97
102
{ACAD_REACTORS
330
C
102
}
330
C
100
AcDbDictionary
281
     1
  3
LASERJET5000 (MODEL)
350
7F14
  3
OCE 22x34 (MODEL)
350
D238
  0
ACDBDICTIONARYWDFLT
  5
5D94
102
{ACAD_REACTORS
330
C
102
}
330
C
100
AcDbDictionary
281
     1
  3
Normal
350
5D95
100
AcDbDictionaryWithDefault
340
5D95
  0
DICTIONARY
  5
18BA8
102
{ACAD_REACTORS
330
C
102
}
330
C
100
AcDbDictionary
281
     1
  3
A0
350
18BA9
  3
A1
350
18BAA
  3
A2
350
18BAB
  3
A3
350
18BAC
  3
A4
350
18BAD
  3
A5
350
18BAE
  3
A6
350
18BAF
  3
A7
350
18BB0
  3
A8
350
18BB1
  3
A9
350
18BB2
  3
B0
350
18BB3
  3
B1
350
18BB4
  3
B2
350
18BB5
  3
B3
350
18BB6
  3
B4
350
18BB7
  3
B5
350
18BB8
  3
B6
350
18BB9
  3
B7
350
18BBA
  3
B8
350
18BBB
  3
B9
350
18BBC
  3
C0
350
18BBD
  3
C1
350
18BBE
  3
C2
350
18BBF
  3
C3
350
18BC0
  3
C4
350
18BC1
  3
C5
350
18BC2
  3
C6
350
18BC3
  3
C7
350
18BC4
  3
C8
350
18BC5
  3
C9
350
18BC6
  3
D0
350
18BC7
  3
D1
350
18BC8
  3
D2
350
18BC9
  0
DICTIONARY
  5
19546
102
{ACAD_REACTORS
330
C
102
}
330
C
100
AcDbDictionary
281
     1
  3
Imperial24
350
19548
  0
DICTIONARY
  5
1835B
102
{ACAD_REACTORS
330
C
102
}
330
C
100
AcDbDictionary
281
     1
  3
Standard
350
1835C
  0
DICTIONARY
  5
1834A
102
{ACAD_REACTORS
330
C
102
}
330
C
100
AcDbDictionary
281
     1
  3
2dWireframe
350
18350
  3
3D Hidden
350
18B33
  3
3dWireframe
350
18B32
  3
Basic
350
1834F
  3
Brighten
350
18356
  3
ColorChange
350
1835A
  3
Conceptual
350
18B34
  3
Dim
350
18355
  3
EdgeColorOff
350
18BA7
  3
Facepattern
350
18359
  3
Flat
350
1834B
  3
FlatWithEdges
350
1834C
  3
Gouraud
350
1834D
  3
GouraudWithEdges
350
1834E
  3
Hidden
350
19540
  3
JitterOff
350
18BA5
  3
Linepattern
350
18358
  3
OverhangOff
350
18BA6
  3
Realistic
350
18B35
  3
Shaded
350
19545
  3
Shaded with edges
350
19544
  3
Shades of Gray
350
19541
  3
Sketchy
350
19542
  3
Thicken
350
18357
  3
Wireframe
350
1953F
  3
X-Ray
350
19543
  0
XRECORD
  5
16861
102
{ACAD_REACTORS
330
C
102
}
330
C
100
AcDbXrecord
280
     1
 90
   990106
  3

 60
     0
 61
     0
 62
     1
 63
     3
 64
     0
 65
     0
 66
     0
 67
     3
 68
     1
 69
     0
 70
     0
 71
     0
 72
     0
 40
0.0
170
     0
340
0
  0
XRECORD
  5
21D60
102
{ACAD_REACTORS
330
C
102
}
330
C
100
AcDbXrecord
280
     1
 90
        1
330
1835C
  0
DICTIONARY
  5
F6BD
102
{ACAD_REACTORS
330
C
102
}
330
C
100
AcDbDictionary
281
     1
  3
CANNOSCALE
350
1953D
  3
CMLEADERSTYLE
350
1953C
  3
CTABLESTYLE
350
185A4
  3
CVIEWDETAILSTYLE
350
1959E
  3
CVIEWSECTIONSTYLE
350
1959F
  3
SORTENTS
350
F6BE
  0
DICTIONARY
  5
19250
102
{ACAD_REACTORS
330
C
102
}
330
C
100
AcDbDictionary
281
     1
  0
DICTIONARY
  5
54CC
102
{ACAD_REACTORS
330
C
102
}
330
0
100
AcDbDictionary
281
     1
  3
BNS_SS01
350
5508
  3
BNS_SS02
350
5509
  3
BNS_SS03
350
550A
  3
BNS_SS04
350
550B
  0
DICTIONARY
  5
18C2D
102
{ACAD_REACTORS
330
18C2C
102
}
330
18C2C
100
AcDbDictionary
281
     1
  0
XRECORD
  5
18BD1
102
{ACAD_REACTORS
330
18BD0
102
}
330
18BD0
100
AcDbXrecord
280
     1
290
     1
  0
XRECORD
  5
18BD3
102
{ACAD_REACTORS
330
18BD2
102
}
330
18BD2
100
AcDbXrecord
280
     1
290
     1
  0
XRECORD
  5
18BD7
102
{ACAD_REACTORS
330
18BD6
102
}
330
18BD6
100
AcDbXrecord
280
     1
290
     1
  0
SORTENTSTABLE
  5
183F0
102
{ACAD_REACTORS
330
183EF
102
}
330
183EF
100
AcDbSortentsTable
330
1A
331
16791
  5
16791
331
17A1C
  5
17F3F
  0
SORTENTSTABLE
  5
1E709
102
{ACAD_REACTORS
330
1E708
102
}
330
1E708
100
AcDbSortentsTable
330
1E707
  0
SORTENTSTABLE
  5
1E72E
102
{ACAD_REACTORS
330
1E72D
102
}
330
1E72D
100
AcDbSortentsTable
330
1E72C
  0
ACDBDETAILVIEWSTYLE
  5
1954A
102
{ACAD_REACTORS
330
19549
102
}
330
19549
100
AcDbModelDocViewStyle
 70
     0
  3
Imperial24
290
     0
100
AcDbDetailViewStyle
 70
     0
 71
     0
 90
        3
 71
     1
340
10
 62
   256
 40
0.24
340
0
 62
   256
 40
0.24
300

 40
0.36
280
     3
 71
     2
340
16
 90
       25
 62
   256
 71
     3
340
10
 62
   256
 40
0.24
 90
        1
 40
0.75
 90
        1
300
%<\AcVar ViewType \f "%tc1">% %<\AcVar ViewDetailId>%\PSCALE %<\AcVar ViewScale \f "%sn">%
 71
     4
340
16
 90
       25
 62
   256
340
16
 90
       25
 62
   256
280
     0
  0
IMAGEDEF
  5
D339
102
{ACAD_REACTORS
330
D338
102
}
330
D338
100
AcDbRasterImageDef
 90
        0
  1
C:\Lockers\Ll4802\bench with bracket support.tif
 10
1676.0
 20
893.0
 11
0.127
 21
0.127
280
     1
281
     5
  0
LAYOUT
  5
5D99
102
{ACAD_REACTORS
330
5D96
102
}
330
5D96
100
AcDbPlotSettings
  1

  2
HP LaserJet 4MV
  4

  6

 40
0.0
 41
0.0
 42
0.0
 43
0.0
 44
0.0
 45
0.0
 46
0.0
 47
0.0
 48
0.0
 49
0.0
140
0.0
141
0.0
142
1.0
143
1.0
 70
   688
 72
     0
 73
     0
 74
     5
  7

 75
    16
147
1.0
 76
     0
 77
     2
 78
   300
148
0.0
149
0.0
100
AcDbLayout
  1
Layout1
 70
     1
 71
     1
 10
0.0
 20
0.0
 11
12.0
 21
9.0
 12
0.0
 22
0.0
 32
0.0
 14
1.000000000000000E+20
 24
1.000000000000000E+20
 34
1.000000000000000E+20
 15
-1.000000000000000E+20
 25
-1.000000000000000E+20
 35
-1.000000000000000E+20
146
0.0
 13
0.0
 23
0.0
 33
0.0
 16
1.0
 26
0.0
 36
0.0
 17
0.0
 27
1.0
 37
0.0
 76
     0
330
17
  0
LAYOUT
  5
5D98
102
{ACAD_XDICTIONARY
360
19508
102
}
102
{ACAD_REACTORS
330
5D96
102
}
330
5D96
100
AcDbPlotSettings
  1

  2
\\REPUBLIC01\LJ5000 CAD
  4
Letter
  6

 40
7.143749713897705
 41
6.720394611358642
 42
7.14373779296875
 43
3.757080078125
 44
215.8999938964844
 45
279.3999938964844
 46
34.1028580007554
 47
42.37165097832487
 48
0.0
 49
0.0
140
0.0
141
0.0
142
1.0
143
1.0
 70
 11956
 72
     0
 73
     1
 74
     1
  7
monochrome.ctb
 75
    16
147
1.0
 76
     1
 77
     2
 78
   300
148
-343.5033005404355
149
-709.2483680669708
100
AcDbLayout
  1
Model
 70
     1
 71
     0
 10
0.0
 20
0.0
 11
12.0
 21
9.0
 12
0.0
 22
0.0
 32
0.0
 14
0.0
 24
0.0
 34
0.0
 15
0.0
 25
0.0
 35
0.0
146
0.0
 13
0.0
 23
0.0
 33
0.0
 16
1.0
 26
0.0
 36
0.0
 17
0.0
 27
1.0
 37
0.0
 76
     0
330
1A
331
18345
1001
ACAD_PSEXT
1000
\\REPUBLIC01\LJ5000 CAD
1000
HP LaserJet 5000 Series PCL6
1000
Cad room
1000

1070
     0
  0
MATERIAL
  5
18348
102
{ACAD_XDICTIONARY
360
21D63
102
}
102
{ACAD_REACTORS
330
152C7
102
}
330
152C7
100
AcDbMaterial
  1
ByBlock
 73
     1
 78
     1
172
     1
176
     1
270
     1
274
     1
  0
MATERIAL
  5
18347
102
{ACAD_XDICTIONARY
360
21D61
102
}
102
{ACAD_REACTORS
330
152C7
102
}
330
152C7
100
AcDbMaterial
  1
ByLayer
 73
     1
 78
     1
172
     1
176
     1
270
     1
274
     1
  0
MATERIAL
  5
18349
102
{ACAD_XDICTIONARY
360
21D65
102
}
102
{ACAD_REACTORS
330
152C7
102
}
330
152C7
100
AcDbMaterial
  1
Global
 73
     1
 78
     1
172
     1
176
     1
270
     1
274
     1
  0
MLEADERSTYLE
  5
18BCB
102
{ACAD_REACTORS
330
18BCA
102
}
330
18BCA
100
AcDbMLeaderStyle
170
     2
171
     1
172
     0
 90
        2
 40
0.0
 41
0.0
173
     1
 91
-1056964608
340
14
 92
       -2
290
     1
 42
0.09
291
     1
 43
0.36
  3
Standard
 44
0.18
300

342
10
174
     1
178
     6
175
     1
176
     0
 93
-1056964608
 45
0.18
292
     0
297
     0
 46
0.18
 94
-1056964608
 47
1.0
 49
1.0
140
1.0
293
     1
141
0.0
294
     1
177
     0
142
1.0
295
     0
296
     0
143
0.125
1001
ACAD_MLEADERVER
1070
     2
  0
MLINESTYLE
  5
13
102
{ACAD_REACTORS
330
E
102
}
330
E
100
AcDbMlineStyle
  2
STANDARD
 70
     0
  3

 62
     0
 51
90.0
 52
90.0
 71
     2
 49
0.5
 62
   256
  6
BYLAYER
 49
-0.5
 62
   256
  6
BYLAYER
  0
PLOTSETTINGS
  5
7F14
102
{ACAD_REACTORS
330
5D97
102
}
330
5D97
100
AcDbPlotSettings
  1
LASERJET5000 (MODEL)
  2
LaserJet 5000 (CAD Room)
  4
11x17
  6

 40
5.027083396911621
 41
5.027085304260253
 42
5.027099609375
 43
5.027069091796875
 44
279.3999938964844
 45
431.7999877929687
 46
-0.762
 47
12.7
 48
0.0
 49
0.0
140
0.0
141
0.0
142
1.0
143
2.0
 70
  1712
 72
     0
 73
     1
 74
     1
  7
HP LaserJet.ctb
 75
    17
147
0.5
 76
     0
 77
     2
 78
   300
148
-9.836719936971038
149
0.0347099098089075
  0
PLOTSETTINGS
  5
D238
102
{ACAD_REACTORS
330
5D97
102
}
330
5D97
100
AcDbPlotSettings
  1
OCE 22x34 (MODEL)
  2
oce34x22.pc3
  4
ANSI_expand_D_(22.00_x_34.00_Inches)
  6

 40
0.7937499880790711
 41
0.7937499880790711
 42
0.79376220703125
 43
0.79376220703125
 44
558.7999877929687
 45
863.5999755859375
 46
0.0
 47
17.78
 48
0.0
 49
0.0
140
0.0
141
0.0
142
1.0
143
1.0
 70
  1712
 72
     0
 73
     1
 74
     1
  7
OCE 22x34.ctb
 75
    16
147
1.0
 76
     0
 77
     2
 78
   300
148
0.0624224285698944
149
0.0260279300389826
  0
ACDBPLACEHOLDER
  5
5D95
102
{ACAD_REACTORS
330
5D94
102
}
330
5D94
  0
SCALE
  5
18BA9
102
{ACAD_REACTORS
330
18BA8
102
}
330
18BA8
100
AcDbScale
 70
     0
300
1:1
140
1.0
141
1.0
290
     1
  0
SCALE
  5
18BAA
102
{ACAD_REACTORS
330
18BA8
102
}
330
18BA8
100
AcDbScale
 70
     0
300
1:2
140
1.0
141
2.0
290
     0
  0
SCALE
  5
18BAB
102
{ACAD_REACTORS
330
18BA8
102
}
330
18BA8
100
AcDbScale
 70
     0
300
1:4
140
1.0
141
4.0
290
     0
  0
SCALE
  5
18BAC
102
{ACAD_REACTORS
330
18BA8
102
}
330
18BA8
100
AcDbScale
 70
     0
300
1:5
140
1.0
141
5.0
290
     0
  0
SCALE
  5
18BAD
102
{ACAD_REACTORS
330
18BA8
102
}
330
18BA8
100
AcDbScale
 70
     0
300
1:8
140
1.0
141
8.0
290
     0
  0
SCALE
  5
18BAE
102
{ACAD_REACTORS
330
18BA8
102
}
330
18BA8
100
AcDbScale
 70
     0
300
1:10
140
1.0
141
10.0
290
     0
  0
SCALE
  5
18BAF
102
{ACAD_REACTORS
330
18BA8
102
}
330
18BA8
100
AcDbScale
 70
     0
300
1:16
140
1.0
141
16.0
290
     0
  0
SCALE
  5
18BB0
102
{ACAD_REACTORS
330
18BA8
102
}
330
18BA8
100
AcDbScale
 70
     0
300
1:20
140
1.0
141
20.0
290
     0
  0
SCALE
  5
18BB1
102
{ACAD_REACTORS
330
18BA8
102
}
330
18BA8
100
AcDbScale
 70
     0
300
1:30
140
1.0
141
30.0
290
     0
  0
SCALE
  5
18BB2
102
{ACAD_REACTORS
330
18BA8
102
}
330
18BA8
100
AcDbScale
 70
     0
300
1:40
140
1.0
141
40.0
290
     0
  0
SCALE
  5
18BB3
102
{ACAD_REACTORS
330
18BA8
102
}
330
18BA8
100
AcDbScale
 70
     0
300
1:50
140
1.0
141
50.0
290
     0
  0
SCALE
  5
18BB4
102
{ACAD_REACTORS
330
18BA8
102
}
330
18BA8
100
AcDbScale
 70
     0
300
1:100
140
1.0
141
100.0
290
     0
  0
SCALE
  5
18BB5
102
{ACAD_REACTORS
330
18BA8
102
}
330
18BA8
100
AcDbScale
 70
     0
300
2:1
140
2.0
141
1.0
290
     0
  0
SCALE
  5
18BB6
102
{ACAD_REACTORS
330
18BA8
102
}
330
18BA8
100
AcDbScale
 70
     0
300
4:1
140
4.0
141
1.0
290
     0
  0
SCALE
  5
18BB7
102
{ACAD_REACTORS
330
18BA8
102
}
330
18BA8
100
AcDbScale
 70
     0
300
8:1
140
8.0
141
1.0
290
     0
  0
SCALE
  5
18BB8
102
{ACAD_REACTORS
330
18BA8
102
}
330
18BA8
100
AcDbScale
 70
     0
300
10:1
140
10.0
141
1.0
290
     0
  0
SCALE
  5
18BB9
102
{ACAD_REACTORS
330
18BA8
102
}
330
18BA8
100
AcDbScale
 70
     0
300
100:1
140
100.0
141
1.0
290
     0
  0
SCALE
  5
18BBA
102
{ACAD_REACTORS
330
18BA8
102
}
330
18BA8
100
AcDbScale
 70
     0
300
1/128" = 1'-0"
140
0.0078125
141
12.0
290
     0
  0
SCALE
  5
18BBB
102
{ACAD_REACTORS
330
18BA8
102
}
330
18BA8
100
AcDbScale
 70
     0
300
1/64" = 1'-0"
140
0.015625
141
12.0
290
     0
  0
SCALE
  5
18BBC
102
{ACAD_REACTORS
330
18BA8
102
}
330
18BA8
100
AcDbScale
 70
     0
300
1/32" = 1'-0"
140
0.03125
141
12.0
290
     0
  0
SCALE
  5
18BBD
102
{ACAD_REACTORS
330
18BA8
102
}
330
18BA8
100
AcDbScale
 70
     0
300
1/16" = 1'-0"
140
0.0625
141
12.0
290
     0
  0
SCALE
  5
18BBE
102
{ACAD_REACTORS
330
18BA8
102
}
330
18BA8
100
AcDbScale
 70
     0
300
3/32" = 1'-0"
140
0.09375
141
12.0
290
     0
  0
SCALE
  5
18BBF
102
{ACAD_REACTORS
330
18BA8
102
}
330
18BA8
100
AcDbScale
 70
     0
300
1/8" = 1'-0"
140
0.125
141
12.0
290
     0
  0
SCALE
  5
18BC0
102
{ACAD_REACTORS
330
18BA8
102
}
330
18BA8
100
AcDbScale
 70
     0
300
3/16" = 1'-0"
140
0.1875
141
12.0
290
     0
  0
SCALE
  5
18BC1
102
{ACAD_REACTORS
330
18BA8
102
}
330
18BA8
100
AcDbScale
 70
     0
300
1/4" = 1'-0"
140
0.25
141
12.0
290
     0
  0
SCALE
  5
18BC2
102
{ACAD_REACTORS
330
18BA8
102
}
330
18BA8
100
AcDbScale
 70
     0
300
3/8" = 1'-0"
140
0.375
141
12.0
290
     0
  0
SCALE
  5
18BC3
102
{ACAD_REACTORS
330
18BA8
102
}
330
18BA8
100
AcDbScale
 70
     0
300
1/2" = 1'-0"
140
0.5
141
12.0
290
     0
  0
SCALE
  5
18BC4
102
{ACAD_REACTORS
330
18BA8
102
}
330
18BA8
100
AcDbScale
 70
     0
300
3/4" = 1'-0"
140
0.75
141
12.0
290
     0
  0
SCALE
  5
18BC5
102
{ACAD_REACTORS
330
18BA8
102
}
330
18BA8
100
AcDbScale
 70
     0
300
1" = 1'-0"
140
1.0
141
12.0
290
     0
  0
SCALE
  5
18BC6
102
{ACAD_REACTORS
330
18BA8
102
}
330
18BA8
100
AcDbScale
 70
     0
300
1-1/2" = 1'-0"
140
1.5
141
12.0
290
     0
  0
SCALE
  5
18BC7
102
{ACAD_REACTORS
330
18BA8
102
}
330
18BA8
100
AcDbScale
 70
     0
300
3" = 1'-0"
140
3.0
141
12.0
290
     0
  0
SCALE
  5
18BC8
102
{ACAD_REACTORS
330
18BA8
102
}
330
18BA8
100
AcDbScale
 70
     0
300
6" = 1'-0"
140
6.0
141
12.0
290
     0
  0
SCALE
  5
18BC9
102
{ACAD_REACTORS
330
18BA8
102
}
330
18BA8
100
AcDbScale
 70
     0
300
1'-0" = 1'-0"
140
12.0
141
12.0
290
     0
  0
ACDBSECTIONVIEWSTYLE
  5
19548
102
{ACAD_REACTORS
330
19546
102
}
330
19546
100
AcDbModelDocViewStyle
 70
     0
  3
Imperial24
290
     0
100
AcDbSectionViewStyle
 70
     0
 71
     0
 90
       78
 71
     1
340
10
 62
   256
 40
0.24
340
0
340
0
 62
   256
 40
0.24
300
I, O, Q, S, X, Z
 40
0.48
 90
        3
 40
0.18
 90
        1
 71
     2
340
19547
 90
       25
 62
   256
340
16
 90
       50
 62
   256
 40
0.24
 40
0.0
 40
0.24
 71
     3
340
10
 62
   256
 40
0.24
 90
        1
 40
0.75
 90
        1
300
%<\AcVar ViewType \f "%tc1">% %<\AcVar ViewSectionStartId>%-%<\AcVar ViewSectionEndId>%\PSCALE %<\AcVar ViewScale \f "%sn">%
 71
     4
 62
   256
 62
   257
300
ANSI31
 40
1.0
 90
        0
290
     0
290
     0
 90
        6
 40
0.0
 40
1.570796326794896
 40
0.2617993877991494
 40
1.308996938995747
 40
-0.2617993877991494
 40
1.832595714594046
  0
TABLESTYLE
  5
1835C
102
{ACAD_XDICTIONARY
360
1950A
102
}
102
{ACAD_REACTORS
330
1835B
102
}
330
1835B
100
AcDbTableStyle
  3
Standard
 70
     0
 71
     0
 40
0.06
 41
0.06
280
     0
281
     0
  7
STANDARD
140
0.18
170
     2
 62
     0
 63
     7
283
     0
274
    -2
284
     1
 64
     0
275
    -2
285
     1
 65
     0
276
    -2
286
     1
 66
     0
277
    -2
287
     1
 67
     0
278
    -2
288
     1
 68
     0
279
    -2
289
     1
 69
     0
  7
STANDARD
140
0.25
170
     5
 62
     0
 63
     7
283
     0
274
    -2
284
     1
 64
     0
275
    -2
285
     1
 65
     0
276
    -2
286
     1
 66
     0
277
    -2
287
     1
 67
     0
278
    -2
288
     1
 68
     0
279
    -2
289
     1
 69
     0
  7
STANDARD
140
0.18
170
     5
 62
     0
 63
     7
283
     0
274
    -2
284
     1
 64
     0
275
    -2
285
     1
 65
     0
276
    -2
286
     1
 66
     0
277
    -2
287
     1
 67
     0
278
    -2
288
     1
 68
     0
279
    -2
289
     1
 69
     0
  0
VISUALSTYLE
  5
18350
102
{ACAD_XDICTIONARY
360
21D71
102
}
102
{ACAD_REACTORS
330
1834A
102
}
330
1834A
100
AcDbVisualStyle
  2
2dWireframe
 70
     4
 71
     0
 72
     2
 73
     0
 90
        0
 40
-0.6
 41
-30.0
 62
     5
 63
     7
421
 16777215
 74
     1
 91
        4
 64
     7
 65
   257
 75
     1
175
     1
 42
1.0
 92
        0
 66
   257
 43
1.0
 76
     1
 77
     6
 78
     2
 67
     7
 79
     5
170
     0
171
     0
290
     0
174
     0
 93
        1
 44
0.0
173
     0
291
     0
 45
0.0
1001
ACAD
1000
AcDbSavedByObjectVersion
1070
     0
  0
VISUALSTYLE
  5
18B33
102
{ACAD_XDICTIONARY
360
21D82
102
}
102
{ACAD_REACTORS
330
1834A
102
}
330
1834A
100
AcDbVisualStyle
  2
3D Hidden
 70
     6
 71
     1
 72
     2
 73
     2
 90
        0
 40
-0.6
 41
-30.0
 62
     5
 63
     7
421
 16777215
 74
     2
 91
        2
 64
     7
 65
   257
 75
     2
175
     1
 42
40.0
 92
        0
 66
   257
 43
1.0
 76
     1
 77
     6
 78
     2
 67
     7
 79
     3
170
     0
171
     0
290
     0
174
     0
 93
        1
 44
0.0
173
     0
291
     0
 45
0.0
1001
ACAD
1000
AcDbSavedByObjectVersion
1070
     0
  0
VISUALSTYLE
  5
18B32
102
{ACAD_XDICTIONARY
360
21D80
102
}
102
{ACAD_REACTORS
330
1834A
102
}
330
1834A
100
AcDbVisualStyle
  2
3dWireframe
 70
     5
 71
     0
 72
     2
 73
     0
 90
        0
 40
-0.6
 41
-30.0
 62
     5
 63
     7
421
 16777215
 74
     1
 91
        4
 64
     7
 65
   257
 75
     1
175
     1
 42
1.0
 92
        0
 66
   257
 43
1.0
 76
     1
 77
     6
 78
     2
 67
     7
 79
     5
170
     0
171
     0
290
     0
174
     0
 93
        1
 44
0.0
173
     0
291
     0
 45
0.0
1001
ACAD
1000
AcDbSavedByObjectVersion
1070
     0
  0
VISUALSTYLE
  5
1834F
102
{ACAD_XDICTIONARY
360
21D6F
102
}
102
{ACAD_REACTORS
330
1834A
102
}
330
1834A
100
AcDbVisualStyle
  2
Basic
 70
     7
 71
     1
 72
     0
 73
     1
 90
        0
 40
-0.6
 41
-30.0
 62
     5
 63
     7
421
 16777215
 74
     0
 91
        4
 64
     7
 65
   257
 75
     1
175
     1
 42
1.0
 92
        8
 66
     7
 43
1.0
 76
     1
 77
     6
 78
     2
 67
     7
 79
     5
170
     0
171
     0
290
     0
174
     0
 93
        1
 44
0.0
173
     0
291
     1
 45
0.0
1001
ACAD
1000
AcDbSavedByObjectVersion
1070
     0
  0
VISUALSTYLE
  5
18356
102
{ACAD_XDICTIONARY
360
21D75
102
}
102
{ACAD_REACTORS
330
1834A
102
}
330
1834A
100
AcDbVisualStyle
  2
Brighten
 70
    12
 71
     2
 72
     2
 73
     0
 90
        0
 40
-0.6
 41
-30.0
 62
     5
 63
     7
421
 16777215
 74
     1
 91
        4
 64
     7
 65
   257
 75
     1
175
     1
 42
1.0
 92
        8
 66
     7
 43
1.0
 76
     1
 77
     6
 78
     2
 67
     7
 79
     5
170
     0
171
     0
290
     0
174
     0
 93
        1
 44
50.0
173
     0
291
     1
 45
0.0
1001
ACAD
1000
AcDbSavedByObjectVersion
1070
     0
  0
VISUALSTYLE
  5
1835A
102
{ACAD_XDICTIONARY
360
21D7D
102
}
102
{ACAD_REACTORS
330
1834A
102
}
330
1834A
100
AcDbVisualStyle
  2
ColorChange
 70
    16
 71
     2
 72
     2
 73
     3
 90
        0
 40
-0.6
 41
-30.0
 62
     5
 63
     8
421
  8421504
 74
     1
 91
        4
 64
     7
 65
   257
 75
     1
175
     1
 42
1.0
 92
        8
 66
     8
424
  8421504
 43
1.0
 76
     1
 77
     6
 78
     2
 67
     7
 79
     5
170
     0
171
     0
290
     0
174
     0
 93
        1
 44
0.0
173
     0
291
     1
 45
0.0
1001
ACAD
1000
AcDbSavedByObjectVersion
1070
     0
  0
VISUALSTYLE
  5
18B34
102
{ACAD_XDICTIONARY
360
21D84
102
}
102
{ACAD_REACTORS
330
1834A
102
}
330
1834A
100
AcDbVisualStyle
  2
Conceptual
 70
     9
 71
     3
 72
     2
 73
     0
 90
        0
 40
-0.6
 41
-30.0
 62
     5
 63
     7
421
 16777215
 74
     2
 91
        2
 64
     7
 65
   257
 75
     1
175
     1
 42
40.0
 92
        8
 66
     7
 43
1.0
 76
     1
 77
     6
 78
     2
 67
     7
 79
     3
170
     0
171
     0
290
     0
174
     0
 93
        1
 44
0.0
173
     0
291
     0
 45
0.0
1001
ACAD
1000
AcDbSavedByObjectVersion
1070
     0
  0
VISUALSTYLE
  5
18355
102
{ACAD_XDICTIONARY
360
21D73
102
}
102
{ACAD_REACTORS
330
1834A
102
}
330
1834A
100
AcDbVisualStyle
  2
Dim
 70
    11
 71
     2
 72
     2
 73
     0
 90
        0
 40
-0.6
 41
-30.0
 62
     5
 63
     7
421
 16777215
 74
     1
 91
        4
 64
     7
 65
   257
 75
     1
175
     1
 42
1.0
 92
        8
 66
     7
 43
1.0
 76
     1
 77
     6
 78
     2
 67
     7
 79
     5
170
     0
171
     0
290
     0
174
     0
 93
        1
 44
-50.0
173
     0
291
     1
 45
0.0
1001
ACAD
1000
AcDbSavedByObjectVersion
1070
     0
  0
VISUALSTYLE
  5
18BA7
102
{ACAD_XDICTIONARY
360
21D8C
102
}
102
{ACAD_REACTORS
330
1834A
102
}
330
1834A
100
AcDbVisualStyle
  2
EdgeColorOff
 70
    22
 71
     2
 72
     2
 73
     0
 90
        0
 40
-0.6
 41
-30.0
 62
     5
 63
     7
421
 16777215
 74
     1
 91
        4
 64
     7
 65
   257
 75
     1
175
     1
 42
1.0
 92
        8
 66
     7
 43
1.0
 76
     1
 77
     6
 78
     2
 67
     7
 79
     5
170
     0
171
     0
290
     0
174
     0
 93
        1
 44
0.0
173
     0
291
     1
 45
0.0
1001
ACAD
1000
AcDbSavedByObjectVersion
1070
     0
  0
VISUALSTYLE
  5
18359
102
{ACAD_XDICTIONARY
360
21D7B
102
}
102
{ACAD_REACTORS
330
1834A
102
}
330
1834A
100
AcDbVisualStyle
  2
Facepattern
 70
    15
 71
     2
 72
     2
 73
     0
 90
        0
 40
-0.6
 41
-30.0
 62
     5
 63
     7
421
 16777215
 74
     1
 91
        4
 64
     7
 65
   257
 75
     1
175
     1
 42
1.0
 92
        8
 66
     7
 43
1.0
 76
     1
 77
     6
 78
     2
 67
     7
 79
     5
170
     0
171
     0
290
     0
174
     0
 93
        1
 44
0.0
173
     0
291
     1
 45
0.0
1001
ACAD
1000
AcDbSavedByObjectVersion
1070
     0
  0
VISUALSTYLE
  5
1834B
102
{ACAD_XDICTIONARY
360
21D67
102
}
102
{ACAD_REACTORS
330
1834A
102
}
330
1834A
100
AcDbVisualStyle
  2
Flat
 70
     0
 71
     2
 72
     1
 73
     1
 90
        2
 40
-0.6
 41
30.0
 62
     5
 63
     7
421
 16777215
 74
     0
 91
        4
 64
     7
 65
   257
 75
     1
175
     1
 42
1.0
 92
        8
 66
     7
 43
1.0
 76
     1
 77
     6
 78
     2
 67
     7
 79
     5
170
     0
171
     0
290
     0
174
     0
 93
       13
 44
0.0
173
     0
291
     1
 45
0.0
1001
ACAD
1000
AcDbSavedByObjectVersion
1070
     0
  0
VISUALSTYLE
  5
1834C
102
{ACAD_XDICTIONARY
360
21D69
102
}
102
{ACAD_REACTORS
330
1834A
102
}
330
1834A
100
AcDbVisualStyle
  2
FlatWithEdges
 70
     1
 71
     2
 72
     1
 73
     1
 90
        2
 40
-0.6
 41
30.0
 62
     5
 63
     7
421
 16777215
 74
     1
 91
        4
 64
     7
 65
   257
 75
     1
175
     1
 42
1.0
 92
        0
 66
   257
 43
1.0
 76
     1
 77
     6
 78
     2
 67
     7
 79
     5
170
     0
171
     0
290
     0
174
     0
 93
       13
 44
0.0
173
     0
291
     1
 45
0.0
1001
ACAD
1000
AcDbSavedByObjectVersion
1070
     0
  0
VISUALSTYLE
  5
1834D
102
{ACAD_XDICTIONARY
360
21D6B
102
}
102
{ACAD_REACTORS
330
1834A
102
}
330
1834A
100
AcDbVisualStyle
  2
Gouraud
 70
     2
 71
     2
 72
     2
 73
     1
 90
        2
 40
-0.6
 41
30.0
 62
     5
 63
     7
421
 16777215
 74
     0
 91
        4
 64
     7
 65
   257
 75
     1
175
     1
 42
1.0
 92
        0
 66
     7
 43
1.0
 76
     1
 77
     6
 78
     2
 67
     7
 79
     5
170
     0
171
     0
290
     0
174
     0
 93
       13
 44
0.0
173
     0
291
     1
 45
0.0
1001
ACAD
1000
AcDbSavedByObjectVersion
1070
     0
  0
VISUALSTYLE
  5
1834E
102
{ACAD_XDICTIONARY
360
21D6D
102
}
102
{ACAD_REACTORS
330
1834A
102
}
330
1834A
100
AcDbVisualStyle
  2
GouraudWithEdges
 70
     3
 71
     2
 72
     2
 73
     1
 90
        2
 40
-0.6
 41
30.0
 62
     5
 63
     7
421
 16777215
 74
     1
 91
        4
 64
     7
 65
   257
 75
     1
175
     1
 42
1.0
 92
        0
 66
   257
 43
1.0
 76
     1
 77
     6
 78
     2
 67
     7
 79
     5
170
     0
171
     0
290
     0
174
     0
 93
       13
 44
0.0
173
     0
291
     1
 45
0.0
1001
ACAD
1000
AcDbSavedByObjectVersion
1070
     0
  0
VISUALSTYLE
  5
19540
102
{ACAD_XDICTIONARY
360
21D90
102
}
102
{ACAD_REACTORS
330
1834A
102
}
330
1834A
100
AcDbVisualStyle
  2
Hidden
 70
     6
 71
     1
 72
     2
 73
     2
 90
        0
 40
-0.6
 41
-30.0
 62
     5
 63
     7
421
 16777215
 74
     2
 91
        2
 64
     7
 65
   257
 75
     2
175
     1
 42
40.0
 92
        0
 66
   257
 43
1.0
 76
     1
 77
     6
 78
     2
 67
     7
 79
     3
170
     0
171
     0
290
     0
174
     0
 93
        1
 44
0.0
173
     0
291
     0
 45
0.0
1001
ACAD
1000
AcDbSavedByObjectVersion
1070
     0
  0
VISUALSTYLE
  5
18BA5
102
{ACAD_XDICTIONARY
360
21D88
102
}
102
{ACAD_REACTORS
330
1834A
102
}
330
1834A
100
AcDbVisualStyle
  2
JitterOff
 70
    20
 71
     2
 72
     2
 73
     0
 90
        0
 40
-0.6
 41
-30.0
 62
     5
 63
     7
421
 16777215
 74
     1
 91
        4
 64
     7
 65
   257
 75
     1
175
     1
 42
1.0
 92
       10
 66
     7
 43
1.0
 76
     1
 77
     6
 78
     2
 67
     7
 79
     5
170
     0
171
     0
290
     0
174
     0
 93
        1
 44
0.0
173
     0
291
     1
 45
0.0
1001
ACAD
1000
AcDbSavedByObjectVersion
1070
     0
  0
VISUALSTYLE
  5
18358
102
{ACAD_XDICTIONARY
360
21D79
102
}
102
{ACAD_REACTORS
330
1834A
102
}
330
1834A
100
AcDbVisualStyle
  2
Linepattern
 70
    14
 71
     2
 72
     2
 73
     0
 90
        0
 40
-0.6
 41
-30.0
 62
     5
 63
     7
421
 16777215
 74
     1
 91
        4
 64
     7
 65
   257
 75
     7
175
     7
 42
1.0
 92
        8
 66
     7
 43
1.0
 76
     1
 77
     6
 78
     2
 67
     7
 79
     5
170
     0
171
     0
290
     0
174
     0
 93
        1
 44
0.0
173
     0
291
     1
 45
0.0
1001
ACAD
1000
AcDbSavedByObjectVersion
1070
     0
  0
VISUALSTYLE
  5
18BA6
102
{ACAD_XDICTIONARY
360
21D8A
102
}
102
{ACAD_REACTORS
330
1834A
102
}
330
1834A
100
AcDbVisualStyle
  2
OverhangOff
 70
    21
 71
     2
 72
     2
 73
     0
 90
        0
 40
-0.6
 41
-30.0
 62
     5
 63
     7
421
 16777215
 74
     1
 91
        4
 64
     7
 65
   257
 75
     1
175
     1
 42
1.0
 92
        9
 66
     7
 43
1.0
 76
     1
 77
     6
 78
     2
 67
     7
 79
     5
170
     0
171
     0
290
     0
174
     0
 93
        1
 44
0.0
173
     0
291
     1
 45
0.0
1001
ACAD
1000
AcDbSavedByObjectVersion
1070
     0
  0
VISUALSTYLE
  5
18B35
102
{ACAD_XDICTIONARY
360
21D86
102
}
102
{ACAD_REACTORS
330
1834A
102
}
330
1834A
100
AcDbVisualStyle
  2
Realistic
 70
     8
 71
     2
 72
     2
 73
     0
 90
        0
 40
-0.6
 41
-30.0
 62
     5
 63
     7
421
 16777215
 74
     1
 91
        0
 64
     7
 65
   257
 75
     1
175
     1
 42
1.0
 92
        8
 66
     8
424
  7895160
 43
1.0
 76
     1
 77
     6
 78
     2
 67
     7
 79
     5
170
     0
171
     0
290
     0
174
     0
 93
       13
 44
0.0
173
     0
291
     0
 45
0.0
1001
ACAD
1000
AcDbSavedByObjectVersion
1070
     0
  0
VISUALSTYLE
  5
19545
102
{ACAD_XDICTIONARY
360
21D9A
102
}
102
{ACAD_REACTORS
330
1834A
102
}
330
1834A
100
AcDbVisualStyle
  2
Shaded
 70
    27
 71
     2
 72
     2
 73
     1
 90
        2
 40
-0.6
 41
30.0
 62
     5
 63
     7
421
 16777215
 74
     0
 91
        4
 64
     7
 65
   257
 75
     1
175
     1
 42
1.0
 92
        8
 66
   257
 43
1.0
 76
     1
 77
     6
 78
     2
 67
     8
425
  7895160
 79
     3
170
     0
171
     0
290
     0
174
     0
 93
        5
 44
0.0
173
     0
291
     0
 45
0.0
1001
ACAD
1000
AcDbSavedByObjectVersion
1070
     0
  0
VISUALSTYLE
  5
19544
102
{ACAD_XDICTIONARY
360
21D98
102
}
102
{ACAD_REACTORS
330
1834A
102
}
330
1834A
100
AcDbVisualStyle
  2
Shaded with edges
 70
    26
 71
     2
 72
     2
 73
     1
 90
        2
 40
-0.6
 41
30.0
 62
     5
 63
     7
421
 16777215
 74
     1
 91
       10
 64
     7
 65
   257
 75
     2
175
     1
 42
1.0
 92
        8
 66
   257
 43
1.0
 76
     1
 77
     6
 78
     2
 67
     7
 79
     3
170
     0
171
     0
290
     0
174
     0
 93
        5
 44
0.0
173
     0
291
     0
 45
0.0
1001
ACAD
1000
AcDbSavedByObjectVersion
1070
     0
  0
VISUALSTYLE
  5
19541
102
{ACAD_XDICTIONARY
360
21D92
102
}
102
{ACAD_REACTORS
330
1834A
102
}
330
1834A
100
AcDbVisualStyle
  2
Shades of Gray
 70
    23
 71
     2
 72
     2
 73
     3
 90
        0
 40
-0.6
 41
-30.0
 62
     5
 63
     7
421
 16777215
 74
     2
 91
        2
 64
     7
 65
     7
 75
     1
175
     1
 42
40.0
 92
        8
 66
     7
 43
1.0
 76
     1
 77
     6
 78
     2
 67
     7
 79
     3
170
     0
171
     0
290
     0
174
     0
 93
        1
 44
0.0
173
     0
291
     0
 45
0.0
1001
ACAD
1000
AcDbSavedByObjectVersion
1070
     0
  0
VISUALSTYLE
  5
19542
102
{ACAD_XDICTIONARY
360
21D94
102
}
102
{ACAD_REACTORS
330
1834A
102
}
330
1834A
100
AcDbVisualStyle
  2
Sketchy
 70
    24
 71
     1
 72
     2
 73
     2
 90
        0
 40
-0.6
 41
-30.0
 62
     5
 63
     7
421
 16777215
 74
     2
 91
        2
 64
     7
 65
     7
 75
     1
175
     1
 42
40.0
 92
       11
 66
     7
 43
1.0
 76
     1
 77
     6
 78
     2
 67
     7
 79
     6
170
     0
171
     0
290
     0
174
     0
 93
        1
 44
0.0
173
     0
291
     0
 45
0.0
1001
ACAD
1000
AcDbSavedByObjectVersion
1070
     0
  0
VISUALSTYLE
  5
18357
102
{ACAD_XDICTIONARY
360
21D77
102
}
102
{ACAD_REACTORS
330
1834A
102
}
330
1834A
100
AcDbVisualStyle
  2
Thicken
 70
    13
 71
     2
 72
     2
 73
     0
 90
        0
 40
-0.6
 41
-30.0
 62
     5
 63
     7
421
 16777215
 74
     1
 91
        4
 64
     7
 65
   257
 75
     1
175
     1
 42
1.0
 92
       12
 66
     7
 43
1.0
 76
     1
 77
     6
 78
     2
 67
     7
 79
     5
170
     0
171
     0
290
     0
174
     0
 93
        1
 44
0.0
173
     0
291
     1
 45
0.0
1001
ACAD
1000
AcDbSavedByObjectVersion
1070
     0
  0
VISUALSTYLE
  5
1953F
102
{ACAD_XDICTIONARY
360
21D8E
102
}
102
{ACAD_REACTORS
330
1834A
102
}
330
1834A
100
AcDbVisualStyle
  2
Wireframe
 70
     5
 71
     0
 72
     2
 73
     0
 90
        0
 40
-0.6
 41
-30.0
 62
     5
 63
     7
421
 16777215
 74
     1
 91
        4
 64
     7
 65
   257
 75
     1
175
     1
 42
1.0
 92
        0
 66
   257
 43
1.0
 76
     1
 77
     6
 78
     2
 67
     7
 79
     3
170
     0
171
     0
290
     0
174
     0
 93
        1
 44
0.0
173
     0
291
     0
 45
0.0
1001
ACAD
1000
AcDbSavedByObjectVersion
1070
     0
  0
VISUALSTYLE
  5
19543
102
{ACAD_XDICTIONARY
360
21D96
102
}
102
{ACAD_REACTORS
330
1834A
102
}
330
1834A
100
AcDbVisualStyle
  2
X-Ray
 70
    25
 71
     2
 72
     2
 73
     1
 90
        1
 40
0.5
 41
-30.0
 62
     5
 63
     7
421
 16777215
 74
     1
 91
        0
 64
     7
 65
   257
 75
     1
175
     1
 42
1.0
 92
        8
 66
     7
 43
1.0
 76
     1
 77
     6
 78
     2
 67
     7
 79
     3
170
     0
171
     0
290
     0
174
     0
 93
       13
 44
0.0
173
     0
291
     0
 45
0.0
1001
ACAD
1000
AcDbSavedByObjectVersion
1070
     0
  0
DICTIONARYVAR
  5
1953D
102
{ACAD_REACTORS
330
F6BD
102
}
330
F6BD
100
DictionaryVariables
280
     0
  1
1:1
  0
DICTIONARYVAR
  5
1953C
102
{ACAD_REACTORS
330
F6BD
102
}
330
F6BD
100
DictionaryVariables
280
     0
  1
STANDARD
  0
DICTIONARYVAR
  5
185A4
102
{ACAD_REACTORS
330
F6BD
102
}
330
F6BD
100
DictionaryVariables
280
     0
  1
STANDARD
  0
DICTIONARYVAR
  5
1959E
102
{ACAD_REACTORS
330
F6BD
102
}
330
F6BD
100
DictionaryVariables
280
     0
  1
Imperial24
  0
DICTIONARYVAR
  5
1959F
102
{ACAD_REACTORS
330
F6BD
102
}
330
F6BD
100
DictionaryVariables
280
     0
  1
Imperial24
  0
DICTIONARYVAR
  5
F6BE
102
{ACAD_REACTORS
330
F6BD
102
}
330
F6BD
100
DictionaryVariables
280
     0
  1
96
  0
XRECORD
  5
5508
102
{ACAD_REACTORS
330
54CC
102
}
330
0
100
AcDbXrecord
280
     1
330
0
330
0
330
0
330
0
330
0
330
0
330
0
330
0
330
0
330
0
330
0
330
0
330
0
330
0
330
0
330
0
330
0
330
0
330
0
330
0
330
0
330
0
330
0
330
0
330
0
330
0
330
0
330
0
330
0
330
0
330
0
330
0
330
0
330
0
330
0
330
0
330
0
330
0
330
0
330
0
330
0
330
0
330
0
330
0
330
0
330
0
330
0
330
0
330
0
330
0
330
0
330
0
330
0
330
0
330
0
330
0
330
0
330
0
330
0
330
0
330
0
330
0
330
0
330
0
330
0
330
0
330
0
330
0
330
0
330
0
330
0
330
0
330
0
  0
XRECORD
  5
5509
102
{ACAD_REACTORS
330
54CC
102
}
330
0
100
AcDbXrecord
280
     1
330
0
330
0
  0
XRECORD
  5
550A
102
{ACAD_REACTORS
330
54CC
102
}
330
0
100
AcDbXrecord
280
     1
330
0
  0
XRECORD
  5
550B
102
{ACAD_REACTORS
330
54CC
102
}
330
0
100
AcDbXrecord
280
     1
330
0
330
0
  0
DICTIONARY
  5
19508
330
5D98
100
AcDbDictionary
280
     1
281
     1
  3
ADSK_XREC_LAYOUTTHUMBNAIL
360
19509
  0
DICTIONARY
  5
21D63
330
18348
100
AcDbDictionary
280
     1
281
     1
  3
ACAD_XREC_ROUNDTRIP
360
21D64
  0
DICTIONARY
  5
21D61
330
18347
100
AcDbDictionary
280
     1
281
     1
  3
ACAD_XREC_ROUNDTRIP
360
21D62
  0
DICTIONARY
  5
21D65
330
18349
100
AcDbDictionary
280
     1
281
     1
  3
ACAD_XREC_ROUNDTRIP
360
21D66
  0
DICTIONARY
  5
1950A
330
1835C
100
AcDbDictionary
280
     1
281
     1
  3
ACAD_ROUNDTRIP_2008_TABLESTYLE_CELLSTYLEMAP
360
21D5F
  3
ACAD_XREC_ROUNDTRIP
360
21D7F
  0
DICTIONARY
  5
21D71
330
18350
100
AcDbDictionary
280
     1
281
     1
  3
ACAD_XREC_ROUNDTRIP
360
21D72
  0
DICTIONARY
  5
21D82
330
18B33
100
AcDbDictionary
280
     1
281
     1
  3
ACAD_XREC_ROUNDTRIP
360
21D83
  0
DICTIONARY
  5
21D80
330
18B32
100
AcDbDictionary
280
     1
281
     1
  3
ACAD_XREC_ROUNDTRIP
360
21D81
  0
DICTIONARY
  5
21D6F
330
1834F
100
AcDbDictionary
280
     1
281
     1
  3
ACAD_XREC_ROUNDTRIP
360
21D70
  0
DICTIONARY
  5
21D75
330
18356
100
AcDbDictionary
280
     1
281
     1
  3
ACAD_XREC_ROUNDTRIP
360
21D76
  0
DICTIONARY
  5
21D7D
330
1835A
100
AcDbDictionary
280
     1
281
     1
  3
ACAD_XREC_ROUNDTRIP
360
21D7E
  0
DICTIONARY
  5
21D84
330
18B34
100
AcDbDictionary
280
     1
281
     1
  3
ACAD_XREC_ROUNDTRIP
360
21D85
  0
DICTIONARY
  5
21D73
330
18355
100
AcDbDictionary
280
     1
281
     1
  3
ACAD_XREC_ROUNDTRIP
360
21D74
  0
DICTIONARY
  5
21D8C
330
18BA7
100
AcDbDictionary
280
     1
281
     1
  3
ACAD_XREC_ROUNDTRIP
360
21D8D
  0
DICTIONARY
  5
21D7B
330
18359
100
AcDbDictionary
280
     1
281
     1
  3
ACAD_XREC_ROUNDTRIP
360
21D7C
  0
DICTIONARY
  5
21D67
330
1834B
100
AcDbDictionary
280
     1
281
     1
  3
ACAD_XREC_ROUNDTRIP
360
21D68
  0
DICTIONARY
  5
21D69
330
1834C
100
AcDbDictionary
280
     1
281
     1
  3
ACAD_XREC_ROUNDTRIP
360
21D6A
  0
DICTIONARY
  5
21D6B
330
1834D
100
AcDbDictionary
280
     1
281
     1
  3
ACAD_XREC_ROUNDTRIP
360
21D6C
  0
DICTIONARY
  5
21D6D
330
1834E
100
AcDbDictionary
280
     1
281
     1
  3
ACAD_XREC_ROUNDTRIP
360
21D6E
  0
DICTIONARY
  5
21D90
330
19540
100
AcDbDictionary
280
     1
281
     1
  3
ACAD_XREC_ROUNDTRIP
360
21D91
  0
DICTIONARY
  5
21D88
330
18BA5
100
AcDbDictionary
280
     1
281
     1
  3
ACAD_XREC_ROUNDTRIP
360
21D89
  0
DICTIONARY
  5
21D79
330
18358
100
AcDbDictionary
280
     1
281
     1
  3
ACAD_XREC_ROUNDTRIP
360
21D7A
  0
DICTIONARY
  5
21D8A
330
18BA6
100
AcDbDictionary
280
     1
281
     1
  3
ACAD_XREC_ROUNDTRIP
360
21D8B
  0
DICTIONARY
  5
21D86
330
18B35
100
AcDbDictionary
280
     1
281
     1
  3
ACAD_XREC_ROUNDTRIP
360
21D87
  0
DICTIONARY
  5
21D9A
330
19545
100
AcDbDictionary
280
     1
281
     1
  3
ACAD_XREC_ROUNDTRIP
360
21D9B
  0
DICTIONARY
  5
21D98
330
19544
100
AcDbDictionary
280
     1
281
     1
  3
ACAD_XREC_ROUNDTRIP
360
21D99
  0
DICTIONARY
  5
21D92
330
19541
100
AcDbDictionary
280
     1
281
     1
  3
ACAD_XREC_ROUNDTRIP
360
21D93
  0
DICTIONARY
  5
21D94
330
19542
100
AcDbDictionary
280
     1
281
     1
  3
ACAD_XREC_ROUNDTRIP
360
21D95
  0
DICTIONARY
  5
21D77
330
18357
100
AcDbDictionary
280
     1
281
     1
  3
ACAD_XREC_ROUNDTRIP
360
21D78
  0
DICTIONARY
  5
21D8E
330
1953F
100
AcDbDictionary
280
     1
281
     1
  3
ACAD_XREC_ROUNDTRIP
360
21D8F
  0
DICTIONARY
  5
21D96
330
19543
100
AcDbDictionary
280
     1
281
     1
  3
ACAD_XREC_ROUNDTRIP
360
21D97
  0
XRECORD
  5
19509
102
{ACAD_REACTORS
330
19508
102
}
330
19508
100
AcDbXrecord
280
     1
310
280000000001000078000000010008000000000000780000010000000100000000010000000000000000000000000000C8C8C8FF000000FF000000FF000000FF000000FF000000FF000000FF000000FF000000FF330000FF660000FF990000FFCC0000FFFF0000FF003300FF333300FF663300FF993300FFCC3300FFFF3300
310
FF006600FF336600FF666600FF996600FFCC6600FFFF6600FF009900FF339900FF669900FF999900FFCC9900FFFF9900FF00CC00FF33CC00FF66CC00FF99CC00FFCCCC00FFFFCC00FF00FF00FF33FF00FF66FF00FF99FF00FFCCFF00FFFFFF00FF000033FF330033FF660033FF990033FFCC0033FFFF0033FF003333FF3333
310
33FF663333FF993333FFCC3333FFFF3333FF006633FF336633FF666633FF996633FFCC6633FFFF6633FF009933FF339933FF669933FF999933FFCC9933FFFF9933FF00CC33FF33CC33FF66CC33FF99CC33FFCCCC33FFFFCC33FF00FF33FF33FF33FF66FF33FF99FF33FFCCFF33FFFFFF33FF000066FF330066FF660066FF99
310
0066FFCC0066FFFF0066FF003366FF333366FF663366FF993366FFCC3366FFFF3366FF006666FF336666FF666666FF996666FFCC6666FFFF6666FF009966FF339966FF669966FF999966FFCC9966FFFF9966FF00CC66FF33CC66FF66CC66FF99CC66FFCCCC66FFFFCC66FF00FF66FF33FF66FF66FF66FF99FF66FFCCFF66FF
310
FFFF66FF000099FF330099FF660099FF990099FFCC0099FFFF0099FF003399FF333399FF663399FF993399FFCC3399FFFF3399FF006699FF336699FF666699FF996699FFCC6699FFFF6699FF009999FF339999FF669999FF999999FFCC9999FFFF9999FF00CC99FF33CC99FF66CC99FF99CC99FFCCCC99FFFFCC99FF00FF99
310
FF33FF99FF66FF99FF99FF99FFCCFF99FFFFFF99FF0000CCFF3300CCFF6600CCFF9900CCFFCC00CCFFFF00CCFF0033CCFF3333CCFF6633CCFF9933CCFFCC33CCFFFF33CCFF0066CCFF3366CCFF6666CCFF9966CCFFCC66CCFFFF66CCFF0099CCFF3399CCFF6699CCFF9999CCFFCC99CCFFFF99CCFF00CCCCFF33CCCCFF66CC
310
CCFF99CCCCFFCCCCCCFFFFCCCCFF00FFCCFF33FFCCFF66FFCCFF99FFCCFFCCFFCCFFFFFFCCFF0000FFFF3300FFFF6600FFFF9900FFFFCC00FFFFFF00FFFF0033FFFF3333FFFF6633FFFF9933FFFFCC33FFFFFF33FFFF0066FFFF3366FFFF6666FFFF9966FFFFCC66FFFFFF66FFFF0099FFFF3399FFFF6699FFFF9999FFFFCC
310
99FFFFFF99FFFF00CCFFFF33CCFFFF66CCFFFF99CCFFFFCCCCFFFFFFCCFFFF00FFFFFF33FFFFFF66FFFFFF99FFFFFFCCFFFFFFFFFFFFFF000000FF0D0D0DFF1A1A1AFF282828FF353535FF434343FF505050FF5D5D5DFF6B6B6BFF787878FF868686FF939393FFA1A1A1FFAEAEAEFFBBBBBBFFC9C9C9FFD6D6D6FFE4E4E4FF
310
F1F1F1FFFFFFFFFF000000FF000000FF000000FF000000FF000000FF000000FF000000FF000000FF000000FF000000FF00000000000000000000000000000000000000000000000000000000000000000000000000000000000000000000000000000000000000000000000000000000000000000000000000000000000000
310
00000000000000000000000000000000000000000000000000000000000000000000000000000000000000000000000000000000000000000000000000000000000000000000000000000000000000000000000000000000000000000000000000000000000000000000000000000000000000000000000000000000000000
310
000000000000000000000000000000000000000000000000000000000000000000000000000000000000000000000000000000000000000000000000000000000000000000000000000000000000000000000000BEBEBEBEBEBEBEBEBEBEBEBEBEBEBEBEBEBEBEBEBEBEBEBEBEBEBEBEBEBEBEBEBEBEBEBEBEBEBEBEBEBEBE
310
BEBEBEBEBEBEBEBEBEBEBEBEBEBEBEBEBEBEBEBEBEBEBEBEBEBEBEBEBEBEBEBEBEBEBEBEBEBEBEBEBEBEBEBEBEBEBEBEBEBEBEBEBEBEBEBEBEBEBEBEBEBEBEBEBEBEBEBEBEBEBEBEBEBEBEBEBEBEBEBEBEBEBEBEBEBEBEBEBEBEBEBEBEBEBEBEBEBEBEBEBEBEBEBEBEBEBEBEBEBEBEBEBEBEBEBEBEBEBEBEBEBEBEBEBEBEBE
310
BEBEBEBEBEBEBEBEBEBEBEBEBEBEBEBEBEBE0000000000000000000000000000000000000000000000000000000000000000000000000000000000000000000000000000000000000000000000000000000000000000BE00000000000000000000000000000000000000000000000000000000000000000000000000000000
310
00000000000000000000000000000000000000000000000000000000000000000000000000000000000000000000000000000000000000000000000000000000000000000000000000000000000000000000000000000000000000000000000000000000000000000000000000000000000000000000000000000000000000
310
00000000000000000000000000000000000000BE0000000000000000000000000000000000000000000000000000000000000000000000000000000000000000000000000000000000000000000000000000000000000000BE0000000000000000000000000000000000000000000000000000000000000000000000000000
310
00000000000000000000000000000000000000000000000000000000000000000000000000000000000000000000000000000000000000000000000000000000000000000000000000000000000000000000000000000000000000000000000000000000000000000000000000000000000000000000000000000000000000
310
000000000000000000000000000000000000000000BE0000000000000000000000000000000000000000000000000000000000000000000000000000000000000000000000000000000000000000000000000000000000000000BE000000000000000000000000000000000000000000000000000000000000000000000000
310
00000000000000000000000000000000000000000000000000000000000000000000000000000000000000000000000000000000000000000000000000000000000000000000000000000000000000000000000000000000000000000000000000000000000000000000000000000000000000000000000000000000000000
310
0000000000000000000000000000000000000000000000BE0000000000000000000000000000000000000000000000000000000000000000000000000000000000000000000000000000000000000000000000000000000000000000BE00000000000000000000000000000000000000000000000000000000000000000000
310
00000000000000000000000000000000000000000000000000000000000000000000000000000000000000000000000000000000000000000000000000000000000000000000000000000000000000000000000000000000000000000000000000000000000000000000000000000000000000000000000000000000000000
310
00000000000000000000000000000000000000000000000000BE0000000000000000000000000000000000000000000000000000000000000000000000000000000000000000000000000000000000000000000000000000000000000000BE0000000000000000000000000000000000000000000000000000000000000000
310
00000000000000000000000000000000000000000000000000000000000000000000000000000000000000000000000000000000000000000000000000000000000000000000000000000000000000000000000000000000000000000000000000000000000000000000000000000000000000000000000000000000000000
310
000000000000000000000000000000000000000000000000000000BE0000000000000000000000000000000000000000000000000000000000000000000000000000000000000000000000000000000000000000000000000000000000000000BE000000000000000000000000000000000000000000000000000000000000
310
00000000000000000000000000000000000000000000000000000000000000000000000000000000000000000000000000000000000000000000000000000000000000000000000000000000000000000000000000000000000000000000000000000000000000000000000000000000000000000000000000000000000000
310
0000000000000000000000000000000000000000000000000000000000BE0000000000000000000000000000000000000000000000000000000000000000000000000000000000000000000000000000000000000000000000000000000000000000BE00000000000000000000000000000000000000000000000000000000
310
00000000000000000000000000000000000000000000000000000000000000000000000000000000000000000000000000000000000000000000000000000000000000000000000000000000000000000000000000000000000000000000000000000000000000000000000000000000000000000000000000000000000000
310
00000000000000000000000000000000000000000000000000000000000000BE0000000000000000000000000000000000000000000000000000000000000000000000000000000000000000000000000000000000000000000000000000000000000000BE0000000000000000000000000000000000000000000000000000
310
00000000000000000000000000000000000000000000000000000000000000000000000000000000000000000000000000000000000000000000000000000000000000000000000000000000000000000000000000000000000000000000000000000000000000000000000000000000000000000000000000000000000000
310
000000000000000000000000000000000000000000000000000000000000000000BE0000000000000000000000000000000000000000000000000000000000000000000000000000000000000000000000000000000000000000000000000000000000000000BE000000000000000000000000000000000000000000000000
310
00000000000000000000000000000000000000000000000000000000000000000000000000000000000000000000000000000000000000000000000000000000000000000000000000000000000000000000000000000000000000000000000000000000000000000000000000000000000000000000000000000000000000
310
0000000000000000000000000000000000000000000000000000000000000000000000BE0000000000000000000000000000000000000000000000000000000000000000000000000000000000000000000000000000000000000000000000000000000000000000BE00000000000000000000000000000000000000000000
310
00000000000000000000000000000000000000000000000000000000000000000000000000000000000000000000000000000000000000000000000000000000000000000000000000000000000000000000000000000000000000000000000000000000000000000000000000000000000000000000000000000000000000
310
00000000000000000000000000000000000000000000000000000000000000000000000000BE0000000000000000000000000000000000000000000000000000000000000000000000000000000000000000000000000000000000000000000000000000000000000000BE0000000000000000000000000000000000000000
310
00000000000000000000000000000000000000000000000000000000000000000000000000000000000000000000000000000000000000000000000000000000000000000000000000000000000000000000000000000000000000000000000000000000000000000000000000000000000000000000000000000000000000
310
000000000000000000000000000000000000000000000000000000000000000000000000000000BE0000000000000000000000000000000000000000000000000000000000000000000000000000000000000000000000000000000000000000000000000000000000000000BE000000000000000000000000000000000000
310
00000000000000000000000000000000000000000000000000000000000000000000000000000000000000000000000000000000000000000000000000000000000000000000000000000000000000000000000000000000000000000000000000000000000000000000000000000000000000000000000000000000000000
310
0000000000000000000000000000000000000000000000000000000000000000000000000000000000BE0000000000000000000000000000000000000000000000000000000000000000000000000000000000000000000000000000000000000000000000000000000000000000BE00000000000000000000000000000000
310
00000000000000000000000000000000000000000000000000000000000000000000000000000000000000000000000000000000000000000000000000000000000000000000000000000000000000000000000000000000000000000000000000000000000000000000000000000000000000000000000000000000000000
310
00000000000000000000000000000000000000000000000000000000000000000000000000000000000000BE0000000000000000000000000000000000000000000000000000000000000000000000000000000000000000000000000000000000000000000000000000000000000000BE0000000000000000000000000000
310
00000000000000000000000000000000000000000000000000000000000000000000000000000000000000000000000000000000000000000000000000000000000000000000000000000000000000000000000000000000000000002828282800282828282828282828282828000000000000000000000000000000000000
310
000000000000000000000000000000000000000000000000000000000000000000000000000000000000000000BE0000000000000000000000000000000000000000000000000000000000000000000000000000000000000000000000000000000000000000000000000000000000000000BE000000000000000000000000
310
00000000000000000000000000000000000000000000000000000000000000000000000000000000000000000000000000000000000000000000000000000000000000000000000000000000000000000000000000000000000000000000282828280028282828282828282828282800000000000000000000000000000000
310
0000000000000000000000000000000000000000000000000000000000000000000000000000000000000000000000BE0000000000000000000000000000000000000000000000000000000000000000000000000000000000000000000000000000000000000000000000000000000000000000BE00000000000000000000
310
00000000000000000000000000000000000000000000000000000000000000000000000000000000000000000000000000000000000000000000000000000000000000000000000000000000000000000000000000000000000000000000000000282828282828282800282828282800000000000000000000000000000000
310
00000000000000000000000000000000000000000000000000000000000000000000000000000000000000000000000000BE0000000000000000000000000000000000000000000000000000000000000000000000000000000000000000000000000000000000000000000000000000000000000000BE0000000000000000
310
00000000000000000000000000000000000000000000000000000000000000000000000000000000000000000000000000000000000000000000000000000000000000000000000000000000000000000000000000000000000000000000000000000028282828282828280028282828280000000000000000000000000000
310
000000000000000000000000000000000000000000000000000000000000000000000000000000000000000000000000000000BE0000000000000000000000000000000000000000000000000000000000000000000000000000000000000000000000000000000000000000000000000000000000000000BE000000000000
310
0000000000000000000000000000000000000000000000000000000000000000000000000000002D00000000000000002D000000000000002D000000000000000000000000000000000000000000000000000000000000000000000000000000000000002D000000000000000000000000002D000000000000000000000000
310
0000000000000000000000000000000000000000000000000000000000000000000000000000000000000000000000000000000000BE0000000000000000000000000000000000000000000000000000000000000000000000000000000000000000000000000000000000000000000000000000000000000000BE00000000
310
00000000000000000000000000000000000000000000000000000000000000000000000000000000002D2D2D2D2D2D2D2D2D2D2D2D2D2D2D2D2D2D002828282828282828282800000000000000000000000000000000000000000000000000000000000000002D2D2D2D2D2D2D2D2D2D2D2D2D2D2D2D2D2D2D2D0000000000
310
00000000000000000000000000000000000000000000000000000000000000000000000000000000000000000000000000000000000000BE0000000000000000000000000000000000000000000000000000000000000000000000000000000000000000000000000000000000000000000000000000000000000000BE0000
310
000000000000000000000000000000000000000000000000000000000000000000000000000000000000002D002D2D00002D2D002D002D2D00002D2D2D002828282828282828282800000000000000000000000000000000000000000000000000000000000000002D2D2D00000000000000002D2D002D002D2DF5F500F5F5
310
000000000000000000000000000000000000000000000000000000000000000000000000000000000000000000000000000000000000000000BE0000000000000000000000000000000000000000000000000000000000000000000000000000000000000000000000000000000000000000000000000000000000000000BE
310
0000000000000000000000000000000000000000000000000000000000000000000000000000000000000000002D000000F5F50000002D000000F5F500002D000028282828282828280000000000000000000000000000000000000000000000000000000000000000002D000000000000000000000000002D000000F5F500
310
F5F5000000000000000000000000000000000000000000000000000000000000000000000000000000000000000000000000000000000000000000BE00000000000000000000000000000000000000000000000000000000000000000000000000000000000000000000000000000000000000000000000000000000000000
310
00BE0000000000000000000000000000000000000000000000000000000000000000000000000000000000000000002D000000F5F5F500002D000000F5F5F5002D000028282828282828280000000000000000000000000000000000000000000000000000000000000000002D000000000000000000000000002D0000F5F5
310
00F5F5F5F5F500000000000000000000000000000000000000000000000000000000000000000000000000000000000000000000000000000000000000BE0000000000000000000000000000000000000000000000000000000000000000000000000000000000000000000000000000000000000000000000000000000000
310
000000BE000000000000000000000000000000000000000000000000000000000000000000000000000000000000000000000000000000F500000000000000F5F50000000000000000000000000000000000000000000000000000000000000000000000000000000000000000000000000000000000000000000000000000
310
000000F50000F5F500000000000000000000000000000000000000000000000000000000000000000000000000000000000000000000000000000000000000BE000000000000000000000000000000000000000000000000000000000000000000000000000000000000000000000000000000000000000000000000000000
310
0000000000BE00000000000000000000000000000000000000000000000000000000000000000000000000000000000000000000000000000000000000000000000000000000000000000000000000000000000000000000000000000000000000000000000000000000000000000000000000000000000000000000000000
310
0000000000000000000000000000000000000000000000000000000000000000000000000000000000000000000000000000000000000000000000000000000000BE00000000000000000000000000000000000000000000000000000000000000000000000000000000000000000000000000000000000000000000000000
310
00000000000000BE0000000000000000000000000000000000000000000000000000000000000000000000000000000000000000000000000000000000000000000000000000000000000000000000000000000000000000000000000000000000000000000000000000000000000000000000000000000000000000000000
310
00000000000000000000000000000000000000000000000000000000000000000000000000000000000000000000000000000000000000000000000000000000000000BE0000000000000000000000000000000000000000000000000000000000000000000000000000000000000000000000000000000000000000000000
310
000000000000000000BE000000000000000000000000000000000000000000000000000000000000000000000000000000000000000000000000000000000000000000000000000000000000000000000000000000000000000000000000000000000000000000000000000000000000000000000000000000000000000000
310
000000000000000000000000000000000000000000000000000000000000000000000000000000000000000000000000000000000000000000000000000000000000000000BE000000000000000000000000000000000000000000000000000000000000000000000000000000000000000000000000000000000000000000
310
0000000000000000000000BE00000000000000000000000000000000000000000000000000000000000000000000000000000000000000000000000000000000000000000000000000000000000000000000000000000000000000000000000000000000000000000000000000F5F5F52D0000000000000000000000000000
310
0000000000000000000000000000000000000000000000000000000000000000000000000000000000000000000000000000000000000000000000000000000000000000000000BE00000000000000000000000000000000000000000000000000000000000000000000000000000000000000000000000000000000000000
310
00000000000000000000000000BE000000000000000000000000000000000000000000000000000000000000000000000000000000000000000000000000000000000000000000000000000000000000000000000000000000000000000000000000000000000000000000000000F5F500002D000000000000000000000000
310
00000000000000000000000000000000000000000000000000000000000000000000000000000000000000000000000000000000000000000000000000000000000000000000000000BE0000000000000000000000000000000000000000000000000000000000000000000000000000000000000000000000000000000000
310
000000000000000000000000000000BE000000000000000000000000000000000000000000000000000000000000000000000000000000000000000000000000000000000000000000000000000000000000000000000000000000000000000000000000000000000000000000000000F5F500002D00000000000000000000
310
000000000000000000000000000000000000000000000000000000000000000000000000000000000000000000000000000000000000000000000000000000000000000000000000000000BE000000000000000000000000000000000000000000000000000000000000000000000000000000000000000000000000000000
310
0000000000000000000000000000000000BE0000000000000000000000000000000000000000000000000000000000000000000000000000000000000000002828282828282828282828282828282828282828282828282828280000000000000000000000000000000000000000002D2D2D2D2D2D2D2D2D2D2D2D00C300C3
310
C3C3C3C3C3C3C3C3C3C3C3AC0000000000000000000000000000000000000000000000000000000000000000000000000000000000000000000000000000000000000000000000000000000000BE00000000000000000000000000000000000000000000000000000000000000000000000000000000000000000000000000
310
00000000000000000000000000000000000000BE000000000000000000000000000000000000000000000000000000000000000000000000000000000000000000282828282828282828282828282828282828282828282828282828000000000000000000000000000000000000000000002D000000002D2D2D2D2D2D00C3
310
C3C3C3C3C3C3C3C3C3C3C3C3C3C3AC00000000000000000000000000000000000000000000000000000000000000000000000000000000000000000000000000000000000000000000000000000000BE0000000000000000000000000000000000000000000000000000000000000000000000000000000000000000000000
310
000000000000000000000000000000000000000000BE000000000000000000000000000000000000000000000000000000000000000000000000000000000000000000282800DCDCDCDCDC282828DCDCDCDCDC2828280000000000002828000000000000000000000000000000000000000000002D2D000000002D00000000
310
002800000000000000000000000000AC00AC000000000000000000000000000000000000000000000000000000000000000000000000000000000000000000000000000000000000000000000000000000BE000000000000000000000000000000000000000000000000000000000000000000000000000000000000000000
310
0000000000000000000000000000000000000000000000BE000000000000000000000000000000000000000000000000000000000000000000000000000000000000000000282800DC2828DC0028282800DC0028DC2828280000000000002828000000000000000000000000000000000000000000002D2D000000002D0000
310
0000002800000000000000000000000000ACAC00000000000000000000000000000000000000000000000000000000000000000000000000000000000000000000000000000000000000000000000000000000BE00000000000000000000000000000000000000000000000000000000000000000000000000000000000000
310
00000000000000000000000000000000000000000000000000BE000000000000000000000000000000000000000000000000000000000000000000000000000000000000000000282800DC2800DC0028282800DC0028DC2828280000000000002828000000000000000000000000000000000000000000002D00000000002D
310
0000000000280000DC28002828282800DC0000AC00AC000000000000000000000000000000000000000000000000000000000000000000000000000000000000000000000000000000000000000000000000000000BE0000000000000000000000000000000000000000000000000000000000000000000000000000000000
310
000000000000000000000000000000000000000000000000000000BE000000000000000000000000000000000000000000000000000000000000000000000000000000000000000000282800DC2800DC0028282800DC0028DC2828280000000000002828000000000000000000000000000000000000000000002D00000000
310
002D00000000002800DCDCDCDCDCDCDCDCDCDC0000ACAC00000000000000000000000000000000000000000000000000000000000000000000000000000000000000000000000000000000000000000000000000000000BE000000000000000000000000000000000000000000000000000000000000000000000000000000
310
0000000000000000000000000000000000000000000000000000000000BE000000000000000000282828282828282828280028282828282828282828282828280028282828282828280000282800DC2800DC0028282800DC0028DC2828280000000000002828000000000000000000000000000000000000000000002D0000
310
0000002D0000000000280028DC28000000002800DC0000ACACAC000000000000000000000000000000000000000000000000000000000000000000000000000000000000000000000000000000000000000000000000000000BE00000000000000000000000000000000000000000000000000000000000000000000000000
310
00000000000000000000000000000000000000000000000000000000000000BE000000000000000000282828282828282828280028282828282828282828282828280028282828282828280000282800DCDCDCDCDC282828DCDCDCDCDC2828280000000000002828000000000000000000000000000000000000000000002D
310
00000000002D0000000000280028DC28000000002800DC0000ACAC00000000000000000000000000000000000000000000000000000000000000000000000000000000000000000000000000000000000000000000000000000000BE0000000000000000000000000000000000000000000000000000000000000000000000
310
000000000000000000000000000000000000000000000000000000000000000000BE000000000000000000000000000000000000000000000000000000000000000000000000000000000000000000282800DC0000DC0028282800DC0000DC2828280000000000002828000000000000000000000000000000000000000000
310
002D00000000002D0000000000280028DC00000000000000DC0000ACACAC000000000000000000000000000000000000000000000000000000000000000000000000000000000000000000000000000000000000000000000000000000BE000000000000000000000000000000000000000000000000000000000000000000
310
0000000000000000000000000000000000000000000000000000000000000000000000BE00000000000000000000000000000000000000000000000000000000000000000000000000000000000000000028280000000000002828280000000000282828000000000000282800000000000000000000000000000000000000
310
0000002D00000000002D0000000000280000DC00000000000000DC0000AC00AC000000000000000000000000000000000000000000000000000000000000000000000000000000000000000000000000000000000000000000000000000000BE00000000000000000000000000000000000000000000000000000000000000
310
00000000000000000000000000000000000000000000000000000000000000000000000000BE0000000000000000000000000000000000000000000000000000000000000000000000000000000000000000002828000000000000282828000000000028282800000000000028280000000000000000000000000000000000
310
00000000002D0000F500F52D0000000000280000DC00000000000000DC0000ACAC00000000000000000000000000000000000000000000000000000000000000000000000000000000000000000000000000000000000000000000000000000000BE0000000000000000000000000000000000000000000000000000000000
310
000000000000000000000000000000000000000000000000000000000000000000000000000000BE0000000000000000000000000000000000000000000000000000000000000000000000000000000000000000002828000F0F0F0F00282828000F0F0F0F2828280000000000002828000000000000000000000000000000
310
000000000000002D0000F5F5F52D0000000000280000DC00000000000000DC0000AC00AC000000000000000000000000000000000000000000000000000000000000000000000000000000000000000000000000000000000000000000000000000000BE000000000000000000000000000000000000000000000000000000
310
0000000000000000000000000000000000000000000000000000000000000000000000000000000000BE0000000000000000000000000000000000000000000000000000000000000000000000000000000000000000002828000F0F0F0F00282828000F0F0F0F282828000000000000282800000000000000000000000000
310
0000000000000000002D0000F5F5F52D0000000000280000DC00000000000000DC0000ACAC00000000000000000000000000000000000000000000000000000000000000000000000000000000000000000000000000000000000000000000000000000000BE00000000000000000000000000000000000000000000000000
310
00000000000000000000000000000000000000000000000000000000000000000000000000000000000000BE0000000000000000000000000000000000000000000000000000000000000000000000000000000000000000002828000F000F0F00282828000F0F000F28282800000000000028280000000000000000000000
310
00000000000000000000002D0000F5F5F52D0000000000280000DC00000000000000DC0000AC00AC000000000000000000000000000000000000000000000000000000000000000000000000000000000000000000000000000000000000000000000000000000BE0000000000000000000000000000000000000000000000
310
000000000000000000000000000000000000000000000000000000000000000000000000000000000000000000BE0000000000000000000000000000000000000000000000000000000000000000000000000000000000000000002828000F0F0F0F00282828000F0F000F2828280000000000002828000000000000000000
310
000000000000000000000000002D00000000002D0000000000280000DC00000000000000DC0000ACAC00000000000000000000000000000000000000000000000000000000000000000000000000000000000000000000000000000000000000000000000000000000BE000000000000000000000000000000000000000000
310
0000000000000000000000000000000000000000000000000000000000000000000000000000000000000000000000BE0000000000000000000000000000000000000000000000000000000000000000000000000000000000000000002828000F000F0F0F2828280F0F0F000F282828000000000000282800000000000000
310
0000000000000000000000000000002D00000000002D0000000000280000DC00000000000000DC0000AC00AC000000000000000000000000000000000000000000000000000000000000000000000000000000000000000000000000000000000000000000000000000000BE00000000000000000000000000000000000000
310
00000000000000000000000000000000000000000000000000000000000000000000000000000000000000000000000000BE0000000000000000000000000000000000000000000000000000000000000000000000000000000000000000002828000F0F0F0F0F2828280F0F0F0F0F28282800000000000028280000000000
310
00000000000000000000000000000000002D0000F5F5F52D0000000000280000DC00000000000000DC0000ACAC00000000000000000000000000000000000000000000000000000000000000000000000000000000000000000000000000000000000000000000000000000000BE0000000000000000000000000000000000
310
000000000000000000000000000000000000000000000000000000000000000000000000000000000000000000000000000000BE0000000000000000000000000000000000000000000000000000000000000000000000000000000000000000002828000F0F0F0F0F2828280F0F0F0F0F2828280000000000002828000000
310
00000000000000000000000000000000F5F5F52D00000000F52D0000000000280000DC00000000000000DC0000AC00AC000000000000000000000000000000000000000000000000000000000000000000000000000000000000000000000000000000000000000000000000000000BE000000000000000000000000000000
310
0000000000000000000000000000000000000000000000000000000000000000000000000000000000000000000000000000000000BE00000000000000000000000000000000000000000000000000000000000000000000000000000000000000000028280000000000002828280000000000282828000000000000282800
310
000000000000000000000000000000000000F5F5F52D0000F5F5002D0000000000280000DC00000000000000DC0000ACAC00000000000000000000000000000000000000000000000000000000000000000000000000000000000000000000000000000000000000000000000000000000BE00000000000000000000000000
310
00000000000000000000000000000000000000000000000000000000000000000000000000000000000000000000000000000000000000BE000000000000000000000000000000000000000000000000000000000000000000000000000000000000000000282800DC2828DC0028282800DC0028DC28282800000000000028
310
2800000000000000000000000000000000000000F5F5F52D00F50000002D0000000000280000DC00000000000000DC0000AC00AC000000000000000000000000000000000000000000000000000000000000000000000000000000000000000000000000000000000000000000000000000000BE0000000000000000000000
310
000000000000000000000000000000000000000000000000000000000000000000000000000000000000000000000000000000000000000000BE000000000000000000000000000000000000000000000000000000000000000000000000000000000000000000282800DCDCDCDCDC282828DCDCDCDCDC2828280000000000
310
00282800000000000000000000000000000000000000F5F5F52D0000F5F5F52D0000000000280000DC00000000000000DC0000ACAC00000000000000000000000000000000000000000000000000000000000000000000000000000000000000000000000000000000000000000000000000000000BE000000000000000000
310
0000000000000000000000000000000000000000000000000000000000000000000000000000000000000000000000000000000000000000000000BE000000000000000000000000000000000000000000000000000000000000000000000000000000000000000000282800DC0000DC0028282800DC0000DC282828000000
310
000000282800000000000000000000000000000000000000F500002D00F5F500F52D0000000000280000DC00000000000000DC0000ACACAC000000000000000000000000000000000000000000000000000000000000000000000000000000000000000000000000000000000000000000000000000000BE00000000000000
310
00000000000000000000000000000000000000000000000000000000000000000000000000000000000000000000000000000000000000000000000000BE000000000000000000000000000000000000000000000000000000000000000000000000000000000000000000282800DC2800DC0028282800DC0028DC28282800
310
0000000000282800000000000000000000000000000000000000F500002D00F5F500002D0000000000280000DC00000000000000DC0000ACAC00000000000000000000000000000000000000000000000000000000000000000000000000000000000000000000000000000000000000000000000000000000BE0000000000
310
000000000000000000000000000000000000000000000000000000000000000000000000000000000000000000000000000000000000000000000000000000BE000000000000000000000000000000000000000000000000000000000000000000000000000000000000000000282800DC2800DC0028282800DC0028DC2828
310
280000000000002828000000000000000000000000000000000000000000002D00000000002D0000000000280000DC00000000000000DC0000ACACAC000000000000000000000000000000000000000000000000000000000000000000000000000000000000000000000000000000000000000000000000000000BE000000
310
0000000000000000000000000000000000000000000000000000000000000000000000000000000000000000000000000000000000000000000000000000000000BE000000000000000000000000000000000000000000000000000000000000000000000000000000000000000000282800DC2800DC0028282800DC0028DC
310
28282828000028002828BE000000000000000000000000000000000000000000002D00000000002D0000000000280000DC00000000000000DC0000AC00AC000000000000000000000000000000000000000000000000000000000000000000000000000000000000000000000000000000000000000000000000000000BE00
310
00000000000000000000000000000000000000000000000000000000000000000000000000000000000000000000000000000000000000000000000000000000000000BE000000000000000000000000000000000000000000000000000000000000000000000000000000000000000000282800DCDCDCDCDC282828DCDCDC
310
DCDC28BEBE28002828002828BE00000000000000000000000000000000000000DCDCDC2D00000000002D0000000000280000DC00000000000000DC0000ACAC00000000000000000000000000000000000000000000000000000000000000000000000000000000000000000000000000000000000000000000000000000000
310
BE0000000000000000000000000000000000000000000000000000000000000000000000000000000000000000000000000000000000000000000000000000000000000000BE000000000000000000000000000000000000000000000000000000000000000000000000000000000000000000282800BEBEBEBE0028282800
310
BEBEBE002828BE00002828000028BE00000000000000000000000000000000000000DCDCDC2D00000000002D0000000000280000DC00000000000000DC0000AC00AC00000000000000000000000000000000000000000000000000000000000000000000000000000000000000000000000000000000000000000000000000
310
0000BE0000000000000000000000000000000000000000000000000000000000000000000000000000000000000000000000000000000000000000000000000000000000000000BE0000000000000000000000000000000000000000000000000000000000000000000000000000000000000000002828282828BE28282828
310
282828BE282828BEBE28282828282828BE00000000000000000000000000000000000000DCDCDC2D00000000002D00000000002800C3DCC3C3C3C3C3C3C3DCC3C3ACAC000000000000000000000000000000000000000000000000000000000000000000000000000000000000000000000000000000000000000000000000
310
00000000BE0000000000000000000000000000000000000000000000000000000000000000000000000000000000000000000000000000000000000000000000000000000000000000BE0000000000000000000000000000000000000000000000000000000000000000000000000000000000000000002828282828282828
310
2828282828282828282828282828282828282800000000000000000000000000000000000000DCDCDC2D000000002D2D2D2D2D2D0028C3C3DCC3C3C3C3C3C3C3DCC3C3AC00AC000000000000000000000000000000000000000000000000000000000000000000000000000000000000000000000000000000000000000000
310
000000000000BE0000000000000000000000000000000000000000000000000000000000000000000000000000000000000000000000000000000000000000000000000000000000000000BE000000000000000000000000000000000000000000000000000000000000000000000000000000000000000000282800000000
310
00002828280000000000282828000000000000282800000000000000000000000000000000000000DCDCDC2D00000000002D0000000000280000DC00000000000000DC0000ACAC0000000000000000000000000000000000000000000000000000000000000000000000000000000000000000000000000000000000000000
310
0000000000000000BE0000000000000000000000000000000000000000000000000000000000000000000000000000000000000000000000000000000000000000000000000000000000000000BE000000000000000000000000000000000000000000000000000000000000000000000000000000000000000000282800DC
310
DCDCDCDC282828DCDCDCDCDC282828000000000000282800000000000000000000000000000000000000DCDCDC2D00000000002D0000000000280000DC00000000000000DC0000AC00AC0000000000000000000000000000000000000000000000000000000000000000000000000000000000000000000000000000000000
310
00000000000000000000BE0000000000000000000000000000000000000000000000000000000000000000000000000000000000000000000000000000000000000000000000000000000000000000BE0000000000000000000000000000000000000000000000000000000000000000000000000000000000000000002828
310
00DC2800DC0028282800DC0028DC282828000000000000282800000000000000000000000000000000000000DCDCDC2D00000000002D0000000000280000DC00000000000000DC0000ACAC00000000000000000000000000000000000000000000000000000000000000000000000000000000000000000000000000000000
310
000000000000000000000000BE0000000000000000000000000000000000000000000000000000000000000000000000000000000000000000000000000000000000000000000000000000000000000000BE000000000000000000000000000000000000000000000000000000000000000000000000000000000000000000
310
282800DC2800DC0028282800DC0028DC282828000000000000282800000000000000000000000000000000000000DCDCDC2D00000000002D0000000000280000DC00000000000000DC0000AC00AC00000000000000000000000000000000000000000000000000000000000000000000000000000000000000000000000000
310
0000000000000000000000000000BE0000000000000000000000000000000000000000000000000000000000000000000000000000000000000000000000000000000000000000000000000000000000000000BE00000000000000000000000000000000000000000000000000000000000000000000000000000000000000
310
0000282800DC2800DC0028282800DC0028DC282828000000000000282800000000000000000000000000000000000000DCDCDC2D00000000002D0000000000280000DC00000000000000DC0000ACAC000000000000000000000000000000000000000000000000000000000000000000000000000000000000000000000000
310
00000000000000000000000000000000BE0000000000000000000000000000000000000000000000000000000000000000000000000000000000000000000000000000000000000000000000000000000000000000BE0000000000000000000000000000000000000000000000000000000000000000000000000000000000
310
00000000282800DC2800DC0028282800DC0028DC2828280000000000002828000000000000000000000000000000000000000000002D00000000002D0000000000280000DC00000000000000DC0000AC00AC000000000000000000000000000000000000000000000000000000000000000000000000000000000000000000
310
000000000000000000000000000000000000BE0000000000000000000000000000000000000000000000000000000000000000000000000000000000000000000000000000000000000000000000000000000000000000BE000000000000000000000000000000000000000000000000000000000000000000000000000000
310
000000000000282800DCDCDCDCDC282828DCDCDCDCDC2828280000000000002828000000000000000000000000000000000000000000002D00000000002D0000000000280000DC00000000000000DC0000ACAC0000000000000000000000000000000000000000000000000000000000000000000000000000000000000000
310
0000000000000000000000000000000000000000BE0000000000000000000000000000000000000000000000000000000000000000000000000000000000000000000000000000000000000000000000000000000000000000BE00000000000000000000000000000000000000000000000000000000000000000000000000
310
0000000000000000282800DC0000DC0028282800DC0000DC282828000000000000282800000000000000000000000000000000000000DCDCDC2D00000000002D0000000000280000DC00000000000000DC0000ACACAC0000000000000000000000000000000000000000000000000000000000000000000000000000000000
310
00000000000000000000000000000000000000000000BE0000000000000000000000000000000000000000000000000000000000000000000000000000000000000000000000000000000000000000000000000000000000000000BE0000000000000000000000000000000000000000000028282828282800282828282828
310
2800282828282828000028280000000000002828280000000000282828000000000000282800000000000000000000000000000000000000DCDCDC2D00000000002D0000000000280000DC00000000000000DC0000ACAC00000000000000000000000000000000000000000000000000000000000000000000000000000000
310
000000000000000000000000000000000000000000000000BE0000000000000000000000000000000000000000000000000000000000000000000000000000000000000000000000000000000000000000000000000000000000000000BE000000000000000000000000000000000000000000002828282828000028282828
310
28002828282828282828000028280000000000002828280000000000282828000000000000282800000000000000000000000000000000000000DCDCDC2D0000F500F52D0000000000280000DC00000000000000DC0000ACACAC00000000282828282828282828282828280000282828282828000000000000000000000000
310
0000000000000000000000000000000000000000000000000000BE0000000000000000000000000000000000000000000000000000000000000000000000000000000000000000000000000000000000000000000000000000000000000000BE00000000000000000000000000000000000000000000282828282828002828
310
28282828282828282828282800002828000F0F0F0F00282828000F0F0F0F282828000000000000282800000000000000000000000000000000000000DCDCDC2D0000F5F5F52D0000000000280000DC00000000000000DC0000AC00AC0000000028282828282828282828282828282828282828282800000000000000000000
310
00000000000000000000000000000000000000000000000000000000BE0000000000000000000000000000000000000000000000000000000000000000000000000000000000000000000000000000000000000000000000000000000000000000BE0000000000000000000000000000000000000000000028282828282828
310
282828280028282828282828282800002828000F000F0F00282828000F0F000F282828000000000000282800000000000000000000000000000000000000DCDCDC2D0000F5F5F52D0000000000280000DC00000000000000DC0000ACAC00000000002828282828282828282828282828282828282828280000000000000000
310
000000000000000000000000000000000000000000000000000000000000BE0000000000000000000000000000000000000000000000000000000000000000000000000000000000000000000000000000000000000000000000000000000000000000BE000000000000000000000000000000000000000000002828282828
310
2828282828280028282828282828280000002828000F0F0F0F00282828000F0F000F282828000000000000282800000000000000000000000000000000000000DCDCDC2D0000F5F5F52D0000000000280000DC00000000000000DC0000AC00AC00000000282828282828282828000000000000000000000000000000000000
310
0000000000000000000000000000000000000000000000000000000000000000BE0000000000000000000000000000000000000000000000000000000000000000000000000000000000000000000000000000000000000000000000000000000000000000BE00000000000000000000000000000000000000000000282828
310
28282828282828280028282828282828282800002828000F000F0F0F2828280F0F0F000F282828000000000000282800000000000000000000000000000000000000DCDCDC2D00000000002D0000000000280000DC00000000000000DC0000ACAC000000000028282828282828282800000000000000000000000000000000
310
00000000000000000000000000000000000000000000000000000000000000000000BE0000000000000000000000000000000000000000000000000000000000000000000000000000000000000000000000000000000000000000000000000000000000000000BE0000000000000000000000000000000000000000000000
310
000000000000000000000000000000000000000000002828000F000F0F0F2828280F0F0F000F282828000000000000282800000000000000000000000000000000000000DCDCDC2D00000000002D0000000000280000DC00000000000000DC0000AC00AC000000000000000000000000000000000000000000000000000000
310
000000000000000000000000000000000000000000000000000000000000000000000000BE0000000000000000000000000000000000000000000000000000000000000000000000000000000000000000000000000000000000000000000000000000000000000000BE000000000000000000000000000000000000000000
310
0000000000000000000000000000000000000000000000002828000F0F0F0F0F2828280F0F0F0F0F2828280000000000002828000000000000000000000000000000000000000000002D0000F5F5F52D0000000000280000DC00000000000000DC0000ACAC0000000000000000000000000000000000000000000000000000
310
0000000000000000000000000000000000000000000000000000000000000000000000000000BE0000000000000000000000000000000000000000000000000000000000000000000000000000000000000000000000000000000000000000000000000000000000000000BE00000000000000000000000000000000000000
310
0000000000000000000000000000000000000000000000000000282800000000000028282800000000002828280000000000002828000000000000000000000000000000000000000000002D00000000F52D0000000000280000DC00000000000000DC0000AC00AC0000000000000000000000000000000000000000000000
310
00000000000000000000000000000000000000000000000000000000000000000000000000000000BE0000000000000000000000000000000000000000000000000000000000000000000000000000000000000000000000000000000000000000000000000000000000000000BE0000000000000000000000000000000000
310
00000000000000000000000000000000000000000000000000000000282800000000000028282800000000002828280000000000002828000000000000000000000000000000000000000000002D0000F5F5002D0000000000280000DC00000000000000DC0000ACAC00000000000000000000000000000000000000000000
310
000000000000000000000000000000000000000000000000000000000000000000000000000000000000BE0000000000000000000000000000000000000000000000000000000000000000000000000000000000000000000000000000000000000000000000000000000000000000BE000000000000000000000000000000
310
000000000000000000000000000000000000000000000000000000000000282800DCDCDCDCDC282828DCDCDCDCDC2828280000000000002828000000000000000000000000000000000000000000002D00F50000002D0000000000280000DC00000000000000DC0000AC00AC00000000282828282828282828280000000000
310
0000000000000000000000000000000000000000000000000000000000000000000000000000000000000000BE0000000000000000000000000000000000000000000000000000000000000000000000000000000000000000000000000000000000000000000000000000000000000000BE00000000000000000000000000
310
0000000000000000000000000000000000000000000000000000000000000000282800DC2800DC0028282800DC0028DC2828280000000000002828000000000000000000000000000000000000000000002D0000F5F5F52D0000000000280028DC00000000000000DC0000ACAC000000000028282828282828282828000000
310
00000000000000000000000000000000000000000000000000000000000000000000000000000000000000000000BE0000000000000000000000000000000000000000000000000000000000000000000000000000000000000000000000000000000000000000000000000000000000000000BE0000000000000000000000
310
00000000282828282828282828282828002828282828280028282828282828280000282800DC2800DC0028282800DC0028DC2828280000000000002828000000000000000000000000000000000000000000002D00F5F500F52D0000000000280028DC00000000000000DC0000AC00AC000000002828282828282828282800
310
000000000000000000000000000000000000000000000000000000000000000000000000000000000000000000000000BE0000000000000000000000000000000000000000000000000000000000000000000000000000000000000000000000000000000000000000000000000000000000000000BE000000000000000000
310
000000000000282800282828282828282828282828282828280028282828282828280000282800DC0000DC0028282800DC0000DC2828280000000000002828000000000000000000000000000000000000000000002D00F5F500002D0000000000280028DC28000000002800DCACACACACACACAC0000282828282828282828
310
2828280028282800000000000000000000000000000000000000000000000000000000000000000000000000000000000000BE0000000000000000000000000000000000000000000000000000000000000000000000000000000000000000000000000000000000000000000000000000000000000000BE00000000000000
310
0000000000000000000000000000000000000000000000000000000000000000000000000000282800DC2800DC0028282800DC0028DC2828282800002800282828000000000000000000000000000000000000000000002D00000000002D0000000000280000DC28002828282800DC0000ACACAC0000000028282828282828
310
28282828280028282800000000000000000000000000000000000000000000000000000000000000000000000000000000000000BE0000000000000000000000000000000000000000000000000000000000000000000000000000000000000000000000000000000000000000000000000000000000000000BE0000000000
310
00000000000000000000000000000000000000000000000000000000000000000000000000000000282800DCDCDCDCDC282828DCDCDCDCDC28BEBE280028280028BEBE000000000000000000000000000000000000000000002D00000000002D00000000002800DCDCDCDCDCDCDCDCDCDC0000AC00AC000000000000000000
310
000000000000000000000000000000000000000000000000000000000000000000000000000000000000000000000000000000000000BE0000000000000000000000000000000000000000000000000000000000000000000000000000000000000000000000000000000000000000000000000000000000000000BE000000
310
000000000000000000000000000000000000000000002828282828282828282828282828282828000000282800DCBEBEDC0028282800DCBEBEDC2828BE28002828002828BE000000000000000000000000000000000000000000002D2D000000002D0000000000280000DC00000000000000DC0000ACAC0000000000000000
310
0000000000000000000000000000000000000000000000000000000000000000000000000000000000000000000000000000000000000000BE0000000000000000000000000000000000000000000000000000000000000000000000000000000000000000000000000000000000000000000000000000000000000000BE00
310
0000000000000000000000000000000000000000000000002828282828282828282828282828282828000000282800BEBEBEBE0028282800BEBEBE0028BEBE00002828000028BE000000000000000000000000000000000000000000002D2D000000002D00000000002800000000000000000000000000AC00AC0000000000
310
00000000000000000000000000000000000000000000000000000000000000000000000000000000000000000000000000000000000000000000BE0000000000000000000000000000000000000000000000000000000000000000000000000000000000000000000000000000000000000000000000000000000000000000
310
BE000000000000000000000000000000000000000000000000000000000000000000000000000000000000000000282828282828282828282828282828282828282828282828282828000000000000000000000000000000000000000000002D00000000002D0000000000C300C3C3C3C3C3C3C3C3C3C3C3C3C3AC00000000
310
000000000000000000000000000000000000000000000000000000000000000000000000000000000000000000000000000000000000000000000000BE000000000000000000000000000000000000000000000000000000000000000000000000000000000000000000000000000000000000000000000000000000000000
310
0000BE0000000000000000000000000000000000000000000000000000000000000000000000000000000000000000002828282828282828282828282828282828282828282828282828280000000000000000000000000000000000000000002D2D2D2D2D2D2D2D2D2D2D2D00C3C3C3C3C3C3C3C3C3C3C3C3C3C3C300AC00
310
0000000000000000000000000000000000000000000000000000000000000000000000000000000000000000000000000000000000000000000000000000BE00000000000000000000000000000000000000000000000000000000000000000000000000000000000000000000000000000000000000000000000000000000
310
00000000BE000000000000000000000000000000000000000000000000000000000000000000000000000000000000000000000000000000000000000000000000000000000000000000000000000000000000000000000000000000000000000000000000000000000000000000000000000000000000000000000000ACAC
310
00000000000000000000000000000000000000000000000000000000000000000000000000000000000000000000000000000000000000000000000000000000BE0000000000000000000000000000000000000000000000000000000000000000000000000000000000000000000000000000000000000000000000000000
310
000000000000BE000000000000000000000000000000000000000000000000000000000000000000000000000000000000000000000000000000000000000000000000000000000000000000000000000000000000000000000000000000000000000000000000000000000000000000000000000000000000000000000000
310
AC00AC000000000000000000000000000000000000000000000000000000000000000000000000000000000000000000000000000000000000000000000000000000BE000000000000000000000000000000000000000000000000000000000000000000000000000000000000000000000000000000000000000000000000
310
0000000000000000BE00000000000000000000000000000000000000000000000000000000000000000000000000000000000000000000000000000000000000000000000000000000000000000000000000000000000000000000000000000000000000000000000000000000000000000000000000000000000000000000
310
0000ACAC00000000000000000000000000000000000000000000000000000000000000000000000000000000000000000000000000000000000000000000000000000000BE00000000000000000000000000000000000000000000000000000000000000000000000000000000000000000000000000000000000000000000
310
00000000000000000000BE0000000000000000000000000000000000000000000000000000000000000000000000000000000000000000000000000000000000000000000000000000000000000000000000000000000000000000000000000000000000000000000000000000000000000000000000000000000000000000
310
00000000AC00AC000000000000000000000000000000000000000000000000000000000000000000000000000000000000000000000000000000000000000000000000000000BE0000000000000000000000000000000000000000000000000000000000000000000000000000000000000000000000000000000000000000
310
000000000000000000000000BE000000000000000000000000000000000000000000000000000000000000000000000000000000000000000000000000000000000000000000000000000000000000000000000000000000000000000000000000000000000000000000000000000000000000000000000000000000000000
310
000000000000000000000000000000000000000000000000000000000000000000000000000000000000000000000000000000000000000000000000000000000000000000000000BE000000000000000000000000000000000000000000000000000000000000000000000000000000000000000000000000000000000000
310
0000000000000000000000000000BE00000000000000000000000000000000000000000000000000000000000000000000000000000000000000000000000000000000000000000000000000000000000000000000000000000000000000000000000000000000000000000000000000000000000000000000000000000000
310
0000000000000000000000000000000000000000000000000000000000000000000000000000000000000000000000000000000000000000000000000000000000000000000000000000BE00000000000000000000000000000000000000000000000000000000000000000000000000000000000000000000000000000000
310
00000000000000000000000000000000BE0000000000000000000000000000000000000000000000000000000000000000000000000000000000000000000000000000000000000000000000000000000000000000000000000000000000000000000000000000000000000000000000000000000000000000000000000000
310
00000000000000000000000000000000000000000000000000000000000000000000000000000000000000000000000000000000000000000000000000000000000000000000000000000000BE0000000000000000000000000000000000000000000000000000000000000000000000000000000000000000000000000000
310
000000000000000000000000000000000000BE000000000000000000000000000000000000000000000000000000000000000000000000000000000000000000000000000000000000000000000000000000000000000000000000000000000000000000000000000000000000000000000000000000000000000000000000
310
000000000000000000000000000000000000000000000000000000000000000000000000000000000000000000000000000000000000000000000000000000000000000000000000000000000000BE000000000000000000000000000000000000000000000000000000000000000000000000000000000000000000000000
310
0000000000000000000000000000000000000000BE00000000000000000000000000000000000000000000000000000000000000000000000000000000000000000000000000000000000000000000000000000000000000000000000000000000000000000000000000000000000000000000000000000000000000000000
310
0000000000000000000000000000000000000000000000000000000000000000000000000000000000000000000000000000000000000000000000000000000000000000000000000000000000000000BE00000000000000000000000000000000000000000000000000000000000000000000000000000000000000000000
310
00000000000000000000000000000000000000000000BE0000000000000000000000000000000000000000000000000000000000000000000000000000000000000000000000000000000000000000000000000000000000000000000000000000000000000000000000000000000000000000000000000000000000000000
310
00000000000000000000000000000000000000000000000000000000000000000000000000000000000000000000000000000000000000000000000000000000000000000000000000000000000000000000BE0000000000000000000000000000000000000000000000000000000000000000000000000000000000000000
310
000000000000000000000000000000000000000000000000BE000000000000000000000000000000000000000000000000000000000000000000000000000000000000000000000000000000000000000000000000000000000000000000000000000000000000000000000000000000000000000000000000000000000000
310
000000000000000000000000000000000000000000000000000000000000000000000000000000000000000000000000000000000000000000000000000000000000000000000000000000000000000000000000BE000000000000000000000000000000000000000000000000000000000000000000000000000000000000
310
0000000000000000000000000000000000000000000000000000BE00000000000000000000000000000000000000000000000000000000000000000000000000000000000000000000000000000000000000000000000000000000000000000000000000000000000000000000000000000000000000000000000000000000
310
0000000000000000000000000000000000000000000000000000000000000000000000000000000000000000000000000000000000000000000000000000000000000000000000000000000000000000000000000000BE00000000000000000000000000000000000000000000000000000000000000000000000000000000
310
00000000000000000000000000000000000000000000000000000000BE0000000000000000000000000000000000000000000000000000000000000000000000000000000000000000000000000000000000000000000000000000000000000000000000000000000000000000000000000000000000000000000000000000
310
00000000000000000000000000000000000000000000000000000000000000000000000000000000000000000000000000000000000000000000000000000000000000000000000000000000000000000000000000000000BE0000000000000000000000000000000000000000000000000000000000000000000000000000
310
000000000000000000000000000000000000000000000000000000000000BE000000000000000000000000000000000000000000000000000000000000000000000000000000000000000000000000000000000000000000000000000000000000000000000000000000000000000000000000000000000000000000000000
310
000000000000000000000000000000000000000000000000000000000000000000000000000000000000000000000000000000000000000000000000000000000000000000000000000000000000000000000000000000000000BE000000000000000000000000000000000000000000000000000000000000000000000000
310
0000000000000000000000000000000000000000000000000000000000000000BE00000000000000000000000000000000000000000000000000000000000000000000000000000000000000000000000000000000000000000000000000000000000000000000000000000000000000000000000000000000000000000000
310
0000000000000000000000000000000000000000000000000000000000000000000000000000000000000000000000000000000000000000000000000000000000000000000000000000000000000000000000000000000000000000BE00000000000000000000000000000000000000000000000000000000000000000000
310
00000000000000000000000000000000000000000000000000000000000000000000BE0000000000000000000000000000000000000000000000000000000000000000000000000000000000000000000000000000000000000000000000000000000000000000000000000000000000000000000000000000000000000000
310
00000000000000000000000000000000000000000000000000000000000000000000000000000000000000000000000000000000000000000000000000000000000000000000000000000000000000000000000000000000000000000000BE0000000000000000000000000000000000000000000000000000000000000000
310
000000000000000000000000000000000000000000000000000000000000000000000000BE000000000000000000000000000000000000000000000000000000000000000000000000000000000000000000000000000000000000000000000000000000000000000000000000000000000000000000000000000000000000
310
000000000000000000000000000000000000000000000000000000000000000000000000000000000000000000000000000000000000000000000000000000000000000000000000000000000000000000000000000000000000000000000000BE000000000000000000000000000000000000000000000000000000000000
310
0000000000000000000000000000000000000000000000000000000000000000000000000000BE00000000000000000000000000000000000000000000000000000000000000000000000000000000000000000000000000000000000000000000000000000000000000000000000000000000000000000000000000000000
310
0000000000000000000000000000000000000000000000000000000000000000000000000000000000000000000000000000000000000000000000000000000000000000000000000000000000000000000000000000000000000000000000000000BE00000000000000000000000000000000000000000000000000000000
310
00000000000000000000000000000000000000000000000000000000000000000000000000000000BE0000000000000000000000000000000000000000000000000000000000000000000000000000000000000000000000000000000000000000000000000000000000000000000000000000000000000000000000000000
310
00000000000000000000000000000000000000000000000000000000000000000000000000000000000000000000000000000000000000000000000000000000000000000000000000000000000000000000000000000000000000000000000000000000BE0000000000000000000000000000000000000000000000000000
310
000000000000000000000000000000000000000000000000000000000000000000000000000000000000BE000000000000000000000000000000000000000000000000000000000000000000000000000000000000000000000000000000000000000000000000000000000000000000000000000000000000000000000000
310
000000000000000000000000000000000000000000000000000000000000000000000000000000000000000000000000000000000000000000000000000000000000000000000000000000000000000000000000000000000000000000000000000000000000BE000000000000000000000000000000000000000000000000
310
0000000000000000000000000000000000000000000000000000000000000000000000000000000000000000BE00000000000000000000000000000000000000000000000000000000000000000000000000000000000000000000000000000000000000000000000000000000000000000000000000000000000000000000
310
0000000000000000000000000000000000000000000000000000000000000000000000000000000000000000000000000000000000000000000000000000000000000000000000000000000000000000000000000000000000000000000000000000000000000000BE00000000000000000000000000000000000000000000
310
00000000000000000000000000000000000000000000000000000000000000000000000000000000000000000000BE0000000000000000000000000000000000000000000000000000000000000000000000000000000000000000000000000000000000000000000000000000000000000000000000000000000000000000
310
00000000000000000000000000000000000000000000000000000000000000000000000000000000000000000000000000000000000000000000000000000000000000000000000000000000000000000000000000000000000000000000000000000000000000000000BE0000000000000000000000000000000000000000
310
000000000000000000000000000000000000000000000000000000000000000000000000000000000000000000000000BE000000000000000000000000000000000000000000000000000000000000000000000000000000000000000000000000000000000000000000000000000000000000000000000000000000000000
310
000000000000000000000000000000000000000000000000000000000000000000000000000000000000000000000000000000000000000000000000000000000000000000000000000000000000000000000000000000000000000000000000000000000000000000000000BE000000000000000000000000000000000000
310
0000000000000000000000000000000000000000000000000000000000000000000000000000000000000000000000000000BE00000000000000000000000000000000000000000000000000000000000000000000000000000000000000000000000000000000000000000000000000000000000000000000000000000000
310
0000000000000000000000000000000000000000000000000000000000000000000000000000000000000000000000000000000000000000000000000000000000000000000000000000000000000000000000000000000000000000000000000000000000000000000000000000BE00000000000000000000000000000000
310
00000000000000000000000000000000000000000000000000000000000000000000000000000000000000000000000000000000BE0000000000000000000000000000000000000000000000000000000000000000000000000000000000000000000000000000000000000000000000000000000000000000000000000000
310
00000000000000000000000000000000000000000000000000000000000000000000000000000000000000000000000000000000000000000000000000000000000000000000000000000000000000000000000000000000000000000000000000000000000000000000000000000000BE0000000000000000000000000000
310
000000000000000000000000000000000000000000000000000000000000000000000000000000000000000000000000000000000000BE000000000000000000000000000000000000000000000000000000000000000000000000000000000000000000000000000000000000000000000000000000000000000000000000
310
000000000000000000000000000000000000000000000000000000000000000000000000000000000000000000000000000000000000000000000000000000000000000000000000000000000000000000000000000000000000000000000000000000000000000000000000000000000000BE000000000000000000000000
310
0000000000000000000000000000000000000000000000000000000000000000000000000000000000000000000000000000000000000000BE00000000000000000000000000000000000000000000000000000000000000000000000000000000000000000000000000000000000000000000000000000000000000000000
310
0000000000000000000000000000000000000000000000000000000000000000000000000000000000000000000000000000000000000000000000000000000000000000000000000000000000000000000000000000000000000000000000000000000000000000000000000000000000000000BE00000000000000000000
310
00000000000000000000000000000000000000000000000000000000000000000000000000000000000000000000000000000000000000000000BE0000000000000000000000000000000000000000000000000000000000000000000000000000000000000000000000000000000000000000000000000000000000000000
310
00000000000000000000000000000000000000000000000000000000000000000000000000000000000000000000000000000000000000000000000000000000000000000000000000000000000000000000000000000000000000000000000000000000000000000000000000000000000000000000BE0000000000000000
310
000000000000000000000000000000000000000000000000000000000000000000000000000000000000000000000000000000000000000000000000BE000000000000000000000000000000000000000000000000000000000000000000000000000000000000000000000000000000000000000000000000000000000000
310
000000000000000000000000000000000000000000000000000000000000000000000000000000000000000000000000000000000000000000000000000000000000000000000000000000000000000000000000000000000000000000000000000000000000000000000000000000000000000000000000BE000000000000
310
0000000000000000000000000000000000000000000000000000000000000000000000000000000000000000000000000000000000000000000000000000BE00000000000000000000000000000000000000000000000000000000000000000000000000000000000000000000000000000000000000000000000000000000
310
0000000000000000000000000000000000000000000000000000000000000000000000000000000000000000000000000000000000000000000000000000000000000000000000000000000000000000000000000000000000000000000000000000000000000000000000000000000000000000000000000000BE00000000
310
00000000000000000000000000000000000000000000000000000000000000000000000000000000000000000000000000000000000000000000000000000000BEBEBEBEBEBEBEBEBEBEBEBEBEBEBEBEBEBEBEBEBEBEBEBEBEBEBEBEBEBEBEBEBEBEBEBEBEBEBEBEBEBEBEBEBEBEBEBEBEBEBEBEBEBEBEBEBEBEBEBEBEBEBE
310
BEBEBEBEBEBEBEBEBEBEBEBEBEBEBEBEBEBEBEBEBEBEBEBEBEBEBEBEBEBEBEBEBEBEBEBEBEBEBEBEBEBEBEBEBEBEBEBEBEBEBEBEBEBEBEBEBEBEBEBEBEBEBEBEBEBEBEBEBEBEBEBEBEBEBEBEBEBEBEBEBEBEBEBEBEBEBEBEBEBEBEBEBEBEBEBEBEBEBEBEBEBEBEBEBEBEBEBEBEBEBEBEBEBEBEBEBEBEBEBEBEBEBEBEBE0000
310
00000000000000000000000000000000000000000000000000000000000000000000000000000000000000000000000000000000000000000000000000000000000000000000000000000000000000000000000000000000000000000000000000000000000000000000000000000000000000000000000000000000000000
310
00000000000000000000000000000000000000000000000000000000000000000000000000000000000000000000000000000000000000000000000000000000000000000000000000000000000000000000000000000000000000000000000000000000000000000000000000000000000000000000000000000000000000
310
00000000000000000000000000000000000000000000000000000000000000000000
  0
XRECORD
  5
21D64
102
{ACAD_REACTORS
330
21D63
102
}
330
21D63
100
AcDbXrecord
280
     1
102
MATERIAL
148
0.0
149
0.0
149
0.0
 93
        0
 94
       63
282
     0
 72
     1
 77
     1
171
     1
175
     1
179
     1
273
     0
  0
XRECORD
  5
21D62
102
{ACAD_REACTORS
330
21D61
102
}
330
21D61
100
AcDbXrecord
280
     1
102
MATERIAL
148
0.0
149
0.0
149
0.0
 93
        0
 94
       63
282
     0
 72
     1
 77
     1
171
     1
175
     1
179
     1
273
     0
  0
XRECORD
  5
21D66
102
{ACAD_REACTORS
330
21D65
102
}
330
21D65
100
AcDbXrecord
280
     1
102
MATERIAL
148
0.0
149
0.0
149
0.0
 93
        0
 94
       63
282
     0
 72
     1
 77
     1
171
     1
175
     1
179
     1
273
     0
  0
CELLSTYLEMAP
  5
21D5F
102
{ACAD_REACTORS
330
1950A
102
}
330
1950A
100
AcDbCellStyleMap
 90
        3
300
CELLSTYLE
  1
TABLEFORMAT_BEGIN
 90
        5
170
     1
 91
        0
 92
    32768
 62
   257
 93
        1
300
CONTENTFORMAT
  1
CONTENTFORMAT_BEGIN
 90
        0
 91
        0
 92
      512
 93
        0
300

 40
0.0
140
1.0
 94
        5
 62
     0
340
10
144
0.25
309
CONTENTFORMAT_END
171
     0
 94
        6
 95
        1
302
GRIDFORMAT
  1
GRIDFORMAT_BEGIN
 90
        0
 91
        1
 62
     0
 92
       -2
340
0
 93
        0
 40
0.045
309
GRIDFORMAT_END
 95
        2
302
GRIDFORMAT
  1
GRIDFORMAT_BEGIN
 90
        0
 91
        1
 62
     0
 92
       -2
340
0
 93
        0
 40
0.045
309
GRIDFORMAT_END
 95
        4
302
GRIDFORMAT
  1
GRIDFORMAT_BEGIN
 90
        0
 91
        1
 62
     0
 92
       -2
340
0
 93
        0
 40
0.045
309
GRIDFORMAT_END
 95
        8
302
GRIDFORMAT
  1
GRIDFORMAT_BEGIN
 90
        0
 91
        1
 62
     0
 92
       -2
340
0
 93
        0
 40
0.045
309
GRIDFORMAT_END
 95
       16
302
GRIDFORMAT
  1
GRIDFORMAT_BEGIN
 90
        0
 91
        1
 62
     0
 92
       -2
340
0
 93
        0
 40
0.045
309
GRIDFORMAT_END
 95
       32
302
GRIDFORMAT
  1
GRIDFORMAT_BEGIN
 90
        0
 91
        1
 62
     0
 92
       -2
340
0
 93
        0
 40
0.045
309
GRIDFORMAT_END
309
TABLEFORMAT_END
  1
CELLSTYLE_BEGIN
 90
        1
 91
        1
300
_TITLE
309
CELLSTYLE_END
300
CELLSTYLE
  1
TABLEFORMAT_BEGIN
 90
        5
170
     1
 91
        0
 92
        0
 62
   257
 93
        1
300
CONTENTFORMAT
  1
CONTENTFORMAT_BEGIN
 90
        0
 91
        0
 92
      512
 93
        0
300

 40
0.0
140
1.0
 94
        5
 62
     0
340
10
144
0.18
309
CONTENTFORMAT_END
171
     0
 94
        6
 95
        1
302
GRIDFORMAT
  1
GRIDFORMAT_BEGIN
 90
        0
 91
        1
 62
     0
 92
       -2
340
0
 93
        0
 40
0.045
309
GRIDFORMAT_END
 95
        2
302
GRIDFORMAT
  1
GRIDFORMAT_BEGIN
 90
        0
 91
        1
 62
     0
 92
       -2
340
0
 93
        0
 40
0.045
309
GRIDFORMAT_END
 95
        4
302
GRIDFORMAT
  1
GRIDFORMAT_BEGIN
 90
        0
 91
        1
 62
     0
 92
       -2
340
0
 93
        0
 40
0.045
309
GRIDFORMAT_END
 95
        8
302
GRIDFORMAT
  1
GRIDFORMAT_BEGIN
 90
        0
 91
        1
 62
     0
 92
       -2
340
0
 93
        0
 40
0.045
309
GRIDFORMAT_END
 95
       16
302
GRIDFORMAT
  1
GRIDFORMAT_BEGIN
 90
        0
 91
        1
 62
     0
 92
       -2
340
0
 93
        0
 40
0.045
309
GRIDFORMAT_END
 95
       32
302
GRIDFORMAT
  1
GRIDFORMAT_BEGIN
 90
        0
 91
        1
 62
     0
 92
       -2
340
0
 93
        0
 40
0.045
309
GRIDFORMAT_END
309
TABLEFORMAT_END
  1
CELLSTYLE_BEGIN
 90
        2
 91
        1
300
_HEADER
309
CELLSTYLE_END
300
CELLSTYLE
  1
TABLEFORMAT_BEGIN
 90
        5
170
     1
 91
        0
 92
        0
 62
   257
 93
        1
300
CONTENTFORMAT
  1
CONTENTFORMAT_BEGIN
 90
        0
 91
        0
 92
      512
 93
        0
300

 40
0.0
140
1.0
 94
        2
 62
     0
340
10
144
0.18
309
CONTENTFORMAT_END
171
     0
 94
        6
 95
        1
302
GRIDFORMAT
  1
GRIDFORMAT_BEGIN
 90
        0
 91
        1
 62
     0
 92
       -2
340
0
 93
        0
 40
0.045
309
GRIDFORMAT_END
 95
        2
302
GRIDFORMAT
  1
GRIDFORMAT_BEGIN
 90
        0
 91
        1
 62
     0
 92
       -2
340
0
 93
        0
 40
0.045
309
GRIDFORMAT_END
 95
        4
302
GRIDFORMAT
  1
GRIDFORMAT_BEGIN
 90
        0
 91
        1
 62
     0
 92
       -2
340
0
 93
        0
 40
0.045
309
GRIDFORMAT_END
 95
        8
302
GRIDFORMAT
  1
GRIDFORMAT_BEGIN
 90
        0
 91
        1
 62
     0
 92
       -2
340
0
 93
        0
 40
0.045
309
GRIDFORMAT_END
 95
       16
302
GRIDFORMAT
  1
GRIDFORMAT_BEGIN
 90
        0
 91
        1
 62
     0
 92
       -2
340
0
 93
        0
 40
0.045
309
GRIDFORMAT_END
 95
       32
302
GRIDFORMAT
  1
GRIDFORMAT_BEGIN
 90
        0
 91
        1
 62
     0
 92
       -2
340
0
 93
        0
 40
0.045
309
GRIDFORMAT_END
309
TABLEFORMAT_END
  1
CELLSTYLE_BEGIN
 90
        3
 91
        2
300
_DATA
309
CELLSTYLE_END
  0
XRECORD
  5
21D7F
102
{ACAD_REACTORS
330
1950A
102
}
330
1950A
100
AcDbXrecord
280
     1
102
ACAD_ROUNDTRIP_PRE2007_TABLESTYLE
 90
      512
 91
        0
  1

 92
      512
 93
        0
  2

 94
      512
 95
        0
  3

  0
XRECORD
  5
21D72
102
{ACAD_REACTORS
330
21D71
102
}
330
21D71
100
AcDbXrecord
280
     1
102
RTVSPost2010Prop28
280
     1
102
RTVSPost2010PropOp28
 70
     1
102
RTVSPost2010Prop29
280
     1
102
RTVSPost2010PropOp29
 70
     1
102
RTVSPost2010Prop30
280
     0
102
RTVSPost2010PropOp30
 70
     1
102
RTVSPost2010Prop31
280
     0
102
RTVSPost2010PropOp31
 70
     1
102
RTVSPost2010Prop32
280
     0
102
RTVSPost2010PropOp32
 70
     1
102
RTVSPost2010Prop33
280
     0
102
RTVSPost2010PropOp33
 70
     1
102
RTVSPost2010Prop34
280
     0
102
RTVSPost2010PropOp34
 70
     1
102
RTVSPost2010Prop35
280
     0
102
RTVSPost2010PropOp35
 70
     1
102
RTVSPost2010Prop36
280
     0
102
RTVSPost2010PropOp36
 70
     1
102
RTVSPost2010Prop37
 90
       50
102
RTVSPost2010PropOp37
 70
     1
102
RTVSPost2010Prop38
140
0.0
102
RTVSPost2010PropOp38
 70
     1
102
RTVSPost2010Prop39
140
1.0
102
RTVSPost2010PropOp39
 70
     1
102
RTVSPost2010Prop40
 90
        0
102
RTVSPost2010PropOp40
 70
     1
102
RTVSPost2010Prop41ColorIndex
 90
       18
102
RTVSPost2010Prop41ColorRGB
 90
        0
102
RTVSPost2010PropOp41
 70
     1
102
RTVSPost2010Prop42
 90
       50
102
RTVSPost2010PropOp42
 70
     1
102
RTVSPost2010Prop43
 90
        3
102
RTVSPost2010PropOp43
 70
     1
102
RTVSPost2010Prop44ColorIndex
 90
        5
102
RTVSPost2010Prop44ColorRGB
 90
      255
102
RTVSPost2010PropOp44
 70
     1
102
RTVSPost2010Prop45
280
     0
102
RTVSPost2010PropOp45
 70
     1
102
RTVSPost2010Prop46
 90
       50
102
RTVSPost2010PropOp46
 70
     1
102
RTVSPost2010Prop47
 90
       50
102
RTVSPost2010PropOp47
 70
     1
102
RTVSPost2010Prop48
 90
       50
102
RTVSPost2010PropOp48
 70
     1
102
RTVSPost2010Prop49
280
     0
102
RTVSPost2010PropOp49
 70
     1
102
RTVSPost2010Prop50
 90
       50
102
RTVSPost2010PropOp50
 70
     1
102
RTVSPost2010Prop51ColorIndex
 90
      256
102
RTVSPost2010Prop51ColorRGB
 90
-16777216
102
RTVSPost2010PropOp51
 70
     0
102
RTVSPost2010Prop52
140
1.0
102
RTVSPost2010PropOp52
 70
     0
102
RTVSPost2010Prop53
 90
        2
102
RTVSPost2010PropOp53
 70
     1
102
RTVSPost2010Prop54
  1
strokes_ogs.tif
102
RTVSPost2010PropOp54
 70
     1
102
RTVSPost2010Prop55
280
     0
102
RTVSPost2010PropOp55
 70
     1
102
RTVSPost2010Prop56
140
1.0
102
RTVSPost2010PropOp56
 70
     1
102
RTVSPost2010Prop57
140
1.0
102
RTVSPost2010PropOp57
 70
     1
102
RTVSPropertyOp0
 70
     1
102
RTVSPropertyOp1
 70
     1
102
RTVSPropertyOp2
 70
     1
102
RTVSPropertyOp3
 70
     1
102
RTVSPropertyOp4
 70
     1
102
RTVSPropertyOp5
 70
     1
102
RTVSPropertyOp6
 70
     1
102
RTVSPropertyOp7
 70
     1
102
RTVSPropertyOp8
 70
     1
102
RTVSPropertyOp9
 70
     1
102
RTVSPropertyOp10
 70
     1
102
RTVSPropertyOp11
 70
     1
102
RTVSPropertyOp12
 70
     1
102
RTVSPropertyOp13
 70
     1
102
RTVSPropertyOp14
 70
     1
102
RTVSPropertyOp15
 70
     1
102
RTVSPropertyOp16
 70
     1
102
RTVSPropertyOp17
 70
     1
102
RTVSPropertyOp18
 70
     1
102
RTVSPropertyOp19
 70
     1
102
RTVSPropertyOp20
 70
     1
102
RTVSPropertyOp21
 70
     1
102
RTVSPropertyOp22
 70
     1
102
RTVSPropertyOp23
 70
     1
102
RTVSPropertyOp24
 70
     1
102
RTVSPropertyOp25
 70
     1
102
RTVSPropertyOp26
 70
     1
102
RTVSPropertyOp27
 70
     1
102
RTVSPropertyOp28
 70
     1
102
RTVSPropertyOp29
 70
     1
102
RTVSPropertyOp30
 70
     1
102
RTVSPropertyOp31
 70
     1
102
RTVSPropertyOp32
 70
     1
102
RTVSPropertyOp33
 70
     1
102
RTVSPropertyOp34
 70
     1
102
RTVSPropertyOp35
 70
     1
102
RTVSPropertyOp36
 70
     1
102
RTVSPropertyOp37
 70
     1
102
RTVSPropertyOp38
 70
     1
102
RTVSPropertyOp39
 70
     1
102
RTVSPropertyOp40
 70
     1
102
RTVSPropertyOp41
 70
     1
102
RTVSPropertyOp42
 70
     1
102
RTVSPropertyOp43
 70
     1
102
RTVSPropertyOp44
 70
     1
102
RTVSPropertyOp45
 70
     1
102
RTVSPropertyOp46
 70
     1
102
RTVSPropertyOp47
 70
     1
102
RTVSPropertyOp48
 70
     1
102
RTVSPropertyOp49
 70
     1
102
RTVSPropertyOp50
 70
     1
102
RTVSPropertyOp51
 70
     0
102
RTVSPropertyOp52
 70
     0
102
RTVSPropertyOp53
 70
     1
102
RTVSPropertyOp54
 70
     1
102
RTVSPropertyOp55
 70
     1
102
RTVSPropertyOp56
 70
     1
102
RTVSPropertyOp57
 70
     1
102
RTVSPropertyOp58
 70
     1
102
RTVSPropertyOp59
 70
     1
102
RTVSPropertyOp60
 70
     1
102
RTVSPropertyOp61
 70
     1
102
RTVSPropertyOp62
 70
     1
  0
XRECORD
  5
21D83
102
{ACAD_REACTORS
330
21D82
102
}
330
21D82
100
AcDbXrecord
280
     1
102
RTVSPost2010Prop28
280
     0
102
RTVSPost2010PropOp28
 70
     1
102
RTVSPost2010Prop29
280
     1
102
RTVSPost2010PropOp29
 70
     1
102
RTVSPost2010Prop30
280
     1
102
RTVSPost2010PropOp30
 70
     1
102
RTVSPost2010Prop31
280
     0
102
RTVSPost2010PropOp31
 70
     1
102
RTVSPost2010Prop32
280
     0
102
RTVSPost2010PropOp32
 70
     1
102
RTVSPost2010Prop33
280
     0
102
RTVSPost2010PropOp33
 70
     1
102
RTVSPost2010Prop34
280
     0
102
RTVSPost2010PropOp34
 70
     1
102
RTVSPost2010Prop35
280
     0
102
RTVSPost2010PropOp35
 70
     1
102
RTVSPost2010Prop36
280
     0
102
RTVSPost2010PropOp36
 70
     1
102
RTVSPost2010Prop37
 90
       50
102
RTVSPost2010PropOp37
 70
     1
102
RTVSPost2010Prop38
140
0.0
102
RTVSPost2010PropOp38
 70
     1
102
RTVSPost2010Prop39
140
1.0
102
RTVSPost2010PropOp39
 70
     1
102
RTVSPost2010Prop40
 90
        0
102
RTVSPost2010PropOp40
 70
     1
102
RTVSPost2010Prop41ColorIndex
 90
       18
102
RTVSPost2010Prop41ColorRGB
 90
        0
102
RTVSPost2010PropOp41
 70
     1
102
RTVSPost2010Prop42
 90
       50
102
RTVSPost2010PropOp42
 70
     1
102
RTVSPost2010Prop43
 90
        3
102
RTVSPost2010PropOp43
 70
     1
102
RTVSPost2010Prop44ColorIndex
 90
        5
102
RTVSPost2010Prop44ColorRGB
 90
      255
102
RTVSPost2010PropOp44
 70
     1
102
RTVSPost2010Prop45
280
     0
102
RTVSPost2010PropOp45
 70
     1
102
RTVSPost2010Prop46
 90
       50
102
RTVSPost2010PropOp46
 70
     1
102
RTVSPost2010Prop47
 90
       50
102
RTVSPost2010PropOp47
 70
     1
102
RTVSPost2010Prop48
 90
       50
102
RTVSPost2010PropOp48
 70
     1
102
RTVSPost2010Prop49
280
     0
102
RTVSPost2010PropOp49
 70
     1
102
RTVSPost2010Prop50
 90
       50
102
RTVSPost2010PropOp50
 70
     1
102
RTVSPost2010Prop51ColorIndex
 90
      256
102
RTVSPost2010Prop51ColorRGB
 90
-16777216
102
RTVSPost2010PropOp51
 70
     0
102
RTVSPost2010Prop52
140
1.0
102
RTVSPost2010PropOp52
 70
     0
102
RTVSPost2010Prop53
 90
        2
102
RTVSPost2010PropOp53
 70
     1
102
RTVSPost2010Prop54
  1
strokes_ogs.tif
102
RTVSPost2010PropOp54
 70
     1
102
RTVSPost2010Prop55
280
     0
102
RTVSPost2010PropOp55
 70
     1
102
RTVSPost2010Prop56
140
1.0
102
RTVSPost2010PropOp56
 70
     1
102
RTVSPost2010Prop57
140
1.0
102
RTVSPost2010PropOp57
 70
     1
102
RTVSPropertyOp0
 70
     1
102
RTVSPropertyOp1
 70
     1
102
RTVSPropertyOp2
 70
     1
102
RTVSPropertyOp3
 70
     1
102
RTVSPropertyOp4
 70
     1
102
RTVSPropertyOp5
 70
     1
102
RTVSPropertyOp6
 70
     1
102
RTVSPropertyOp7
 70
     1
102
RTVSPropertyOp8
 70
     1
102
RTVSPropertyOp9
 70
     1
102
RTVSPropertyOp10
 70
     1
102
RTVSPropertyOp11
 70
     1
102
RTVSPropertyOp12
 70
     1
102
RTVSPropertyOp13
 70
     1
102
RTVSPropertyOp14
 70
     1
102
RTVSPropertyOp15
 70
     1
102
RTVSPropertyOp16
 70
     1
102
RTVSPropertyOp17
 70
     1
102
RTVSPropertyOp18
 70
     1
102
RTVSPropertyOp19
 70
     1
102
RTVSPropertyOp20
 70
     1
102
RTVSPropertyOp21
 70
     1
102
RTVSPropertyOp22
 70
     1
102
RTVSPropertyOp23
 70
     1
102
RTVSPropertyOp24
 70
     1
102
RTVSPropertyOp25
 70
     1
102
RTVSPropertyOp26
 70
     1
102
RTVSPropertyOp27
 70
     1
102
RTVSPropertyOp28
 70
     1
102
RTVSPropertyOp29
 70
     1
102
RTVSPropertyOp30
 70
     1
102
RTVSPropertyOp31
 70
     1
102
RTVSPropertyOp32
 70
     1
102
RTVSPropertyOp33
 70
     1
102
RTVSPropertyOp34
 70
     1
102
RTVSPropertyOp35
 70
     1
102
RTVSPropertyOp36
 70
     1
102
RTVSPropertyOp37
 70
     1
102
RTVSPropertyOp38
 70
     1
102
RTVSPropertyOp39
 70
     1
102
RTVSPropertyOp40
 70
     1
102
RTVSPropertyOp41
 70
     1
102
RTVSPropertyOp42
 70
     1
102
RTVSPropertyOp43
 70
     1
102
RTVSPropertyOp44
 70
     1
102
RTVSPropertyOp45
 70
     1
102
RTVSPropertyOp46
 70
     1
102
RTVSPropertyOp47
 70
     1
102
RTVSPropertyOp48
 70
     1
102
RTVSPropertyOp49
 70
     1
102
RTVSPropertyOp50
 70
     1
102
RTVSPropertyOp51
 70
     0
102
RTVSPropertyOp52
 70
     0
102
RTVSPropertyOp53
 70
     1
102
RTVSPropertyOp54
 70
     1
102
RTVSPropertyOp55
 70
     1
102
RTVSPropertyOp56
 70
     1
102
RTVSPropertyOp57
 70
     1
102
RTVSPropertyOp58
 70
     1
102
RTVSPropertyOp59
 70
     1
102
RTVSPropertyOp60
 70
     1
102
RTVSPropertyOp61
 70
     1
102
RTVSPropertyOp62
 70
     1
  0
XRECORD
  5
21D81
102
{ACAD_REACTORS
330
21D80
102
}
330
21D80
100
AcDbXrecord
280
     1
102
RTVSPost2010Prop28
280
     0
102
RTVSPost2010PropOp28
 70
     1
102
RTVSPost2010Prop29
280
     1
102
RTVSPost2010PropOp29
 70
     1
102
RTVSPost2010Prop30
280
     1
102
RTVSPost2010PropOp30
 70
     1
102
RTVSPost2010Prop31
280
     0
102
RTVSPost2010PropOp31
 70
     1
102
RTVSPost2010Prop32
280
     0
102
RTVSPost2010PropOp32
 70
     1
102
RTVSPost2010Prop33
280
     0
102
RTVSPost2010PropOp33
 70
     1
102
RTVSPost2010Prop34
280
     0
102
RTVSPost2010PropOp34
 70
     1
102
RTVSPost2010Prop35
280
     0
102
RTVSPost2010PropOp35
 70
     1
102
RTVSPost2010Prop36
280
     0
102
RTVSPost2010PropOp36
 70
     1
102
RTVSPost2010Prop37
 90
       50
102
RTVSPost2010PropOp37
 70
     1
102
RTVSPost2010Prop38
140
0.0
102
RTVSPost2010PropOp38
 70
     1
102
RTVSPost2010Prop39
140
1.0
102
RTVSPost2010PropOp39
 70
     1
102
RTVSPost2010Prop40
 90
        0
102
RTVSPost2010PropOp40
 70
     1
102
RTVSPost2010Prop41ColorIndex
 90
       18
102
RTVSPost2010Prop41ColorRGB
 90
        0
102
RTVSPost2010PropOp41
 70
     1
102
RTVSPost2010Prop42
 90
       50
102
RTVSPost2010PropOp42
 70
     1
102
RTVSPost2010Prop43
 90
        3
102
RTVSPost2010PropOp43
 70
     1
102
RTVSPost2010Prop44ColorIndex
 90
        5
102
RTVSPost2010Prop44ColorRGB
 90
      255
102
RTVSPost2010PropOp44
 70
     1
102
RTVSPost2010Prop45
280
     0
102
RTVSPost2010PropOp45
 70
     1
102
RTVSPost2010Prop46
 90
       50
102
RTVSPost2010PropOp46
 70
     1
102
RTVSPost2010Prop47
 90
       50
102
RTVSPost2010PropOp47
 70
     1
102
RTVSPost2010Prop48
 90
       50
102
RTVSPost2010PropOp48
 70
     1
102
RTVSPost2010Prop49
280
     0
102
RTVSPost2010PropOp49
 70
     1
102
RTVSPost2010Prop50
 90
       50
102
RTVSPost2010PropOp50
 70
     1
102
RTVSPost2010Prop51ColorIndex
 90
      256
102
RTVSPost2010Prop51ColorRGB
 90
-16777216
102
RTVSPost2010PropOp51
 70
     0
102
RTVSPost2010Prop52
140
1.0
102
RTVSPost2010PropOp52
 70
     0
102
RTVSPost2010Prop53
 90
        2
102
RTVSPost2010PropOp53
 70
     1
102
RTVSPost2010Prop54
  1
strokes_ogs.tif
102
RTVSPost2010PropOp54
 70
     1
102
RTVSPost2010Prop55
280
     0
102
RTVSPost2010PropOp55
 70
     1
102
RTVSPost2010Prop56
140
1.0
102
RTVSPost2010PropOp56
 70
     1
102
RTVSPost2010Prop57
140
1.0
102
RTVSPost2010PropOp57
 70
     1
102
RTVSPropertyOp0
 70
     1
102
RTVSPropertyOp1
 70
     1
102
RTVSPropertyOp2
 70
     1
102
RTVSPropertyOp3
 70
     1
102
RTVSPropertyOp4
 70
     1
102
RTVSPropertyOp5
 70
     1
102
RTVSPropertyOp6
 70
     1
102
RTVSPropertyOp7
 70
     1
102
RTVSPropertyOp8
 70
     1
102
RTVSPropertyOp9
 70
     1
102
RTVSPropertyOp10
 70
     1
102
RTVSPropertyOp11
 70
     1
102
RTVSPropertyOp12
 70
     1
102
RTVSPropertyOp13
 70
     1
102
RTVSPropertyOp14
 70
     1
102
RTVSPropertyOp15
 70
     1
102
RTVSPropertyOp16
 70
     1
102
RTVSPropertyOp17
 70
     1
102
RTVSPropertyOp18
 70
     1
102
RTVSPropertyOp19
 70
     1
102
RTVSPropertyOp20
 70
     1
102
RTVSPropertyOp21
 70
     1
102
RTVSPropertyOp22
 70
     1
102
RTVSPropertyOp23
 70
     1
102
RTVSPropertyOp24
 70
     1
102
RTVSPropertyOp25
 70
     1
102
RTVSPropertyOp26
 70
     1
102
RTVSPropertyOp27
 70
     1
102
RTVSPropertyOp28
 70
     1
102
RTVSPropertyOp29
 70
     1
102
RTVSPropertyOp30
 70
     1
102
RTVSPropertyOp31
 70
     1
102
RTVSPropertyOp32
 70
     1
102
RTVSPropertyOp33
 70
     1
102
RTVSPropertyOp34
 70
     1
102
RTVSPropertyOp35
 70
     1
102
RTVSPropertyOp36
 70
     1
102
RTVSPropertyOp37
 70
     1
102
RTVSPropertyOp38
 70
     1
102
RTVSPropertyOp39
 70
     1
102
RTVSPropertyOp40
 70
     1
102
RTVSPropertyOp41
 70
     1
102
RTVSPropertyOp42
 70
     1
102
RTVSPropertyOp43
 70
     1
102
RTVSPropertyOp44
 70
     1
102
RTVSPropertyOp45
 70
     1
102
RTVSPropertyOp46
 70
     1
102
RTVSPropertyOp47
 70
     1
102
RTVSPropertyOp48
 70
     1
102
RTVSPropertyOp49
 70
     1
102
RTVSPropertyOp50
 70
     1
102
RTVSPropertyOp51
 70
     0
102
RTVSPropertyOp52
 70
     0
102
RTVSPropertyOp53
 70
     1
102
RTVSPropertyOp54
 70
     1
102
RTVSPropertyOp55
 70
     1
102
RTVSPropertyOp56
 70
     1
102
RTVSPropertyOp57
 70
     1
102
RTVSPropertyOp58
 70
     1
102
RTVSPropertyOp59
 70
     1
102
RTVSPropertyOp60
 70
     1
102
RTVSPropertyOp61
 70
     1
102
RTVSPropertyOp62
 70
     1
  0
XRECORD
  5
21D70
102
{ACAD_REACTORS
330
21D6F
102
}
330
21D6F
100
AcDbXrecord
280
     1
102
RTVSPost2010Prop28
280
     0
102
RTVSPost2010PropOp28
 70
     1
102
RTVSPost2010Prop29
280
     1
102
RTVSPost2010PropOp29
 70
     1
102
RTVSPost2010Prop30
280
     1
102
RTVSPost2010PropOp30
 70
     1
102
RTVSPost2010Prop31
280
     0
102
RTVSPost2010PropOp31
 70
     1
102
RTVSPost2010Prop32
280
     0
102
RTVSPost2010PropOp32
 70
     1
102
RTVSPost2010Prop33
280
     0
102
RTVSPost2010PropOp33
 70
     1
102
RTVSPost2010Prop34
280
     0
102
RTVSPost2010PropOp34
 70
     1
102
RTVSPost2010Prop35
280
     0
102
RTVSPost2010PropOp35
 70
     1
102
RTVSPost2010Prop36
280
     0
102
RTVSPost2010PropOp36
 70
     1
102
RTVSPost2010Prop37
 90
       50
102
RTVSPost2010PropOp37
 70
     1
102
RTVSPost2010Prop38
140
0.0
102
RTVSPost2010PropOp38
 70
     1
102
RTVSPost2010Prop39
140
1.0
102
RTVSPost2010PropOp39
 70
     1
102
RTVSPost2010Prop40
 90
        0
102
RTVSPost2010PropOp40
 70
     1
102
RTVSPost2010Prop41ColorIndex
 90
       18
102
RTVSPost2010Prop41ColorRGB
 90
        0
102
RTVSPost2010PropOp41
 70
     1
102
RTVSPost2010Prop42
 90
       50
102
RTVSPost2010PropOp42
 70
     1
102
RTVSPost2010Prop43
 90
        3
102
RTVSPost2010PropOp43
 70
     1
102
RTVSPost2010Prop44ColorIndex
 90
        5
102
RTVSPost2010Prop44ColorRGB
 90
      255
102
RTVSPost2010PropOp44
 70
     1
102
RTVSPost2010Prop45
280
     0
102
RTVSPost2010PropOp45
 70
     1
102
RTVSPost2010Prop46
 90
       50
102
RTVSPost2010PropOp46
 70
     1
102
RTVSPost2010Prop47
 90
       50
102
RTVSPost2010PropOp47
 70
     1
102
RTVSPost2010Prop48
 90
       50
102
RTVSPost2010PropOp48
 70
     1
102
RTVSPost2010Prop49
280
     0
102
RTVSPost2010PropOp49
 70
     1
102
RTVSPost2010Prop50
 90
       50
102
RTVSPost2010PropOp50
 70
     1
102
RTVSPost2010Prop51ColorIndex
 90
      256
102
RTVSPost2010Prop51ColorRGB
 90
-16777216
102
RTVSPost2010PropOp51
 70
     0
102
RTVSPost2010Prop52
140
1.0
102
RTVSPost2010PropOp52
 70
     0
102
RTVSPost2010Prop53
 90
        2
102
RTVSPost2010PropOp53
 70
     1
102
RTVSPost2010Prop54
  1
strokes_ogs.tif
102
RTVSPost2010PropOp54
 70
     1
102
RTVSPost2010Prop55
280
     0
102
RTVSPost2010PropOp55
 70
     1
102
RTVSPost2010Prop56
140
1.0
102
RTVSPost2010PropOp56
 70
     1
102
RTVSPost2010Prop57
140
1.0
102
RTVSPost2010PropOp57
 70
     1
102
RTVSPropertyOp0
 70
     1
102
RTVSPropertyOp1
 70
     1
102
RTVSPropertyOp2
 70
     1
102
RTVSPropertyOp3
 70
     1
102
RTVSPropertyOp4
 70
     1
102
RTVSPropertyOp5
 70
     1
102
RTVSPropertyOp6
 70
     1
102
RTVSPropertyOp7
 70
     1
102
RTVSPropertyOp8
 70
     1
102
RTVSPropertyOp9
 70
     1
102
RTVSPropertyOp10
 70
     1
102
RTVSPropertyOp11
 70
     1
102
RTVSPropertyOp12
 70
     1
102
RTVSPropertyOp13
 70
     1
102
RTVSPropertyOp14
 70
     1
102
RTVSPropertyOp15
 70
     1
102
RTVSPropertyOp16
 70
     1
102
RTVSPropertyOp17
 70
     1
102
RTVSPropertyOp18
 70
     1
102
RTVSPropertyOp19
 70
     1
102
RTVSPropertyOp20
 70
     1
102
RTVSPropertyOp21
 70
     1
102
RTVSPropertyOp22
 70
     1
102
RTVSPropertyOp23
 70
     1
102
RTVSPropertyOp24
 70
     1
102
RTVSPropertyOp25
 70
     1
102
RTVSPropertyOp26
 70
     1
102
RTVSPropertyOp27
 70
     1
102
RTVSPropertyOp28
 70
     1
102
RTVSPropertyOp29
 70
     1
102
RTVSPropertyOp30
 70
     1
102
RTVSPropertyOp31
 70
     1
102
RTVSPropertyOp32
 70
     1
102
RTVSPropertyOp33
 70
     1
102
RTVSPropertyOp34
 70
     1
102
RTVSPropertyOp35
 70
     1
102
RTVSPropertyOp36
 70
     1
102
RTVSPropertyOp37
 70
     1
102
RTVSPropertyOp38
 70
     1
102
RTVSPropertyOp39
 70
     1
102
RTVSPropertyOp40
 70
     1
102
RTVSPropertyOp41
 70
     1
102
RTVSPropertyOp42
 70
     1
102
RTVSPropertyOp43
 70
     1
102
RTVSPropertyOp44
 70
     1
102
RTVSPropertyOp45
 70
     1
102
RTVSPropertyOp46
 70
     1
102
RTVSPropertyOp47
 70
     1
102
RTVSPropertyOp48
 70
     1
102
RTVSPropertyOp49
 70
     1
102
RTVSPropertyOp50
 70
     1
102
RTVSPropertyOp51
 70
     0
102
RTVSPropertyOp52
 70
     0
102
RTVSPropertyOp53
 70
     1
102
RTVSPropertyOp54
 70
     1
102
RTVSPropertyOp55
 70
     1
102
RTVSPropertyOp56
 70
     1
102
RTVSPropertyOp57
 70
     1
102
RTVSPropertyOp58
 70
     1
102
RTVSPropertyOp59
 70
     1
102
RTVSPropertyOp60
 70
     1
102
RTVSPropertyOp61
 70
     1
102
RTVSPropertyOp62
 70
     1
  0
XRECORD
  5
21D76
102
{ACAD_REACTORS
330
21D75
102
}
330
21D75
100
AcDbXrecord
280
     1
102
RTVSPost2010Prop28
280
     0
102
RTVSPost2010PropOp28
 70
     1
102
RTVSPost2010Prop29
280
     1
102
RTVSPost2010PropOp29
 70
     1
102
RTVSPost2010Prop30
280
     1
102
RTVSPost2010PropOp30
 70
     1
102
RTVSPost2010Prop31
280
     0
102
RTVSPost2010PropOp31
 70
     1
102
RTVSPost2010Prop32
280
     0
102
RTVSPost2010PropOp32
 70
     1
102
RTVSPost2010Prop33
280
     0
102
RTVSPost2010PropOp33
 70
     1
102
RTVSPost2010Prop34
280
     0
102
RTVSPost2010PropOp34
 70
     1
102
RTVSPost2010Prop35
280
     0
102
RTVSPost2010PropOp35
 70
     1
102
RTVSPost2010Prop36
280
     0
102
RTVSPost2010PropOp36
 70
     1
102
RTVSPost2010Prop37
 90
       50
102
RTVSPost2010PropOp37
 70
     1
102
RTVSPost2010Prop38
140
0.0
102
RTVSPost2010PropOp38
 70
     1
102
RTVSPost2010Prop39
140
1.0
102
RTVSPost2010PropOp39
 70
     1
102
RTVSPost2010Prop40
 90
        0
102
RTVSPost2010PropOp40
 70
     1
102
RTVSPost2010Prop41ColorIndex
 90
       18
102
RTVSPost2010Prop41ColorRGB
 90
        0
102
RTVSPost2010PropOp41
 70
     1
102
RTVSPost2010Prop42
 90
       50
102
RTVSPost2010PropOp42
 70
     1
102
RTVSPost2010Prop43
 90
        3
102
RTVSPost2010PropOp43
 70
     1
102
RTVSPost2010Prop44ColorIndex
 90
        5
102
RTVSPost2010Prop44ColorRGB
 90
      255
102
RTVSPost2010PropOp44
 70
     1
102
RTVSPost2010Prop45
280
     0
102
RTVSPost2010PropOp45
 70
     1
102
RTVSPost2010Prop46
 90
       50
102
RTVSPost2010PropOp46
 70
     1
102
RTVSPost2010Prop47
 90
       50
102
RTVSPost2010PropOp47
 70
     1
102
RTVSPost2010Prop48
 90
       50
102
RTVSPost2010PropOp48
 70
     1
102
RTVSPost2010Prop49
280
     0
102
RTVSPost2010PropOp49
 70
     1
102
RTVSPost2010Prop50
 90
       50
102
RTVSPost2010PropOp50
 70
     1
102
RTVSPost2010Prop51ColorIndex
 90
      256
102
RTVSPost2010Prop51ColorRGB
 90
-16777216
102
RTVSPost2010PropOp51
 70
     0
102
RTVSPost2010Prop52
140
1.0
102
RTVSPost2010PropOp52
 70
     0
102
RTVSPost2010Prop53
 90
        2
102
RTVSPost2010PropOp53
 70
     1
102
RTVSPost2010Prop54
  1
strokes_ogs.tif
102
RTVSPost2010PropOp54
 70
     1
102
RTVSPost2010Prop55
280
     0
102
RTVSPost2010PropOp55
 70
     1
102
RTVSPost2010Prop56
140
1.0
102
RTVSPost2010PropOp56
 70
     1
102
RTVSPost2010Prop57
140
1.0
102
RTVSPost2010PropOp57
 70
     1
102
RTVSPropertyOp0
 70
     1
102
RTVSPropertyOp1
 70
     1
102
RTVSPropertyOp2
 70
     1
102
RTVSPropertyOp3
 70
     1
102
RTVSPropertyOp4
 70
     1
102
RTVSPropertyOp5
 70
     1
102
RTVSPropertyOp6
 70
     1
102
RTVSPropertyOp7
 70
     1
102
RTVSPropertyOp8
 70
     1
102
RTVSPropertyOp9
 70
     1
102
RTVSPropertyOp10
 70
     1
102
RTVSPropertyOp11
 70
     1
102
RTVSPropertyOp12
 70
     1
102
RTVSPropertyOp13
 70
     1
102
RTVSPropertyOp14
 70
     1
102
RTVSPropertyOp15
 70
     1
102
RTVSPropertyOp16
 70
     1
102
RTVSPropertyOp17
 70
     1
102
RTVSPropertyOp18
 70
     1
102
RTVSPropertyOp19
 70
     1
102
RTVSPropertyOp20
 70
     1
102
RTVSPropertyOp21
 70
     1
102
RTVSPropertyOp22
 70
     1
102
RTVSPropertyOp23
 70
     1
102
RTVSPropertyOp24
 70
     1
102
RTVSPropertyOp25
 70
     1
102
RTVSPropertyOp26
 70
     1
102
RTVSPropertyOp27
 70
     1
102
RTVSPropertyOp28
 70
     1
102
RTVSPropertyOp29
 70
     1
102
RTVSPropertyOp30
 70
     1
102
RTVSPropertyOp31
 70
     1
102
RTVSPropertyOp32
 70
     1
102
RTVSPropertyOp33
 70
     1
102
RTVSPropertyOp34
 70
     1
102
RTVSPropertyOp35
 70
     1
102
RTVSPropertyOp36
 70
     1
102
RTVSPropertyOp37
 70
     1
102
RTVSPropertyOp38
 70
     1
102
RTVSPropertyOp39
 70
     1
102
RTVSPropertyOp40
 70
     1
102
RTVSPropertyOp41
 70
     1
102
RTVSPropertyOp42
 70
     1
102
RTVSPropertyOp43
 70
     1
102
RTVSPropertyOp44
 70
     1
102
RTVSPropertyOp45
 70
     1
102
RTVSPropertyOp46
 70
     1
102
RTVSPropertyOp47
 70
     1
102
RTVSPropertyOp48
 70
     1
102
RTVSPropertyOp49
 70
     1
102
RTVSPropertyOp50
 70
     1
102
RTVSPropertyOp51
 70
     0
102
RTVSPropertyOp52
 70
     0
102
RTVSPropertyOp53
 70
     1
102
RTVSPropertyOp54
 70
     1
102
RTVSPropertyOp55
 70
     1
102
RTVSPropertyOp56
 70
     1
102
RTVSPropertyOp57
 70
     1
102
RTVSPropertyOp58
 70
     1
102
RTVSPropertyOp59
 70
     1
102
RTVSPropertyOp60
 70
     1
102
RTVSPropertyOp61
 70
     1
102
RTVSPropertyOp62
 70
     1
  0
XRECORD
  5
21D7E
102
{ACAD_REACTORS
330
21D7D
102
}
330
21D7D
100
AcDbXrecord
280
     1
102
RTVSPost2010Prop28
280
     0
102
RTVSPost2010PropOp28
 70
     1
102
RTVSPost2010Prop29
280
     1
102
RTVSPost2010PropOp29
 70
     1
102
RTVSPost2010Prop30
280
     1
102
RTVSPost2010PropOp30
 70
     1
102
RTVSPost2010Prop31
280
     0
102
RTVSPost2010PropOp31
 70
     1
102
RTVSPost2010Prop32
280
     0
102
RTVSPost2010PropOp32
 70
     1
102
RTVSPost2010Prop33
280
     0
102
RTVSPost2010PropOp33
 70
     1
102
RTVSPost2010Prop34
280
     0
102
RTVSPost2010PropOp34
 70
     1
102
RTVSPost2010Prop35
280
     0
102
RTVSPost2010PropOp35
 70
     1
102
RTVSPost2010Prop36
280
     0
102
RTVSPost2010PropOp36
 70
     1
102
RTVSPost2010Prop37
 90
       50
102
RTVSPost2010PropOp37
 70
     1
102
RTVSPost2010Prop38
140
0.0
102
RTVSPost2010PropOp38
 70
     1
102
RTVSPost2010Prop39
140
1.0
102
RTVSPost2010PropOp39
 70
     1
102
RTVSPost2010Prop40
 90
        0
102
RTVSPost2010PropOp40
 70
     1
102
RTVSPost2010Prop41ColorIndex
 90
       18
102
RTVSPost2010Prop41ColorRGB
 90
        0
102
RTVSPost2010PropOp41
 70
     1
102
RTVSPost2010Prop42
 90
       50
102
RTVSPost2010PropOp42
 70
     1
102
RTVSPost2010Prop43
 90
        3
102
RTVSPost2010PropOp43
 70
     1
102
RTVSPost2010Prop44ColorIndex
 90
        5
102
RTVSPost2010Prop44ColorRGB
 90
      255
102
RTVSPost2010PropOp44
 70
     1
102
RTVSPost2010Prop45
280
     0
102
RTVSPost2010PropOp45
 70
     1
102
RTVSPost2010Prop46
 90
       50
102
RTVSPost2010PropOp46
 70
     1
102
RTVSPost2010Prop47
 90
       50
102
RTVSPost2010PropOp47
 70
     1
102
RTVSPost2010Prop48
 90
       50
102
RTVSPost2010PropOp48
 70
     1
102
RTVSPost2010Prop49
280
     0
102
RTVSPost2010PropOp49
 70
     1
102
RTVSPost2010Prop50
 90
       50
102
RTVSPost2010PropOp50
 70
     1
102
RTVSPost2010Prop51ColorIndex
 90
      256
102
RTVSPost2010Prop51ColorRGB
 90
-16777216
102
RTVSPost2010PropOp51
 70
     0
102
RTVSPost2010Prop52
140
1.0
102
RTVSPost2010PropOp52
 70
     0
102
RTVSPost2010Prop53
 90
        2
102
RTVSPost2010PropOp53
 70
     1
102
RTVSPost2010Prop54
  1
strokes_ogs.tif
102
RTVSPost2010PropOp54
 70
     1
102
RTVSPost2010Prop55
280
     0
102
RTVSPost2010PropOp55
 70
     1
102
RTVSPost2010Prop56
140
1.0
102
RTVSPost2010PropOp56
 70
     1
102
RTVSPost2010Prop57
140
1.0
102
RTVSPost2010PropOp57
 70
     1
102
RTVSPropertyOp0
 70
     1
102
RTVSPropertyOp1
 70
     1
102
RTVSPropertyOp2
 70
     1
102
RTVSPropertyOp3
 70
     1
102
RTVSPropertyOp4
 70
     1
102
RTVSPropertyOp5
 70
     1
102
RTVSPropertyOp6
 70
     1
102
RTVSPropertyOp7
 70
     1
102
RTVSPropertyOp8
 70
     1
102
RTVSPropertyOp9
 70
     1
102
RTVSPropertyOp10
 70
     1
102
RTVSPropertyOp11
 70
     1
102
RTVSPropertyOp12
 70
     1
102
RTVSPropertyOp13
 70
     1
102
RTVSPropertyOp14
 70
     1
102
RTVSPropertyOp15
 70
     1
102
RTVSPropertyOp16
 70
     1
102
RTVSPropertyOp17
 70
     1
102
RTVSPropertyOp18
 70
     1
102
RTVSPropertyOp19
 70
     1
102
RTVSPropertyOp20
 70
     1
102
RTVSPropertyOp21
 70
     1
102
RTVSPropertyOp22
 70
     1
102
RTVSPropertyOp23
 70
     1
102
RTVSPropertyOp24
 70
     1
102
RTVSPropertyOp25
 70
     1
102
RTVSPropertyOp26
 70
     1
102
RTVSPropertyOp27
 70
     1
102
RTVSPropertyOp28
 70
     1
102
RTVSPropertyOp29
 70
     1
102
RTVSPropertyOp30
 70
     1
102
RTVSPropertyOp31
 70
     1
102
RTVSPropertyOp32
 70
     1
102
RTVSPropertyOp33
 70
     1
102
RTVSPropertyOp34
 70
     1
102
RTVSPropertyOp35
 70
     1
102
RTVSPropertyOp36
 70
     1
102
RTVSPropertyOp37
 70
     1
102
RTVSPropertyOp38
 70
     1
102
RTVSPropertyOp39
 70
     1
102
RTVSPropertyOp40
 70
     1
102
RTVSPropertyOp41
 70
     1
102
RTVSPropertyOp42
 70
     1
102
RTVSPropertyOp43
 70
     1
102
RTVSPropertyOp44
 70
     1
102
RTVSPropertyOp45
 70
     1
102
RTVSPropertyOp46
 70
     1
102
RTVSPropertyOp47
 70
     1
102
RTVSPropertyOp48
 70
     1
102
RTVSPropertyOp49
 70
     1
102
RTVSPropertyOp50
 70
     1
102
RTVSPropertyOp51
 70
     0
102
RTVSPropertyOp52
 70
     0
102
RTVSPropertyOp53
 70
     1
102
RTVSPropertyOp54
 70
     1
102
RTVSPropertyOp55
 70
     1
102
RTVSPropertyOp56
 70
     1
102
RTVSPropertyOp57
 70
     1
102
RTVSPropertyOp58
 70
     1
102
RTVSPropertyOp59
 70
     1
102
RTVSPropertyOp60
 70
     1
102
RTVSPropertyOp61
 70
     1
102
RTVSPropertyOp62
 70
     1
  0
XRECORD
  5
21D85
102
{ACAD_REACTORS
330
21D84
102
}
330
21D84
100
AcDbXrecord
280
     1
102
RTVSPost2010Prop28
280
     0
102
RTVSPost2010PropOp28
 70
     1
102
RTVSPost2010Prop29
280
     1
102
RTVSPost2010PropOp29
 70
     1
102
RTVSPost2010Prop30
280
     1
102
RTVSPost2010PropOp30
 70
     1
102
RTVSPost2010Prop31
280
     0
102
RTVSPost2010PropOp31
 70
     1
102
RTVSPost2010Prop32
280
     0
102
RTVSPost2010PropOp32
 70
     1
102
RTVSPost2010Prop33
280
     0
102
RTVSPost2010PropOp33
 70
     1
102
RTVSPost2010Prop34
280
     0
102
RTVSPost2010PropOp34
 70
     1
102
RTVSPost2010Prop35
280
     0
102
RTVSPost2010PropOp35
 70
     1
102
RTVSPost2010Prop36
280
     0
102
RTVSPost2010PropOp36
 70
     1
102
RTVSPost2010Prop37
 90
       50
102
RTVSPost2010PropOp37
 70
     1
102
RTVSPost2010Prop38
140
0.0
102
RTVSPost2010PropOp38
 70
     1
102
RTVSPost2010Prop39
140
1.0
102
RTVSPost2010PropOp39
 70
     1
102
RTVSPost2010Prop40
 90
        0
102
RTVSPost2010PropOp40
 70
     1
102
RTVSPost2010Prop41ColorIndex
 90
       18
102
RTVSPost2010Prop41ColorRGB
 90
        0
102
RTVSPost2010PropOp41
 70
     1
102
RTVSPost2010Prop42
 90
       50
102
RTVSPost2010PropOp42
 70
     1
102
RTVSPost2010Prop43
 90
        3
102
RTVSPost2010PropOp43
 70
     1
102
RTVSPost2010Prop44ColorIndex
 90
        5
102
RTVSPost2010Prop44ColorRGB
 90
      255
102
RTVSPost2010PropOp44
 70
     1
102
RTVSPost2010Prop45
280
     0
102
RTVSPost2010PropOp45
 70
     1
102
RTVSPost2010Prop46
 90
       50
102
RTVSPost2010PropOp46
 70
     1
102
RTVSPost2010Prop47
 90
       50
102
RTVSPost2010PropOp47
 70
     1
102
RTVSPost2010Prop48
 90
       50
102
RTVSPost2010PropOp48
 70
     1
102
RTVSPost2010Prop49
280
     0
102
RTVSPost2010PropOp49
 70
     1
102
RTVSPost2010Prop50
 90
       50
102
RTVSPost2010PropOp50
 70
     1
102
RTVSPost2010Prop51ColorIndex
 90
      256
102
RTVSPost2010Prop51ColorRGB
 90
-16777216
102
RTVSPost2010PropOp51
 70
     0
102
RTVSPost2010Prop52
140
1.0
102
RTVSPost2010PropOp52
 70
     0
102
RTVSPost2010Prop53
 90
        2
102
RTVSPost2010PropOp53
 70
     1
102
RTVSPost2010Prop54
  1
strokes_ogs.tif
102
RTVSPost2010PropOp54
 70
     1
102
RTVSPost2010Prop55
280
     0
102
RTVSPost2010PropOp55
 70
     1
102
RTVSPost2010Prop56
140
1.0
102
RTVSPost2010PropOp56
 70
     1
102
RTVSPost2010Prop57
140
1.0
102
RTVSPost2010PropOp57
 70
     1
102
RTVSPropertyOp0
 70
     1
102
RTVSPropertyOp1
 70
     1
102
RTVSPropertyOp2
 70
     1
102
RTVSPropertyOp3
 70
     1
102
RTVSPropertyOp4
 70
     1
102
RTVSPropertyOp5
 70
     1
102
RTVSPropertyOp6
 70
     1
102
RTVSPropertyOp7
 70
     1
102
RTVSPropertyOp8
 70
     1
102
RTVSPropertyOp9
 70
     1
102
RTVSPropertyOp10
 70
     1
102
RTVSPropertyOp11
 70
     1
102
RTVSPropertyOp12
 70
     1
102
RTVSPropertyOp13
 70
     1
102
RTVSPropertyOp14
 70
     1
102
RTVSPropertyOp15
 70
     1
102
RTVSPropertyOp16
 70
     1
102
RTVSPropertyOp17
 70
     1
102
RTVSPropertyOp18
 70
     1
102
RTVSPropertyOp19
 70
     1
102
RTVSPropertyOp20
 70
     1
102
RTVSPropertyOp21
 70
     1
102
RTVSPropertyOp22
 70
     1
102
RTVSPropertyOp23
 70
     1
102
RTVSPropertyOp24
 70
     1
102
RTVSPropertyOp25
 70
     1
102
RTVSPropertyOp26
 70
     1
102
RTVSPropertyOp27
 70
     1
102
RTVSPropertyOp28
 70
     1
102
RTVSPropertyOp29
 70
     1
102
RTVSPropertyOp30
 70
     1
102
RTVSPropertyOp31
 70
     1
102
RTVSPropertyOp32
 70
     1
102
RTVSPropertyOp33
 70
     1
102
RTVSPropertyOp34
 70
     1
102
RTVSPropertyOp35
 70
     1
102
RTVSPropertyOp36
 70
     1
102
RTVSPropertyOp37
 70
     1
102
RTVSPropertyOp38
 70
     1
102
RTVSPropertyOp39
 70
     1
102
RTVSPropertyOp40
 70
     1
102
RTVSPropertyOp41
 70
     1
102
RTVSPropertyOp42
 70
     1
102
RTVSPropertyOp43
 70
     1
102
RTVSPropertyOp44
 70
     1
102
RTVSPropertyOp45
 70
     1
102
RTVSPropertyOp46
 70
     1
102
RTVSPropertyOp47
 70
     1
102
RTVSPropertyOp48
 70
     1
102
RTVSPropertyOp49
 70
     1
102
RTVSPropertyOp50
 70
     1
102
RTVSPropertyOp51
 70
     0
102
RTVSPropertyOp52
 70
     0
102
RTVSPropertyOp53
 70
     1
102
RTVSPropertyOp54
 70
     1
102
RTVSPropertyOp55
 70
     1
102
RTVSPropertyOp56
 70
     1
102
RTVSPropertyOp57
 70
     1
102
RTVSPropertyOp58
 70
     1
102
RTVSPropertyOp59
 70
     1
102
RTVSPropertyOp60
 70
     1
102
RTVSPropertyOp61
 70
     1
102
RTVSPropertyOp62
 70
     1
  0
XRECORD
  5
21D74
102
{ACAD_REACTORS
330
21D73
102
}
330
21D73
100
AcDbXrecord
280
     1
102
RTVSPost2010Prop28
280
     0
102
RTVSPost2010PropOp28
 70
     1
102
RTVSPost2010Prop29
280
     1
102
RTVSPost2010PropOp29
 70
     1
102
RTVSPost2010Prop30
280
     1
102
RTVSPost2010PropOp30
 70
     1
102
RTVSPost2010Prop31
280
     0
102
RTVSPost2010PropOp31
 70
     1
102
RTVSPost2010Prop32
280
     0
102
RTVSPost2010PropOp32
 70
     1
102
RTVSPost2010Prop33
280
     0
102
RTVSPost2010PropOp33
 70
     1
102
RTVSPost2010Prop34
280
     0
102
RTVSPost2010PropOp34
 70
     1
102
RTVSPost2010Prop35
280
     0
102
RTVSPost2010PropOp35
 70
     1
102
RTVSPost2010Prop36
280
     0
102
RTVSPost2010PropOp36
 70
     1
102
RTVSPost2010Prop37
 90
       50
102
RTVSPost2010PropOp37
 70
     1
102
RTVSPost2010Prop38
140
0.0
102
RTVSPost2010PropOp38
 70
     1
102
RTVSPost2010Prop39
140
1.0
102
RTVSPost2010PropOp39
 70
     1
102
RTVSPost2010Prop40
 90
        0
102
RTVSPost2010PropOp40
 70
     1
102
RTVSPost2010Prop41ColorIndex
 90
       18
102
RTVSPost2010Prop41ColorRGB
 90
        0
102
RTVSPost2010PropOp41
 70
     1
102
RTVSPost2010Prop42
 90
       50
102
RTVSPost2010PropOp42
 70
     1
102
RTVSPost2010Prop43
 90
        3
102
RTVSPost2010PropOp43
 70
     1
102
RTVSPost2010Prop44ColorIndex
 90
        5
102
RTVSPost2010Prop44ColorRGB
 90
      255
102
RTVSPost2010PropOp44
 70
     1
102
RTVSPost2010Prop45
280
     0
102
RTVSPost2010PropOp45
 70
     1
102
RTVSPost2010Prop46
 90
       50
102
RTVSPost2010PropOp46
 70
     1
102
RTVSPost2010Prop47
 90
       50
102
RTVSPost2010PropOp47
 70
     1
102
RTVSPost2010Prop48
 90
       50
102
RTVSPost2010PropOp48
 70
     1
102
RTVSPost2010Prop49
280
     0
102
RTVSPost2010PropOp49
 70
     1
102
RTVSPost2010Prop50
 90
       50
102
RTVSPost2010PropOp50
 70
     1
102
RTVSPost2010Prop51ColorIndex
 90
      256
102
RTVSPost2010Prop51ColorRGB
 90
-16777216
102
RTVSPost2010PropOp51
 70
     0
102
RTVSPost2010Prop52
140
1.0
102
RTVSPost2010PropOp52
 70
     0
102
RTVSPost2010Prop53
 90
        2
102
RTVSPost2010PropOp53
 70
     1
102
RTVSPost2010Prop54
  1
strokes_ogs.tif
102
RTVSPost2010PropOp54
 70
     1
102
RTVSPost2010Prop55
280
     0
102
RTVSPost2010PropOp55
 70
     1
102
RTVSPost2010Prop56
140
1.0
102
RTVSPost2010PropOp56
 70
     1
102
RTVSPost2010Prop57
140
1.0
102
RTVSPost2010PropOp57
 70
     1
102
RTVSPropertyOp0
 70
     1
102
RTVSPropertyOp1
 70
     1
102
RTVSPropertyOp2
 70
     1
102
RTVSPropertyOp3
 70
     1
102
RTVSPropertyOp4
 70
     1
102
RTVSPropertyOp5
 70
     1
102
RTVSPropertyOp6
 70
     1
102
RTVSPropertyOp7
 70
     1
102
RTVSPropertyOp8
 70
     1
102
RTVSPropertyOp9
 70
     1
102
RTVSPropertyOp10
 70
     1
102
RTVSPropertyOp11
 70
     1
102
RTVSPropertyOp12
 70
     1
102
RTVSPropertyOp13
 70
     1
102
RTVSPropertyOp14
 70
     1
102
RTVSPropertyOp15
 70
     1
102
RTVSPropertyOp16
 70
     1
102
RTVSPropertyOp17
 70
     1
102
RTVSPropertyOp18
 70
     1
102
RTVSPropertyOp19
 70
     1
102
RTVSPropertyOp20
 70
     1
102
RTVSPropertyOp21
 70
     1
102
RTVSPropertyOp22
 70
     1
102
RTVSPropertyOp23
 70
     1
102
RTVSPropertyOp24
 70
     1
102
RTVSPropertyOp25
 70
     1
102
RTVSPropertyOp26
 70
     1
102
RTVSPropertyOp27
 70
     1
102
RTVSPropertyOp28
 70
     1
102
RTVSPropertyOp29
 70
     1
102
RTVSPropertyOp30
 70
     1
102
RTVSPropertyOp31
 70
     1
102
RTVSPropertyOp32
 70
     1
102
RTVSPropertyOp33
 70
     1
102
RTVSPropertyOp34
 70
     1
102
RTVSPropertyOp35
 70
     1
102
RTVSPropertyOp36
 70
     1
102
RTVSPropertyOp37
 70
     1
102
RTVSPropertyOp38
 70
     1
102
RTVSPropertyOp39
 70
     1
102
RTVSPropertyOp40
 70
     1
102
RTVSPropertyOp41
 70
     1
102
RTVSPropertyOp42
 70
     1
102
RTVSPropertyOp43
 70
     1
102
RTVSPropertyOp44
 70
     1
102
RTVSPropertyOp45
 70
     1
102
RTVSPropertyOp46
 70
     1
102
RTVSPropertyOp47
 70
     1
102
RTVSPropertyOp48
 70
     1
102
RTVSPropertyOp49
 70
     1
102
RTVSPropertyOp50
 70
     1
102
RTVSPropertyOp51
 70
     0
102
RTVSPropertyOp52
 70
     0
102
RTVSPropertyOp53
 70
     1
102
RTVSPropertyOp54
 70
     1
102
RTVSPropertyOp55
 70
     1
102
RTVSPropertyOp56
 70
     1
102
RTVSPropertyOp57
 70
     1
102
RTVSPropertyOp58
 70
     1
102
RTVSPropertyOp59
 70
     1
102
RTVSPropertyOp60
 70
     1
102
RTVSPropertyOp61
 70
     1
102
RTVSPropertyOp62
 70
     1
  0
XRECORD
  5
21D8D
102
{ACAD_REACTORS
330
21D8C
102
}
330
21D8C
100
AcDbXrecord
280
     1
102
RTVSPost2010Prop28
280
     0
102
RTVSPost2010PropOp28
 70
     1
102
RTVSPost2010Prop29
280
     1
102
RTVSPost2010PropOp29
 70
     1
102
RTVSPost2010Prop30
280
     1
102
RTVSPost2010PropOp30
 70
     1
102
RTVSPost2010Prop31
280
     0
102
RTVSPost2010PropOp31
 70
     1
102
RTVSPost2010Prop32
280
     0
102
RTVSPost2010PropOp32
 70
     1
102
RTVSPost2010Prop33
280
     0
102
RTVSPost2010PropOp33
 70
     1
102
RTVSPost2010Prop34
280
     0
102
RTVSPost2010PropOp34
 70
     1
102
RTVSPost2010Prop35
280
     0
102
RTVSPost2010PropOp35
 70
     1
102
RTVSPost2010Prop36
280
     0
102
RTVSPost2010PropOp36
 70
     1
102
RTVSPost2010Prop37
 90
       50
102
RTVSPost2010PropOp37
 70
     1
102
RTVSPost2010Prop38
140
0.0
102
RTVSPost2010PropOp38
 70
     1
102
RTVSPost2010Prop39
140
1.0
102
RTVSPost2010PropOp39
 70
     1
102
RTVSPost2010Prop40
 90
        0
102
RTVSPost2010PropOp40
 70
     1
102
RTVSPost2010Prop41ColorIndex
 90
       18
102
RTVSPost2010Prop41ColorRGB
 90
        0
102
RTVSPost2010PropOp41
 70
     1
102
RTVSPost2010Prop42
 90
       50
102
RTVSPost2010PropOp42
 70
     1
102
RTVSPost2010Prop43
 90
        3
102
RTVSPost2010PropOp43
 70
     1
102
RTVSPost2010Prop44ColorIndex
 90
        5
102
RTVSPost2010Prop44ColorRGB
 90
      255
102
RTVSPost2010PropOp44
 70
     1
102
RTVSPost2010Prop45
280
     0
102
RTVSPost2010PropOp45
 70
     1
102
RTVSPost2010Prop46
 90
       50
102
RTVSPost2010PropOp46
 70
     1
102
RTVSPost2010Prop47
 90
       50
102
RTVSPost2010PropOp47
 70
     1
102
RTVSPost2010Prop48
 90
       50
102
RTVSPost2010PropOp48
 70
     1
102
RTVSPost2010Prop49
280
     0
102
RTVSPost2010PropOp49
 70
     1
102
RTVSPost2010Prop50
 90
       50
102
RTVSPost2010PropOp50
 70
     1
102
RTVSPost2010Prop51ColorIndex
 90
      256
102
RTVSPost2010Prop51ColorRGB
 90
-16777216
102
RTVSPost2010PropOp51
 70
     0
102
RTVSPost2010Prop52
140
1.0
102
RTVSPost2010PropOp52
 70
     0
102
RTVSPost2010Prop53
 90
        2
102
RTVSPost2010PropOp53
 70
     1
102
RTVSPost2010Prop54
  1
strokes_ogs.tif
102
RTVSPost2010PropOp54
 70
     1
102
RTVSPost2010Prop55
280
     0
102
RTVSPost2010PropOp55
 70
     1
102
RTVSPost2010Prop56
140
1.0
102
RTVSPost2010PropOp56
 70
     1
102
RTVSPost2010Prop57
140
1.0
102
RTVSPost2010PropOp57
 70
     1
102
RTVSPropertyOp0
 70
     0
102
RTVSPropertyOp1
 70
     0
102
RTVSPropertyOp2
 70
     0
102
RTVSPropertyOp3
 70
     0
102
RTVSPropertyOp4
 70
     0
102
RTVSPropertyOp5
 70
     0
102
RTVSPropertyOp6
 70
     0
102
RTVSPropertyOp7
 70
     0
102
RTVSPropertyOp8
 70
     0
102
RTVSPropertyOp9
 70
     0
102
RTVSPropertyOp10
 70
     0
102
RTVSPropertyOp11
 70
     0
102
RTVSPropertyOp12
 70
     0
102
RTVSPropertyOp13
 70
     0
102
RTVSPropertyOp14
 70
     2
102
RTVSPropertyOp15
 70
     0
102
RTVSPropertyOp16
 70
     0
102
RTVSPropertyOp17
 70
     0
102
RTVSPropertyOp18
 70
     0
102
RTVSPropertyOp19
 70
     0
102
RTVSPropertyOp20
 70
     0
102
RTVSPropertyOp21
 70
     0
102
RTVSPropertyOp22
 70
     0
102
RTVSPropertyOp23
 70
     0
102
RTVSPropertyOp24
 70
     0
102
RTVSPropertyOp25
 70
     0
102
RTVSPropertyOp26
 70
     0
102
RTVSPropertyOp27
 70
     0
102
RTVSPropertyOp28
 70
     1
102
RTVSPropertyOp29
 70
     1
102
RTVSPropertyOp30
 70
     1
102
RTVSPropertyOp31
 70
     1
102
RTVSPropertyOp32
 70
     1
102
RTVSPropertyOp33
 70
     1
102
RTVSPropertyOp34
 70
     1
102
RTVSPropertyOp35
 70
     1
102
RTVSPropertyOp36
 70
     1
102
RTVSPropertyOp37
 70
     1
102
RTVSPropertyOp38
 70
     1
102
RTVSPropertyOp39
 70
     1
102
RTVSPropertyOp40
 70
     1
102
RTVSPropertyOp41
 70
     1
102
RTVSPropertyOp42
 70
     1
102
RTVSPropertyOp43
 70
     1
102
RTVSPropertyOp44
 70
     1
102
RTVSPropertyOp45
 70
     1
102
RTVSPropertyOp46
 70
     1
102
RTVSPropertyOp47
 70
     1
102
RTVSPropertyOp48
 70
     1
102
RTVSPropertyOp49
 70
     1
102
RTVSPropertyOp50
 70
     1
102
RTVSPropertyOp51
 70
     0
102
RTVSPropertyOp52
 70
     0
102
RTVSPropertyOp53
 70
     1
102
RTVSPropertyOp54
 70
     1
102
RTVSPropertyOp55
 70
     1
102
RTVSPropertyOp56
 70
     1
102
RTVSPropertyOp57
 70
     1
102
RTVSPropertyOp58
 70
     1
102
RTVSPropertyOp59
 70
     1
102
RTVSPropertyOp60
 70
     1
102
RTVSPropertyOp61
 70
     1
102
RTVSPropertyOp62
 70
     1
  0
XRECORD
  5
21D7C
102
{ACAD_REACTORS
330
21D7B
102
}
330
21D7B
100
AcDbXrecord
280
     1
102
RTVSPost2010Prop28
280
     0
102
RTVSPost2010PropOp28
 70
     1
102
RTVSPost2010Prop29
280
     1
102
RTVSPost2010PropOp29
 70
     1
102
RTVSPost2010Prop30
280
     1
102
RTVSPost2010PropOp30
 70
     1
102
RTVSPost2010Prop31
280
     0
102
RTVSPost2010PropOp31
 70
     1
102
RTVSPost2010Prop32
280
     0
102
RTVSPost2010PropOp32
 70
     1
102
RTVSPost2010Prop33
280
     0
102
RTVSPost2010PropOp33
 70
     1
102
RTVSPost2010Prop34
280
     0
102
RTVSPost2010PropOp34
 70
     1
102
RTVSPost2010Prop35
280
     0
102
RTVSPost2010PropOp35
 70
     1
102
RTVSPost2010Prop36
280
     0
102
RTVSPost2010PropOp36
 70
     1
102
RTVSPost2010Prop37
 90
       50
102
RTVSPost2010PropOp37
 70
     1
102
RTVSPost2010Prop38
140
0.0
102
RTVSPost2010PropOp38
 70
     1
102
RTVSPost2010Prop39
140
1.0
102
RTVSPost2010PropOp39
 70
     1
102
RTVSPost2010Prop40
 90
        0
102
RTVSPost2010PropOp40
 70
     1
102
RTVSPost2010Prop41ColorIndex
 90
       18
102
RTVSPost2010Prop41ColorRGB
 90
        0
102
RTVSPost2010PropOp41
 70
     1
102
RTVSPost2010Prop42
 90
       50
102
RTVSPost2010PropOp42
 70
     1
102
RTVSPost2010Prop43
 90
        3
102
RTVSPost2010PropOp43
 70
     1
102
RTVSPost2010Prop44ColorIndex
 90
        5
102
RTVSPost2010Prop44ColorRGB
 90
      255
102
RTVSPost2010PropOp44
 70
     1
102
RTVSPost2010Prop45
280
     0
102
RTVSPost2010PropOp45
 70
     1
102
RTVSPost2010Prop46
 90
       50
102
RTVSPost2010PropOp46
 70
     1
102
RTVSPost2010Prop47
 90
       50
102
RTVSPost2010PropOp47
 70
     1
102
RTVSPost2010Prop48
 90
       50
102
RTVSPost2010PropOp48
 70
     1
102
RTVSPost2010Prop49
280
     0
102
RTVSPost2010PropOp49
 70
     1
102
RTVSPost2010Prop50
 90
       50
102
RTVSPost2010PropOp50
 70
     1
102
RTVSPost2010Prop51ColorIndex
 90
      256
102
RTVSPost2010Prop51ColorRGB
 90
-16777216
102
RTVSPost2010PropOp51
 70
     0
102
RTVSPost2010Prop52
140
1.0
102
RTVSPost2010PropOp52
 70
     0
102
RTVSPost2010Prop53
 90
        2
102
RTVSPost2010PropOp53
 70
     1
102
RTVSPost2010Prop54
  1
strokes_ogs.tif
102
RTVSPost2010PropOp54
 70
     1
102
RTVSPost2010Prop55
280
     0
102
RTVSPost2010PropOp55
 70
     1
102
RTVSPost2010Prop56
140
1.0
102
RTVSPost2010PropOp56
 70
     1
102
RTVSPost2010Prop57
140
1.0
102
RTVSPost2010PropOp57
 70
     1
102
RTVSPropertyOp0
 70
     1
102
RTVSPropertyOp1
 70
     1
102
RTVSPropertyOp2
 70
     1
102
RTVSPropertyOp3
 70
     1
102
RTVSPropertyOp4
 70
     1
102
RTVSPropertyOp5
 70
     1
102
RTVSPropertyOp6
 70
     1
102
RTVSPropertyOp7
 70
     1
102
RTVSPropertyOp8
 70
     1
102
RTVSPropertyOp9
 70
     1
102
RTVSPropertyOp10
 70
     1
102
RTVSPropertyOp11
 70
     1
102
RTVSPropertyOp12
 70
     1
102
RTVSPropertyOp13
 70
     1
102
RTVSPropertyOp14
 70
     1
102
RTVSPropertyOp15
 70
     1
102
RTVSPropertyOp16
 70
     1
102
RTVSPropertyOp17
 70
     1
102
RTVSPropertyOp18
 70
     1
102
RTVSPropertyOp19
 70
     1
102
RTVSPropertyOp20
 70
     1
102
RTVSPropertyOp21
 70
     1
102
RTVSPropertyOp22
 70
     1
102
RTVSPropertyOp23
 70
     1
102
RTVSPropertyOp24
 70
     1
102
RTVSPropertyOp25
 70
     1
102
RTVSPropertyOp26
 70
     1
102
RTVSPropertyOp27
 70
     1
102
RTVSPropertyOp28
 70
     1
102
RTVSPropertyOp29
 70
     1
102
RTVSPropertyOp30
 70
     1
102
RTVSPropertyOp31
 70
     1
102
RTVSPropertyOp32
 70
     1
102
RTVSPropertyOp33
 70
     1
102
RTVSPropertyOp34
 70
     1
102
RTVSPropertyOp35
 70
     1
102
RTVSPropertyOp36
 70
     1
102
RTVSPropertyOp37
 70
     1
102
RTVSPropertyOp38
 70
     1
102
RTVSPropertyOp39
 70
     1
102
RTVSPropertyOp40
 70
     1
102
RTVSPropertyOp41
 70
     1
102
RTVSPropertyOp42
 70
     1
102
RTVSPropertyOp43
 70
     1
102
RTVSPropertyOp44
 70
     1
102
RTVSPropertyOp45
 70
     1
102
RTVSPropertyOp46
 70
     1
102
RTVSPropertyOp47
 70
     1
102
RTVSPropertyOp48
 70
     1
102
RTVSPropertyOp49
 70
     1
102
RTVSPropertyOp50
 70
     1
102
RTVSPropertyOp51
 70
     0
102
RTVSPropertyOp52
 70
     0
102
RTVSPropertyOp53
 70
     1
102
RTVSPropertyOp54
 70
     1
102
RTVSPropertyOp55
 70
     1
102
RTVSPropertyOp56
 70
     1
102
RTVSPropertyOp57
 70
     1
102
RTVSPropertyOp58
 70
     1
102
RTVSPropertyOp59
 70
     1
102
RTVSPropertyOp60
 70
     1
102
RTVSPropertyOp61
 70
     1
102
RTVSPropertyOp62
 70
     1
  0
XRECORD
  5
21D68
102
{ACAD_REACTORS
330
21D67
102
}
330
21D67
100
AcDbXrecord
280
     1
102
RTVSPost2010Prop28
280
     0
102
RTVSPost2010PropOp28
 70
     1
102
RTVSPost2010Prop29
280
     1
102
RTVSPost2010PropOp29
 70
     1
102
RTVSPost2010Prop30
280
     1
102
RTVSPost2010PropOp30
 70
     1
102
RTVSPost2010Prop31
280
     0
102
RTVSPost2010PropOp31
 70
     1
102
RTVSPost2010Prop32
280
     0
102
RTVSPost2010PropOp32
 70
     1
102
RTVSPost2010Prop33
280
     0
102
RTVSPost2010PropOp33
 70
     1
102
RTVSPost2010Prop34
280
     0
102
RTVSPost2010PropOp34
 70
     1
102
RTVSPost2010Prop35
280
     0
102
RTVSPost2010PropOp35
 70
     1
102
RTVSPost2010Prop36
280
     0
102
RTVSPost2010PropOp36
 70
     1
102
RTVSPost2010Prop37
 90
       50
102
RTVSPost2010PropOp37
 70
     1
102
RTVSPost2010Prop38
140
0.0
102
RTVSPost2010PropOp38
 70
     1
102
RTVSPost2010Prop39
140
1.0
102
RTVSPost2010PropOp39
 70
     1
102
RTVSPost2010Prop40
 90
        0
102
RTVSPost2010PropOp40
 70
     1
102
RTVSPost2010Prop41ColorIndex
 90
       18
102
RTVSPost2010Prop41ColorRGB
 90
        0
102
RTVSPost2010PropOp41
 70
     1
102
RTVSPost2010Prop42
 90
       50
102
RTVSPost2010PropOp42
 70
     1
102
RTVSPost2010Prop43
 90
        3
102
RTVSPost2010PropOp43
 70
     1
102
RTVSPost2010Prop44ColorIndex
 90
        5
102
RTVSPost2010Prop44ColorRGB
 90
      255
102
RTVSPost2010PropOp44
 70
     1
102
RTVSPost2010Prop45
280
     0
102
RTVSPost2010PropOp45
 70
     1
102
RTVSPost2010Prop46
 90
       50
102
RTVSPost2010PropOp46
 70
     1
102
RTVSPost2010Prop47
 90
       50
102
RTVSPost2010PropOp47
 70
     1
102
RTVSPost2010Prop48
 90
       50
102
RTVSPost2010PropOp48
 70
     1
102
RTVSPost2010Prop49
280
     0
102
RTVSPost2010PropOp49
 70
     1
102
RTVSPost2010Prop50
 90
       50
102
RTVSPost2010PropOp50
 70
     1
102
RTVSPost2010Prop51ColorIndex
 90
      256
102
RTVSPost2010Prop51ColorRGB
 90
-16777216
102
RTVSPost2010PropOp51
 70
     0
102
RTVSPost2010Prop52
140
1.0
102
RTVSPost2010PropOp52
 70
     0
102
RTVSPost2010Prop53
 90
        2
102
RTVSPost2010PropOp53
 70
     1
102
RTVSPost2010Prop54
  1
strokes_ogs.tif
102
RTVSPost2010PropOp54
 70
     1
102
RTVSPost2010Prop55
280
     0
102
RTVSPost2010PropOp55
 70
     1
102
RTVSPost2010Prop56
140
1.0
102
RTVSPost2010PropOp56
 70
     1
102
RTVSPost2010Prop57
140
1.0
102
RTVSPost2010PropOp57
 70
     1
102
RTVSPropertyOp0
 70
     1
102
RTVSPropertyOp1
 70
     1
102
RTVSPropertyOp2
 70
     1
102
RTVSPropertyOp3
 70
     1
102
RTVSPropertyOp4
 70
     1
102
RTVSPropertyOp5
 70
     1
102
RTVSPropertyOp6
 70
     1
102
RTVSPropertyOp7
 70
     1
102
RTVSPropertyOp8
 70
     1
102
RTVSPropertyOp9
 70
     1
102
RTVSPropertyOp10
 70
     1
102
RTVSPropertyOp11
 70
     1
102
RTVSPropertyOp12
 70
     1
102
RTVSPropertyOp13
 70
     1
102
RTVSPropertyOp14
 70
     1
102
RTVSPropertyOp15
 70
     1
102
RTVSPropertyOp16
 70
     1
102
RTVSPropertyOp17
 70
     1
102
RTVSPropertyOp18
 70
     1
102
RTVSPropertyOp19
 70
     1
102
RTVSPropertyOp20
 70
     1
102
RTVSPropertyOp21
 70
     1
102
RTVSPropertyOp22
 70
     1
102
RTVSPropertyOp23
 70
     1
102
RTVSPropertyOp24
 70
     1
102
RTVSPropertyOp25
 70
     1
102
RTVSPropertyOp26
 70
     1
102
RTVSPropertyOp27
 70
     1
102
RTVSPropertyOp28
 70
     1
102
RTVSPropertyOp29
 70
     1
102
RTVSPropertyOp30
 70
     1
102
RTVSPropertyOp31
 70
     1
102
RTVSPropertyOp32
 70
     1
102
RTVSPropertyOp33
 70
     1
102
RTVSPropertyOp34
 70
     1
102
RTVSPropertyOp35
 70
     1
102
RTVSPropertyOp36
 70
     1
102
RTVSPropertyOp37
 70
     1
102
RTVSPropertyOp38
 70
     1
102
RTVSPropertyOp39
 70
     1
102
RTVSPropertyOp40
 70
     1
102
RTVSPropertyOp41
 70
     1
102
RTVSPropertyOp42
 70
     1
102
RTVSPropertyOp43
 70
     1
102
RTVSPropertyOp44
 70
     1
102
RTVSPropertyOp45
 70
     1
102
RTVSPropertyOp46
 70
     1
102
RTVSPropertyOp47
 70
     1
102
RTVSPropertyOp48
 70
     1
102
RTVSPropertyOp49
 70
     1
102
RTVSPropertyOp50
 70
     1
102
RTVSPropertyOp51
 70
     0
102
RTVSPropertyOp52
 70
     0
102
RTVSPropertyOp53
 70
     1
102
RTVSPropertyOp54
 70
     1
102
RTVSPropertyOp55
 70
     1
102
RTVSPropertyOp56
 70
     1
102
RTVSPropertyOp57
 70
     1
102
RTVSPropertyOp58
 70
     1
102
RTVSPropertyOp59
 70
     1
102
RTVSPropertyOp60
 70
     1
102
RTVSPropertyOp61
 70
     1
102
RTVSPropertyOp62
 70
     1
  0
XRECORD
  5
21D6A
102
{ACAD_REACTORS
330
21D69
102
}
330
21D69
100
AcDbXrecord
280
     1
102
RTVSPost2010Prop28
280
     0
102
RTVSPost2010PropOp28
 70
     1
102
RTVSPost2010Prop29
280
     1
102
RTVSPost2010PropOp29
 70
     1
102
RTVSPost2010Prop30
280
     1
102
RTVSPost2010PropOp30
 70
     1
102
RTVSPost2010Prop31
280
     0
102
RTVSPost2010PropOp31
 70
     1
102
RTVSPost2010Prop32
280
     0
102
RTVSPost2010PropOp32
 70
     1
102
RTVSPost2010Prop33
280
     0
102
RTVSPost2010PropOp33
 70
     1
102
RTVSPost2010Prop34
280
     0
102
RTVSPost2010PropOp34
 70
     1
102
RTVSPost2010Prop35
280
     0
102
RTVSPost2010PropOp35
 70
     1
102
RTVSPost2010Prop36
280
     0
102
RTVSPost2010PropOp36
 70
     1
102
RTVSPost2010Prop37
 90
       50
102
RTVSPost2010PropOp37
 70
     1
102
RTVSPost2010Prop38
140
0.0
102
RTVSPost2010PropOp38
 70
     1
102
RTVSPost2010Prop39
140
1.0
102
RTVSPost2010PropOp39
 70
     1
102
RTVSPost2010Prop40
 90
        0
102
RTVSPost2010PropOp40
 70
     1
102
RTVSPost2010Prop41ColorIndex
 90
       18
102
RTVSPost2010Prop41ColorRGB
 90
        0
102
RTVSPost2010PropOp41
 70
     1
102
RTVSPost2010Prop42
 90
       50
102
RTVSPost2010PropOp42
 70
     1
102
RTVSPost2010Prop43
 90
        3
102
RTVSPost2010PropOp43
 70
     1
102
RTVSPost2010Prop44ColorIndex
 90
        5
102
RTVSPost2010Prop44ColorRGB
 90
      255
102
RTVSPost2010PropOp44
 70
     1
102
RTVSPost2010Prop45
280
     0
102
RTVSPost2010PropOp45
 70
     1
102
RTVSPost2010Prop46
 90
       50
102
RTVSPost2010PropOp46
 70
     1
102
RTVSPost2010Prop47
 90
       50
102
RTVSPost2010PropOp47
 70
     1
102
RTVSPost2010Prop48
 90
       50
102
RTVSPost2010PropOp48
 70
     1
102
RTVSPost2010Prop49
280
     0
102
RTVSPost2010PropOp49
 70
     1
102
RTVSPost2010Prop50
 90
       50
102
RTVSPost2010PropOp50
 70
     1
102
RTVSPost2010Prop51ColorIndex
 90
      256
102
RTVSPost2010Prop51ColorRGB
 90
-16777216
102
RTVSPost2010PropOp51
 70
     0
102
RTVSPost2010Prop52
140
1.0
102
RTVSPost2010PropOp52
 70
     0
102
RTVSPost2010Prop53
 90
        2
102
RTVSPost2010PropOp53
 70
     1
102
RTVSPost2010Prop54
  1
strokes_ogs.tif
102
RTVSPost2010PropOp54
 70
     1
102
RTVSPost2010Prop55
280
     0
102
RTVSPost2010PropOp55
 70
     1
102
RTVSPost2010Prop56
140
1.0
102
RTVSPost2010PropOp56
 70
     1
102
RTVSPost2010Prop57
140
1.0
102
RTVSPost2010PropOp57
 70
     1
102
RTVSPropertyOp0
 70
     1
102
RTVSPropertyOp1
 70
     1
102
RTVSPropertyOp2
 70
     1
102
RTVSPropertyOp3
 70
     1
102
RTVSPropertyOp4
 70
     1
102
RTVSPropertyOp5
 70
     1
102
RTVSPropertyOp6
 70
     1
102
RTVSPropertyOp7
 70
     1
102
RTVSPropertyOp8
 70
     1
102
RTVSPropertyOp9
 70
     1
102
RTVSPropertyOp10
 70
     1
102
RTVSPropertyOp11
 70
     1
102
RTVSPropertyOp12
 70
     1
102
RTVSPropertyOp13
 70
     1
102
RTVSPropertyOp14
 70
     1
102
RTVSPropertyOp15
 70
     1
102
RTVSPropertyOp16
 70
     1
102
RTVSPropertyOp17
 70
     1
102
RTVSPropertyOp18
 70
     1
102
RTVSPropertyOp19
 70
     1
102
RTVSPropertyOp20
 70
     1
102
RTVSPropertyOp21
 70
     1
102
RTVSPropertyOp22
 70
     1
102
RTVSPropertyOp23
 70
     1
102
RTVSPropertyOp24
 70
     1
102
RTVSPropertyOp25
 70
     1
102
RTVSPropertyOp26
 70
     1
102
RTVSPropertyOp27
 70
     1
102
RTVSPropertyOp28
 70
     1
102
RTVSPropertyOp29
 70
     1
102
RTVSPropertyOp30
 70
     1
102
RTVSPropertyOp31
 70
     1
102
RTVSPropertyOp32
 70
     1
102
RTVSPropertyOp33
 70
     1
102
RTVSPropertyOp34
 70
     1
102
RTVSPropertyOp35
 70
     1
102
RTVSPropertyOp36
 70
     1
102
RTVSPropertyOp37
 70
     1
102
RTVSPropertyOp38
 70
     1
102
RTVSPropertyOp39
 70
     1
102
RTVSPropertyOp40
 70
     1
102
RTVSPropertyOp41
 70
     1
102
RTVSPropertyOp42
 70
     1
102
RTVSPropertyOp43
 70
     1
102
RTVSPropertyOp44
 70
     1
102
RTVSPropertyOp45
 70
     1
102
RTVSPropertyOp46
 70
     1
102
RTVSPropertyOp47
 70
     1
102
RTVSPropertyOp48
 70
     1
102
RTVSPropertyOp49
 70
     1
102
RTVSPropertyOp50
 70
     1
102
RTVSPropertyOp51
 70
     0
102
RTVSPropertyOp52
 70
     0
102
RTVSPropertyOp53
 70
     1
102
RTVSPropertyOp54
 70
     1
102
RTVSPropertyOp55
 70
     1
102
RTVSPropertyOp56
 70
     1
102
RTVSPropertyOp57
 70
     1
102
RTVSPropertyOp58
 70
     1
102
RTVSPropertyOp59
 70
     1
102
RTVSPropertyOp60
 70
     1
102
RTVSPropertyOp61
 70
     1
102
RTVSPropertyOp62
 70
     1
  0
XRECORD
  5
21D6C
102
{ACAD_REACTORS
330
21D6B
102
}
330
21D6B
100
AcDbXrecord
280
     1
102
RTVSPost2010Prop28
280
     0
102
RTVSPost2010PropOp28
 70
     1
102
RTVSPost2010Prop29
280
     1
102
RTVSPost2010PropOp29
 70
     1
102
RTVSPost2010Prop30
280
     1
102
RTVSPost2010PropOp30
 70
     1
102
RTVSPost2010Prop31
280
     0
102
RTVSPost2010PropOp31
 70
     1
102
RTVSPost2010Prop32
280
     0
102
RTVSPost2010PropOp32
 70
     1
102
RTVSPost2010Prop33
280
     0
102
RTVSPost2010PropOp33
 70
     1
102
RTVSPost2010Prop34
280
     0
102
RTVSPost2010PropOp34
 70
     1
102
RTVSPost2010Prop35
280
     0
102
RTVSPost2010PropOp35
 70
     1
102
RTVSPost2010Prop36
280
     0
102
RTVSPost2010PropOp36
 70
     1
102
RTVSPost2010Prop37
 90
       50
102
RTVSPost2010PropOp37
 70
     1
102
RTVSPost2010Prop38
140
0.0
102
RTVSPost2010PropOp38
 70
     1
102
RTVSPost2010Prop39
140
1.0
102
RTVSPost2010PropOp39
 70
     1
102
RTVSPost2010Prop40
 90
        0
102
RTVSPost2010PropOp40
 70
     1
102
RTVSPost2010Prop41ColorIndex
 90
       18
102
RTVSPost2010Prop41ColorRGB
 90
        0
102
RTVSPost2010PropOp41
 70
     1
102
RTVSPost2010Prop42
 90
       50
102
RTVSPost2010PropOp42
 70
     1
102
RTVSPost2010Prop43
 90
        3
102
RTVSPost2010PropOp43
 70
     1
102
RTVSPost2010Prop44ColorIndex
 90
        5
102
RTVSPost2010Prop44ColorRGB
 90
      255
102
RTVSPost2010PropOp44
 70
     1
102
RTVSPost2010Prop45
280
     0
102
RTVSPost2010PropOp45
 70
     1
102
RTVSPost2010Prop46
 90
       50
102
RTVSPost2010PropOp46
 70
     1
102
RTVSPost2010Prop47
 90
       50
102
RTVSPost2010PropOp47
 70
     1
102
RTVSPost2010Prop48
 90
       50
102
RTVSPost2010PropOp48
 70
     1
102
RTVSPost2010Prop49
280
     0
102
RTVSPost2010PropOp49
 70
     1
102
RTVSPost2010Prop50
 90
       50
102
RTVSPost2010PropOp50
 70
     1
102
RTVSPost2010Prop51ColorIndex
 90
      256
102
RTVSPost2010Prop51ColorRGB
 90
-16777216
102
RTVSPost2010PropOp51
 70
     0
102
RTVSPost2010Prop52
140
1.0
102
RTVSPost2010PropOp52
 70
     0
102
RTVSPost2010Prop53
 90
        2
102
RTVSPost2010PropOp53
 70
     1
102
RTVSPost2010Prop54
  1
strokes_ogs.tif
102
RTVSPost2010PropOp54
 70
     1
102
RTVSPost2010Prop55
280
     0
102
RTVSPost2010PropOp55
 70
     1
102
RTVSPost2010Prop56
140
1.0
102
RTVSPost2010PropOp56
 70
     1
102
RTVSPost2010Prop57
140
1.0
102
RTVSPost2010PropOp57
 70
     1
102
RTVSPropertyOp0
 70
     1
102
RTVSPropertyOp1
 70
     1
102
RTVSPropertyOp2
 70
     1
102
RTVSPropertyOp3
 70
     1
102
RTVSPropertyOp4
 70
     1
102
RTVSPropertyOp5
 70
     1
102
RTVSPropertyOp6
 70
     1
102
RTVSPropertyOp7
 70
     1
102
RTVSPropertyOp8
 70
     1
102
RTVSPropertyOp9
 70
     1
102
RTVSPropertyOp10
 70
     1
102
RTVSPropertyOp11
 70
     1
102
RTVSPropertyOp12
 70
     1
102
RTVSPropertyOp13
 70
     1
102
RTVSPropertyOp14
 70
     1
102
RTVSPropertyOp15
 70
     1
102
RTVSPropertyOp16
 70
     1
102
RTVSPropertyOp17
 70
     1
102
RTVSPropertyOp18
 70
     1
102
RTVSPropertyOp19
 70
     1
102
RTVSPropertyOp20
 70
     1
102
RTVSPropertyOp21
 70
     1
102
RTVSPropertyOp22
 70
     1
102
RTVSPropertyOp23
 70
     1
102
RTVSPropertyOp24
 70
     1
102
RTVSPropertyOp25
 70
     1
102
RTVSPropertyOp26
 70
     1
102
RTVSPropertyOp27
 70
     1
102
RTVSPropertyOp28
 70
     1
102
RTVSPropertyOp29
 70
     1
102
RTVSPropertyOp30
 70
     1
102
RTVSPropertyOp31
 70
     1
102
RTVSPropertyOp32
 70
     1
102
RTVSPropertyOp33
 70
     1
102
RTVSPropertyOp34
 70
     1
102
RTVSPropertyOp35
 70
     1
102
RTVSPropertyOp36
 70
     1
102
RTVSPropertyOp37
 70
     1
102
RTVSPropertyOp38
 70
     1
102
RTVSPropertyOp39
 70
     1
102
RTVSPropertyOp40
 70
     1
102
RTVSPropertyOp41
 70
     1
102
RTVSPropertyOp42
 70
     1
102
RTVSPropertyOp43
 70
     1
102
RTVSPropertyOp44
 70
     1
102
RTVSPropertyOp45
 70
     1
102
RTVSPropertyOp46
 70
     1
102
RTVSPropertyOp47
 70
     1
102
RTVSPropertyOp48
 70
     1
102
RTVSPropertyOp49
 70
     1
102
RTVSPropertyOp50
 70
     1
102
RTVSPropertyOp51
 70
     0
102
RTVSPropertyOp52
 70
     0
102
RTVSPropertyOp53
 70
     1
102
RTVSPropertyOp54
 70
     1
102
RTVSPropertyOp55
 70
     1
102
RTVSPropertyOp56
 70
     1
102
RTVSPropertyOp57
 70
     1
102
RTVSPropertyOp58
 70
     1
102
RTVSPropertyOp59
 70
     1
102
RTVSPropertyOp60
 70
     1
102
RTVSPropertyOp61
 70
     1
102
RTVSPropertyOp62
 70
     1
  0
XRECORD
  5
21D6E
102
{ACAD_REACTORS
330
21D6D
102
}
330
21D6D
100
AcDbXrecord
280
     1
102
RTVSPost2010Prop28
280
     0
102
RTVSPost2010PropOp28
 70
     1
102
RTVSPost2010Prop29
280
     1
102
RTVSPost2010PropOp29
 70
     1
102
RTVSPost2010Prop30
280
     1
102
RTVSPost2010PropOp30
 70
     1
102
RTVSPost2010Prop31
280
     0
102
RTVSPost2010PropOp31
 70
     1
102
RTVSPost2010Prop32
280
     0
102
RTVSPost2010PropOp32
 70
     1
102
RTVSPost2010Prop33
280
     0
102
RTVSPost2010PropOp33
 70
     1
102
RTVSPost2010Prop34
280
     0
102
RTVSPost2010PropOp34
 70
     1
102
RTVSPost2010Prop35
280
     0
102
RTVSPost2010PropOp35
 70
     1
102
RTVSPost2010Prop36
280
     0
102
RTVSPost2010PropOp36
 70
     1
102
RTVSPost2010Prop37
 90
       50
102
RTVSPost2010PropOp37
 70
     1
102
RTVSPost2010Prop38
140
0.0
102
RTVSPost2010PropOp38
 70
     1
102
RTVSPost2010Prop39
140
1.0
102
RTVSPost2010PropOp39
 70
     1
102
RTVSPost2010Prop40
 90
        0
102
RTVSPost2010PropOp40
 70
     1
102
RTVSPost2010Prop41ColorIndex
 90
       18
102
RTVSPost2010Prop41ColorRGB
 90
        0
102
RTVSPost2010PropOp41
 70
     1
102
RTVSPost2010Prop42
 90
       50
102
RTVSPost2010PropOp42
 70
     1
102
RTVSPost2010Prop43
 90
        3
102
RTVSPost2010PropOp43
 70
     1
102
RTVSPost2010Prop44ColorIndex
 90
        5
102
RTVSPost2010Prop44ColorRGB
 90
      255
102
RTVSPost2010PropOp44
 70
     1
102
RTVSPost2010Prop45
280
     0
102
RTVSPost2010PropOp45
 70
     1
102
RTVSPost2010Prop46
 90
       50
102
RTVSPost2010PropOp46
 70
     1
102
RTVSPost2010Prop47
 90
       50
102
RTVSPost2010PropOp47
 70
     1
102
RTVSPost2010Prop48
 90
       50
102
RTVSPost2010PropOp48
 70
     1
102
RTVSPost2010Prop49
280
     0
102
RTVSPost2010PropOp49
 70
     1
102
RTVSPost2010Prop50
 90
       50
102
RTVSPost2010PropOp50
 70
     1
102
RTVSPost2010Prop51ColorIndex
 90
      256
102
RTVSPost2010Prop51ColorRGB
 90
-16777216
102
RTVSPost2010PropOp51
 70
     0
102
RTVSPost2010Prop52
140
1.0
102
RTVSPost2010PropOp52
 70
     0
102
RTVSPost2010Prop53
 90
        2
102
RTVSPost2010PropOp53
 70
     1
102
RTVSPost2010Prop54
  1
strokes_ogs.tif
102
RTVSPost2010PropOp54
 70
     1
102
RTVSPost2010Prop55
280
     0
102
RTVSPost2010PropOp55
 70
     1
102
RTVSPost2010Prop56
140
1.0
102
RTVSPost2010PropOp56
 70
     1
102
RTVSPost2010Prop57
140
1.0
102
RTVSPost2010PropOp57
 70
     1
102
RTVSPropertyOp0
 70
     1
102
RTVSPropertyOp1
 70
     1
102
RTVSPropertyOp2
 70
     1
102
RTVSPropertyOp3
 70
     1
102
RTVSPropertyOp4
 70
     1
102
RTVSPropertyOp5
 70
     1
102
RTVSPropertyOp6
 70
     1
102
RTVSPropertyOp7
 70
     1
102
RTVSPropertyOp8
 70
     1
102
RTVSPropertyOp9
 70
     1
102
RTVSPropertyOp10
 70
     1
102
RTVSPropertyOp11
 70
     1
102
RTVSPropertyOp12
 70
     1
102
RTVSPropertyOp13
 70
     1
102
RTVSPropertyOp14
 70
     1
102
RTVSPropertyOp15
 70
     1
102
RTVSPropertyOp16
 70
     1
102
RTVSPropertyOp17
 70
     1
102
RTVSPropertyOp18
 70
     1
102
RTVSPropertyOp19
 70
     1
102
RTVSPropertyOp20
 70
     1
102
RTVSPropertyOp21
 70
     1
102
RTVSPropertyOp22
 70
     1
102
RTVSPropertyOp23
 70
     1
102
RTVSPropertyOp24
 70
     1
102
RTVSPropertyOp25
 70
     1
102
RTVSPropertyOp26
 70
     1
102
RTVSPropertyOp27
 70
     1
102
RTVSPropertyOp28
 70
     1
102
RTVSPropertyOp29
 70
     1
102
RTVSPropertyOp30
 70
     1
102
RTVSPropertyOp31
 70
     1
102
RTVSPropertyOp32
 70
     1
102
RTVSPropertyOp33
 70
     1
102
RTVSPropertyOp34
 70
     1
102
RTVSPropertyOp35
 70
     1
102
RTVSPropertyOp36
 70
     1
102
RTVSPropertyOp37
 70
     1
102
RTVSPropertyOp38
 70
     1
102
RTVSPropertyOp39
 70
     1
102
RTVSPropertyOp40
 70
     1
102
RTVSPropertyOp41
 70
     1
102
RTVSPropertyOp42
 70
     1
102
RTVSPropertyOp43
 70
     1
102
RTVSPropertyOp44
 70
     1
102
RTVSPropertyOp45
 70
     1
102
RTVSPropertyOp46
 70
     1
102
RTVSPropertyOp47
 70
     1
102
RTVSPropertyOp48
 70
     1
102
RTVSPropertyOp49
 70
     1
102
RTVSPropertyOp50
 70
     1
102
RTVSPropertyOp51
 70
     0
102
RTVSPropertyOp52
 70
     0
102
RTVSPropertyOp53
 70
     1
102
RTVSPropertyOp54
 70
     1
102
RTVSPropertyOp55
 70
     1
102
RTVSPropertyOp56
 70
     1
102
RTVSPropertyOp57
 70
     1
102
RTVSPropertyOp58
 70
     1
102
RTVSPropertyOp59
 70
     1
102
RTVSPropertyOp60
 70
     1
102
RTVSPropertyOp61
 70
     1
102
RTVSPropertyOp62
 70
     1
  0
XRECORD
  5
21D91
102
{ACAD_REACTORS
330
21D90
102
}
330
21D90
100
AcDbXrecord
280
     1
102
RTVSPost2010Prop28
280
     0
102
RTVSPost2010PropOp28
 70
     1
102
RTVSPost2010Prop29
280
     1
102
RTVSPost2010PropOp29
 70
     1
102
RTVSPost2010Prop30
280
     1
102
RTVSPost2010PropOp30
 70
     1
102
RTVSPost2010Prop31
280
     0
102
RTVSPost2010PropOp31
 70
     1
102
RTVSPost2010Prop32
280
     0
102
RTVSPost2010PropOp32
 70
     1
102
RTVSPost2010Prop33
280
     0
102
RTVSPost2010PropOp33
 70
     1
102
RTVSPost2010Prop34
280
     0
102
RTVSPost2010PropOp34
 70
     1
102
RTVSPost2010Prop35
280
     0
102
RTVSPost2010PropOp35
 70
     1
102
RTVSPost2010Prop36
280
     0
102
RTVSPost2010PropOp36
 70
     1
102
RTVSPost2010Prop37
 90
       50
102
RTVSPost2010PropOp37
 70
     1
102
RTVSPost2010Prop38
140
0.0
102
RTVSPost2010PropOp38
 70
     1
102
RTVSPost2010Prop39
140
1.0
102
RTVSPost2010PropOp39
 70
     1
102
RTVSPost2010Prop40
 90
        0
102
RTVSPost2010PropOp40
 70
     1
102
RTVSPost2010Prop41ColorIndex
 90
       18
102
RTVSPost2010Prop41ColorRGB
 90
        0
102
RTVSPost2010PropOp41
 70
     1
102
RTVSPost2010Prop42
 90
       50
102
RTVSPost2010PropOp42
 70
     1
102
RTVSPost2010Prop43
 90
        3
102
RTVSPost2010PropOp43
 70
     1
102
RTVSPost2010Prop44ColorIndex
 90
        5
102
RTVSPost2010Prop44ColorRGB
 90
      255
102
RTVSPost2010PropOp44
 70
     1
102
RTVSPost2010Prop45
280
     0
102
RTVSPost2010PropOp45
 70
     1
102
RTVSPost2010Prop46
 90
       50
102
RTVSPost2010PropOp46
 70
     1
102
RTVSPost2010Prop47
 90
       50
102
RTVSPost2010PropOp47
 70
     1
102
RTVSPost2010Prop48
 90
       50
102
RTVSPost2010PropOp48
 70
     1
102
RTVSPost2010Prop49
280
     0
102
RTVSPost2010PropOp49
 70
     1
102
RTVSPost2010Prop50
 90
       50
102
RTVSPost2010PropOp50
 70
     1
102
RTVSPost2010Prop51ColorIndex
 90
      256
102
RTVSPost2010Prop51ColorRGB
 90
-16777216
102
RTVSPost2010PropOp51
 70
     0
102
RTVSPost2010Prop52
140
1.0
102
RTVSPost2010PropOp52
 70
     0
102
RTVSPost2010Prop53
 90
        2
102
RTVSPost2010PropOp53
 70
     1
102
RTVSPost2010Prop54
  1
strokes_ogs.tif
102
RTVSPost2010PropOp54
 70
     1
102
RTVSPost2010Prop55
280
     0
102
RTVSPost2010PropOp55
 70
     1
102
RTVSPost2010Prop56
140
1.0
102
RTVSPost2010PropOp56
 70
     1
102
RTVSPost2010Prop57
140
1.0
102
RTVSPost2010PropOp57
 70
     1
102
RTVSPropertyOp0
 70
     1
102
RTVSPropertyOp1
 70
     1
102
RTVSPropertyOp2
 70
     1
102
RTVSPropertyOp3
 70
     1
102
RTVSPropertyOp4
 70
     1
102
RTVSPropertyOp5
 70
     1
102
RTVSPropertyOp6
 70
     1
102
RTVSPropertyOp7
 70
     1
102
RTVSPropertyOp8
 70
     1
102
RTVSPropertyOp9
 70
     1
102
RTVSPropertyOp10
 70
     1
102
RTVSPropertyOp11
 70
     1
102
RTVSPropertyOp12
 70
     1
102
RTVSPropertyOp13
 70
     1
102
RTVSPropertyOp14
 70
     1
102
RTVSPropertyOp15
 70
     1
102
RTVSPropertyOp16
 70
     1
102
RTVSPropertyOp17
 70
     1
102
RTVSPropertyOp18
 70
     1
102
RTVSPropertyOp19
 70
     1
102
RTVSPropertyOp20
 70
     1
102
RTVSPropertyOp21
 70
     1
102
RTVSPropertyOp22
 70
     1
102
RTVSPropertyOp23
 70
     1
102
RTVSPropertyOp24
 70
     1
102
RTVSPropertyOp25
 70
     1
102
RTVSPropertyOp26
 70
     1
102
RTVSPropertyOp27
 70
     1
102
RTVSPropertyOp28
 70
     1
102
RTVSPropertyOp29
 70
     1
102
RTVSPropertyOp30
 70
     1
102
RTVSPropertyOp31
 70
     1
102
RTVSPropertyOp32
 70
     1
102
RTVSPropertyOp33
 70
     1
102
RTVSPropertyOp34
 70
     1
102
RTVSPropertyOp35
 70
     1
102
RTVSPropertyOp36
 70
     1
102
RTVSPropertyOp37
 70
     1
102
RTVSPropertyOp38
 70
     1
102
RTVSPropertyOp39
 70
     1
102
RTVSPropertyOp40
 70
     1
102
RTVSPropertyOp41
 70
     1
102
RTVSPropertyOp42
 70
     1
102
RTVSPropertyOp43
 70
     1
102
RTVSPropertyOp44
 70
     1
102
RTVSPropertyOp45
 70
     1
102
RTVSPropertyOp46
 70
     1
102
RTVSPropertyOp47
 70
     1
102
RTVSPropertyOp48
 70
     1
102
RTVSPropertyOp49
 70
     1
102
RTVSPropertyOp50
 70
     1
102
RTVSPropertyOp51
 70
     0
102
RTVSPropertyOp52
 70
     0
102
RTVSPropertyOp53
 70
     1
102
RTVSPropertyOp54
 70
     1
102
RTVSPropertyOp55
 70
     1
102
RTVSPropertyOp56
 70
     1
102
RTVSPropertyOp57
 70
     1
102
RTVSPropertyOp58
 70
     1
102
RTVSPropertyOp59
 70
     1
102
RTVSPropertyOp60
 70
     1
102
RTVSPropertyOp61
 70
     1
102
RTVSPropertyOp62
 70
     1
  0
XRECORD
  5
21D89
102
{ACAD_REACTORS
330
21D88
102
}
330
21D88
100
AcDbXrecord
280
     1
102
RTVSPost2010Prop28
280
     0
102
RTVSPost2010PropOp28
 70
     1
102
RTVSPost2010Prop29
280
     1
102
RTVSPost2010PropOp29
 70
     1
102
RTVSPost2010Prop30
280
     1
102
RTVSPost2010PropOp30
 70
     1
102
RTVSPost2010Prop31
280
     0
102
RTVSPost2010PropOp31
 70
     1
102
RTVSPost2010Prop32
280
     0
102
RTVSPost2010PropOp32
 70
     1
102
RTVSPost2010Prop33
280
     0
102
RTVSPost2010PropOp33
 70
     1
102
RTVSPost2010Prop34
280
     0
102
RTVSPost2010PropOp34
 70
     1
102
RTVSPost2010Prop35
280
     0
102
RTVSPost2010PropOp35
 70
     1
102
RTVSPost2010Prop36
280
     0
102
RTVSPost2010PropOp36
 70
     1
102
RTVSPost2010Prop37
 90
       50
102
RTVSPost2010PropOp37
 70
     1
102
RTVSPost2010Prop38
140
0.0
102
RTVSPost2010PropOp38
 70
     1
102
RTVSPost2010Prop39
140
1.0
102
RTVSPost2010PropOp39
 70
     1
102
RTVSPost2010Prop40
 90
        0
102
RTVSPost2010PropOp40
 70
     1
102
RTVSPost2010Prop41ColorIndex
 90
       18
102
RTVSPost2010Prop41ColorRGB
 90
        0
102
RTVSPost2010PropOp41
 70
     1
102
RTVSPost2010Prop42
 90
       50
102
RTVSPost2010PropOp42
 70
     1
102
RTVSPost2010Prop43
 90
        3
102
RTVSPost2010PropOp43
 70
     1
102
RTVSPost2010Prop44ColorIndex
 90
        5
102
RTVSPost2010Prop44ColorRGB
 90
      255
102
RTVSPost2010PropOp44
 70
     1
102
RTVSPost2010Prop45
280
     0
102
RTVSPost2010PropOp45
 70
     1
102
RTVSPost2010Prop46
 90
       50
102
RTVSPost2010PropOp46
 70
     1
102
RTVSPost2010Prop47
 90
       50
102
RTVSPost2010PropOp47
 70
     1
102
RTVSPost2010Prop48
 90
       50
102
RTVSPost2010PropOp48
 70
     1
102
RTVSPost2010Prop49
280
     0
102
RTVSPost2010PropOp49
 70
     1
102
RTVSPost2010Prop50
 90
       50
102
RTVSPost2010PropOp50
 70
     1
102
RTVSPost2010Prop51ColorIndex
 90
      256
102
RTVSPost2010Prop51ColorRGB
 90
-16777216
102
RTVSPost2010PropOp51
 70
     0
102
RTVSPost2010Prop52
140
1.0
102
RTVSPost2010PropOp52
 70
     0
102
RTVSPost2010Prop53
 90
        2
102
RTVSPost2010PropOp53
 70
     1
102
RTVSPost2010Prop54
  1
strokes_ogs.tif
102
RTVSPost2010PropOp54
 70
     1
102
RTVSPost2010Prop55
280
     0
102
RTVSPost2010PropOp55
 70
     1
102
RTVSPost2010Prop56
140
1.0
102
RTVSPost2010PropOp56
 70
     1
102
RTVSPost2010Prop57
140
1.0
102
RTVSPost2010PropOp57
 70
     1
102
RTVSPropertyOp0
 70
     0
102
RTVSPropertyOp1
 70
     0
102
RTVSPropertyOp2
 70
     0
102
RTVSPropertyOp3
 70
     0
102
RTVSPropertyOp4
 70
     0
102
RTVSPropertyOp5
 70
     0
102
RTVSPropertyOp6
 70
     0
102
RTVSPropertyOp7
 70
     0
102
RTVSPropertyOp8
 70
     0
102
RTVSPropertyOp9
 70
     0
102
RTVSPropertyOp10
 70
     0
102
RTVSPropertyOp11
 70
     0
102
RTVSPropertyOp12
 70
     0
102
RTVSPropertyOp13
 70
     0
102
RTVSPropertyOp14
 70
     2
102
RTVSPropertyOp15
 70
     0
102
RTVSPropertyOp16
 70
     0
102
RTVSPropertyOp17
 70
     0
102
RTVSPropertyOp18
 70
     0
102
RTVSPropertyOp19
 70
     0
102
RTVSPropertyOp20
 70
     0
102
RTVSPropertyOp21
 70
     0
102
RTVSPropertyOp22
 70
     0
102
RTVSPropertyOp23
 70
     0
102
RTVSPropertyOp24
 70
     0
102
RTVSPropertyOp25
 70
     0
102
RTVSPropertyOp26
 70
     0
102
RTVSPropertyOp27
 70
     0
102
RTVSPropertyOp28
 70
     1
102
RTVSPropertyOp29
 70
     1
102
RTVSPropertyOp30
 70
     1
102
RTVSPropertyOp31
 70
     1
102
RTVSPropertyOp32
 70
     1
102
RTVSPropertyOp33
 70
     1
102
RTVSPropertyOp34
 70
     1
102
RTVSPropertyOp35
 70
     1
102
RTVSPropertyOp36
 70
     1
102
RTVSPropertyOp37
 70
     1
102
RTVSPropertyOp38
 70
     1
102
RTVSPropertyOp39
 70
     1
102
RTVSPropertyOp40
 70
     1
102
RTVSPropertyOp41
 70
     1
102
RTVSPropertyOp42
 70
     1
102
RTVSPropertyOp43
 70
     1
102
RTVSPropertyOp44
 70
     1
102
RTVSPropertyOp45
 70
     1
102
RTVSPropertyOp46
 70
     1
102
RTVSPropertyOp47
 70
     1
102
RTVSPropertyOp48
 70
     1
102
RTVSPropertyOp49
 70
     1
102
RTVSPropertyOp50
 70
     1
102
RTVSPropertyOp51
 70
     0
102
RTVSPropertyOp52
 70
     0
102
RTVSPropertyOp53
 70
     1
102
RTVSPropertyOp54
 70
     1
102
RTVSPropertyOp55
 70
     1
102
RTVSPropertyOp56
 70
     1
102
RTVSPropertyOp57
 70
     1
102
RTVSPropertyOp58
 70
     1
102
RTVSPropertyOp59
 70
     1
102
RTVSPropertyOp60
 70
     1
102
RTVSPropertyOp61
 70
     1
102
RTVSPropertyOp62
 70
     1
  0
XRECORD
  5
21D7A
102
{ACAD_REACTORS
330
21D79
102
}
330
21D79
100
AcDbXrecord
280
     1
102
RTVSPost2010Prop28
280
     0
102
RTVSPost2010PropOp28
 70
     1
102
RTVSPost2010Prop29
280
     1
102
RTVSPost2010PropOp29
 70
     1
102
RTVSPost2010Prop30
280
     1
102
RTVSPost2010PropOp30
 70
     1
102
RTVSPost2010Prop31
280
     0
102
RTVSPost2010PropOp31
 70
     1
102
RTVSPost2010Prop32
280
     0
102
RTVSPost2010PropOp32
 70
     1
102
RTVSPost2010Prop33
280
     0
102
RTVSPost2010PropOp33
 70
     1
102
RTVSPost2010Prop34
280
     0
102
RTVSPost2010PropOp34
 70
     1
102
RTVSPost2010Prop35
280
     0
102
RTVSPost2010PropOp35
 70
     1
102
RTVSPost2010Prop36
280
     0
102
RTVSPost2010PropOp36
 70
     1
102
RTVSPost2010Prop37
 90
       50
102
RTVSPost2010PropOp37
 70
     1
102
RTVSPost2010Prop38
140
0.0
102
RTVSPost2010PropOp38
 70
     1
102
RTVSPost2010Prop39
140
1.0
102
RTVSPost2010PropOp39
 70
     1
102
RTVSPost2010Prop40
 90
        0
102
RTVSPost2010PropOp40
 70
     1
102
RTVSPost2010Prop41ColorIndex
 90
       18
102
RTVSPost2010Prop41ColorRGB
 90
        0
102
RTVSPost2010PropOp41
 70
     1
102
RTVSPost2010Prop42
 90
       50
102
RTVSPost2010PropOp42
 70
     1
102
RTVSPost2010Prop43
 90
        3
102
RTVSPost2010PropOp43
 70
     1
102
RTVSPost2010Prop44ColorIndex
 90
        5
102
RTVSPost2010Prop44ColorRGB
 90
      255
102
RTVSPost2010PropOp44
 70
     1
102
RTVSPost2010Prop45
280
     0
102
RTVSPost2010PropOp45
 70
     1
102
RTVSPost2010Prop46
 90
       50
102
RTVSPost2010PropOp46
 70
     1
102
RTVSPost2010Prop47
 90
       50
102
RTVSPost2010PropOp47
 70
     1
102
RTVSPost2010Prop48
 90
       50
102
RTVSPost2010PropOp48
 70
     1
102
RTVSPost2010Prop49
280
     0
102
RTVSPost2010PropOp49
 70
     1
102
RTVSPost2010Prop50
 90
       50
102
RTVSPost2010PropOp50
 70
     1
102
RTVSPost2010Prop51ColorIndex
 90
      256
102
RTVSPost2010Prop51ColorRGB
 90
-16777216
102
RTVSPost2010PropOp51
 70
     0
102
RTVSPost2010Prop52
140
1.0
102
RTVSPost2010PropOp52
 70
     0
102
RTVSPost2010Prop53
 90
        2
102
RTVSPost2010PropOp53
 70
     1
102
RTVSPost2010Prop54
  1
strokes_ogs.tif
102
RTVSPost2010PropOp54
 70
     1
102
RTVSPost2010Prop55
280
     0
102
RTVSPost2010PropOp55
 70
     1
102
RTVSPost2010Prop56
140
1.0
102
RTVSPost2010PropOp56
 70
     1
102
RTVSPost2010Prop57
140
1.0
102
RTVSPost2010PropOp57
 70
     1
102
RTVSPropertyOp0
 70
     1
102
RTVSPropertyOp1
 70
     1
102
RTVSPropertyOp2
 70
     1
102
RTVSPropertyOp3
 70
     1
102
RTVSPropertyOp4
 70
     1
102
RTVSPropertyOp5
 70
     1
102
RTVSPropertyOp6
 70
     1
102
RTVSPropertyOp7
 70
     1
102
RTVSPropertyOp8
 70
     1
102
RTVSPropertyOp9
 70
     1
102
RTVSPropertyOp10
 70
     1
102
RTVSPropertyOp11
 70
     1
102
RTVSPropertyOp12
 70
     1
102
RTVSPropertyOp13
 70
     1
102
RTVSPropertyOp14
 70
     1
102
RTVSPropertyOp15
 70
     1
102
RTVSPropertyOp16
 70
     1
102
RTVSPropertyOp17
 70
     1
102
RTVSPropertyOp18
 70
     1
102
RTVSPropertyOp19
 70
     1
102
RTVSPropertyOp20
 70
     1
102
RTVSPropertyOp21
 70
     1
102
RTVSPropertyOp22
 70
     1
102
RTVSPropertyOp23
 70
     1
102
RTVSPropertyOp24
 70
     1
102
RTVSPropertyOp25
 70
     1
102
RTVSPropertyOp26
 70
     1
102
RTVSPropertyOp27
 70
     1
102
RTVSPropertyOp28
 70
     1
102
RTVSPropertyOp29
 70
     1
102
RTVSPropertyOp30
 70
     1
102
RTVSPropertyOp31
 70
     1
102
RTVSPropertyOp32
 70
     1
102
RTVSPropertyOp33
 70
     1
102
RTVSPropertyOp34
 70
     1
102
RTVSPropertyOp35
 70
     1
102
RTVSPropertyOp36
 70
     1
102
RTVSPropertyOp37
 70
     1
102
RTVSPropertyOp38
 70
     1
102
RTVSPropertyOp39
 70
     1
102
RTVSPropertyOp40
 70
     1
102
RTVSPropertyOp41
 70
     1
102
RTVSPropertyOp42
 70
     1
102
RTVSPropertyOp43
 70
     1
102
RTVSPropertyOp44
 70
     1
102
RTVSPropertyOp45
 70
     1
102
RTVSPropertyOp46
 70
     1
102
RTVSPropertyOp47
 70
     1
102
RTVSPropertyOp48
 70
     1
102
RTVSPropertyOp49
 70
     1
102
RTVSPropertyOp50
 70
     1
102
RTVSPropertyOp51
 70
     0
102
RTVSPropertyOp52
 70
     0
102
RTVSPropertyOp53
 70
     1
102
RTVSPropertyOp54
 70
     1
102
RTVSPropertyOp55
 70
     1
102
RTVSPropertyOp56
 70
     1
102
RTVSPropertyOp57
 70
     1
102
RTVSPropertyOp58
 70
     1
102
RTVSPropertyOp59
 70
     1
102
RTVSPropertyOp60
 70
     1
102
RTVSPropertyOp61
 70
     1
102
RTVSPropertyOp62
 70
     1
  0
XRECORD
  5
21D8B
102
{ACAD_REACTORS
330
21D8A
102
}
330
21D8A
100
AcDbXrecord
280
     1
102
RTVSPost2010Prop28
280
     0
102
RTVSPost2010PropOp28
 70
     1
102
RTVSPost2010Prop29
280
     1
102
RTVSPost2010PropOp29
 70
     1
102
RTVSPost2010Prop30
280
     1
102
RTVSPost2010PropOp30
 70
     1
102
RTVSPost2010Prop31
280
     0
102
RTVSPost2010PropOp31
 70
     1
102
RTVSPost2010Prop32
280
     0
102
RTVSPost2010PropOp32
 70
     1
102
RTVSPost2010Prop33
280
     0
102
RTVSPost2010PropOp33
 70
     1
102
RTVSPost2010Prop34
280
     0
102
RTVSPost2010PropOp34
 70
     1
102
RTVSPost2010Prop35
280
     0
102
RTVSPost2010PropOp35
 70
     1
102
RTVSPost2010Prop36
280
     0
102
RTVSPost2010PropOp36
 70
     1
102
RTVSPost2010Prop37
 90
       50
102
RTVSPost2010PropOp37
 70
     1
102
RTVSPost2010Prop38
140
0.0
102
RTVSPost2010PropOp38
 70
     1
102
RTVSPost2010Prop39
140
1.0
102
RTVSPost2010PropOp39
 70
     1
102
RTVSPost2010Prop40
 90
        0
102
RTVSPost2010PropOp40
 70
     1
102
RTVSPost2010Prop41ColorIndex
 90
       18
102
RTVSPost2010Prop41ColorRGB
 90
        0
102
RTVSPost2010PropOp41
 70
     1
102
RTVSPost2010Prop42
 90
       50
102
RTVSPost2010PropOp42
 70
     1
102
RTVSPost2010Prop43
 90
        3
102
RTVSPost2010PropOp43
 70
     1
102
RTVSPost2010Prop44ColorIndex
 90
        5
102
RTVSPost2010Prop44ColorRGB
 90
      255
102
RTVSPost2010PropOp44
 70
     1
102
RTVSPost2010Prop45
280
     0
102
RTVSPost2010PropOp45
 70
     1
102
RTVSPost2010Prop46
 90
       50
102
RTVSPost2010PropOp46
 70
     1
102
RTVSPost2010Prop47
 90
       50
102
RTVSPost2010PropOp47
 70
     1
102
RTVSPost2010Prop48
 90
       50
102
RTVSPost2010PropOp48
 70
     1
102
RTVSPost2010Prop49
280
     0
102
RTVSPost2010PropOp49
 70
     1
102
RTVSPost2010Prop50
 90
       50
102
RTVSPost2010PropOp50
 70
     1
102
RTVSPost2010Prop51ColorIndex
 90
      256
102
RTVSPost2010Prop51ColorRGB
 90
-16777216
102
RTVSPost2010PropOp51
 70
     0
102
RTVSPost2010Prop52
140
1.0
102
RTVSPost2010PropOp52
 70
     0
102
RTVSPost2010Prop53
 90
        2
102
RTVSPost2010PropOp53
 70
     1
102
RTVSPost2010Prop54
  1
strokes_ogs.tif
102
RTVSPost2010PropOp54
 70
     1
102
RTVSPost2010Prop55
280
     0
102
RTVSPost2010PropOp55
 70
     1
102
RTVSPost2010Prop56
140
1.0
102
RTVSPost2010PropOp56
 70
     1
102
RTVSPost2010Prop57
140
1.0
102
RTVSPost2010PropOp57
 70
     1
102
RTVSPropertyOp0
 70
     0
102
RTVSPropertyOp1
 70
     0
102
RTVSPropertyOp2
 70
     0
102
RTVSPropertyOp3
 70
     0
102
RTVSPropertyOp4
 70
     0
102
RTVSPropertyOp5
 70
     0
102
RTVSPropertyOp6
 70
     0
102
RTVSPropertyOp7
 70
     0
102
RTVSPropertyOp8
 70
     0
102
RTVSPropertyOp9
 70
     0
102
RTVSPropertyOp10
 70
     0
102
RTVSPropertyOp11
 70
     0
102
RTVSPropertyOp12
 70
     0
102
RTVSPropertyOp13
 70
     0
102
RTVSPropertyOp14
 70
     2
102
RTVSPropertyOp15
 70
     0
102
RTVSPropertyOp16
 70
     0
102
RTVSPropertyOp17
 70
     0
102
RTVSPropertyOp18
 70
     0
102
RTVSPropertyOp19
 70
     0
102
RTVSPropertyOp20
 70
     0
102
RTVSPropertyOp21
 70
     0
102
RTVSPropertyOp22
 70
     0
102
RTVSPropertyOp23
 70
     0
102
RTVSPropertyOp24
 70
     0
102
RTVSPropertyOp25
 70
     0
102
RTVSPropertyOp26
 70
     0
102
RTVSPropertyOp27
 70
     0
102
RTVSPropertyOp28
 70
     1
102
RTVSPropertyOp29
 70
     1
102
RTVSPropertyOp30
 70
     1
102
RTVSPropertyOp31
 70
     1
102
RTVSPropertyOp32
 70
     1
102
RTVSPropertyOp33
 70
     1
102
RTVSPropertyOp34
 70
     1
102
RTVSPropertyOp35
 70
     1
102
RTVSPropertyOp36
 70
     1
102
RTVSPropertyOp37
 70
     1
102
RTVSPropertyOp38
 70
     1
102
RTVSPropertyOp39
 70
     1
102
RTVSPropertyOp40
 70
     1
102
RTVSPropertyOp41
 70
     1
102
RTVSPropertyOp42
 70
     1
102
RTVSPropertyOp43
 70
     1
102
RTVSPropertyOp44
 70
     1
102
RTVSPropertyOp45
 70
     1
102
RTVSPropertyOp46
 70
     1
102
RTVSPropertyOp47
 70
     1
102
RTVSPropertyOp48
 70
     1
102
RTVSPropertyOp49
 70
     1
102
RTVSPropertyOp50
 70
     1
102
RTVSPropertyOp51
 70
     0
102
RTVSPropertyOp52
 70
     0
102
RTVSPropertyOp53
 70
     1
102
RTVSPropertyOp54
 70
     1
102
RTVSPropertyOp55
 70
     1
102
RTVSPropertyOp56
 70
     1
102
RTVSPropertyOp57
 70
     1
102
RTVSPropertyOp58
 70
     1
102
RTVSPropertyOp59
 70
     1
102
RTVSPropertyOp60
 70
     1
102
RTVSPropertyOp61
 70
     1
102
RTVSPropertyOp62
 70
     1
  0
XRECORD
  5
21D87
102
{ACAD_REACTORS
330
21D86
102
}
330
21D86
100
AcDbXrecord
280
     1
102
RTVSPost2010Prop28
280
     0
102
RTVSPost2010PropOp28
 70
     1
102
RTVSPost2010Prop29
280
     1
102
RTVSPost2010PropOp29
 70
     1
102
RTVSPost2010Prop30
280
     1
102
RTVSPost2010PropOp30
 70
     1
102
RTVSPost2010Prop31
280
     0
102
RTVSPost2010PropOp31
 70
     1
102
RTVSPost2010Prop32
280
     0
102
RTVSPost2010PropOp32
 70
     1
102
RTVSPost2010Prop33
280
     0
102
RTVSPost2010PropOp33
 70
     1
102
RTVSPost2010Prop34
280
     0
102
RTVSPost2010PropOp34
 70
     1
102
RTVSPost2010Prop35
280
     0
102
RTVSPost2010PropOp35
 70
     1
102
RTVSPost2010Prop36
280
     0
102
RTVSPost2010PropOp36
 70
     1
102
RTVSPost2010Prop37
 90
       50
102
RTVSPost2010PropOp37
 70
     1
102
RTVSPost2010Prop38
140
0.0
102
RTVSPost2010PropOp38
 70
     1
102
RTVSPost2010Prop39
140
1.0
102
RTVSPost2010PropOp39
 70
     1
102
RTVSPost2010Prop40
 90
        0
102
RTVSPost2010PropOp40
 70
     1
102
RTVSPost2010Prop41ColorIndex
 90
       18
102
RTVSPost2010Prop41ColorRGB
 90
        0
102
RTVSPost2010PropOp41
 70
     1
102
RTVSPost2010Prop42
 90
       50
102
RTVSPost2010PropOp42
 70
     1
102
RTVSPost2010Prop43
 90
        3
102
RTVSPost2010PropOp43
 70
     1
102
RTVSPost2010Prop44ColorIndex
 90
        5
102
RTVSPost2010Prop44ColorRGB
 90
      255
102
RTVSPost2010PropOp44
 70
     1
102
RTVSPost2010Prop45
280
     0
102
RTVSPost2010PropOp45
 70
     1
102
RTVSPost2010Prop46
 90
       50
102
RTVSPost2010PropOp46
 70
     1
102
RTVSPost2010Prop47
 90
       50
102
RTVSPost2010PropOp47
 70
     1
102
RTVSPost2010Prop48
 90
       50
102
RTVSPost2010PropOp48
 70
     1
102
RTVSPost2010Prop49
280
     0
102
RTVSPost2010PropOp49
 70
     1
102
RTVSPost2010Prop50
 90
       50
102
RTVSPost2010PropOp50
 70
     1
102
RTVSPost2010Prop51ColorIndex
 90
      256
102
RTVSPost2010Prop51ColorRGB
 90
-16777216
102
RTVSPost2010PropOp51
 70
     0
102
RTVSPost2010Prop52
140
1.0
102
RTVSPost2010PropOp52
 70
     0
102
RTVSPost2010Prop53
 90
        2
102
RTVSPost2010PropOp53
 70
     1
102
RTVSPost2010Prop54
  1
strokes_ogs.tif
102
RTVSPost2010PropOp54
 70
     1
102
RTVSPost2010Prop55
280
     0
102
RTVSPost2010PropOp55
 70
     1
102
RTVSPost2010Prop56
140
1.0
102
RTVSPost2010PropOp56
 70
     1
102
RTVSPost2010Prop57
140
1.0
102
RTVSPost2010PropOp57
 70
     1
102
RTVSPropertyOp0
 70
     1
102
RTVSPropertyOp1
 70
     1
102
RTVSPropertyOp2
 70
     1
102
RTVSPropertyOp3
 70
     1
102
RTVSPropertyOp4
 70
     1
102
RTVSPropertyOp5
 70
     1
102
RTVSPropertyOp6
 70
     1
102
RTVSPropertyOp7
 70
     1
102
RTVSPropertyOp8
 70
     1
102
RTVSPropertyOp9
 70
     1
102
RTVSPropertyOp10
 70
     1
102
RTVSPropertyOp11
 70
     1
102
RTVSPropertyOp12
 70
     1
102
RTVSPropertyOp13
 70
     1
102
RTVSPropertyOp14
 70
     1
102
RTVSPropertyOp15
 70
     1
102
RTVSPropertyOp16
 70
     1
102
RTVSPropertyOp17
 70
     1
102
RTVSPropertyOp18
 70
     1
102
RTVSPropertyOp19
 70
     1
102
RTVSPropertyOp20
 70
     1
102
RTVSPropertyOp21
 70
     1
102
RTVSPropertyOp22
 70
     1
102
RTVSPropertyOp23
 70
     1
102
RTVSPropertyOp24
 70
     1
102
RTVSPropertyOp25
 70
     1
102
RTVSPropertyOp26
 70
     1
102
RTVSPropertyOp27
 70
     1
102
RTVSPropertyOp28
 70
     1
102
RTVSPropertyOp29
 70
     1
102
RTVSPropertyOp30
 70
     1
102
RTVSPropertyOp31
 70
     1
102
RTVSPropertyOp32
 70
     1
102
RTVSPropertyOp33
 70
     1
102
RTVSPropertyOp34
 70
     1
102
RTVSPropertyOp35
 70
     1
102
RTVSPropertyOp36
 70
     1
102
RTVSPropertyOp37
 70
     1
102
RTVSPropertyOp38
 70
     1
102
RTVSPropertyOp39
 70
     1
102
RTVSPropertyOp40
 70
     1
102
RTVSPropertyOp41
 70
     1
102
RTVSPropertyOp42
 70
     1
102
RTVSPropertyOp43
 70
     1
102
RTVSPropertyOp44
 70
     1
102
RTVSPropertyOp45
 70
     1
102
RTVSPropertyOp46
 70
     1
102
RTVSPropertyOp47
 70
     1
102
RTVSPropertyOp48
 70
     1
102
RTVSPropertyOp49
 70
     1
102
RTVSPropertyOp50
 70
     1
102
RTVSPropertyOp51
 70
     0
102
RTVSPropertyOp52
 70
     0
102
RTVSPropertyOp53
 70
     1
102
RTVSPropertyOp54
 70
     1
102
RTVSPropertyOp55
 70
     1
102
RTVSPropertyOp56
 70
     1
102
RTVSPropertyOp57
 70
     1
102
RTVSPropertyOp58
 70
     1
102
RTVSPropertyOp59
 70
     1
102
RTVSPropertyOp60
 70
     1
102
RTVSPropertyOp61
 70
     1
102
RTVSPropertyOp62
 70
     1
  0
XRECORD
  5
21D9B
102
{ACAD_REACTORS
330
21D9A
102
}
330
21D9A
100
AcDbXrecord
280
     1
102
RTVSPost2010Prop28
280
     0
102
RTVSPost2010PropOp28
 70
     1
102
RTVSPost2010Prop29
280
     1
102
RTVSPost2010PropOp29
 70
     1
102
RTVSPost2010Prop30
280
     1
102
RTVSPost2010PropOp30
 70
     1
102
RTVSPost2010Prop31
280
     0
102
RTVSPost2010PropOp31
 70
     1
102
RTVSPost2010Prop32
280
     0
102
RTVSPost2010PropOp32
 70
     1
102
RTVSPost2010Prop33
280
     0
102
RTVSPost2010PropOp33
 70
     1
102
RTVSPost2010Prop34
280
     0
102
RTVSPost2010PropOp34
 70
     1
102
RTVSPost2010Prop35
280
     0
102
RTVSPost2010PropOp35
 70
     1
102
RTVSPost2010Prop36
280
     0
102
RTVSPost2010PropOp36
 70
     1
102
RTVSPost2010Prop37
 90
       50
102
RTVSPost2010PropOp37
 70
     1
102
RTVSPost2010Prop38
140
0.0
102
RTVSPost2010PropOp38
 70
     1
102
RTVSPost2010Prop39
140
1.0
102
RTVSPost2010PropOp39
 70
     1
102
RTVSPost2010Prop40
 90
        0
102
RTVSPost2010PropOp40
 70
     1
102
RTVSPost2010Prop41ColorIndex
 90
       18
102
RTVSPost2010Prop41ColorRGB
 90
        0
102
RTVSPost2010PropOp41
 70
     1
102
RTVSPost2010Prop42
 90
       50
102
RTVSPost2010PropOp42
 70
     1
102
RTVSPost2010Prop43
 90
        3
102
RTVSPost2010PropOp43
 70
     1
102
RTVSPost2010Prop44ColorIndex
 90
        5
102
RTVSPost2010Prop44ColorRGB
 90
      255
102
RTVSPost2010PropOp44
 70
     1
102
RTVSPost2010Prop45
280
     0
102
RTVSPost2010PropOp45
 70
     1
102
RTVSPost2010Prop46
 90
       50
102
RTVSPost2010PropOp46
 70
     1
102
RTVSPost2010Prop47
 90
       50
102
RTVSPost2010PropOp47
 70
     1
102
RTVSPost2010Prop48
 90
       50
102
RTVSPost2010PropOp48
 70
     1
102
RTVSPost2010Prop49
280
     0
102
RTVSPost2010PropOp49
 70
     1
102
RTVSPost2010Prop50
 90
       50
102
RTVSPost2010PropOp50
 70
     1
102
RTVSPost2010Prop51ColorIndex
 90
      256
102
RTVSPost2010Prop51ColorRGB
 90
-16777216
102
RTVSPost2010PropOp51
 70
     0
102
RTVSPost2010Prop52
140
1.0
102
RTVSPost2010PropOp52
 70
     0
102
RTVSPost2010Prop53
 90
        2
102
RTVSPost2010PropOp53
 70
     1
102
RTVSPost2010Prop54
  1
strokes_ogs.tif
102
RTVSPost2010PropOp54
 70
     1
102
RTVSPost2010Prop55
280
     0
102
RTVSPost2010PropOp55
 70
     1
102
RTVSPost2010Prop56
140
1.0
102
RTVSPost2010PropOp56
 70
     1
102
RTVSPost2010Prop57
140
1.0
102
RTVSPost2010PropOp57
 70
     1
102
RTVSPropertyOp0
 70
     1
102
RTVSPropertyOp1
 70
     1
102
RTVSPropertyOp2
 70
     1
102
RTVSPropertyOp3
 70
     1
102
RTVSPropertyOp4
 70
     1
102
RTVSPropertyOp5
 70
     1
102
RTVSPropertyOp6
 70
     1
102
RTVSPropertyOp7
 70
     1
102
RTVSPropertyOp8
 70
     1
102
RTVSPropertyOp9
 70
     1
102
RTVSPropertyOp10
 70
     1
102
RTVSPropertyOp11
 70
     1
102
RTVSPropertyOp12
 70
     1
102
RTVSPropertyOp13
 70
     1
102
RTVSPropertyOp14
 70
     1
102
RTVSPropertyOp15
 70
     1
102
RTVSPropertyOp16
 70
     1
102
RTVSPropertyOp17
 70
     1
102
RTVSPropertyOp18
 70
     1
102
RTVSPropertyOp19
 70
     1
102
RTVSPropertyOp20
 70
     1
102
RTVSPropertyOp21
 70
     1
102
RTVSPropertyOp22
 70
     1
102
RTVSPropertyOp23
 70
     1
102
RTVSPropertyOp24
 70
     1
102
RTVSPropertyOp25
 70
     1
102
RTVSPropertyOp26
 70
     1
102
RTVSPropertyOp27
 70
     1
102
RTVSPropertyOp28
 70
     1
102
RTVSPropertyOp29
 70
     1
102
RTVSPropertyOp30
 70
     1
102
RTVSPropertyOp31
 70
     1
102
RTVSPropertyOp32
 70
     1
102
RTVSPropertyOp33
 70
     1
102
RTVSPropertyOp34
 70
     1
102
RTVSPropertyOp35
 70
     1
102
RTVSPropertyOp36
 70
     1
102
RTVSPropertyOp37
 70
     1
102
RTVSPropertyOp38
 70
     1
102
RTVSPropertyOp39
 70
     1
102
RTVSPropertyOp40
 70
     1
102
RTVSPropertyOp41
 70
     1
102
RTVSPropertyOp42
 70
     1
102
RTVSPropertyOp43
 70
     1
102
RTVSPropertyOp44
 70
     1
102
RTVSPropertyOp45
 70
     1
102
RTVSPropertyOp46
 70
     1
102
RTVSPropertyOp47
 70
     1
102
RTVSPropertyOp48
 70
     1
102
RTVSPropertyOp49
 70
     1
102
RTVSPropertyOp50
 70
     1
102
RTVSPropertyOp51
 70
     0
102
RTVSPropertyOp52
 70
     0
102
RTVSPropertyOp53
 70
     1
102
RTVSPropertyOp54
 70
     1
102
RTVSPropertyOp55
 70
     1
102
RTVSPropertyOp56
 70
     1
102
RTVSPropertyOp57
 70
     1
102
RTVSPropertyOp58
 70
     1
102
RTVSPropertyOp59
 70
     1
102
RTVSPropertyOp60
 70
     1
102
RTVSPropertyOp61
 70
     1
102
RTVSPropertyOp62
 70
     1
  0
XRECORD
  5
21D99
102
{ACAD_REACTORS
330
21D98
102
}
330
21D98
100
AcDbXrecord
280
     1
102
RTVSPost2010Prop28
280
     0
102
RTVSPost2010PropOp28
 70
     1
102
RTVSPost2010Prop29
280
     1
102
RTVSPost2010PropOp29
 70
     1
102
RTVSPost2010Prop30
280
     1
102
RTVSPost2010PropOp30
 70
     1
102
RTVSPost2010Prop31
280
     0
102
RTVSPost2010PropOp31
 70
     1
102
RTVSPost2010Prop32
280
     0
102
RTVSPost2010PropOp32
 70
     1
102
RTVSPost2010Prop33
280
     0
102
RTVSPost2010PropOp33
 70
     1
102
RTVSPost2010Prop34
280
     0
102
RTVSPost2010PropOp34
 70
     1
102
RTVSPost2010Prop35
280
     0
102
RTVSPost2010PropOp35
 70
     1
102
RTVSPost2010Prop36
280
     0
102
RTVSPost2010PropOp36
 70
     1
102
RTVSPost2010Prop37
 90
       50
102
RTVSPost2010PropOp37
 70
     1
102
RTVSPost2010Prop38
140
0.0
102
RTVSPost2010PropOp38
 70
     1
102
RTVSPost2010Prop39
140
1.0
102
RTVSPost2010PropOp39
 70
     1
102
RTVSPost2010Prop40
 90
        0
102
RTVSPost2010PropOp40
 70
     1
102
RTVSPost2010Prop41ColorIndex
 90
       18
102
RTVSPost2010Prop41ColorRGB
 90
        0
102
RTVSPost2010PropOp41
 70
     1
102
RTVSPost2010Prop42
 90
       50
102
RTVSPost2010PropOp42
 70
     1
102
RTVSPost2010Prop43
 90
        3
102
RTVSPost2010PropOp43
 70
     1
102
RTVSPost2010Prop44ColorIndex
 90
        5
102
RTVSPost2010Prop44ColorRGB
 90
      255
102
RTVSPost2010PropOp44
 70
     1
102
RTVSPost2010Prop45
280
     0
102
RTVSPost2010PropOp45
 70
     1
102
RTVSPost2010Prop46
 90
       50
102
RTVSPost2010PropOp46
 70
     1
102
RTVSPost2010Prop47
 90
       50
102
RTVSPost2010PropOp47
 70
     1
102
RTVSPost2010Prop48
 90
       50
102
RTVSPost2010PropOp48
 70
     1
102
RTVSPost2010Prop49
280
     0
102
RTVSPost2010PropOp49
 70
     1
102
RTVSPost2010Prop50
 90
       50
102
RTVSPost2010PropOp50
 70
     1
102
RTVSPost2010Prop51ColorIndex
 90
      256
102
RTVSPost2010Prop51ColorRGB
 90
-16777216
102
RTVSPost2010PropOp51
 70
     0
102
RTVSPost2010Prop52
140
1.0
102
RTVSPost2010PropOp52
 70
     0
102
RTVSPost2010Prop53
 90
        2
102
RTVSPost2010PropOp53
 70
     1
102
RTVSPost2010Prop54
  1
strokes_ogs.tif
102
RTVSPost2010PropOp54
 70
     1
102
RTVSPost2010Prop55
280
     0
102
RTVSPost2010PropOp55
 70
     1
102
RTVSPost2010Prop56
140
1.0
102
RTVSPost2010PropOp56
 70
     1
102
RTVSPost2010Prop57
140
1.0
102
RTVSPost2010PropOp57
 70
     1
102
RTVSPropertyOp0
 70
     1
102
RTVSPropertyOp1
 70
     1
102
RTVSPropertyOp2
 70
     1
102
RTVSPropertyOp3
 70
     1
102
RTVSPropertyOp4
 70
     1
102
RTVSPropertyOp5
 70
     1
102
RTVSPropertyOp6
 70
     1
102
RTVSPropertyOp7
 70
     1
102
RTVSPropertyOp8
 70
     1
102
RTVSPropertyOp9
 70
     1
102
RTVSPropertyOp10
 70
     1
102
RTVSPropertyOp11
 70
     1
102
RTVSPropertyOp12
 70
     1
102
RTVSPropertyOp13
 70
     1
102
RTVSPropertyOp14
 70
     1
102
RTVSPropertyOp15
 70
     1
102
RTVSPropertyOp16
 70
     1
102
RTVSPropertyOp17
 70
     1
102
RTVSPropertyOp18
 70
     1
102
RTVSPropertyOp19
 70
     1
102
RTVSPropertyOp20
 70
     1
102
RTVSPropertyOp21
 70
     1
102
RTVSPropertyOp22
 70
     1
102
RTVSPropertyOp23
 70
     1
102
RTVSPropertyOp24
 70
     1
102
RTVSPropertyOp25
 70
     1
102
RTVSPropertyOp26
 70
     1
102
RTVSPropertyOp27
 70
     1
102
RTVSPropertyOp28
 70
     1
102
RTVSPropertyOp29
 70
     1
102
RTVSPropertyOp30
 70
     1
102
RTVSPropertyOp31
 70
     1
102
RTVSPropertyOp32
 70
     1
102
RTVSPropertyOp33
 70
     1
102
RTVSPropertyOp34
 70
     1
102
RTVSPropertyOp35
 70
     1
102
RTVSPropertyOp36
 70
     1
102
RTVSPropertyOp37
 70
     1
102
RTVSPropertyOp38
 70
     1
102
RTVSPropertyOp39
 70
     1
102
RTVSPropertyOp40
 70
     1
102
RTVSPropertyOp41
 70
     1
102
RTVSPropertyOp42
 70
     1
102
RTVSPropertyOp43
 70
     1
102
RTVSPropertyOp44
 70
     1
102
RTVSPropertyOp45
 70
     1
102
RTVSPropertyOp46
 70
     1
102
RTVSPropertyOp47
 70
     1
102
RTVSPropertyOp48
 70
     1
102
RTVSPropertyOp49
 70
     1
102
RTVSPropertyOp50
 70
     1
102
RTVSPropertyOp51
 70
     0
102
RTVSPropertyOp52
 70
     0
102
RTVSPropertyOp53
 70
     1
102
RTVSPropertyOp54
 70
     1
102
RTVSPropertyOp55
 70
     1
102
RTVSPropertyOp56
 70
     1
102
RTVSPropertyOp57
 70
     1
102
RTVSPropertyOp58
 70
     1
102
RTVSPropertyOp59
 70
     1
102
RTVSPropertyOp60
 70
     1
102
RTVSPropertyOp61
 70
     1
102
RTVSPropertyOp62
 70
     1
  0
XRECORD
  5
21D93
102
{ACAD_REACTORS
330
21D92
102
}
330
21D92
100
AcDbXrecord
280
     1
102
RTVSPost2010Prop28
280
     0
102
RTVSPost2010PropOp28
 70
     1
102
RTVSPost2010Prop29
280
     1
102
RTVSPost2010PropOp29
 70
     1
102
RTVSPost2010Prop30
280
     1
102
RTVSPost2010PropOp30
 70
     1
102
RTVSPost2010Prop31
280
     0
102
RTVSPost2010PropOp31
 70
     1
102
RTVSPost2010Prop32
280
     0
102
RTVSPost2010PropOp32
 70
     1
102
RTVSPost2010Prop33
280
     0
102
RTVSPost2010PropOp33
 70
     1
102
RTVSPost2010Prop34
280
     0
102
RTVSPost2010PropOp34
 70
     1
102
RTVSPost2010Prop35
280
     0
102
RTVSPost2010PropOp35
 70
     1
102
RTVSPost2010Prop36
280
     0
102
RTVSPost2010PropOp36
 70
     1
102
RTVSPost2010Prop37
 90
       50
102
RTVSPost2010PropOp37
 70
     1
102
RTVSPost2010Prop38
140
0.0
102
RTVSPost2010PropOp38
 70
     1
102
RTVSPost2010Prop39
140
1.0
102
RTVSPost2010PropOp39
 70
     1
102
RTVSPost2010Prop40
 90
        0
102
RTVSPost2010PropOp40
 70
     1
102
RTVSPost2010Prop41ColorIndex
 90
       18
102
RTVSPost2010Prop41ColorRGB
 90
        0
102
RTVSPost2010PropOp41
 70
     1
102
RTVSPost2010Prop42
 90
       50
102
RTVSPost2010PropOp42
 70
     1
102
RTVSPost2010Prop43
 90
        3
102
RTVSPost2010PropOp43
 70
     1
102
RTVSPost2010Prop44ColorIndex
 90
        5
102
RTVSPost2010Prop44ColorRGB
 90
      255
102
RTVSPost2010PropOp44
 70
     1
102
RTVSPost2010Prop45
280
     0
102
RTVSPost2010PropOp45
 70
     1
102
RTVSPost2010Prop46
 90
       50
102
RTVSPost2010PropOp46
 70
     1
102
RTVSPost2010Prop47
 90
       50
102
RTVSPost2010PropOp47
 70
     1
102
RTVSPost2010Prop48
 90
       50
102
RTVSPost2010PropOp48
 70
     1
102
RTVSPost2010Prop49
280
     0
102
RTVSPost2010PropOp49
 70
     1
102
RTVSPost2010Prop50
 90
       50
102
RTVSPost2010PropOp50
 70
     1
102
RTVSPost2010Prop51ColorIndex
 90
      256
102
RTVSPost2010Prop51ColorRGB
 90
-16777216
102
RTVSPost2010PropOp51
 70
     0
102
RTVSPost2010Prop52
140
1.0
102
RTVSPost2010PropOp52
 70
     0
102
RTVSPost2010Prop53
 90
        2
102
RTVSPost2010PropOp53
 70
     1
102
RTVSPost2010Prop54
  1
strokes_ogs.tif
102
RTVSPost2010PropOp54
 70
     1
102
RTVSPost2010Prop55
280
     0
102
RTVSPost2010PropOp55
 70
     1
102
RTVSPost2010Prop56
140
1.0
102
RTVSPost2010PropOp56
 70
     1
102
RTVSPost2010Prop57
140
1.0
102
RTVSPost2010PropOp57
 70
     1
102
RTVSPropertyOp0
 70
     1
102
RTVSPropertyOp1
 70
     1
102
RTVSPropertyOp2
 70
     1
102
RTVSPropertyOp3
 70
     1
102
RTVSPropertyOp4
 70
     1
102
RTVSPropertyOp5
 70
     1
102
RTVSPropertyOp6
 70
     1
102
RTVSPropertyOp7
 70
     1
102
RTVSPropertyOp8
 70
     1
102
RTVSPropertyOp9
 70
     1
102
RTVSPropertyOp10
 70
     1
102
RTVSPropertyOp11
 70
     1
102
RTVSPropertyOp12
 70
     1
102
RTVSPropertyOp13
 70
     1
102
RTVSPropertyOp14
 70
     1
102
RTVSPropertyOp15
 70
     1
102
RTVSPropertyOp16
 70
     1
102
RTVSPropertyOp17
 70
     1
102
RTVSPropertyOp18
 70
     1
102
RTVSPropertyOp19
 70
     1
102
RTVSPropertyOp20
 70
     1
102
RTVSPropertyOp21
 70
     1
102
RTVSPropertyOp22
 70
     1
102
RTVSPropertyOp23
 70
     1
102
RTVSPropertyOp24
 70
     1
102
RTVSPropertyOp25
 70
     1
102
RTVSPropertyOp26
 70
     1
102
RTVSPropertyOp27
 70
     1
102
RTVSPropertyOp28
 70
     1
102
RTVSPropertyOp29
 70
     1
102
RTVSPropertyOp30
 70
     1
102
RTVSPropertyOp31
 70
     1
102
RTVSPropertyOp32
 70
     1
102
RTVSPropertyOp33
 70
     1
102
RTVSPropertyOp34
 70
     1
102
RTVSPropertyOp35
 70
     1
102
RTVSPropertyOp36
 70
     1
102
RTVSPropertyOp37
 70
     1
102
RTVSPropertyOp38
 70
     1
102
RTVSPropertyOp39
 70
     1
102
RTVSPropertyOp40
 70
     1
102
RTVSPropertyOp41
 70
     1
102
RTVSPropertyOp42
 70
     1
102
RTVSPropertyOp43
 70
     1
102
RTVSPropertyOp44
 70
     1
102
RTVSPropertyOp45
 70
     1
102
RTVSPropertyOp46
 70
     1
102
RTVSPropertyOp47
 70
     1
102
RTVSPropertyOp48
 70
     1
102
RTVSPropertyOp49
 70
     1
102
RTVSPropertyOp50
 70
     1
102
RTVSPropertyOp51
 70
     0
102
RTVSPropertyOp52
 70
     0
102
RTVSPropertyOp53
 70
     1
102
RTVSPropertyOp54
 70
     1
102
RTVSPropertyOp55
 70
     1
102
RTVSPropertyOp56
 70
     1
102
RTVSPropertyOp57
 70
     1
102
RTVSPropertyOp58
 70
     1
102
RTVSPropertyOp59
 70
     1
102
RTVSPropertyOp60
 70
     1
102
RTVSPropertyOp61
 70
     1
102
RTVSPropertyOp62
 70
     1
  0
XRECORD
  5
21D95
102
{ACAD_REACTORS
330
21D94
102
}
330
21D94
100
AcDbXrecord
280
     1
102
RTVSPost2010Prop28
280
     0
102
RTVSPost2010PropOp28
 70
     1
102
RTVSPost2010Prop29
280
     1
102
RTVSPost2010PropOp29
 70
     1
102
RTVSPost2010Prop30
280
     1
102
RTVSPost2010PropOp30
 70
     1
102
RTVSPost2010Prop31
280
     0
102
RTVSPost2010PropOp31
 70
     1
102
RTVSPost2010Prop32
280
     0
102
RTVSPost2010PropOp32
 70
     1
102
RTVSPost2010Prop33
280
     0
102
RTVSPost2010PropOp33
 70
     1
102
RTVSPost2010Prop34
280
     0
102
RTVSPost2010PropOp34
 70
     1
102
RTVSPost2010Prop35
280
     0
102
RTVSPost2010PropOp35
 70
     1
102
RTVSPost2010Prop36
280
     0
102
RTVSPost2010PropOp36
 70
     1
102
RTVSPost2010Prop37
 90
       50
102
RTVSPost2010PropOp37
 70
     1
102
RTVSPost2010Prop38
140
0.0
102
RTVSPost2010PropOp38
 70
     1
102
RTVSPost2010Prop39
140
1.0
102
RTVSPost2010PropOp39
 70
     1
102
RTVSPost2010Prop40
 90
        0
102
RTVSPost2010PropOp40
 70
     1
102
RTVSPost2010Prop41ColorIndex
 90
       18
102
RTVSPost2010Prop41ColorRGB
 90
        0
102
RTVSPost2010PropOp41
 70
     1
102
RTVSPost2010Prop42
 90
       50
102
RTVSPost2010PropOp42
 70
     1
102
RTVSPost2010Prop43
 90
        3
102
RTVSPost2010PropOp43
 70
     1
102
RTVSPost2010Prop44ColorIndex
 90
        5
102
RTVSPost2010Prop44ColorRGB
 90
      255
102
RTVSPost2010PropOp44
 70
     1
102
RTVSPost2010Prop45
280
     0
102
RTVSPost2010PropOp45
 70
     1
102
RTVSPost2010Prop46
 90
       50
102
RTVSPost2010PropOp46
 70
     1
102
RTVSPost2010Prop47
 90
       50
102
RTVSPost2010PropOp47
 70
     1
102
RTVSPost2010Prop48
 90
       50
102
RTVSPost2010PropOp48
 70
     1
102
RTVSPost2010Prop49
280
     0
102
RTVSPost2010PropOp49
 70
     1
102
RTVSPost2010Prop50
 90
       50
102
RTVSPost2010PropOp50
 70
     1
102
RTVSPost2010Prop51ColorIndex
 90
      256
102
RTVSPost2010Prop51ColorRGB
 90
-16777216
102
RTVSPost2010PropOp51
 70
     0
102
RTVSPost2010Prop52
140
1.0
102
RTVSPost2010PropOp52
 70
     0
102
RTVSPost2010Prop53
 90
        2
102
RTVSPost2010PropOp53
 70
     1
102
RTVSPost2010Prop54
  1
strokes_ogs.tif
102
RTVSPost2010PropOp54
 70
     1
102
RTVSPost2010Prop55
280
     0
102
RTVSPost2010PropOp55
 70
     1
102
RTVSPost2010Prop56
140
1.0
102
RTVSPost2010PropOp56
 70
     1
102
RTVSPost2010Prop57
140
1.0
102
RTVSPost2010PropOp57
 70
     1
102
RTVSPropertyOp0
 70
     1
102
RTVSPropertyOp1
 70
     1
102
RTVSPropertyOp2
 70
     1
102
RTVSPropertyOp3
 70
     1
102
RTVSPropertyOp4
 70
     1
102
RTVSPropertyOp5
 70
     1
102
RTVSPropertyOp6
 70
     1
102
RTVSPropertyOp7
 70
     1
102
RTVSPropertyOp8
 70
     1
102
RTVSPropertyOp9
 70
     1
102
RTVSPropertyOp10
 70
     1
102
RTVSPropertyOp11
 70
     1
102
RTVSPropertyOp12
 70
     1
102
RTVSPropertyOp13
 70
     1
102
RTVSPropertyOp14
 70
     1
102
RTVSPropertyOp15
 70
     1
102
RTVSPropertyOp16
 70
     1
102
RTVSPropertyOp17
 70
     1
102
RTVSPropertyOp18
 70
     1
102
RTVSPropertyOp19
 70
     1
102
RTVSPropertyOp20
 70
     1
102
RTVSPropertyOp21
 70
     1
102
RTVSPropertyOp22
 70
     1
102
RTVSPropertyOp23
 70
     1
102
RTVSPropertyOp24
 70
     1
102
RTVSPropertyOp25
 70
     1
102
RTVSPropertyOp26
 70
     1
102
RTVSPropertyOp27
 70
     1
102
RTVSPropertyOp28
 70
     1
102
RTVSPropertyOp29
 70
     1
102
RTVSPropertyOp30
 70
     1
102
RTVSPropertyOp31
 70
     1
102
RTVSPropertyOp32
 70
     1
102
RTVSPropertyOp33
 70
     1
102
RTVSPropertyOp34
 70
     1
102
RTVSPropertyOp35
 70
     1
102
RTVSPropertyOp36
 70
     1
102
RTVSPropertyOp37
 70
     1
102
RTVSPropertyOp38
 70
     1
102
RTVSPropertyOp39
 70
     1
102
RTVSPropertyOp40
 70
     1
102
RTVSPropertyOp41
 70
     1
102
RTVSPropertyOp42
 70
     1
102
RTVSPropertyOp43
 70
     1
102
RTVSPropertyOp44
 70
     1
102
RTVSPropertyOp45
 70
     1
102
RTVSPropertyOp46
 70
     1
102
RTVSPropertyOp47
 70
     1
102
RTVSPropertyOp48
 70
     1
102
RTVSPropertyOp49
 70
     1
102
RTVSPropertyOp50
 70
     1
102
RTVSPropertyOp51
 70
     0
102
RTVSPropertyOp52
 70
     0
102
RTVSPropertyOp53
 70
     1
102
RTVSPropertyOp54
 70
     1
102
RTVSPropertyOp55
 70
     1
102
RTVSPropertyOp56
 70
     1
102
RTVSPropertyOp57
 70
     1
102
RTVSPropertyOp58
 70
     1
102
RTVSPropertyOp59
 70
     1
102
RTVSPropertyOp60
 70
     1
102
RTVSPropertyOp61
 70
     1
102
RTVSPropertyOp62
 70
     1
  0
XRECORD
  5
21D78
102
{ACAD_REACTORS
330
21D77
102
}
330
21D77
100
AcDbXrecord
280
     1
102
RTVSPost2010Prop28
280
     0
102
RTVSPost2010PropOp28
 70
     1
102
RTVSPost2010Prop29
280
     1
102
RTVSPost2010PropOp29
 70
     1
102
RTVSPost2010Prop30
280
     1
102
RTVSPost2010PropOp30
 70
     1
102
RTVSPost2010Prop31
280
     0
102
RTVSPost2010PropOp31
 70
     1
102
RTVSPost2010Prop32
280
     0
102
RTVSPost2010PropOp32
 70
     1
102
RTVSPost2010Prop33
280
     0
102
RTVSPost2010PropOp33
 70
     1
102
RTVSPost2010Prop34
280
     0
102
RTVSPost2010PropOp34
 70
     1
102
RTVSPost2010Prop35
280
     0
102
RTVSPost2010PropOp35
 70
     1
102
RTVSPost2010Prop36
280
     0
102
RTVSPost2010PropOp36
 70
     1
102
RTVSPost2010Prop37
 90
       50
102
RTVSPost2010PropOp37
 70
     1
102
RTVSPost2010Prop38
140
0.0
102
RTVSPost2010PropOp38
 70
     1
102
RTVSPost2010Prop39
140
1.0
102
RTVSPost2010PropOp39
 70
     1
102
RTVSPost2010Prop40
 90
        0
102
RTVSPost2010PropOp40
 70
     1
102
RTVSPost2010Prop41ColorIndex
 90
       18
102
RTVSPost2010Prop41ColorRGB
 90
        0
102
RTVSPost2010PropOp41
 70
     1
102
RTVSPost2010Prop42
 90
       50
102
RTVSPost2010PropOp42
 70
     1
102
RTVSPost2010Prop43
 90
        3
102
RTVSPost2010PropOp43
 70
     1
102
RTVSPost2010Prop44ColorIndex
 90
        5
102
RTVSPost2010Prop44ColorRGB
 90
      255
102
RTVSPost2010PropOp44
 70
     1
102
RTVSPost2010Prop45
280
     0
102
RTVSPost2010PropOp45
 70
     1
102
RTVSPost2010Prop46
 90
       50
102
RTVSPost2010PropOp46
 70
     1
102
RTVSPost2010Prop47
 90
       50
102
RTVSPost2010PropOp47
 70
     1
102
RTVSPost2010Prop48
 90
       50
102
RTVSPost2010PropOp48
 70
     1
102
RTVSPost2010Prop49
280
     0
102
RTVSPost2010PropOp49
 70
     1
102
RTVSPost2010Prop50
 90
       50
102
RTVSPost2010PropOp50
 70
     1
102
RTVSPost2010Prop51ColorIndex
 90
      256
102
RTVSPost2010Prop51ColorRGB
 90
-16777216
102
RTVSPost2010PropOp51
 70
     0
102
RTVSPost2010Prop52
140
1.0
102
RTVSPost2010PropOp52
 70
     0
102
RTVSPost2010Prop53
 90
        2
102
RTVSPost2010PropOp53
 70
     1
102
RTVSPost2010Prop54
  1
strokes_ogs.tif
102
RTVSPost2010PropOp54
 70
     1
102
RTVSPost2010Prop55
280
     0
102
RTVSPost2010PropOp55
 70
     1
102
RTVSPost2010Prop56
140
1.0
102
RTVSPost2010PropOp56
 70
     1
102
RTVSPost2010Prop57
140
1.0
102
RTVSPost2010PropOp57
 70
     1
102
RTVSPropertyOp0
 70
     1
102
RTVSPropertyOp1
 70
     1
102
RTVSPropertyOp2
 70
     1
102
RTVSPropertyOp3
 70
     1
102
RTVSPropertyOp4
 70
     1
102
RTVSPropertyOp5
 70
     1
102
RTVSPropertyOp6
 70
     1
102
RTVSPropertyOp7
 70
     1
102
RTVSPropertyOp8
 70
     1
102
RTVSPropertyOp9
 70
     1
102
RTVSPropertyOp10
 70
     1
102
RTVSPropertyOp11
 70
     1
102
RTVSPropertyOp12
 70
     1
102
RTVSPropertyOp13
 70
     1
102
RTVSPropertyOp14
 70
     1
102
RTVSPropertyOp15
 70
     1
102
RTVSPropertyOp16
 70
     1
102
RTVSPropertyOp17
 70
     1
102
RTVSPropertyOp18
 70
     1
102
RTVSPropertyOp19
 70
     1
102
RTVSPropertyOp20
 70
     1
102
RTVSPropertyOp21
 70
     1
102
RTVSPropertyOp22
 70
     1
102
RTVSPropertyOp23
 70
     1
102
RTVSPropertyOp24
 70
     1
102
RTVSPropertyOp25
 70
     1
102
RTVSPropertyOp26
 70
     1
102
RTVSPropertyOp27
 70
     1
102
RTVSPropertyOp28
 70
     1
102
RTVSPropertyOp29
 70
     1
102
RTVSPropertyOp30
 70
     1
102
RTVSPropertyOp31
 70
     1
102
RTVSPropertyOp32
 70
     1
102
RTVSPropertyOp33
 70
     1
102
RTVSPropertyOp34
 70
     1
102
RTVSPropertyOp35
 70
     1
102
RTVSPropertyOp36
 70
     1
102
RTVSPropertyOp37
 70
     1
102
RTVSPropertyOp38
 70
     1
102
RTVSPropertyOp39
 70
     1
102
RTVSPropertyOp40
 70
     1
102
RTVSPropertyOp41
 70
     1
102
RTVSPropertyOp42
 70
     1
102
RTVSPropertyOp43
 70
     1
102
RTVSPropertyOp44
 70
     1
102
RTVSPropertyOp45
 70
     1
102
RTVSPropertyOp46
 70
     1
102
RTVSPropertyOp47
 70
     1
102
RTVSPropertyOp48
 70
     1
102
RTVSPropertyOp49
 70
     1
102
RTVSPropertyOp50
 70
     1
102
RTVSPropertyOp51
 70
     0
102
RTVSPropertyOp52
 70
     0
102
RTVSPropertyOp53
 70
     1
102
RTVSPropertyOp54
 70
     1
102
RTVSPropertyOp55
 70
     1
102
RTVSPropertyOp56
 70
     1
102
RTVSPropertyOp57
 70
     1
102
RTVSPropertyOp58
 70
     1
102
RTVSPropertyOp59
 70
     1
102
RTVSPropertyOp60
 70
     1
102
RTVSPropertyOp61
 70
     1
102
RTVSPropertyOp62
 70
     1
  0
XRECORD
  5
21D8F
102
{ACAD_REACTORS
330
21D8E
102
}
330
21D8E
100
AcDbXrecord
280
     1
102
RTVSPost2010Prop28
280
     0
102
RTVSPost2010PropOp28
 70
     1
102
RTVSPost2010Prop29
280
     1
102
RTVSPost2010PropOp29
 70
     1
102
RTVSPost2010Prop30
280
     1
102
RTVSPost2010PropOp30
 70
     1
102
RTVSPost2010Prop31
280
     0
102
RTVSPost2010PropOp31
 70
     1
102
RTVSPost2010Prop32
280
     0
102
RTVSPost2010PropOp32
 70
     1
102
RTVSPost2010Prop33
280
     0
102
RTVSPost2010PropOp33
 70
     1
102
RTVSPost2010Prop34
280
     0
102
RTVSPost2010PropOp34
 70
     1
102
RTVSPost2010Prop35
280
     0
102
RTVSPost2010PropOp35
 70
     1
102
RTVSPost2010Prop36
280
     0
102
RTVSPost2010PropOp36
 70
     1
102
RTVSPost2010Prop37
 90
       50
102
RTVSPost2010PropOp37
 70
     1
102
RTVSPost2010Prop38
140
0.0
102
RTVSPost2010PropOp38
 70
     1
102
RTVSPost2010Prop39
140
1.0
102
RTVSPost2010PropOp39
 70
     1
102
RTVSPost2010Prop40
 90
        0
102
RTVSPost2010PropOp40
 70
     1
102
RTVSPost2010Prop41ColorIndex
 90
       18
102
RTVSPost2010Prop41ColorRGB
 90
        0
102
RTVSPost2010PropOp41
 70
     1
102
RTVSPost2010Prop42
 90
       50
102
RTVSPost2010PropOp42
 70
     1
102
RTVSPost2010Prop43
 90
        3
102
RTVSPost2010PropOp43
 70
     1
102
RTVSPost2010Prop44ColorIndex
 90
        5
102
RTVSPost2010Prop44ColorRGB
 90
      255
102
RTVSPost2010PropOp44
 70
     1
102
RTVSPost2010Prop45
280
     0
102
RTVSPost2010PropOp45
 70
     1
102
RTVSPost2010Prop46
 90
       50
102
RTVSPost2010PropOp46
 70
     1
102
RTVSPost2010Prop47
 90
       50
102
RTVSPost2010PropOp47
 70
     1
102
RTVSPost2010Prop48
 90
       50
102
RTVSPost2010PropOp48
 70
     1
102
RTVSPost2010Prop49
280
     0
102
RTVSPost2010PropOp49
 70
     1
102
RTVSPost2010Prop50
 90
       50
102
RTVSPost2010PropOp50
 70
     1
102
RTVSPost2010Prop51ColorIndex
 90
      256
102
RTVSPost2010Prop51ColorRGB
 90
-16777216
102
RTVSPost2010PropOp51
 70
     0
102
RTVSPost2010Prop52
140
1.0
102
RTVSPost2010PropOp52
 70
     0
102
RTVSPost2010Prop53
 90
        2
102
RTVSPost2010PropOp53
 70
     1
102
RTVSPost2010Prop54
  1
strokes_ogs.tif
102
RTVSPost2010PropOp54
 70
     1
102
RTVSPost2010Prop55
280
     0
102
RTVSPost2010PropOp55
 70
     1
102
RTVSPost2010Prop56
140
1.0
102
RTVSPost2010PropOp56
 70
     1
102
RTVSPost2010Prop57
140
1.0
102
RTVSPost2010PropOp57
 70
     1
102
RTVSPropertyOp0
 70
     1
102
RTVSPropertyOp1
 70
     1
102
RTVSPropertyOp2
 70
     1
102
RTVSPropertyOp3
 70
     1
102
RTVSPropertyOp4
 70
     1
102
RTVSPropertyOp5
 70
     1
102
RTVSPropertyOp6
 70
     1
102
RTVSPropertyOp7
 70
     1
102
RTVSPropertyOp8
 70
     1
102
RTVSPropertyOp9
 70
     1
102
RTVSPropertyOp10
 70
     1
102
RTVSPropertyOp11
 70
     1
102
RTVSPropertyOp12
 70
     1
102
RTVSPropertyOp13
 70
     1
102
RTVSPropertyOp14
 70
     1
102
RTVSPropertyOp15
 70
     1
102
RTVSPropertyOp16
 70
     1
102
RTVSPropertyOp17
 70
     1
102
RTVSPropertyOp18
 70
     1
102
RTVSPropertyOp19
 70
     1
102
RTVSPropertyOp20
 70
     1
102
RTVSPropertyOp21
 70
     1
102
RTVSPropertyOp22
 70
     1
102
RTVSPropertyOp23
 70
     1
102
RTVSPropertyOp24
 70
     1
102
RTVSPropertyOp25
 70
     1
102
RTVSPropertyOp26
 70
     1
102
RTVSPropertyOp27
 70
     1
102
RTVSPropertyOp28
 70
     1
102
RTVSPropertyOp29
 70
     1
102
RTVSPropertyOp30
 70
     1
102
RTVSPropertyOp31
 70
     1
102
RTVSPropertyOp32
 70
     1
102
RTVSPropertyOp33
 70
     1
102
RTVSPropertyOp34
 70
     1
102
RTVSPropertyOp35
 70
     1
102
RTVSPropertyOp36
 70
     1
102
RTVSPropertyOp37
 70
     1
102
RTVSPropertyOp38
 70
     1
102
RTVSPropertyOp39
 70
     1
102
RTVSPropertyOp40
 70
     1
102
RTVSPropertyOp41
 70
     1
102
RTVSPropertyOp42
 70
     1
102
RTVSPropertyOp43
 70
     1
102
RTVSPropertyOp44
 70
     1
102
RTVSPropertyOp45
 70
     1
102
RTVSPropertyOp46
 70
     1
102
RTVSPropertyOp47
 70
     1
102
RTVSPropertyOp48
 70
     1
102
RTVSPropertyOp49
 70
     1
102
RTVSPropertyOp50
 70
     1
102
RTVSPropertyOp51
 70
     0
102
RTVSPropertyOp52
 70
     0
102
RTVSPropertyOp53
 70
     1
102
RTVSPropertyOp54
 70
     1
102
RTVSPropertyOp55
 70
     1
102
RTVSPropertyOp56
 70
     1
102
RTVSPropertyOp57
 70
     1
102
RTVSPropertyOp58
 70
     1
102
RTVSPropertyOp59
 70
     1
102
RTVSPropertyOp60
 70
     1
102
RTVSPropertyOp61
 70
     1
102
RTVSPropertyOp62
 70
     1
  0
XRECORD
  5
21D97
102
{ACAD_REACTORS
330
21D96
102
}
330
21D96
100
AcDbXrecord
280
     1
102
RTVSPost2010Prop28
280
     0
102
RTVSPost2010PropOp28
 70
     1
102
RTVSPost2010Prop29
280
     1
102
RTVSPost2010PropOp29
 70
     1
102
RTVSPost2010Prop30
280
     1
102
RTVSPost2010PropOp30
 70
     1
102
RTVSPost2010Prop31
280
     0
102
RTVSPost2010PropOp31
 70
     1
102
RTVSPost2010Prop32
280
     0
102
RTVSPost2010PropOp32
 70
     1
102
RTVSPost2010Prop33
280
     0
102
RTVSPost2010PropOp33
 70
     1
102
RTVSPost2010Prop34
280
     0
102
RTVSPost2010PropOp34
 70
     1
102
RTVSPost2010Prop35
280
     0
102
RTVSPost2010PropOp35
 70
     1
102
RTVSPost2010Prop36
280
     0
102
RTVSPost2010PropOp36
 70
     1
102
RTVSPost2010Prop37
 90
       50
102
RTVSPost2010PropOp37
 70
     1
102
RTVSPost2010Prop38
140
0.0
102
RTVSPost2010PropOp38
 70
     1
102
RTVSPost2010Prop39
140
1.0
102
RTVSPost2010PropOp39
 70
     1
102
RTVSPost2010Prop40
 90
        0
102
RTVSPost2010PropOp40
 70
     1
102
RTVSPost2010Prop41ColorIndex
 90
       18
102
RTVSPost2010Prop41ColorRGB
 90
        0
102
RTVSPost2010PropOp41
 70
     1
102
RTVSPost2010Prop42
 90
       50
102
RTVSPost2010PropOp42
 70
     1
102
RTVSPost2010Prop43
 90
        3
102
RTVSPost2010PropOp43
 70
     1
102
RTVSPost2010Prop44ColorIndex
 90
        5
102
RTVSPost2010Prop44ColorRGB
 90
      255
102
RTVSPost2010PropOp44
 70
     1
102
RTVSPost2010Prop45
280
     0
102
RTVSPost2010PropOp45
 70
     1
102
RTVSPost2010Prop46
 90
       50
102
RTVSPost2010PropOp46
 70
     1
102
RTVSPost2010Prop47
 90
       50
102
RTVSPost2010PropOp47
 70
     1
102
RTVSPost2010Prop48
 90
       50
102
RTVSPost2010PropOp48
 70
     1
102
RTVSPost2010Prop49
280
     0
102
RTVSPost2010PropOp49
 70
     1
102
RTVSPost2010Prop50
 90
       50
102
RTVSPost2010PropOp50
 70
     1
102
RTVSPost2010Prop51ColorIndex
 90
      256
102
RTVSPost2010Prop51ColorRGB
 90
-16777216
102
RTVSPost2010PropOp51
 70
     0
102
RTVSPost2010Prop52
140
1.0
102
RTVSPost2010PropOp52
 70
     0
102
RTVSPost2010Prop53
 90
        2
102
RTVSPost2010PropOp53
 70
     1
102
RTVSPost2010Prop54
  1
strokes_ogs.tif
102
RTVSPost2010PropOp54
 70
     1
102
RTVSPost2010Prop55
280
     0
102
RTVSPost2010PropOp55
 70
     1
102
RTVSPost2010Prop56
140
1.0
102
RTVSPost2010PropOp56
 70
     1
102
RTVSPost2010Prop57
140
1.0
102
RTVSPost2010PropOp57
 70
     1
102
RTVSPropertyOp0
 70
     1
102
RTVSPropertyOp1
 70
     1
102
RTVSPropertyOp2
 70
     1
102
RTVSPropertyOp3
 70
     1
102
RTVSPropertyOp4
 70
     1
102
RTVSPropertyOp5
 70
     1
102
RTVSPropertyOp6
 70
     1
102
RTVSPropertyOp7
 70
     1
102
RTVSPropertyOp8
 70
     1
102
RTVSPropertyOp9
 70
     1
102
RTVSPropertyOp10
 70
     1
102
RTVSPropertyOp11
 70
     1
102
RTVSPropertyOp12
 70
     1
102
RTVSPropertyOp13
 70
     1
102
RTVSPropertyOp14
 70
     1
102
RTVSPropertyOp15
 70
     1
102
RTVSPropertyOp16
 70
     1
102
RTVSPropertyOp17
 70
     1
102
RTVSPropertyOp18
 70
     1
102
RTVSPropertyOp19
 70
     1
102
RTVSPropertyOp20
 70
     1
102
RTVSPropertyOp21
 70
     1
102
RTVSPropertyOp22
 70
     1
102
RTVSPropertyOp23
 70
     1
102
RTVSPropertyOp24
 70
     1
102
RTVSPropertyOp25
 70
     1
102
RTVSPropertyOp26
 70
     1
102
RTVSPropertyOp27
 70
     1
102
RTVSPropertyOp28
 70
     1
102
RTVSPropertyOp29
 70
     1
102
RTVSPropertyOp30
 70
     1
102
RTVSPropertyOp31
 70
     1
102
RTVSPropertyOp32
 70
     1
102
RTVSPropertyOp33
 70
     1
102
RTVSPropertyOp34
 70
     1
102
RTVSPropertyOp35
 70
     1
102
RTVSPropertyOp36
 70
     1
102
RTVSPropertyOp37
 70
     1
102
RTVSPropertyOp38
 70
     1
102
RTVSPropertyOp39
 70
     1
102
RTVSPropertyOp40
 70
     1
102
RTVSPropertyOp41
 70
     1
102
RTVSPropertyOp42
 70
     1
102
RTVSPropertyOp43
 70
     1
102
RTVSPropertyOp44
 70
     1
102
RTVSPropertyOp45
 70
     1
102
RTVSPropertyOp46
 70
     1
102
RTVSPropertyOp47
 70
     1
102
RTVSPropertyOp48
 70
     1
102
RTVSPropertyOp49
 70
     1
102
RTVSPropertyOp50
 70
     1
102
RTVSPropertyOp51
 70
     0
102
RTVSPropertyOp52
 70
     0
102
RTVSPropertyOp53
 70
     1
102
RTVSPropertyOp54
 70
     1
102
RTVSPropertyOp55
 70
     1
102
RTVSPropertyOp56
 70
     1
102
RTVSPropertyOp57
 70
     1
102
RTVSPropertyOp58
 70
     1
102
RTVSPropertyOp59
 70
     1
102
RTVSPropertyOp60
 70
     1
102
RTVSPropertyOp61
 70
     1
102
RTVSPropertyOp62
 70
     1
  0
ENDSEC
  0
EOF
